  0
SECTION
  2
HEADER
  9
$ACADVER
  1
AC1015
  9
$ACADMAINTVER
 70
    20
  9
$DWGCODEPAGE
  3
ANSI_1252
  9
$INSBASE
 10
0.0
 20
0.0
 30
0.0
  9
$EXTMIN
 10
5.10287614481399
 20
10.65765479888966
 30
-0.0000000000112498
  9
$EXTMAX
 10
50.24020460741621
 20
39.04815727268363
 30
0.0000000000002956
  9
$LIMMIN
 10
0.0
 20
0.0
  9
$LIMMAX
 10
594.0
 20
420.0
  9
$ORTHOMODE
 70
     1
  9
$REGENMODE
 70
     1
  9
$FILLMODE
 70
     1
  9
$QTEXTMODE
 70
     0
  9
$MIRRTEXT
 70
     1
  9
$LTSCALE
 40
1.0
  9
$ATTMODE
 70
     1
  9
$TEXTSIZE
 40
3.0
  9
$TRACEWID
 40
0.5
  9
$TEXTSTYLE
  7
BIGFONT
  9
$CLAYER
  8
0
  9
$CELTYPE
  6
BYLAYER
  9
$CECOLOR
 62
   256
  9
$CELTSCALE
 40
1.0
  9
$DISPSILH
 70
     0
  9
$DIMSCALE
 40
1.0
  9
$DIMASZ
 40
3.0
  9
$DIMEXO
 40
1.0
  9
$DIMDLI
 40
5.0
  9
$DIMRND
 40
0.0
  9
$DIMDLE
 40
0.0
  9
$DIMEXE
 40
1.5
  9
$DIMTP
 40
0.0
  9
$DIMTM
 40
0.0
  9
$DIMTXT
 40
3.0
  9
$DIMCEN
 40
2.0
  9
$DIMTSZ
 40
0.0
  9
$DIMTOL
 70
     0
  9
$DIMLIM
 70
     0
  9
$DIMTIH
 70
     0
  9
$DIMTOH
 70
     0
  9
$DIMSE1
 70
     0
  9
$DIMSE2
 70
     0
  9
$DIMTAD
 70
     1
  9
$DIMZIN
 70
     8
  9
$DIMBLK
  1

  9
$DIMASO
 70
     1
  9
$DIMSHO
 70
     1
  9
$DIMPOST
  1

  9
$DIMAPOST
  1

  9
$DIMALT
 70
     0
  9
$DIMALTD
 70
     0
  9
$DIMALTF
 40
25.4
  9
$DIMLFAC
 40
1.0
  9
$DIMTOFL
 70
     0
  9
$DIMTVP
 40
1.0
  9
$DIMTIX
 70
     0
  9
$DIMSOXD
 70
     0
  9
$DIMSAH
 70
     0
  9
$DIMBLK1
  1

  9
$DIMBLK2
  1

  9
$DIMSTYLE
  2
ISO-25
  9
$DIMCLRD
 70
     0
  9
$DIMCLRE
 70
     0
  9
$DIMCLRT
 70
     0
  9
$DIMTFAC
 40
1.0
  9
$DIMGAP
 40
1.0
  9
$DIMJUST
 70
     0
  9
$DIMSD1
 70
     0
  9
$DIMSD2
 70
     0
  9
$DIMTOLJ
 70
     1
  9
$DIMTZIN
 70
     0
  9
$DIMALTZ
 70
     0
  9
$DIMALTTZ
 70
     0
  9
$DIMUPT
 70
     0
  9
$DIMDEC
 70
     4
  9
$DIMTDEC
 70
     4
  9
$DIMALTU
 70
     2
  9
$DIMALTTD
 70
     2
  9
$DIMTXSTY
  7
STANDARD
  9
$DIMAUNIT
 70
     0
  9
$DIMADEC
 70
     0
  9
$DIMALTRND
 40
0.0
  9
$DIMAZIN
 70
     0
  9
$DIMDSEP
 70
    46
  9
$DIMATFIT
 70
     3
  9
$DIMFRAC
 70
     0
  9
$DIMLDRBLK
  1

  9
$DIMLUNIT
 70
     2
  9
$DIMLWD
 70
    -2
  9
$DIMLWE
 70
    -2
  9
$DIMTMOVE
 70
     0
  9
$LUNITS
 70
     2
  9
$LUPREC
 70
     4
  9
$SKETCHINC
 40
1.0
  9
$FILLETRAD
 40
0.0
  9
$AUNITS
 70
     0
  9
$AUPREC
 70
     0
  9
$MENU
  1
.
  9
$ELEVATION
 40
0.0
  9
$PELEVATION
 40
0.0
  9
$THICKNESS
 40
0.0
  9
$LIMCHECK
 70
     0
  9
$CHAMFERA
 40
0.0
  9
$CHAMFERB
 40
0.0
  9
$CHAMFERC
 40
0.0
  9
$CHAMFERD
 40
0.0
  9
$SKPOLY
 70
     0
  9
$TDCREATE
 40
2452291.026006945
  9
$TDUCREATE
 40
2452291.317673611
  9
$TDUPDATE
 40
2454923.619453067
  9
$TDUUPDATE
 40
2454923.911119734
  9
$TDINDWG
 40
0.0371317593
  9
$TDUSRTIMER
 40
0.0371314005
  9
$USRTIMER
 70
     1
  9
$ANGBASE
 50
0.0
  9
$ANGDIR
 70
     0
  9
$PDMODE
 70
     0
  9
$PDSIZE
 40
0.0
  9
$PLINEWID
 40
0.0
  9
$SPLFRAME
 70
     0
  9
$SPLINETYPE
 70
     6
  9
$SPLINESEGS
 70
     8
  9
$HANDSEED
  5
B48
  9
$SURFTAB1
 70
     6
  9
$SURFTAB2
 70
     6
  9
$SURFTYPE
 70
     6
  9
$SURFU
 70
     6
  9
$SURFV
 70
     6
  9
$UCSBASE
  2

  9
$UCSNAME
  2

  9
$UCSORG
 10
0.0
 20
0.0
 30
0.0
  9
$UCSXDIR
 10
1.0
 20
0.0
 30
0.0
  9
$UCSYDIR
 10
0.0
 20
1.0
 30
0.0
  9
$UCSORTHOREF
  2

  9
$UCSORTHOVIEW
 70
     0
  9
$UCSORGTOP
 10
0.0
 20
0.0
 30
0.0
  9
$UCSORGBOTTOM
 10
0.0
 20
0.0
 30
0.0
  9
$UCSORGLEFT
 10
0.0
 20
0.0
 30
0.0
  9
$UCSORGRIGHT
 10
0.0
 20
0.0
 30
0.0
  9
$UCSORGFRONT
 10
0.0
 20
0.0
 30
0.0
  9
$UCSORGBACK
 10
0.0
 20
0.0
 30
0.0
  9
$PUCSBASE
  2

  9
$PUCSNAME
  2

  9
$PUCSORG
 10
0.0
 20
1.0
 30
0.0
  9
$PUCSXDIR
 10
1.0
 20
0.0
 30
0.0
  9
$PUCSYDIR
 10
0.0
 20
1.0
 30
0.0
  9
$PUCSORTHOREF
  2

  9
$PUCSORTHOVIEW
 70
     0
  9
$PUCSORGTOP
 10
0.0
 20
0.0
 30
0.0
  9
$PUCSORGBOTTOM
 10
0.0
 20
0.0
 30
0.0
  9
$PUCSORGLEFT
 10
0.0
 20
0.0
 30
0.0
  9
$PUCSORGRIGHT
 10
0.0
 20
0.0
 30
0.0
  9
$PUCSORGFRONT
 10
0.0
 20
0.0
 30
0.0
  9
$PUCSORGBACK
 10
0.0
 20
0.0
 30
0.0
  9
$USERI1
 70
     0
  9
$USERI2
 70
     0
  9
$USERI3
 70
     0
  9
$USERI4
 70
     0
  9
$USERI5
 70
     0
  9
$USERR1
 40
0.0
  9
$USERR2
 40
0.0
  9
$USERR3
 40
0.0
  9
$USERR4
 40
0.0
  9
$USERR5
 40
0.0
  9
$WORLDVIEW
 70
     1
  9
$SHADEDGE
 70
     3
  9
$SHADEDIF
 70
    70
  9
$TILEMODE
 70
     0
  9
$MAXACTVP
 70
    16
  9
$PINSBASE
 10
0.0
 20
1.0
 30
0.0
  9
$PLIMCHECK
 70
     0
  9
$PEXTMIN
 10
1.024201823659495
 20
0.7882700217751335
 30
-0.0015258207003583
  9
$PEXTMAX
 10
9.453461395871727
 20
7.229004403610019
 30
0.0000000349246037
  9
$PLIMMIN
 10
-0.2500002402958907
 20
-0.2499999962453767
  9
$PLIMMAX
 10
10.74999951940822
 20
8.249999763458733
  9
$UNITMODE
 70
     0
  9
$VISRETAIN
 70
     0
  9
$PLINEGEN
 70
     0
  9
$PSLTSCALE
 70
     0
  9
$TREEDEPTH
 70
  3020
  9
$CMLSTYLE
  2
STANDARD
  9
$CMLJUST
 70
     0
  9
$CMLSCALE
 40
1.0
  9
$PROXYGRAPHICS
 70
     1
  9
$MEASUREMENT
 70
     0
  9
$CELWEIGHT
370
    -1
  9
$ENDCAPS
280
     0
  9
$JOINSTYLE
280
     0
  9
$LWDISPLAY
290
     0
  9
$INSUNITS
 70
     0
  9
$HYPERLINKBASE
  1

  9
$STYLESHEET
  1

  9
$XEDIT
290
     1
  9
$CEPSNTYPE
380
     0
  9
$PSTYLEMODE
290
     1
  9
$FINGERPRINTGUID
  2
{46C6B30F-79F2-43BD-B22A-E0E21DEED14E}
  9
$VERSIONGUID
  2
{3FD55088-4E16-4900-BF6D-60ECD315C5BD}
  9
$EXTNAMES
290
     1
  9
$PSVPSCALE
 40
0.0
  9
$OLESTARTUP
290
     0
  0
ENDSEC
  0
SECTION
  2
CLASSES
  0
CLASS
  1
ACDBDICTIONARYWDFLT
  2
AcDbDictionaryWithDefault
  3
ObjectDBX Classes
 90
        0
280
     0
281
     0
  0
CLASS
  1
ACDBPLACEHOLDER
  2
AcDbPlaceHolder
  3
ObjectDBX Classes
 90
        0
280
     0
281
     0
  0
CLASS
  1
LAYOUT
  2
AcDbLayout
  3
ObjectDBX Classes
 90
        0
280
     0
281
     0
  0
CLASS
  1
DICTIONARYVAR
  2
AcDbDictionaryVar
  3
ObjectDBX Classes
 90
        0
280
     0
281
     0
  0
CLASS
  1
TABLESTYLE
  2
AcDbTableStyle
  3
ObjectDBX Classes
 90
     4095
280
     0
281
     0
  0
CLASS
  1
MATERIAL
  2
AcDbMaterial
  3
ObjectDBX Classes
 90
     1024
280
     0
281
     0
  0
CLASS
  1
VISUALSTYLE
  2
AcDbVisualStyle
  3
ObjectDBX Classes
 90
     4095
280
     0
281
     0
  0
ENDSEC
  0
SECTION
  2
TABLES
  0
TABLE
  2
VPORT
  5
8
330
0
100
AcDbSymbolTable
 70
     1
  0
VPORT
  5
B0F
330
8
100
AcDbSymbolTableRecord
100
AcDbViewportTableRecord
  2
*Active
 70
     0
 10
0.0
 20
0.0
 11
1.0
 21
1.0
 12
27.6715403761151
 22
24.85290603578665
 13
0.0
 23
0.0
 14
0.0
 24
0.0
 15
0.0
 25
0.0
 16
0.0
 26
0.0
 36
1.0
 17
0.0
 27
0.0
 37
0.0
 40
28.62974828115739
 41
1.646976090014064
 42
50.0
 43
0.0
 44
0.0
 50
0.0
 51
0.0
 71
     0
 72
 20000
 73
     1
 74
     1
 75
     0
 76
     0
 77
     0
 78
     0
281
     0
 65
     1
110
0.0
120
0.0
130
0.0
111
1.0
121
0.0
131
0.0
112
0.0
122
1.0
132
0.0
 79
     0
146
0.0
  0
ENDTAB
  0
TABLE
  2
LTYPE
  5
5
330
0
100
AcDbSymbolTable
 70
     1
  0
LTYPE
  5
A8C
330
5
100
AcDbSymbolTableRecord
100
AcDbLinetypeTableRecord
  2
BYBLOCK
 70
     0
  3

 72
    65
 73
     0
 40
0.0
  0
LTYPE
  5
A8D
330
5
100
AcDbSymbolTableRecord
100
AcDbLinetypeTableRecord
  2
BYLAYER
 70
     0
  3

 72
    65
 73
     0
 40
0.0
  0
LTYPE
  5
A8E
330
5
100
AcDbSymbolTableRecord
100
AcDbLinetypeTableRecord
  2
CONTINUOUS
 70
     0
  3
solid line
 72
    65
 73
     0
 40
0.0
  0
ENDTAB
  0
TABLE
  2
LAYER
  5
2
330
0
100
AcDbSymbolTable
 70
     2
  0
LAYER
  5
A92
330
2
100
AcDbSymbolTableRecord
100
AcDbLayerTableRecord
  2
0
 70
     0
 62
     7
  6
CONTINUOUS
370
    -3
390
A9C
  0
LAYER
  5
AE6
330
2
100
AcDbSymbolTableRecord
100
AcDbLayerTableRecord
  2
Defpoints
 70
     0
 62
     7
  6
CONTINUOUS
290
     0
370
    -3
390
A9C
  0
ENDTAB
  0
TABLE
  2
STYLE
  5
3
330
0
100
AcDbSymbolTable
 70
     2
  0
STYLE
  5
A93
330
3
100
AcDbSymbolTableRecord
100
AcDbTextStyleTableRecord
  2
STANDARD
 70
     0
 40
0.0
 41
1.0
 50
0.0
 71
     0
 42
3.0
  3
txt
  4

  0
STYLE
  5
A94
330
3
100
AcDbSymbolTableRecord
100
AcDbTextStyleTableRecord
  2
BIGFONT
 70
     0
 40
0.0
 41
1.0
 50
0.0
 71
     0
 42
3.0
  3
txt
  4
bigfont
  0
ENDTAB
  0
TABLE
  2
VIEW
  5
6
330
0
100
AcDbSymbolTable
 70
     2
  0
ENDTAB
  0
TABLE
  2
UCS
  5
7
330
0
100
AcDbSymbolTable
 70
     0
  0
ENDTAB
  0
TABLE
  2
APPID
  5
9
330
0
100
AcDbSymbolTable
 70
     3
  0
APPID
  5
A95
330
9
100
AcDbSymbolTableRecord
100
AcDbRegAppTableRecord
  2
ACAD
 70
     0
  0
APPID
  5
B2D
330
9
100
AcDbSymbolTableRecord
100
AcDbRegAppTableRecord
  2
ACAD_PSEXT
 70
     0
  0
APPID
  5
B33
330
9
100
AcDbSymbolTableRecord
100
AcDbRegAppTableRecord
  2
DCO15
 70
     0
  0
ENDTAB
  0
TABLE
  2
DIMSTYLE
  5
A
330
0
100
AcDbSymbolTable
 70
     1
100
AcDbDimStyleTable
 71
     1
340
A96
  0
DIMSTYLE
105
A96
330
A
100
AcDbSymbolTableRecord
100
AcDbDimStyleTableRecord
  2
ISO-25
 70
     0
 41
3.0
 42
1.0
 43
5.0
 44
1.5
 73
     0
 74
     0
 77
     1
 78
     8
140
3.0
141
2.0
145
1.0
147
1.0
171
     0
340
A93
  0
ENDTAB
  0
TABLE
  2
BLOCK_RECORD
  5
1
330
0
100
AcDbSymbolTable
 70
     0
  0
BLOCK_RECORD
  5
20
330
1
100
AcDbSymbolTableRecord
100
AcDbBlockTableRecord
  2
*MODEL_SPACE
340
A9F
  0
BLOCK_RECORD
  5
22
330
1
100
AcDbSymbolTableRecord
100
AcDbBlockTableRecord
  2
*PAPER_SPACE
340
AA0
  0
ENDTAB
  0
ENDSEC
  0
SECTION
  2
BLOCKS
  0
BLOCK
  5
21
330
20
100
AcDbEntity
  8
0
100
AcDbBlockBegin
  2
*MODEL_SPACE
 70
     0
 10
0.0
 20
0.0
 30
0.0
  3
*MODEL_SPACE
  1

  0
ENDBLK
  5
A89
330
20
100
AcDbEntity
  8
0
100
AcDbBlockEnd
  0
BLOCK
  5
23
330
22
100
AcDbEntity
 67
     1
  8
0
100
AcDbBlockBegin
  2
*PAPER_SPACE
 70
     0
 10
0.0
 20
0.0
 30
0.0
  3
*PAPER_SPACE
  1

  0
ENDBLK
  5
A8A
330
22
100
AcDbEntity
 67
     1
  8
0
100
AcDbBlockEnd
  0
ENDSEC
  0
SECTION
  2
ENTITIES
  0
LINE
  5
24
330
20
100
AcDbEntity
  8
0
100
AcDbLine
 10
5.117748548776881
 20
17.9686839987477
 30
0.0
 11
15.94452037795421
 21
17.9686839987477
 31
0.0
  0
LINE
  5
26
330
20
100
AcDbEntity
  8
0
100
AcDbLine
 10
14.8110635928534
 20
10.68521931366476
 30
0.0
 11
15.94452037795421
 21
10.68521931366476
 31
0.0
  0
LINE
  5
27
330
20
100
AcDbEntity
  8
0
100
AcDbLine
 10
5.423833332482375
 20
15.40962883912396
 30
0.0
 11
15.94452037795421
 21
15.40962883912396
 31
0.0
  0
LINE
  5
28
330
20
100
AcDbEntity
  8
0
100
AcDbLine
 10
5.227192264361581
 20
15.59740349441252
 30
0.0
 11
5.117748548776881
 21
17.9686839987477
 31
0.0
  0
ARC
  5
29
330
20
100
AcDbEntity
  8
0
100
AcDbCircle
 10
5.423833332482375
 20
15.6064792360181
 30
0.0
 40
0.1968503968941349
100
AcDbArc
 50
182.6425452940648
 51
270.0
  0
ARC
  5
2A
330
20
100
AcDbEntity
  8
0
100
AcDbCircle
 10
16.86590069826377
 20
31.23274017572787
 30
0.0
 40
19.33070897500389
100
AcDbArc
 50
243.7724539919722
 51
262.889951353107
  0
ARC
  5
2B
330
20
100
AcDbEntity
  8
0
100
AcDbCircle
 10
10.42823307898679
 20
18.16553439564184
 30
0.0
 40
4.763779604838028
100
AcDbArc
 50
215.3459804276008
 51
243.7724539919722
  0
LINE
  5
2C
330
20
100
AcDbEntity
  8
0
100
AcDbLine
 10
14.69356023130089
 20
10.79137177707022
 30
0.0
 11
14.57611650444986
 21
11.94543538912778
 31
0.0
  0
ARC
  5
2D
330
20
100
AcDbEntity
  8
0
100
AcDbCircle
 10
14.8110635928534
 20
10.80332955180124
 30
0.0
 40
0.1181102381364791
100
AcDbArc
 50
185.8107231207301
 51
270.0
  0
ARC
  5
2E
330
20
100
AcDbEntity
  8
0
100
AcDbCircle
 10
16.80035742705006
 20
-394.198826746508
 30
0.0
 40
406.2442361250941
100
AcDbArc
 50
90.12070543474978
 51
90.31505031456701
  0
ARC
  5
2F
330
20
100
AcDbEntity
  8
0
100
AcDbCircle
 10
11.01836038458846
 20
12.85057367950023
 30
0.0
 40
0.1968503968941334
100
AcDbArc
 50
181.4441255309356
 51
270.0
  0
LINE
  5
30
330
20
100
AcDbEntity
  8
0
100
AcDbLine
 10
10.82091945719371
 20
12.87151714262337
 30
0.0
 11
10.82157251186425
 21
12.84561264069206
 31
0.0
  0
LINE
  5
56
330
20
100
AcDbEntity
  8
0
100
AcDbLine
 10
5.117748548776881
 20
39.03167646641999
 30
0.0
 11
26.77129220713156
 21
39.03167646641999
 31
0.0
  0
LINE
  5
57
330
20
100
AcDbEntity
  8
0
100
AcDbLine
 10
26.77129220713156
 20
31.15766059065465
 30
0.0
 11
26.77129220713156
 21
39.03167627868881
 31
0.0
  0
LINE
  5
58
330
20
100
AcDbEntity
  8
0
100
AcDbLine
 10
5.117748548776881
 20
31.15766059065465
 30
0.0
 11
5.117748548776881
 21
39.03167627868881
 31
0.0
  0
ARC
  5
59
330
20
100
AcDbEntity
  8
0
100
AcDbCircle
 10
15.94452037795421
 20
63.63797607818664
 30
0.0
 40
39.37007937882669
100
AcDbArc
 50
266.4745940452952
 51
273.5254059547047
  0
ARC
  5
5A
330
20
100
AcDbEntity
  8
0
100
AcDbCircle
 10
19.29097712515449
 20
31.15766059065465
 30
0.0
 40
6.496063097506396
100
AcDbArc
 50
294.566767468339
 51
65.4332325316609
  0
ARC
  5
5B
330
20
100
AcDbEntity
  8
0
100
AcDbCircle
 10
17.73599409878494
 20
34.55924936931618
 30
0.0
 40
10.23622063849493
100
AcDbArc
 50
273.5254059547047
 51
294.566767468339
  0
ARC
  5
5C
330
20
100
AcDbEntity
  8
0
100
AcDbCircle
 10
15.94452037795421
 20
-1.322654896877375
 30
0.0
 40
39.37007937882669
100
AcDbArc
 50
86.47459404529529
 51
93.52540595470472
  0
ARC
  5
5D
330
20
100
AcDbEntity
  8
0
100
AcDbCircle
 10
12.59806363075395
 20
31.15766059065465
 30
0.0
 40
6.496063097506394
100
AcDbArc
 50
114.566767468339
 51
245.4332325316611
  0
ARC
  5
5E
330
20
100
AcDbEntity
  8
0
100
AcDbCircle
 10
14.15304665712348
 20
34.55924936931618
 30
0.0
 40
10.23622063849494
100
AcDbArc
 50
245.4332325316611
 51
266.4745940452952
  0
ARC
  5
5F
330
20
100
AcDbEntity
  8
0
100
AcDbCircle
 10
14.15304665712349
 20
27.75607181199311
 30
0.0
 40
10.23622063849493
100
AcDbArc
 50
93.52540595470472
 51
114.566767468339
  0
ARC
  5
60
330
20
100
AcDbEntity
  8
0
100
AcDbCircle
 10
17.73599409878494
 20
27.75607181199311
 30
0.0
 40
10.23622063849494
100
AcDbArc
 50
65.4332325316609
 51
86.47459404529529
  0
ARC
  5
61
330
20
100
AcDbEntity
  8
0
100
AcDbCircle
 10
17.73599409878494
 20
34.55924936931618
 30
0.0
 40
10.55118127352554
100
AcDbArc
 50
273.5254059547047
 51
294.566767468339
  0
ARC
  5
62
330
20
100
AcDbEntity
  8
0
100
AcDbCircle
 10
15.94452037795421
 20
63.63797607818664
 30
0.0
 40
39.6850400138573
100
AcDbArc
 50
266.4745940452952
 51
273.5254059547047
  0
ARC
  5
63
330
20
100
AcDbEntity
  8
0
100
AcDbCircle
 10
14.15304665712348
 20
34.55924936931618
 30
0.0
 40
10.55118127352555
100
AcDbArc
 50
245.4332325316611
 51
266.4745940452952
  0
ARC
  5
64
330
20
100
AcDbEntity
  8
0
100
AcDbCircle
 10
12.59806363075395
 20
31.15766059065465
 30
0.0
 40
6.811023732537007
100
AcDbArc
 50
114.566767468339
 51
245.4332325316611
  0
ARC
  5
65
330
20
100
AcDbEntity
  8
0
100
AcDbCircle
 10
14.15304665712349
 20
27.75607181199311
 30
0.0
 40
10.55118127352554
100
AcDbArc
 50
93.52540595470472
 51
114.566767468339
  0
ARC
  5
66
330
20
100
AcDbEntity
  8
0
100
AcDbCircle
 10
15.94452037795421
 20
-1.322654896877375
 30
0.0
 40
39.68504001385731
100
AcDbArc
 50
86.47459404529529
 51
93.52540595470472
  0
ARC
  5
67
330
20
100
AcDbEntity
  8
0
100
AcDbCircle
 10
17.73599409878494
 20
27.75607181199311
 30
0.0
 40
10.55118127352555
100
AcDbArc
 50
65.4332325316609
 51
86.47459404529529
  0
ARC
  5
68
330
20
100
AcDbEntity
  8
0
100
AcDbCircle
 10
19.29097712515449
 20
31.15766059065465
 30
0.0
 40
6.811023732537009
100
AcDbArc
 50
294.566767468339
 51
65.4332325316609
  0
ARC
  5
69
330
20
100
AcDbEntity
  8
0
100
AcDbCircle
 10
19.29097712515449
 20
31.15766059065465
 30
0.0
 40
6.870078851605249
100
AcDbArc
 50
294.566767468339
 51
65.4332325316609
  0
ARC
  5
6A
330
20
100
AcDbEntity
  8
0
100
AcDbCircle
 10
17.73599409878494
 20
34.55924936931618
 30
0.0
 40
10.61023639259379
100
AcDbArc
 50
273.5254059547047
 51
294.566767468339
  0
ARC
  5
6B
330
20
100
AcDbEntity
  8
0
100
AcDbCircle
 10
15.94452037795421
 20
63.63797607818664
 30
0.0
 40
39.74409513292554
100
AcDbArc
 50
266.4745940452952
 51
273.5254059547047
  0
ARC
  5
6C
330
20
100
AcDbEntity
  8
0
100
AcDbCircle
 10
14.15304665712348
 20
34.55924936931618
 30
0.0
 40
10.61023639259379
100
AcDbArc
 50
245.4332325316611
 51
266.4745940452952
  0
ARC
  5
6D
330
20
100
AcDbEntity
  8
0
100
AcDbCircle
 10
12.59806363075395
 20
31.15766059065465
 30
0.0
 40
6.870078851605248
100
AcDbArc
 50
114.566767468339
 51
245.4332325316611
  0
ARC
  5
6E
330
20
100
AcDbEntity
  8
0
100
AcDbCircle
 10
14.15304665712349
 20
27.75607181199311
 30
0.0
 40
10.61023639259379
100
AcDbArc
 50
93.52540595470472
 51
114.566767468339
  0
ARC
  5
6F
330
20
100
AcDbEntity
  8
0
100
AcDbCircle
 10
15.94452037795421
 20
-1.322654896877375
 30
0.0
 40
39.74409513292555
100
AcDbArc
 50
86.47459404529529
 51
93.52540595470472
  0
ARC
  5
70
330
20
100
AcDbEntity
  8
0
100
AcDbCircle
 10
17.73599409878494
 20
27.75607181199311
 30
0.0
 40
10.61023639259379
100
AcDbArc
 50
65.4332325316609
 51
86.47459404529529
  0
ARC
  5
71
330
20
100
AcDbEntity
  8
0
100
AcDbCircle
 10
17.73599409878494
 20
34.55924936931618
 30
0.0
 40
10.84645686886674
100
AcDbArc
 50
273.5254059547047
 51
294.566767468339
  0
ARC
  5
72
330
20
100
AcDbEntity
  8
0
100
AcDbCircle
 10
15.94452037795421
 20
63.63797607818664
 30
0.0
 40
39.98031560919849
100
AcDbArc
 50
266.4745940452952
 51
273.5254059547047
  0
ARC
  5
73
330
20
100
AcDbEntity
  8
0
100
AcDbCircle
 10
14.15304665712348
 20
34.55924936931618
 30
0.0
 40
10.84645686886675
100
AcDbArc
 50
245.4332325316611
 51
266.4745940452952
  0
ARC
  5
74
330
20
100
AcDbEntity
  8
0
100
AcDbCircle
 10
12.59806363075395
 20
31.15766059065465
 30
0.0
 40
7.106299327878208
100
AcDbArc
 50
114.566767468339
 51
245.4332325316611
  0
ARC
  5
75
330
20
100
AcDbEntity
  8
0
100
AcDbCircle
 10
14.15304665712349
 20
27.75607181199311
 30
0.0
 40
10.84645686886674
100
AcDbArc
 50
93.52540595470472
 51
114.566767468339
  0
ARC
  5
76
330
20
100
AcDbEntity
  8
0
100
AcDbCircle
 10
15.94452037795421
 20
-1.322654896877375
 30
0.0
 40
39.98031560919851
100
AcDbArc
 50
86.47459404529529
 51
93.52540595470472
  0
ARC
  5
77
330
20
100
AcDbEntity
  8
0
100
AcDbCircle
 10
17.73599409878494
 20
27.75607181199311
 30
0.0
 40
10.84645686886675
100
AcDbArc
 50
65.4332325316609
 51
86.47459404529529
  0
ARC
  5
78
330
20
100
AcDbEntity
  8
0
100
AcDbCircle
 10
19.29097712515449
 20
31.15766059065465
 30
0.0
 40
7.106299327878209
100
AcDbArc
 50
294.566767468339
 51
65.4332325316609
  0
ARC
  5
79
330
20
100
AcDbEntity
  8
0
100
AcDbCircle
 10
15.94452037795421
 20
63.63797607818664
 30
0.0
 40
40.03937072826673
100
AcDbArc
 50
266.4745940452952
 51
273.5254059547047
  0
ARC
  5
7A
330
20
100
AcDbEntity
  8
0
100
AcDbCircle
 10
14.15304665712348
 20
34.55924936931618
 30
0.0
 40
10.90551198793499
100
AcDbArc
 50
245.4332325316611
 51
266.4745940452952
  0
ARC
  5
7B
330
20
100
AcDbEntity
  8
0
100
AcDbCircle
 10
12.59806363075395
 20
31.15766059065465
 30
0.0
 40
7.165354446946447
100
AcDbArc
 50
114.566767468339
 51
245.4332325316611
  0
ARC
  5
7C
330
20
100
AcDbEntity
  8
0
100
AcDbCircle
 10
14.15304665712349
 20
27.75607181199311
 30
0.0
 40
10.90551198793498
100
AcDbArc
 50
93.52540595470472
 51
114.566767468339
  0
ARC
  5
7D
330
20
100
AcDbEntity
  8
0
100
AcDbCircle
 10
15.94452037795421
 20
-1.322654896877375
 30
0.0
 40
40.03937072826674
100
AcDbArc
 50
86.47459404529529
 51
93.52540595470472
  0
ARC
  5
7E
330
20
100
AcDbEntity
  8
0
100
AcDbCircle
 10
17.73599409878494
 20
27.75607181199311
 30
0.0
 40
10.90551198793499
100
AcDbArc
 50
65.4332325316609
 51
86.47459404529529
  0
ARC
  5
7F
330
20
100
AcDbEntity
  8
0
100
AcDbCircle
 10
19.29097712515449
 20
31.15766059065465
 30
0.0
 40
7.165354446946449
100
AcDbArc
 50
294.566767468339
 51
65.4332325316609
  0
ARC
  5
80
330
20
100
AcDbEntity
  8
0
100
AcDbCircle
 10
17.73599409878494
 20
34.55924936931618
 30
0.0
 40
10.90551198793498
100
AcDbArc
 50
273.5254059547047
 51
294.566767468339
  0
ARC
  5
81
330
20
100
AcDbEntity
  8
0
100
AcDbCircle
 10
15.94452037795421
 20
63.63797607818664
 30
0.0
 40
40.35433136329735
100
AcDbArc
 50
266.4745940452952
 51
273.5254059547047
  0
ARC
  5
82
330
20
100
AcDbEntity
  8
0
100
AcDbCircle
 10
14.15304665712348
 20
34.55924936931618
 30
0.0
 40
11.2204726229656
100
AcDbArc
 50
245.4332325316612
 51
266.4745940452952
  0
ARC
  5
83
330
20
100
AcDbEntity
  8
0
100
AcDbCircle
 10
12.59806363075395
 20
31.15766059065465
 30
0.0
 40
7.48031508197706
100
AcDbArc
 50
114.566767468339
 51
245.4332325316611
  0
ARC
  5
84
330
20
100
AcDbEntity
  8
0
100
AcDbCircle
 10
14.15304665712349
 20
27.75607181199311
 30
0.0
 40
11.2204726229656
100
AcDbArc
 50
108.9597750176431
 51
114.566767468339
  0
ARC
  5
85
330
20
100
AcDbEntity
  8
0
100
AcDbCircle
 10
17.73599409878494
 20
27.75607181199311
 30
0.0
 40
11.2204726229656
100
AcDbArc
 50
65.4332325316609
 51
71.04022467358205
  0
ARC
  5
86
330
20
100
AcDbEntity
  8
0
100
AcDbCircle
 10
19.29097712515449
 20
31.15766059065465
 30
0.0
 40
7.480315081977064
100
AcDbArc
 50
294.566767468339
 51
65.4332325316609
  0
ARC
  5
87
330
20
100
AcDbEntity
  8
0
100
AcDbCircle
 10
17.73599409878494
 20
34.55924936931618
 30
0.0
 40
11.2204726229656
100
AcDbArc
 50
273.5254059547047
 51
294.566767468339
  0
CIRCLE
  5
88
330
20
100
AcDbEntity
  8
0
100
AcDbCircle
 10
15.94452037795421
 20
34.30726694096079
 30
0.0
 40
0.8070866272659472
  0
CIRCLE
  5
89
330
20
100
AcDbEntity
  8
0
100
AcDbCircle
 10
15.94452037795421
 20
34.30726694096079
 30
0.0
 40
1.220472460743626
  0
LINE
  5
8A
330
20
100
AcDbEntity
  8
0
100
AcDbLine
 10
21.06263069720169
 20
38.81460867932565
 30
0.0
 11
21.06263069720169
 21
39.03167646641999
 31
0.0
  0
ARC
  5
8B
330
20
100
AcDbEntity
  8
0
100
AcDbCircle
 10
21.53507164974762
 20
38.81460867932565
 30
0.0
 40
0.4724409525459202
100
AcDbArc
 50
180.0
 51
251.0402246735818
  0
ARC
  5
8C
330
20
100
AcDbEntity
  8
0
100
AcDbCircle
 10
10.35396910616083
 20
38.81460867932565
 30
0.0
 40
0.4724409525459202
100
AcDbArc
 50
288.9597753264182
 51
0.0
  0
LINE
  5
8D
330
20
100
AcDbEntity
  8
0
100
AcDbLine
 10
10.82641005870675
 20
38.81460867932565
 30
0.0
 11
10.82641005870675
 21
39.03167646641999
 31
0.0
  0
LINE
  5
8E
330
20
100
AcDbEntity
  8
0
100
AcDbLine
 10
50.19648943753344
 20
12.85057367950023
 30
0.0
 11
50.19648943753344
 21
17.9686839987477
 31
0.0
  0
LINE
  5
8F
330
20
100
AcDbEntity
  8
0
100
AcDbLine
 10
34.44845768600276
 20
17.9686839987477
 30
0.0
 11
50.19648943753344
 21
17.9686839987477
 31
0.0
  0
LINE
  5
90
330
20
100
AcDbEntity
  8
0
100
AcDbLine
 10
44.33866477924948
 20
10.68521931366476
 30
0.0
 11
46.6105442910049
 21
10.68521931366476
 31
0.0
  0
ARC
  5
9E
330
20
100
AcDbEntity
  8
0
100
AcDbCircle
 10
45.94452086462015
 20
14.69751123310448
 30
0.0
 40
3.818897699746187
100
AcDbArc
 50
290.9913638190533
 51
325.2084466796942
  0
LINE
  5
9F
330
20
100
AcDbEntity
  8
0
100
AcDbLine
 10
47.31255399814471
 20
11.13205684597432
 30
0.0
 11
46.91437057260803
 21
10.97927740744869
 31
0.0
  0
LINE
  5
A4
330
20
100
AcDbEntity
  8
0
100
AcDbLine
 10
34.75454246970826
 20
15.40962883912396
 30
0.0
 11
36.0814090757597
 21
15.40962883912396
 31
0.0
  0
LINE
  5
A5
330
20
100
AcDbEntity
  8
0
100
AcDbLine
 10
34.55790140158747
 20
15.59740349441252
 30
0.0
 11
34.44845768600276
 21
17.9686839987477
 31
0.0
  0
ARC
  5
A6
330
20
100
AcDbEntity
  8
0
100
AcDbCircle
 10
34.75454246970826
 20
15.6064792360181
 30
0.0
 40
0.1968503968941337
100
AcDbArc
 50
182.6425452940648
 51
270.0
  0
ARC
  5
AE
330
20
100
AcDbEntity
  8
0
100
AcDbCircle
 10
47.40849136393227
 20
31.08896374504258
 30
0.0
 40
19.3307089750039
100
AcDbArc
 50
235.9079124861493
 51
259.8635323619555
  0
ARC
  5
AF
330
20
100
AcDbEntity
  8
0
100
AcDbCircle
 10
38.58133161495765
 20
18.04742415750536
 30
0.0
 40
3.582677223473229
100
AcDbArc
 50
228.5903778907291
 51
235.9079124861494
  0
ARC
  5
B0
330
20
100
AcDbEntity
  8
0
100
AcDbCircle
 10
36.0814090757597
 20
15.21277844222984
 30
0.0
 40
0.1968503968941334
100
AcDbArc
 50
48.59037789072929
 51
90.0
  0
LINE
  5
B1
330
20
100
AcDbEntity
  8
0
100
AcDbLine
 10
44.2211567834519
 20
10.79141740353606
 30
0.0
 11
44.10313734019206
 21
11.95562623756744
 31
0.0
  0
ARC
  5
B2
330
20
100
AcDbEntity
  8
0
100
AcDbCircle
 10
44.33866477924948
 20
10.80332955180124
 30
0.0
 40
0.1181102381364811
100
AcDbArc
 50
185.7884756521522
 51
270.0
  0
ARC
  5
C8
330
20
100
AcDbEntity
  8
0
100
AcDbCircle
 10
47.02719804753788
 20
10.68521931366476
 30
0.0
 40
0.314960635030614
100
AcDbArc
 50
110.9913638190521
 51
164.1733798681279
  0
ARC
  5
C9
330
20
100
AcDbEntity
  8
0
100
AcDbCircle
 10
46.6105442910049
 20
10.80332955180124
 30
0.0
 40
0.11811023813648
100
AcDbArc
 50
270.0
 51
344.1733798681271
  0
ARC
  5
EC
330
20
100
AcDbEntity
  8
0
100
AcDbCircle
 10
11.01978010761444
 20
12.85057367950023
 30
0.0
 40
0.1968503968941338
100
AcDbArc
 50
181.0220067439836
 51
270.0
  0
LINE
  5
ED
330
20
100
AcDbEntity
  8
0
100
AcDbLine
 10
10.82296102605389
 20
12.84706256984054
 30
0.0
 11
10.82253425675674
 21
12.87098558827183
 31
0.0
  0
ARC
  5
EE
330
20
100
AcDbEntity
  8
0
100
AcDbCircle
 10
49.33938313609282
 20
12.33876264757548
 30
0.0
 40
0.3149606350306135
100
AcDbArc
 50
90.0
 51
145.208446679695
  0
LINE
  5
F0
330
20
100
AcDbEntity
  8
0
100
AcDbLine
 10
49.33938313609282
 20
12.6537232826061
 30
0.0
 11
49.9996390406393
 21
12.6537232826061
 31
0.0
  0
ARC
  5
F1
330
20
100
AcDbEntity
  8
0
100
AcDbCircle
 10
49.9996390406393
 20
12.85057367950023
 30
0.0
 40
0.1968503968941334
100
AcDbArc
 50
270.0
 51
0.0
  0
ARC
  5
F3
330
20
100
AcDbEntity
  8
0
100
AcDbCircle
 10
16.86590069826377
 20
31.23274017572787
 30
0.0
 40
19.44881921314038
100
AcDbArc
 50
252.7998080243827
 51
263.2466878520405
  0
LINE
  5
F4
330
20
100
AcDbEntity
  8
0
100
AcDbLine
 10
11.11466604207782
 20
12.6537232826061
 30
0.0
 11
11.01978010761444
 21
12.6537232826061
 31
0.0
  0
LINE
  5
F5
330
20
100
AcDbEntity
  8
0
100
AcDbLine
 10
11.11466604207782
 20
12.6537232826061
 30
0.0
 11
11.01836038458846
 21
12.6537232826061
 31
0.0
  0
ARC
  5
F9
330
20
100
AcDbEntity
  8
0
100
AcDbCircle
 10
14.45861314289736
 20
11.93347761439676
 30
0.0
 40
0.1181102381364801
100
AcDbArc
 50
5.81072312072952
 51
82.88995135310694
  0
ARC
  5
FA
330
20
100
AcDbEntity
  8
0
100
AcDbCircle
 10
43.98562934439448
 20
11.94371408930226
 30
0.0
 40
0.1181102381364789
100
AcDbArc
 50
5.788475652151896
 51
79.86353236195404
  0
LINE
  5
138
330
20
100
AcDbEntity
  8
0
100
AcDbLine
 10
49.21223745306277
 20
17.9686839987477
 30
0.0
 11
49.52719808809338
 21
17.9686839987477
 31
0.0
  0
LINE
  5
13E
330
20
100
AcDbEntity
  8
0
100
AcDbLine
 10
49.88152880250282
 20
17.9686839987477
 30
0.0
 11
50.19648943753344
 21
17.9686839987477
 31
0.0
  0
LINE
  5
13F
330
20
100
AcDbEntity
  8
0
100
AcDbLine
 10
50.19648943753344
 20
17.9686839987477
 30
0.0
 11
50.19648943753344
 21
12.85057367950023
 31
0.0
  0
ARC
  5
140
330
20
100
AcDbEntity
  8
0
100
AcDbCircle
 10
49.9996390406393
 20
12.85057367950023
 30
0.0
 40
0.1968503968941334
100
AcDbArc
 50
270.0
 51
0.0
  0
LINE
  5
141
330
20
100
AcDbEntity
  8
0
100
AcDbLine
 10
49.9996390406393
 20
12.6537232826061
 30
0.0
 11
49.33938313609282
 21
12.6537232826061
 31
0.0
  0
LINE
  5
144
330
20
100
AcDbEntity
  8
0
100
AcDbLine
 10
47.31255399814471
 20
11.13205684597432
 30
0.0
 11
46.91437057260803
 21
10.97927740744869
 31
0.0
  0
ARC
  5
145
330
20
100
AcDbEntity
  8
0
100
AcDbCircle
 10
47.02719804753788
 20
10.68521931366476
 30
0.0
 40
0.314960635030614
100
AcDbArc
 50
110.9913638190521
 51
164.1733798681279
  0
ARC
  5
146
330
20
100
AcDbEntity
  8
0
100
AcDbCircle
 10
46.6105442910049
 20
10.80332955180124
 30
0.0
 40
0.11811023813648
100
AcDbArc
 50
270.0
 51
344.1733798681271
  0
LINE
  5
147
330
20
100
AcDbEntity
  8
0
100
AcDbLine
 10
46.6105442910049
 20
10.68521931366476
 30
0.0
 11
46.27916653934018
 21
10.68521931366476
 31
0.0
  0
ARC
  5
15D
330
20
100
AcDbEntity
  8
0
100
AcDbCircle
 10
47.40849136393227
 20
31.08896374504258
 30
0.0
 40
19.3307089750039
100
AcDbArc
 50
235.9079124861494
 51
259.8635323619555
  0
ARC
  5
15E
330
20
100
AcDbEntity
  8
0
100
AcDbCircle
 10
38.58133161495765
 20
18.04742415750536
 30
0.0
 40
3.582677223473229
100
AcDbArc
 50
228.5903778907291
 51
235.9079124861494
  0
ARC
  5
15F
330
20
100
AcDbEntity
  8
0
100
AcDbCircle
 10
36.0814090757597
 20
15.21277844222984
 30
0.0
 40
0.1968503968941334
100
AcDbArc
 50
48.59037789072929
 51
90.0
  0
LINE
  5
160
330
20
100
AcDbEntity
  8
0
100
AcDbLine
 10
36.0814090757597
 20
15.40962883912396
 30
0.0
 11
34.75454246970826
 21
15.40962883912396
 31
0.0
  0
ARC
  5
161
330
20
100
AcDbEntity
  8
0
100
AcDbCircle
 10
34.75454246970826
 20
15.6064792360181
 30
0.0
 40
0.1968503968941337
100
AcDbArc
 50
182.6425452940648
 51
270.0
  0
LINE
  5
162
330
20
100
AcDbEntity
  8
0
100
AcDbLine
 10
34.55790140158747
 20
15.59740349441252
 30
0.0
 11
34.44845768600276
 21
17.9686839987477
 31
0.0
  0
LINE
  5
163
330
20
100
AcDbEntity
  8
0
100
AcDbLine
 10
34.44845768600276
 20
17.9686839987477
 30
0.0
 11
34.76341832103339
 21
17.9686839987477
 31
0.0
  0
LINE
  5
169
330
20
100
AcDbEntity
  8
0
100
AcDbLine
 10
35.11774903544282
 20
17.9686839987477
 30
0.0
 11
35.43270967047342
 21
17.9686839987477
 31
0.0
  0
LINE
  5
173
330
20
100
AcDbEntity
  8
0
100
AcDbLine
 10
44.66499328480828
 20
10.68521931366476
 30
0.0
 11
44.33866477924948
 21
10.68521931366476
 31
0.0
  0
ARC
  5
174
330
20
100
AcDbEntity
  8
0
100
AcDbCircle
 10
44.33866477924948
 20
10.80332955180124
 30
0.0
 40
0.1181102381364811
100
AcDbArc
 50
185.7884756521522
 51
270.0
  0
LINE
  5
175
330
20
100
AcDbEntity
  8
0
100
AcDbLine
 10
44.2211567834519
 20
10.79141740353606
 30
0.0
 11
44.10313734019206
 21
11.95562623756744
 31
0.0
  0
ARC
  5
176
330
20
100
AcDbEntity
  8
0
100
AcDbCircle
 10
43.98562934439448
 20
11.94371408930226
 30
0.0
 40
0.1181102381364789
100
AcDbArc
 50
5.788475652151896
 51
79.86353236195404
  0
LINE
  5
1F6
330
20
100
AcDbEntity
  8
0
100
AcDbLine
 10
15.94452037795421
 20
16.7875816173829
 30
0.0
 11
15.21617390944593
 21
16.7875816173829
 31
0.0
  0
ARC
  5
1F7
330
20
100
AcDbEntity
  8
0
100
AcDbCircle
 10
15.21617390944593
 20
17.04348713334528
 30
0.0
 40
0.2559055159623735
100
AcDbArc
 50
90.0
 51
270.0
  0
LINE
  5
1F8
330
20
100
AcDbEntity
  8
0
100
AcDbLine
 10
15.94452037795421
 20
17.29939264930764
 30
0.0
 11
15.21617390944593
 21
17.29939264930764
 31
0.0
  0
LINE
  5
202
330
20
100
AcDbEntity
  8
0
100
AcDbLine
 10
14.8110635928534
 20
10.68521931366476
 30
0.0
 11
14.70436287752117
 21
10.68521931366476
 31
0.0
  0
LINE
  5
203
330
20
100
AcDbEntity
  8
0
100
AcDbLine
 10
14.69356023130089
 20
10.79137177707022
 30
0.0
 11
14.70436287752117
 21
10.68521931366476
 31
0.0
  0
LINE
  5
369
330
20
100
AcDbEntity
  8
0
100
AcDbLine
 10
36.0814090757597
 20
15.40962883912396
 30
0.0
 11
49.9996390406393
 21
15.40962883912396
 31
0.0
  0
ARC
  5
36A
330
20
100
AcDbEntity
  8
0
100
AcDbCircle
 10
49.9996390406393
 20
15.6064792360181
 30
0.0
 40
0.1968503968941334
100
AcDbArc
 50
270.0
 51
0.0
  0
LINE
  5
39B
330
20
100
AcDbEntity
  8
0
100
AcDbLine
 10
49.80764839752733
 20
12.6537232826061
 30
0.0
 11
49.9996390406393
 21
12.6537232826061
 31
0.0
  0
ARC
  5
AB5
330
20
100
AcDbEntity
  8
0
100
AcDbCircle
 10
20.86926064829399
 20
12.85057367950023
 30
0.0
 40
0.1968503968941338
100
AcDbArc
 50
270.0
 51
358.9779932560164
  0
ARC
  5
AB6
330
20
100
AcDbEntity
  8
0
100
AcDbCircle
 10
20.87068037131996
 20
12.85057367950023
 30
0.0
 40
0.1968503968941334
100
AcDbArc
 50
270.0
 51
358.5558744690644
  0
ARC
  5
AB7
330
20
100
AcDbEntity
  8
0
100
AcDbCircle
 10
15.02314005764465
 20
31.23274017572787
 30
0.0
 40
19.33070897500389
100
AcDbArc
 50
277.110048646893
 51
296.2275460080278
  0
LINE
  5
AB8
330
20
100
AcDbEntity
  8
0
100
AcDbLine
 10
26.46520742342606
 20
15.40962883912396
 30
0.0
 11
15.94452037795421
 21
15.40962883912396
 31
0.0
  0
LINE
  5
AB9
330
20
100
AcDbEntity
  8
0
100
AcDbLine
 10
26.77129220713155
 20
17.9686839987477
 30
0.0
 11
15.94452037795421
 21
17.9686839987477
 31
0.0
  0
LINE
  5
ABA
330
20
100
AcDbEntity
  8
0
100
AcDbLine
 10
26.66184849154686
 20
15.59740349441252
 30
0.0
 11
26.77129220713155
 21
17.9686839987477
 31
0.0
  0
ARC
  5
ABB
330
20
100
AcDbEntity
  8
0
100
AcDbCircle
 10
26.46520742342606
 20
15.6064792360181
 30
0.0
 40
0.1968503968941349
100
AcDbArc
 50
270.0
 51
357.3574547059352
  0
ARC
  5
ABC
330
20
100
AcDbEntity
  8
0
100
AcDbCircle
 10
21.46080767692164
 20
18.16553439564184
 30
0.0
 40
4.763779604838028
100
AcDbArc
 50
296.2275460080278
 51
324.6540195723992
  0
LINE
  5
AC0
330
20
100
AcDbEntity
  8
0
100
AcDbLine
 10
21.06607972985454
 20
12.84706256984054
 30
0.0
 11
21.06650649915169
 21
12.87098558827183
 31
0.0
  0
LINE
  5
AC1
330
20
100
AcDbEntity
  8
0
100
AcDbLine
 10
21.06812129871472
 20
12.87151714262337
 30
0.0
 11
21.06746824404418
 21
12.84561264069206
 31
0.0
  0
LINE
  5
AC2
330
20
100
AcDbEntity
  8
0
100
AcDbLine
 10
17.19548052460753
 20
10.79137177707022
 30
0.0
 11
17.31292425145856
 21
11.94543538912778
 31
0.0
  0
LINE
  5
AC3
330
20
100
AcDbEntity
  8
0
100
AcDbLine
 10
17.07797716305503
 20
10.68521931366476
 30
0.0
 11
15.94452037795421
 21
10.68521931366476
 31
0.0
  0
LINE
  5
AC4
330
20
100
AcDbEntity
  8
0
100
AcDbLine
 10
17.19548052460753
 20
10.79137177707022
 30
0.0
 11
17.18467787838725
 21
10.68521931366476
 31
0.0
  0
LINE
  5
AC5
330
20
100
AcDbEntity
  8
0
100
AcDbLine
 10
17.07797716305503
 20
10.68521931366476
 30
0.0
 11
17.18467787838725
 21
10.68521931366476
 31
0.0
  0
ARC
  5
AC6
330
20
100
AcDbEntity
  8
0
100
AcDbCircle
 10
17.07797716305503
 20
10.80332955180124
 30
0.0
 40
0.1181102381364791
100
AcDbArc
 50
270.0
 51
354.1892768792699
  0
ARC
  5
AC7
330
20
100
AcDbEntity
  8
0
100
AcDbCircle
 10
15.02314005764465
 20
31.23274017572787
 30
0.0
 40
19.44881921314038
100
AcDbArc
 50
276.7533121479595
 51
287.2001919756173
  0
LINE
  5
ACA
330
20
100
AcDbEntity
  8
0
100
AcDbLine
 10
20.77437471383061
 20
12.6537232826061
 30
0.0
 11
20.87068037131996
 21
12.6537232826061
 31
0.0
  0
LINE
  5
ACB
330
20
100
AcDbEntity
  8
0
100
AcDbLine
 10
20.77437471383061
 20
12.6537232826061
 30
0.0
 11
20.86926064829399
 21
12.6537232826061
 31
0.0
  0
ARC
  5
ACC
330
20
100
AcDbEntity
  8
0
100
AcDbCircle
 10
15.08868332885837
 20
-394.198826746508
 30
0.0
 40
406.2442361250941
100
AcDbArc
 50
89.68494968543298
 51
89.87929456525021
  0
ARC
  5
ACD
330
20
100
AcDbEntity
  8
0
100
AcDbCircle
 10
17.43042761301107
 20
11.93347761439676
 30
0.0
 40
0.1181102381364801
100
AcDbArc
 50
97.11004864689304
 51
174.1892768792704
  0
ARC
  5
AD1
330
20
100
AcDbEntity
  8
0
100
AcDbCircle
 10
16.6728668464625
 20
17.04348713334528
 30
0.0
 40
0.2559055159623735
100
AcDbArc
 50
270.0
 51
90.0
  0
LINE
  5
AD2
330
20
100
AcDbEntity
  8
0
100
AcDbLine
 10
15.94452037795421
 20
17.29939264930764
 30
0.0
 11
16.6728668464625
 21
17.29939264930764
 31
0.0
  0
LINE
  5
AD3
330
20
100
AcDbEntity
  8
0
100
AcDbLine
 10
15.94452037795421
 20
16.7875816173829
 30
0.0
 11
16.6728668464625
 21
16.7875816173829
 31
0.0
  0
VIEWPORT
  5
B2C
102
{ACAD_XDICTIONARY
360
B44
102
}
330
22
100
AcDbEntity
 67
     1
  8
0
100
AcDbViewport
 10
5.238831609765611
 20
4.008637212692576
 30
0.0
 40
10.69712655875245
 41
6.495010233367203
 68
     1
 69
     1
 12
5.238831609765611
 22
4.008637212692576
 13
0.0
 23
0.0
 14
0.5
 24
0.5
 15
0.5
 25
0.5
 16
0.0
 26
0.0
 36
1.0
 17
0.0
 27
0.0
 37
0.0
 42
50.0
 43
0.0
 44
0.0
 45
6.495010233367203
 50
0.0
 51
0.0
 72
 20000
 90
   819232
  1

281
     0
 71
     1
 74
     0
110
0.0
120
1.0
130
0.0
111
1.0
121
0.0
131
0.0
112
0.0
122
1.0
132
0.0
 79
     0
146
0.0
  0
VIEWPORT
  5
B2F
102
{ACAD_XDICTIONARY
360
B46
102
}
330
22
100
AcDbEntity
 67
     1
  8
0
100
AcDbViewport
 10
5.249999761581421
 20
3.999999761581421
 30
0.0
 40
8.399999618530275
 41
6.399999618530274
 68
     2
 69
     2
 12
27.6715403761151
 22
24.85290603578665
 13
0.0
 23
0.0
 14
0.0
 24
0.0
 15
0.0
 25
0.0
 16
0.0
 26
0.0
 36
1.0
 17
0.0
 27
0.0
 37
0.0
 42
50.0
 43
0.0
 44
0.0
 45
34.70110113684625
 50
0.0
 51
0.0
 72
 20000
 90
   819232
  1

281
     0
 71
     1
 74
     0
110
0.0
120
0.0
130
0.0
111
1.0
121
0.0
131
0.0
112
0.0
122
1.0
132
0.0
 79
     0
146
0.0
  0
ENDSEC
  0
SECTION
  2
OBJECTS
  0
DICTIONARY
  5
C
330
0
100
AcDbDictionary
281
     1
  3
ACAD_COLOR
350
ADF
  3
ACAD_GROUP
350
D
  3
ACAD_LAYOUT
350
A9D
  3
ACAD_MATERIAL
350
ADE
  3
ACAD_MLINESTYLE
350
E
  3
ACAD_PLOTSETTINGS
350
A9E
  3
ACAD_PLOTSTYLENAME
350
A9B
  3
ACAD_TABLESTYLE
350
AE0
  3
ACAD_VISUALSTYLE
350
B14
  3
AcDbVariableDictionary
350
AA3
  3
ASE_INDEX_DICTIONARY
350
B32
  3
DWGPROPS
350
B37
  0
DICTIONARY
  5
B44
330
B2C
100
AcDbDictionary
280
     1
281
     1
  3
ACAD_XREC_ROUNDTRIP
360
B45
  0
DICTIONARY
  5
B46
330
B2F
100
AcDbDictionary
280
     1
281
     1
  3
ACAD_XREC_ROUNDTRIP
360
B47
  0
DICTIONARY
  5
ADF
102
{ACAD_REACTORS
330
C
102
}
330
C
100
AcDbDictionary
281
     1
  0
DICTIONARY
  5
D
102
{ACAD_REACTORS
330
C
102
}
330
C
100
AcDbDictionary
281
     1
  0
DICTIONARY
  5
A9D
102
{ACAD_REACTORS
330
C
102
}
330
C
100
AcDbDictionary
281
     1
  3
Layout1
350
AA0
  3
Model
350
A9F
  0
DICTIONARY
  5
ADE
102
{ACAD_REACTORS
330
C
102
}
330
C
100
AcDbDictionary
281
     1
  3
ByBlock
350
B12
  3
ByLayer
350
B11
  3
Global
350
B13
  0
DICTIONARY
  5
E
102
{ACAD_REACTORS
330
C
102
}
330
C
100
AcDbDictionary
281
     1
  3
STANDARD
350
13
  0
DICTIONARY
  5
A9E
102
{ACAD_REACTORS
330
C
102
}
330
C
100
AcDbDictionary
281
     1
  0
ACDBDICTIONARYWDFLT
  5
A9B
102
{ACAD_REACTORS
330
C
102
}
330
C
100
AcDbDictionary
281
     1
  3
Normal
350
A9C
100
AcDbDictionaryWithDefault
340
A9C
  0
DICTIONARY
  5
AE0
102
{ACAD_REACTORS
330
C
102
}
330
C
100
AcDbDictionary
281
     1
  3
Standard
350
AE1
  0
DICTIONARY
  5
B14
102
{ACAD_REACTORS
330
C
102
}
330
C
100
AcDbDictionary
281
     1
  3
2dWireframe
350
B1A
  3
3D Hidden
350
B1C
  3
3dWireframe
350
B1B
  3
Basic
350
B19
  3
Brighten
350
B20
  3
ColorChange
350
B24
  3
Conceptual
350
B1D
  3
Dim
350
B1F
  3
Facepattern
350
B23
  3
Flat
350
B15
  3
FlatWithEdges
350
B16
  3
Gouraud
350
B17
  3
GouraudWithEdges
350
B18
  3
Linepattern
350
B22
  3
Realistic
350
B1E
  3
Thicken
350
B21
  0
DICTIONARY
  5
AA3
102
{ACAD_REACTORS
330
C
102
}
330
C
100
AcDbDictionary
281
     1
  3
CTABLESTYLE
350
AF4
  3
DIMASSOC
350
AA4
  3
INDEXCTL
350
B36
  3
SORTENTS
350
B35
  0
DICTIONARY
  5
B32
102
{ACAD_REACTORS
330
C
102
}
330
C
100
AcDbDictionary
281
     1
  3
ASEBlockHierarchyIndexRecord
350
B34
1001
DCO15
1040
1652003216.745
  0
XRECORD
  5
B37
102
{ACAD_REACTORS
330
C
102
}
330
C
100
AcDbXrecord
280
     1
  1
DWGPROPS COOKIE
  2

  3

  4

  6

  7

  8
nnguyen
  9

300
=
301
=
302
=
303
=
304
=
305
=
306
=
307
=
308
=
309
=
 40
0.0371317592592593
 41
2452291.026006945
 42
2454923.619453067
  1

 90
        0
  0
XRECORD
  5
B45
102
{ACAD_REACTORS
330
B44
102
}
330
B44
100
AcDbXrecord
280
     1
102
SHADEPLOT
 70
     0
  0
XRECORD
  5
B47
102
{ACAD_REACTORS
330
B46
102
}
330
B46
100
AcDbXrecord
280
     1
102
SHADEPLOT
 70
     0
  0
LAYOUT
  5
AA0
102
{ACAD_XDICTIONARY
360
B3A
102
}
102
{ACAD_REACTORS
330
A9D
102
}
330
A9D
100
AcDbPlotSettings
  1

  2
none_device
  4
Letter_(8.50_x_11.00_Inches)
  6

 40
6.349999904632568
 41
6.349999904632568
 42
6.350006103515625
 43
6.350006103515625
 44
215.8999938964844
 45
279.3999938964844
 46
0.0
 47
0.0
 48
0.0
 49
0.0
140
0.0
141
0.0
142
1.0
143
1.0
 70
   688
 72
     0
 73
     1
 74
     5
  7

 75
    16
147
1.0
148
0.0
149
0.0
100
AcDbLayout
  1
Layout1
 70
     0
 71
     1
 10
-0.2500002402958907
 20
-0.2499999962453767
 11
10.74999951940822
 21
8.249999763458733
 12
0.0
 22
1.0
 32
0.0
 14
1.024201823659495
 24
0.7882700217751335
 34
-0.0015258207003583
 15
9.453461395871727
 25
7.229004403610019
 35
0.0000000349246037
146
0.0
 13
0.0
 23
1.0
 33
0.0
 16
1.0
 26
0.0
 36
0.0
 17
0.0
 27
1.0
 37
0.0
 76
     0
330
22
331
B2C
1001
ACAD_PSEXT
1000
None
1000
None
1000
Not applicable
1000
The layout will not be plotted unless a new plotter configuration name is selected.
1070
     0
  0
LAYOUT
  5
A9F
102
{ACAD_XDICTIONARY
360
B38
102
}
102
{ACAD_REACTORS
330
A9D
102
}
330
A9D
100
AcDbPlotSettings
  1

  2
\\totosrv3\RD-01-HPLJ4050
  4

  6

 40
0.0
 41
0.0
 42
0.0
 43
0.0
 44
0.0
 45
0.0
 46
0.0
 47
0.0
 48
0.0
 49
0.0
140
0.0
141
0.0
142
1.0
143
1.0
 70
  1712
 72
     0
 73
     0
 74
     0
  7

 75
     0
147
1.0
148
0.0
149
0.0
100
AcDbLayout
  1
Model
 70
     1
 71
     0
 10
0.0
 20
0.0
 11
12.0
 21
9.0
 12
0.0
 22
0.0
 32
0.0
 14
0.0
 24
0.0
 34
0.0
 15
0.0
 25
0.0
 35
0.0
146
0.0
 13
0.0
 23
0.0
 33
0.0
 16
1.0
 26
0.0
 36
0.0
 17
0.0
 27
1.0
 37
0.0
 76
     0
330
20
  0
MATERIAL
  5
B12
102
{ACAD_XDICTIONARY
360
B40
102
}
102
{ACAD_REACTORS
330
ADE
102
}
330
ADE
100
AcDbMaterial
  1
ByBlock
  0
MATERIAL
  5
B11
102
{ACAD_XDICTIONARY
360
B3E
102
}
102
{ACAD_REACTORS
330
ADE
102
}
330
ADE
100
AcDbMaterial
  1
ByLayer
  0
MATERIAL
  5
B13
102
{ACAD_XDICTIONARY
360
B42
102
}
102
{ACAD_REACTORS
330
ADE
102
}
330
ADE
100
AcDbMaterial
  1
Global
  0
MLINESTYLE
  5
13
102
{ACAD_REACTORS
330
E
102
}
330
E
100
AcDbMlineStyle
  2
STANDARD
 70
     0
  3

 62
     0
 51
90.0
 52
90.0
 71
     2
 49
0.5
 62
   256
  6
BYLAYER
 49
-0.5
 62
   256
  6
BYLAYER
  0
ACDBPLACEHOLDER
  5
A9C
102
{ACAD_REACTORS
330
A9B
102
}
330
A9B
  0
TABLESTYLE
  5
AE1
102
{ACAD_XDICTIONARY
360
B3C
102
}
102
{ACAD_REACTORS
330
AE0
102
}
330
AE0
100
AcDbTableStyle
  3
Standard
 70
     0
 71
     0
 40
0.06
 41
0.06
280
     0
281
     0
  7
STANDARD
140
0.18
170
     2
 62
     0
 63
     7
283
     0
274
    -2
284
     1
 64
     0
275
    -2
285
     1
 65
     0
276
    -2
286
     1
 66
     0
277
    -2
287
     1
 67
     0
278
    -2
288
     1
 68
     0
279
    -2
289
     1
 69
     0
  7
STANDARD
140
0.25
170
     5
 62
     0
 63
     7
283
     0
274
    -2
284
     1
 64
     0
275
    -2
285
     1
 65
     0
276
    -2
286
     1
 66
     0
277
    -2
287
     1
 67
     0
278
    -2
288
     1
 68
     0
279
    -2
289
     1
 69
     0
  7
STANDARD
140
0.18
170
     5
 62
     0
 63
     7
283
     0
274
    -2
284
     1
 64
     0
275
    -2
285
     1
 65
     0
276
    -2
286
     1
 66
     0
277
    -2
287
     1
 67
     0
278
    -2
288
     1
 68
     0
279
    -2
289
     1
 69
     0
  0
VISUALSTYLE
  5
B1A
102
{ACAD_REACTORS
330
B14
102
}
330
B14
100
AcDbVisualStyle
  2
2dWireframe
 70
     4
 71
     0
 72
     2
 73
     0
 90
        0
 40
-0.6
 41
-30.0
 62
     5
 63
     7
 74
     1
 91
        4
 64
     7
 65
   257
 75
     1
175
     1
 42
1.0
 92
        0
 66
   257
 43
1.0
 76
     1
 77
     6
 78
     2
 67
     7
 79
     5
170
     0
171
     0
290
     0
174
     0
 93
        1
 44
0.0
173
     0
291
     0
 45
0.0
1001
ACAD
1000
AcDbSavedByObjectVersion
1070
     0
  0
VISUALSTYLE
  5
B1C
102
{ACAD_REACTORS
330
B14
102
}
330
B14
100
AcDbVisualStyle
  2
3D Hidden
 70
     6
 71
     1
 72
     2
 73
     2
 90
        0
 40
-0.6
 41
-30.0
 62
     5
 63
     7
 74
     2
 91
        2
 64
     7
 65
   257
 75
     2
175
     1
 42
40.0
 92
        0
 66
   257
 43
1.0
 76
     1
 77
     6
 78
     2
 67
     7
 79
     3
170
     0
171
     0
290
     0
174
     0
 93
        1
 44
0.0
173
     0
291
     0
 45
0.0
1001
ACAD
1000
AcDbSavedByObjectVersion
1070
     0
  0
VISUALSTYLE
  5
B1B
102
{ACAD_REACTORS
330
B14
102
}
330
B14
100
AcDbVisualStyle
  2
3dWireframe
 70
     5
 71
     0
 72
     2
 73
     0
 90
        0
 40
-0.6
 41
-30.0
 62
     5
 63
     7
 74
     1
 91
        4
 64
     7
 65
   257
 75
     1
175
     1
 42
1.0
 92
        0
 66
   257
 43
1.0
 76
     1
 77
     6
 78
     2
 67
     7
 79
     5
170
     0
171
     0
290
     0
174
     0
 93
        1
 44
0.0
173
     0
291
     0
 45
0.0
1001
ACAD
1000
AcDbSavedByObjectVersion
1070
     0
  0
VISUALSTYLE
  5
B19
102
{ACAD_REACTORS
330
B14
102
}
330
B14
100
AcDbVisualStyle
  2
Basic
 70
     7
 71
     1
 72
     0
 73
     1
 90
        0
 40
-0.6
 41
-30.0
 62
     5
 63
     7
 74
     0
 91
        4
 64
     7
 65
   257
 75
     1
175
     1
 42
1.0
 92
        8
 66
     7
 43
1.0
 76
     1
 77
     6
 78
     2
 67
     7
 79
     5
170
     0
171
     0
290
     0
174
     0
 93
        1
 44
0.0
173
     0
291
     1
 45
0.0
1001
ACAD
1000
AcDbSavedByObjectVersion
1070
     0
  0
VISUALSTYLE
  5
B20
102
{ACAD_REACTORS
330
B14
102
}
330
B14
100
AcDbVisualStyle
  2
Brighten
 70
    12
 71
     2
 72
     2
 73
     0
 90
        0
 40
-0.6
 41
-30.0
 62
     5
 63
     7
 74
     1
 91
        4
 64
     7
 65
   257
 75
     1
175
     1
 42
1.0
 92
        8
 66
     7
 43
1.0
 76
     1
 77
     6
 78
     2
 67
     7
 79
     5
170
     0
171
     0
290
     0
174
     0
 93
        1
 44
50.0
173
     0
291
     1
 45
0.0
1001
ACAD
1000
AcDbSavedByObjectVersion
1070
     0
  0
VISUALSTYLE
  5
B24
102
{ACAD_REACTORS
330
B14
102
}
330
B14
100
AcDbVisualStyle
  2
ColorChange
 70
    16
 71
     2
 72
     2
 73
     3
 90
        0
 40
-0.6
 41
-30.0
 62
     5
 63
     8
 74
     1
 91
        4
 64
     7
 65
   257
 75
     1
175
     1
 42
1.0
 92
        8
 66
     8
 43
1.0
 76
     1
 77
     6
 78
     2
 67
     7
 79
     5
170
     0
171
     0
290
     0
174
     0
 93
        1
 44
0.0
173
     0
291
     1
 45
0.0
1001
ACAD
1000
AcDbSavedByObjectVersion
1070
     0
  0
VISUALSTYLE
  5
B1D
102
{ACAD_REACTORS
330
B14
102
}
330
B14
100
AcDbVisualStyle
  2
Conceptual
 70
     9
 71
     3
 72
     2
 73
     0
 90
        0
 40
-0.6
 41
-30.0
 62
     5
 63
     7
 74
     2
 91
        2
 64
     7
 65
   257
 75
     1
175
     1
 42
40.0
 92
        8
 66
     7
 43
1.0
 76
     1
 77
     6
 78
     2
 67
     7
 79
     3
170
     0
171
     0
290
     0
174
     0
 93
        1
 44
0.0
173
     0
291
     0
 45
0.0
1001
ACAD
1000
AcDbSavedByObjectVersion
1070
     0
  0
VISUALSTYLE
  5
B1F
102
{ACAD_REACTORS
330
B14
102
}
330
B14
100
AcDbVisualStyle
  2
Dim
 70
    11
 71
     2
 72
     2
 73
     0
 90
        0
 40
-0.6
 41
-30.0
 62
     5
 63
     7
 74
     1
 91
        4
 64
     7
 65
   257
 75
     1
175
     1
 42
1.0
 92
        8
 66
     7
 43
1.0
 76
     1
 77
     6
 78
     2
 67
     7
 79
     5
170
     0
171
     0
290
     0
174
     0
 93
        1
 44
-50.0
173
     0
291
     1
 45
0.0
1001
ACAD
1000
AcDbSavedByObjectVersion
1070
     0
  0
VISUALSTYLE
  5
B23
102
{ACAD_REACTORS
330
B14
102
}
330
B14
100
AcDbVisualStyle
  2
Facepattern
 70
    15
 71
     2
 72
     2
 73
     0
 90
        0
 40
-0.6
 41
-30.0
 62
     5
 63
     7
 74
     1
 91
        4
 64
     7
 65
   257
 75
     1
175
     1
 42
1.0
 92
        8
 66
     7
 43
1.0
 76
     1
 77
     6
 78
     2
 67
     7
 79
     5
170
     0
171
     0
290
     0
174
     0
 93
        1
 44
0.0
173
     0
291
     1
 45
0.0
1001
ACAD
1000
AcDbSavedByObjectVersion
1070
     0
  0
VISUALSTYLE
  5
B15
102
{ACAD_REACTORS
330
B14
102
}
330
B14
100
AcDbVisualStyle
  2
Flat
 70
     0
 71
     2
 72
     1
 73
     1
 90
        2
 40
-0.6
 41
30.0
 62
     5
 63
     7
 74
     0
 91
        4
 64
     7
 65
   257
 75
     1
175
     1
 42
1.0
 92
        8
 66
     7
 43
1.0
 76
     1
 77
     6
 78
     2
 67
     7
 79
     5
170
     0
171
     0
290
     0
174
     0
 93
       13
 44
0.0
173
     0
291
     1
 45
0.0
1001
ACAD
1000
AcDbSavedByObjectVersion
1070
     0
  0
VISUALSTYLE
  5
B16
102
{ACAD_REACTORS
330
B14
102
}
330
B14
100
AcDbVisualStyle
  2
FlatWithEdges
 70
     1
 71
     2
 72
     1
 73
     1
 90
        2
 40
-0.6
 41
30.0
 62
     5
 63
     7
 74
     1
 91
        4
 64
     7
 65
   257
 75
     1
175
     1
 42
1.0
 92
        0
 66
   257
 43
1.0
 76
     1
 77
     6
 78
     2
 67
     7
 79
     5
170
     0
171
     0
290
     0
174
     0
 93
       13
 44
0.0
173
     0
291
     1
 45
0.0
1001
ACAD
1000
AcDbSavedByObjectVersion
1070
     0
  0
VISUALSTYLE
  5
B17
102
{ACAD_REACTORS
330
B14
102
}
330
B14
100
AcDbVisualStyle
  2
Gouraud
 70
     2
 71
     2
 72
     2
 73
     1
 90
        2
 40
-0.6
 41
30.0
 62
     5
 63
     7
 74
     0
 91
        4
 64
     7
 65
   257
 75
     1
175
     1
 42
1.0
 92
        0
 66
     7
 43
1.0
 76
     1
 77
     6
 78
     2
 67
     7
 79
     5
170
     0
171
     0
290
     0
174
     0
 93
       13
 44
0.0
173
     0
291
     1
 45
0.0
1001
ACAD
1000
AcDbSavedByObjectVersion
1070
     0
  0
VISUALSTYLE
  5
B18
102
{ACAD_REACTORS
330
B14
102
}
330
B14
100
AcDbVisualStyle
  2
GouraudWithEdges
 70
     3
 71
     2
 72
     2
 73
     1
 90
        2
 40
-0.6
 41
30.0
 62
     5
 63
     7
 74
     1
 91
        4
 64
     7
 65
   257
 75
     1
175
     1
 42
1.0
 92
        0
 66
   257
 43
1.0
 76
     1
 77
     6
 78
     2
 67
     7
 79
     5
170
     0
171
     0
290
     0
174
     0
 93
       13
 44
0.0
173
     0
291
     1
 45
0.0
1001
ACAD
1000
AcDbSavedByObjectVersion
1070
     0
  0
VISUALSTYLE
  5
B22
102
{ACAD_REACTORS
330
B14
102
}
330
B14
100
AcDbVisualStyle
  2
Linepattern
 70
    14
 71
     2
 72
     2
 73
     0
 90
        0
 40
-0.6
 41
-30.0
 62
     5
 63
     7
 74
     1
 91
        4
 64
     7
 65
   257
 75
     7
175
     7
 42
1.0
 92
        8
 66
     7
 43
1.0
 76
     1
 77
     6
 78
     2
 67
     7
 79
     5
170
     0
171
     0
290
     0
174
     0
 93
        1
 44
0.0
173
     0
291
     1
 45
0.0
1001
ACAD
1000
AcDbSavedByObjectVersion
1070
     0
  0
VISUALSTYLE
  5
B1E
102
{ACAD_REACTORS
330
B14
102
}
330
B14
100
AcDbVisualStyle
  2
Realistic
 70
     8
 71
     2
 72
     2
 73
     0
 90
        0
 40
-0.6
 41
-30.0
 62
     5
 63
     7
 74
     1
 91
        0
 64
     7
 65
   257
 75
     1
175
     1
 42
1.0
 92
        8
 66
     8
 43
1.0
 76
     1
 77
     6
 78
     2
 67
     7
 79
     5
170
     0
171
     0
290
     0
174
     0
 93
       13
 44
0.0
173
     0
291
     0
 45
0.0
1001
ACAD
1000
AcDbSavedByObjectVersion
1070
     0
  0
VISUALSTYLE
  5
B21
102
{ACAD_REACTORS
330
B14
102
}
330
B14
100
AcDbVisualStyle
  2
Thicken
 70
    13
 71
     2
 72
     2
 73
     0
 90
        0
 40
-0.6
 41
-30.0
 62
     5
 63
     7
 74
     1
 91
        4
 64
     7
 65
   257
 75
     1
175
     1
 42
1.0
 92
       12
 66
     7
 43
1.0
 76
     1
 77
     6
 78
     2
 67
     7
 79
     5
170
     0
171
     0
290
     0
174
     0
 93
        1
 44
0.0
173
     0
291
     1
 45
0.0
1001
ACAD
1000
AcDbSavedByObjectVersion
1070
     0
  0
DICTIONARYVAR
  5
AF4
102
{ACAD_REACTORS
330
AA3
102
}
330
AA3
100
DictionaryVariables
280
     0
  1
STANDARD
  0
DICTIONARYVAR
  5
AA4
102
{ACAD_REACTORS
330
AA3
102
}
330
AA3
100
DictionaryVariables
280
     0
  1
1
  0
DICTIONARYVAR
  5
B36
102
{ACAD_REACTORS
330
AA3
102
}
330
AA3
100
DictionaryVariables
280
     0
  1
0
  0
DICTIONARYVAR
  5
B35
102
{ACAD_REACTORS
330
AA3
102
}
330
AA3
100
DictionaryVariables
280
     0
  1
127
  0
XRECORD
  5
B34
102
{ACAD_REACTORS
330
B32
102
}
330
B32
100
AcDbXrecord
280
     1
  0
DICTIONARY
  5
B3A
330
AA0
100
AcDbDictionary
280
     1
281
     1
  3
ACAD_XREC_ROUNDTRIP
360
B3B
  0
DICTIONARY
  5
B38
330
A9F
100
AcDbDictionary
280
     1
281
     1
  3
ACAD_XREC_ROUNDTRIP
360
B39
  0
DICTIONARY
  5
B40
330
B12
100
AcDbDictionary
280
     1
281
     1
  3
ACAD_XREC_ROUNDTRIP
360
B41
  0
DICTIONARY
  5
B3E
330
B11
100
AcDbDictionary
280
     1
281
     1
  3
ACAD_XREC_ROUNDTRIP
360
B3F
  0
DICTIONARY
  5
B42
330
B13
100
AcDbDictionary
280
     1
281
     1
  3
ACAD_XREC_ROUNDTRIP
360
B43
  0
DICTIONARY
  5
B3C
330
AE1
100
AcDbDictionary
280
     1
281
     1
  3
ACAD_XREC_ROUNDTRIP
360
B3D
  0
XRECORD
  5
B3B
102
{ACAD_REACTORS
330
B3A
102
}
330
B3A
100
AcDbXrecord
280
     1
102
SHADEPLOT
 70
     0
102
SHADEPLOTRESLEVEL
 70
     2
102
SHADEPLOTCUSTOMDPI
 70
   300
  0
XRECORD
  5
B39
102
{ACAD_REACTORS
330
B38
102
}
330
B38
100
AcDbXrecord
280
     1
102
SHADEPLOT
 70
     0
102
SHADEPLOTRESLEVEL
 70
     2
102
SHADEPLOTCUSTOMDPI
 70
   300
  0
XRECORD
  5
B41
102
{ACAD_REACTORS
330
B40
102
}
330
B40
100
AcDbXrecord
280
     1
102
MATERIAL
148
0.0
149
0.0
149
0.0
 93
        0
 94
       63
282
     0
 72
     1
 77
     1
171
     1
175
     1
179
     1
273
     0
  0
XRECORD
  5
B3F
102
{ACAD_REACTORS
330
B3E
102
}
330
B3E
100
AcDbXrecord
280
     1
102
MATERIAL
148
0.0
149
0.0
149
0.0
 93
        0
 94
       63
282
     0
 72
     1
 77
     1
171
     1
175
     1
179
     1
273
     0
  0
XRECORD
  5
B43
102
{ACAD_REACTORS
330
B42
102
}
330
B42
100
AcDbXrecord
280
     1
102
MATERIAL
148
0.0
149
0.0
149
0.0
 93
        0
 94
       63
282
     0
 72
     1
 77
     1
171
     1
175
     1
179
     1
273
     0
  0
XRECORD
  5
B3D
102
{ACAD_REACTORS
330
B3C
102
}
330
B3C
100
AcDbXrecord
280
     1
102
ACAD_ROUNDTRIP_PRE2007_TABLESTYLE
 90
        4
 91
        0
  1

 92
        4
 93
        0
  2

 94
        4
 95
        0
  3

  0
ENDSEC
  0
EOF
