  0
SECTION
  2
HEADER
  9
$ACADVER
  1
AC1015
  9
$ACADMAINTVER
 70
    20
  9
$DWGCODEPAGE
  3
ANSI_1252
  9
$INSBASE
 10
0.0
 20
0.0
 30
0.0
  9
$EXTMIN
 10
-0.0090935291989354
 20
-0.0064082024693448
 30
-0.0015258207003583
  9
$EXTMAX
 10
298.0085949168672
 20
210.0064091803581
 30
0.0000000349246037
  9
$LIMMIN
 10
0.0
 20
0.0
  9
$LIMMAX
 10
0.0
 20
0.0
  9
$ORTHOMODE
 70
     0
  9
$REGENMODE
 70
     1
  9
$FILLMODE
 70
     1
  9
$QTEXTMODE
 70
     0
  9
$MIRRTEXT
 70
     1
  9
$LTSCALE
 40
1.0
  9
$ATTMODE
 70
     1
  9
$TEXTSIZE
 40
0.0
  9
$TRACEWID
 40
0.05
  9
$TEXTSTYLE
  7
STANDARD
  9
$CLAYER
  8
0
  9
$CELTYPE
  6
CONTINUOUS
  9
$CECOLOR
 62
   256
  9
$CELTSCALE
 40
1.0
  9
$DISPSILH
 70
     0
  9
$DIMSCALE
 40
1.0
  9
$DIMASZ
 40
2.5
  9
$DIMEXO
 40
1.0
  9
$DIMDLI
 40
0.38
  9
$DIMRND
 40
0.0
  9
$DIMDLE
 40
1.0
  9
$DIMEXE
 40
0.18
  9
$DIMTP
 40
0.0
  9
$DIMTM
 40
0.0
  9
$DIMTXT
 40
2.5
  9
$DIMCEN
 40
0.09
  9
$DIMTSZ
 40
0.0
  9
$DIMTOL
 70
     0
  9
$DIMLIM
 70
     0
  9
$DIMTIH
 70
     1
  9
$DIMTOH
 70
     1
  9
$DIMSE1
 70
     0
  9
$DIMSE2
 70
     0
  9
$DIMTAD
 70
     1
  9
$DIMZIN
 70
     1
  9
$DIMBLK
  1

  9
$DIMASO
 70
     1
  9
$DIMSHO
 70
     1
  9
$DIMPOST
  1

  9
$DIMAPOST
  1

  9
$DIMALT
 70
     0
  9
$DIMALTD
 70
     2
  9
$DIMALTF
 40
0.0394
  9
$DIMLFAC
 40
1.0
  9
$DIMTOFL
 70
     0
  9
$DIMTVP
 40
0.0
  9
$DIMTIX
 70
     0
  9
$DIMSOXD
 70
     0
  9
$DIMSAH
 70
     0
  9
$DIMBLK1
  1

  9
$DIMBLK2
  1

  9
$DIMSTYLE
  2
STANDARD
  9
$DIMCLRD
 70
     0
  9
$DIMCLRE
 70
     0
  9
$DIMCLRT
 70
     0
  9
$DIMTFAC
 40
1.0
  9
$DIMGAP
 40
1.0
  9
$DIMJUST
 70
     0
  9
$DIMSD1
 70
     0
  9
$DIMSD2
 70
     0
  9
$DIMTOLJ
 70
     1
  9
$DIMTZIN
 70
     1
  9
$DIMALTZ
 70
     0
  9
$DIMALTTZ
 70
     0
  9
$DIMUPT
 70
     0
  9
$DIMDEC
 70
     4
  9
$DIMTDEC
 70
     4
  9
$DIMALTU
 70
     2
  9
$DIMALTTD
 70
     2
  9
$DIMTXSTY
  7
STANDARD
  9
$DIMAUNIT
 70
     0
  9
$DIMADEC
 70
     0
  9
$DIMALTRND
 40
0.0
  9
$DIMAZIN
 70
     0
  9
$DIMDSEP
 70
    46
  9
$DIMATFIT
 70
     3
  9
$DIMFRAC
 70
     0
  9
$DIMLDRBLK
  1

  9
$DIMLUNIT
 70
     2
  9
$DIMLWD
 70
    -2
  9
$DIMLWE
 70
    -2
  9
$DIMTMOVE
 70
     0
  9
$LUNITS
 70
     2
  9
$LUPREC
 70
     4
  9
$SKETCHINC
 40
0.1
  9
$FILLETRAD
 40
0.0
  9
$AUNITS
 70
     0
  9
$AUPREC
 70
     0
  9
$MENU
  1
acad
  9
$ELEVATION
 40
0.0
  9
$PELEVATION
 40
0.0
  9
$THICKNESS
 40
0.0
  9
$LIMCHECK
 70
     0
  9
$CHAMFERA
 40
0.0
  9
$CHAMFERB
 40
0.0
  9
$CHAMFERC
 40
0.0
  9
$CHAMFERD
 40
0.0
  9
$SKPOLY
 70
     0
  9
$TDCREATE
 40
2311949.136595336
  9
$TDUCREATE
 40
2311949.428262003
  9
$TDUPDATE
 40
2454923.624304688
  9
$TDUUPDATE
 40
2454923.915971354
  9
$TDINDWG
 40
0.0208705093
  9
$TDUSRTIMER
 40
0.0208703241
  9
$USRTIMER
 70
     1
  9
$ANGBASE
 50
0.0
  9
$ANGDIR
 70
     0
  9
$PDMODE
 70
     0
  9
$PDSIZE
 40
-1.0
  9
$PLINEWID
 40
0.0
  9
$SPLFRAME
 70
     0
  9
$SPLINETYPE
 70
     6
  9
$SPLINESEGS
 70
     8
  9
$HANDSEED
  5
4E3
  9
$SURFTAB1
 70
     6
  9
$SURFTAB2
 70
     6
  9
$SURFTYPE
 70
     6
  9
$SURFU
 70
     6
  9
$SURFV
 70
     6
  9
$UCSBASE
  2

  9
$UCSNAME
  2

  9
$UCSORG
 10
0.0
 20
0.0
 30
0.0
  9
$UCSXDIR
 10
1.0
 20
0.0
 30
0.0
  9
$UCSYDIR
 10
0.0
 20
1.0
 30
0.0
  9
$UCSORTHOREF
  2

  9
$UCSORTHOVIEW
 70
     0
  9
$UCSORGTOP
 10
0.0
 20
0.0
 30
0.0
  9
$UCSORGBOTTOM
 10
0.0
 20
0.0
 30
0.0
  9
$UCSORGLEFT
 10
0.0
 20
0.0
 30
0.0
  9
$UCSORGRIGHT
 10
0.0
 20
0.0
 30
0.0
  9
$UCSORGFRONT
 10
0.0
 20
0.0
 30
0.0
  9
$UCSORGBACK
 10
0.0
 20
0.0
 30
0.0
  9
$PUCSBASE
  2

  9
$PUCSNAME
  2

  9
$PUCSORG
 10
0.0
 20
0.0
 30
0.0
  9
$PUCSXDIR
 10
1.0
 20
0.0
 30
0.0
  9
$PUCSYDIR
 10
0.0
 20
1.0
 30
0.0
  9
$PUCSORTHOREF
  2

  9
$PUCSORTHOVIEW
 70
     0
  9
$PUCSORGTOP
 10
0.0
 20
0.0
 30
0.0
  9
$PUCSORGBOTTOM
 10
0.0
 20
0.0
 30
0.0
  9
$PUCSORGLEFT
 10
0.0
 20
0.0
 30
0.0
  9
$PUCSORGRIGHT
 10
0.0
 20
0.0
 30
0.0
  9
$PUCSORGFRONT
 10
0.0
 20
0.0
 30
0.0
  9
$PUCSORGBACK
 10
0.0
 20
0.0
 30
0.0
  9
$USERI1
 70
     0
  9
$USERI2
 70
     0
  9
$USERI3
 70
     0
  9
$USERI4
 70
     0
  9
$USERI5
 70
     0
  9
$USERR1
 40
0.0
  9
$USERR2
 40
0.0
  9
$USERR3
 40
0.0
  9
$USERR4
 40
0.0
  9
$USERR5
 40
0.0
  9
$WORLDVIEW
 70
     1
  9
$SHADEDGE
 70
     3
  9
$SHADEDIF
 70
    70
  9
$TILEMODE
 70
     0
  9
$MAXACTVP
 70
    16
  9
$PINSBASE
 10
0.0
 20
0.0
 30
0.0
  9
$PLIMCHECK
 70
     0
  9
$PEXTMIN
 10
1.049743681505489
 20
0.7996673802841308
 30
-0.0015258207003583
  9
$PEXTMAX
 10
9.450622583565561
 20
7.200576801086516
 30
0.0000000349246037
  9
$PLIMMIN
 10
-0.2500002402958907
 20
-0.2499999962453767
  9
$PLIMMAX
 10
10.74999951940822
 20
8.249999763458733
  9
$UNITMODE
 70
     0
  9
$VISRETAIN
 70
     0
  9
$PLINEGEN
 70
     1
  9
$PSLTSCALE
 70
     1
  9
$TREEDEPTH
 70
  3020
  9
$CMLSTYLE
  2
STANDARD
  9
$CMLJUST
 70
     0
  9
$CMLSCALE
 40
1.0
  9
$PROXYGRAPHICS
 70
     1
  9
$MEASUREMENT
 70
     0
  9
$CELWEIGHT
370
    -1
  9
$ENDCAPS
280
     0
  9
$JOINSTYLE
280
     0
  9
$LWDISPLAY
290
     0
  9
$INSUNITS
 70
     0
  9
$HYPERLINKBASE
  1

  9
$STYLESHEET
  1

  9
$XEDIT
290
     1
  9
$CEPSNTYPE
380
     0
  9
$PSTYLEMODE
290
     1
  9
$FINGERPRINTGUID
  2
{108F734F-E648-4D9E-B44F-5CA3B0517B3C}
  9
$VERSIONGUID
  2
{92D72C53-DC78-490A-8B5E-40A54A529CC3}
  9
$EXTNAMES
290
     1
  9
$PSVPSCALE
 40
0.0
  9
$OLESTARTUP
290
     0
  0
ENDSEC
  0
SECTION
  2
CLASSES
  0
CLASS
  1
IMAGE
  2
AcDbRasterImage
  3
ISM
 90
    34943
280
     0
281
     1
  0
CLASS
  1
DICTIONARYVAR
  2
AcDbDictionaryVar
  3
ObjectDBX Classes
 90
        0
280
     0
281
     0
  0
CLASS
  1
RASTERVARIABLES
  2
AcDbRasterVariables
  3
ISM
 90
    32768
280
     0
281
     0
  0
CLASS
  1
IMAGEDEF
  2
AcDbRasterImageDef
  3
ISM
 90
    32768
280
     0
281
     0
  0
CLASS
  1
IMAGEDEF_REACTOR
  2
AcDbRasterImageDefReactor
  3
ISM
 90
    32769
280
     0
281
     0
  0
CLASS
  1
IDBUFFER
  2
AcDbIdBuffer
  3
ObjectDBX Classes
 90
    32768
280
     0
281
     0
  0
CLASS
  1
SPATIAL_FILTER
  2
AcDbSpatialFilter
  3
ObjectDBX Classes
 90
    32768
280
     0
281
     0
  0
CLASS
  1
SORTENTSTABLE
  2
AcDbSortentsTable
  3
ObjectDBX Classes
 90
    32768
280
     0
281
     0
  0
CLASS
  1
LAYER_INDEX
  2
AcDbLayerIndex
  3
ObjectDBX Classes
 90
    32768
280
     0
281
     0
  0
CLASS
  1
SPATIAL_INDEX
  2
AcDbSpatialIndex
  3
ObjectDBX Classes
 90
    32768
280
     0
281
     0
  0
CLASS
  1
OBJECT_PTR
  2
CAseDLPNTableRecord
  3
ASE-LPNTableRecord
 90
    32769
280
     0
281
     0
  0
CLASS
  1
LAYOUT
  2
AcDbLayout
  3
ObjectDBX Classes
 90
        0
280
     0
281
     0
  0
CLASS
  1
PLOTSETTINGS
  2
AcDbPlotSettings
  3
ObjectDBX Classes
 90
    32768
280
     0
281
     0
  0
CLASS
  1
ACDBDICTIONARYWDFLT
  2
AcDbDictionaryWithDefault
  3
ObjectDBX Classes
 90
        0
280
     0
281
     0
  0
CLASS
  1
ACDBPLACEHOLDER
  2
AcDbPlaceHolder
  3
ObjectDBX Classes
 90
        0
280
     0
281
     0
  0
CLASS
  1
VBA_PROJECT
  2
AcDbVbaProject
  3
acad
 90
    32768
280
     0
281
     0
  0
CLASS
  1
WIPEOUT
  2
AcDbWipeout
  3
"WipeOut|Product Desc: Object Enabler for WipeOut entity                        |Company: Autodesk, Inc.                        |WEB Address: www.autodesk.com"
 90
    34943
280
     0
281
     1
  0
CLASS
  1
WIPEOUTVARIABLES
  2
AcDbWipeoutVariables
  3
"WipeOut|Product Desc:     WipeOut Dbx Application|Company:          Autodesk, Inc.|WEB Address:      www.autodesk.com"
 90
    32768
280
     0
281
     0
  0
CLASS
  1
RTEXT
  2
RText
  3
RText|AutoCAD Express Tool|expresstools@autodesk.com
 90
    33791
280
     0
281
     1
  0
CLASS
  1
ARCALIGNEDTEXT
  2
AcDbArcAlignedText
  3
ATEXT|AutoCAD Express Tool|expresstools@autodesk.com
 90
    32768
280
     0
281
     1
  0
CLASS
  1
TABLESTYLE
  2
AcDbTableStyle
  3
ObjectDBX Classes
 90
     4095
280
     0
281
     0
  0
CLASS
  1
MATERIAL
  2
AcDbMaterial
  3
ObjectDBX Classes
 90
     1024
280
     0
281
     0
  0
CLASS
  1
VISUALSTYLE
  2
AcDbVisualStyle
  3
ObjectDBX Classes
 90
     4095
280
     0
281
     0
  0
ENDSEC
  0
SECTION
  2
TABLES
  0
TABLE
  2
VPORT
  5
7
330
0
100
AcDbSymbolTable
 70
     1
  0
VPORT
  5
4AF
330
7
100
AcDbSymbolTableRecord
100
AcDbViewportTableRecord
  2
*Active
 70
     0
 10
0.0
 20
0.0
 11
1.0
 21
1.0
 12
148.9997506938341
 22
105.0000004889444
 13
0.0
 23
0.0
 14
1.0
 24
1.0
 15
0.0
 25
0.0
 16
0.0
 26
0.0
 36
1.0
 17
0.0
 27
0.0
 37
0.0
 40
211.7825883158289
 41
1.646976090014064
 42
50.0
 43
0.0
 44
0.0
 50
0.0
 51
0.0
 71
     0
 72
  2000
 73
     1
 74
     1
 75
     0
 76
     0
 77
     0
 78
     0
281
     0
 65
     1
110
0.0
120
0.0
130
0.0
111
1.0
121
0.0
131
0.0
112
0.0
122
1.0
132
0.0
 79
     0
146
0.0
  0
ENDTAB
  0
TABLE
  2
LTYPE
  5
4
330
0
100
AcDbSymbolTable
 70
     6
  0
LTYPE
  5
11
330
4
100
AcDbSymbolTableRecord
100
AcDbLinetypeTableRecord
  2
BYBLOCK
 70
     0
  3

 72
    65
 73
     0
 40
0.0
  0
LTYPE
  5
12
330
4
100
AcDbSymbolTableRecord
100
AcDbLinetypeTableRecord
  2
BYLAYER
 70
     0
  3

 72
    65
 73
     0
 40
0.0
  0
LTYPE
  5
13
330
4
100
AcDbSymbolTableRecord
100
AcDbLinetypeTableRecord
  2
CONTINUOUS
 70
     0
  3
Solid line
 72
    65
 73
     0
 40
0.0
  0
LTYPE
  5
1E
330
4
100
AcDbSymbolTableRecord
100
AcDbLinetypeTableRecord
  2
HIDDEN
 70
     0
  3
Hidden __ __ __ __ __ __ __ __ __ __ __ __ __ __
 72
    65
 73
     2
 40
1.905
 49
1.27
 74
     0
 49
-0.635
 74
     0
  0
LTYPE
  5
1F
330
4
100
AcDbSymbolTableRecord
100
AcDbLinetypeTableRecord
  2
PHANTOM
 70
     0
  3
Phantom ______  __  __  ______  __  __  ______
 72
    65
 73
     6
 40
12.7
 49
6.349999999999998
 74
     0
 49
-1.27
 74
     0
 49
1.27
 74
     0
 49
-1.27
 74
     0
 49
1.27
 74
     0
 49
-1.27
 74
     0
  0
LTYPE
  5
20
330
4
100
AcDbSymbolTableRecord
100
AcDbLinetypeTableRecord
  2
CENTER
 70
     0
  3
Center ____ _ ____ _ ____ _ ____ _ ____ _ ____
 72
    65
 73
     4
 40
10.16
 49
6.349999999999998
 74
     0
 49
-1.27
 74
     0
 49
1.27
 74
     0
 49
-1.27
 74
     0
  0
LTYPE
  5
21
330
4
100
AcDbSymbolTableRecord
100
AcDbLinetypeTableRecord
  2
CENTERX2
 70
     0
  3
Center (2x) ________  __  ________  __  _____
 72
    65
 73
     4
 40
20.32
 49
12.7
 74
     0
 49
-2.54
 74
     0
 49
2.54
 74
     0
 49
-2.54
 74
     0
  0
LTYPE
  5
22
330
4
100
AcDbSymbolTableRecord
100
AcDbLinetypeTableRecord
  2
DOT2
 70
     0
  3
Dot (.5x) ........................................
 72
    65
 73
     2
 40
0.635
 49
0.0
 74
     0
 49
-0.635
 74
     0
  0
ENDTAB
  0
TABLE
  2
LAYER
  5
2
330
0
100
AcDbSymbolTable
 70
     4
  0
LAYER
  5
14
330
2
100
AcDbSymbolTableRecord
100
AcDbLayerTableRecord
  2
0
 70
     0
 62
     7
  6
CONTINUOUS
370
    -3
390
46A
  0
LAYER
  5
26
330
2
100
AcDbSymbolTableRecord
100
AcDbLayerTableRecord
  2
DEFPOINTS
 70
     0
 62
     7
  6
CONTINUOUS
290
     0
370
    -3
390
46A
  0
LAYER
  5
28
330
2
100
AcDbSymbolTableRecord
100
AcDbLayerTableRecord
  2
PIC06
 70
     0
 62
     7
  6
CONTINUOUS
370
    -3
390
46A
  0
LAYER
  5
29
330
2
100
AcDbSymbolTableRecord
100
AcDbLayerTableRecord
  2
PIC07
 70
     0
 62
     7
  6
CONTINUOUS
370
    -3
390
46A
  0
ENDTAB
  0
TABLE
  2
STYLE
  5
3
330
0
100
AcDbSymbolTable
 70
     3
  0
STYLE
  5
17
330
3
100
AcDbSymbolTableRecord
100
AcDbTextStyleTableRecord
  2
STANDARD
 70
     0
 40
0.0
 41
1.0
 50
0.0
 71
     0
 42
0.0
  3
txt
  4

  0
STYLE
  5
2C
330
3
100
AcDbSymbolTableRecord
100
AcDbTextStyleTableRecord
  2
SLDTEXTSTYLE0
 70
     0
 40
0.0
 41
0.75
 50
0.0
 71
     0
 42
0.0
  3
txt
  4

  0
STYLE
  5
40F
330
3
100
AcDbSymbolTableRecord
100
AcDbTextStyleTableRecord
  2
SLDTEXTSTYLE1
 70
     0
 40
0.0
 41
0.6547619345
 50
0.0
 71
     0
 42
0.0
  3
txt
  4

  0
ENDTAB
  0
TABLE
  2
VIEW
  5
5
330
0
100
AcDbSymbolTable
 70
     2
  0
ENDTAB
  0
TABLE
  2
UCS
  5
6
330
0
100
AcDbSymbolTable
 70
     0
  0
ENDTAB
  0
TABLE
  2
APPID
  5
8
330
0
100
AcDbSymbolTable
 70
     3
  0
APPID
  5
16
330
8
100
AcDbSymbolTableRecord
100
AcDbRegAppTableRecord
  2
ACAD
 70
     0
  0
APPID
  5
4A4
330
8
100
AcDbSymbolTableRecord
100
AcDbRegAppTableRecord
  2
DCO15
 70
     0
  0
APPID
  5
4CC
330
8
100
AcDbSymbolTableRecord
100
AcDbRegAppTableRecord
  2
ACAD_PSEXT
 70
     0
  0
ENDTAB
  0
TABLE
  2
DIMSTYLE
  5
9
330
0
100
AcDbSymbolTable
 70
     1
100
AcDbDimStyleTable
 71
     0
  0
DIMSTYLE
105
18
330
9
100
AcDbSymbolTableRecord
100
AcDbDimStyleTableRecord
  2
STANDARD
 70
     0
340
17
  0
ENDTAB
  0
TABLE
  2
BLOCK_RECORD
  5
1
330
0
100
AcDbSymbolTable
 70
    14
  0
BLOCK_RECORD
  5
A
102
{ACAD_XDICTIONARY
360
494
102
}
330
1
100
AcDbSymbolTableRecord
100
AcDbBlockTableRecord
  2
*MODEL_SPACE
340
49E
  0
BLOCK_RECORD
  5
B
102
{ACAD_XDICTIONARY
360
496
102
}
330
1
100
AcDbSymbolTableRecord
100
AcDbBlockTableRecord
  2
*PAPER_SPACE
340
49F
  0
BLOCK_RECORD
  5
2A
330
1
100
AcDbSymbolTableRecord
100
AcDbBlockTableRecord
  2
COMP1
340
0
102
{BLKREFS
331
457
102
}
  0
BLOCK_RECORD
  5
3A
330
1
100
AcDbSymbolTableRecord
100
AcDbBlockTableRecord
  2
COMP2
340
0
102
{BLKREFS
331
458
102
}
  0
BLOCK_RECORD
  5
48
330
1
100
AcDbSymbolTableRecord
100
AcDbBlockTableRecord
  2
COMP3
340
0
102
{BLKREFS
331
459
102
}
  0
BLOCK_RECORD
  5
56
330
1
100
AcDbSymbolTableRecord
100
AcDbBlockTableRecord
  2
COMP4
340
0
102
{BLKREFS
331
45A
102
}
  0
BLOCK_RECORD
  5
64
330
1
100
AcDbSymbolTableRecord
100
AcDbBlockTableRecord
  2
COMP5
340
0
102
{BLKREFS
331
45B
102
}
  0
BLOCK_RECORD
  5
72
330
1
100
AcDbSymbolTableRecord
100
AcDbBlockTableRecord
  2
COMP6
340
0
102
{BLKREFS
331
45C
102
}
  0
BLOCK_RECORD
  5
7F
330
1
100
AcDbSymbolTableRecord
100
AcDbBlockTableRecord
  2
COMP7
340
0
102
{BLKREFS
331
45D
102
}
  0
BLOCK_RECORD
  5
8C
330
1
100
AcDbSymbolTableRecord
100
AcDbBlockTableRecord
  2
COMP8
340
0
102
{BLKREFS
331
45E
102
}
  0
BLOCK_RECORD
  5
9B
330
1
100
AcDbSymbolTableRecord
100
AcDbBlockTableRecord
  2
COMP9
340
0
102
{BLKREFS
331
45F
102
}
  0
BLOCK_RECORD
  5
A7
330
1
100
AcDbSymbolTableRecord
100
AcDbBlockTableRecord
  2
COMP10
340
0
102
{BLKREFS
331
460
102
}
  0
BLOCK_RECORD
  5
B4
330
1
100
AcDbSymbolTableRecord
100
AcDbBlockTableRecord
  2
COMP11
340
0
102
{BLKREFS
331
461
102
}
  0
BLOCK_RECORD
  5
C2
330
1
100
AcDbSymbolTableRecord
100
AcDbBlockTableRecord
  2
COMP12
340
0
102
{BLKREFS
331
462
102
}
  0
BLOCK_RECORD
  5
D0
330
1
100
AcDbSymbolTableRecord
100
AcDbBlockTableRecord
  2
COMP13
340
0
102
{BLKREFS
331
463
102
}
  0
BLOCK_RECORD
  5
DD
330
1
100
AcDbSymbolTableRecord
100
AcDbBlockTableRecord
  2
COMP14
340
0
102
{BLKREFS
331
464
102
}
  0
ENDTAB
  0
ENDSEC
  0
SECTION
  2
BLOCKS
  0
BLOCK
  5
D
330
A
100
AcDbEntity
  8
0
100
AcDbBlockBegin
  2
*MODEL_SPACE
 70
     0
 10
0.0
 20
0.0
 30
0.0
  3
*MODEL_SPACE
  1

  0
ENDBLK
  5
E
330
A
100
AcDbEntity
  8
0
100
AcDbBlockEnd
  0
BLOCK
  5
F
330
B
100
AcDbEntity
 67
     1
  8
0
100
AcDbBlockBegin
  2
*PAPER_SPACE
 70
     0
 10
0.0
 20
0.0
 30
0.0
  3
*PAPER_SPACE
  1

  0
ENDBLK
  5
10
330
B
100
AcDbEntity
 67
     1
  8
0
100
AcDbBlockEnd
  0
BLOCK
  5
2B
330
2A
100
AcDbEntity
  8
0
 62
     0
100
AcDbBlockBegin
  2
COMP1
 70
     0
 10
0.0
 20
0.0
 30
0.0
  3
COMP1
  1

  0
MTEXT
  5
2D
330
2A
100
AcDbEntity
  8
0
 62
     7
100
AcDbMText
 10
242.4893277755999
 20
132.4918626083
 30
0.0
 40
2.5
 41
0.0
 71
     1
 72
     5
  1
1
  7
SLDTEXTSTYLE0
 11
0.0
 21
1.0
 31
0.0
 73
     1
 44
1.0
1001
ACAD
1000
MTEXTBEGIN
1070
    73
1070
     1
1070
    44
1040
1.0
1070
    74
1070
     0
1000
MTEXTEND
  0
MTEXT
  5
2E
330
2A
100
AcDbEntity
  8
0
 62
     7
100
AcDbMText
 10
242.4893283373
 20
134.2106126083
 30
0.0
 40
2.5
 41
0.0
 71
     1
 72
     5
  1
3
  7
SLDTEXTSTYLE0
 11
0.0
 21
1.0
 31
0.0
 73
     1
 44
1.0
1001
ACAD
1000
MTEXTBEGIN
1070
    73
1070
     1
1070
    44
1040
1.0
1070
    74
1070
     0
1000
MTEXTEND
  0
LINE
  5
2F
330
2A
100
AcDbEntity
  8
PIC06
  6
Continuous
 62
     7
100
AcDbLine
 10
246.3210600957
 20
129.3644808273999
 30
0.0
 11
246.3210600957
 21
126.3644819610999
 31
0.0
  0
LINE
  5
30
330
2A
100
AcDbEntity
  8
0
  6
Continuous
 62
     7
100
AcDbLine
 10
245.6960600957
 20
126.8644808274
 30
0.0
 11
246.3210600957
 21
129.3644808273999
 31
0.0
  0
LINE
  5
31
330
2A
100
AcDbEntity
  8
0
  6
Continuous
 62
     7
100
AcDbLine
 10
246.3210600957
 20
129.3644808273999
 30
0.0
 11
246.9460600956999
 21
126.8644808274
 31
0.0
  0
LINE
  5
32
330
2A
100
AcDbEntity
  8
PIC06
  6
Continuous
 62
     7
100
AcDbLine
 10
246.3210600957
 20
129.3644808273999
 30
0.0
 11
246.3210600957
 21
130.4478357922
 31
0.0
  0
LINE
  5
33
330
2A
100
AcDbEntity
  8
PIC06
  6
Continuous
 62
     7
100
AcDbLine
 10
246.3210600957
 20
131.5311907571
 30
0.0
 11
246.3210600957
 21
130.4478357922
 31
0.0
  0
LINE
  5
34
330
2A
100
AcDbEntity
  8
PIC06
  6
Continuous
 62
     7
100
AcDbLine
 10
246.3210600957
 20
131.5311907571
 30
0.0
 11
246.3210600957
 21
134.5311896234
 31
0.0
  0
LINE
  5
35
330
2A
100
AcDbEntity
  8
0
  6
Continuous
 62
     7
100
AcDbLine
 10
246.9460600956999
 20
134.0311907570999
 30
0.0
 11
246.3210600957
 21
131.5311907571
 31
0.0
  0
LINE
  5
36
330
2A
100
AcDbEntity
  8
0
  6
Continuous
 62
     7
100
AcDbLine
 10
246.3210600957
 20
131.5311907571
 30
0.0
 11
245.6960600957
 21
134.0311907570999
 31
0.0
  0
LINE
  5
37
330
2A
100
AcDbEntity
  8
PIC06
  6
Continuous
 62
     7
100
AcDbLine
 10
233.9949472789999
 20
129.3644808273999
 30
0.0
 11
246.4877300903
 21
129.3644808273999
 31
0.0
  0
LINE
  5
38
330
2A
100
AcDbEntity
  8
PIC06
  6
Continuous
 62
     7
100
AcDbLine
 10
233.9949472789999
 20
131.5311907571
 30
0.0
 11
246.4877300903
 21
131.5311907571
 31
0.0
  0
ENDBLK
  5
39
330
2A
100
AcDbEntity
  8
0
100
AcDbBlockEnd
  0
BLOCK
  5
3B
330
3A
100
AcDbEntity
  8
0
 62
     0
100
AcDbBlockBegin
  2
COMP2
 70
     0
 10
0.0
 20
0.0
 30
0.0
  3
COMP2
  1

  0
MTEXT
  5
3C
330
3A
100
AcDbEntity
  8
0
 62
     7
100
AcDbMText
 10
191.3170728249999
 20
156.1241408422999
 30
0.0
 40
2.5
 41
0.0
 71
     1
 72
     5
  1
4
  7
SLDTEXTSTYLE0
 73
     1
 44
1.0
1001
ACAD
1000
MTEXTBEGIN
1070
    73
1070
     1
1070
    44
1040
1.0
1070
    74
1070
     0
1000
MTEXTEND
  0
MTEXT
  5
3D
330
3A
100
AcDbEntity
  8
0
 62
     7
100
AcDbMText
 10
193.035822825
 20
156.1241408422999
 30
0.0
 40
2.5
 41
0.0
 71
     1
 72
     5
  1
8
  7
SLDTEXTSTYLE0
 73
     1
 44
1.0
1001
ACAD
1000
MTEXTBEGIN
1070
    73
1070
     1
1070
    44
1040
1.0
1070
    74
1070
     0
1000
MTEXTEND
  0
MTEXT
  5
3E
330
3A
100
AcDbEntity
  8
0
 62
     7
100
AcDbMText
 10
194.7545728249999
 20
156.1241408422999
 30
0.0
 40
2.5
 41
0.0
 71
     1
 72
     5
  1
8
  7
SLDTEXTSTYLE0
 73
     1
 44
1.0
1001
ACAD
1000
MTEXTBEGIN
1070
    73
1070
     1
1070
    44
1040
1.0
1070
    74
1070
     0
1000
MTEXTEND
  0
LINE
  5
3F
330
3A
100
AcDbEntity
  8
PIC06
  6
Continuous
 62
     7
100
AcDbLine
 10
152.9933502524
 20
153.0241431036
 30
0.0
 11
193.6608085875999
 21
153.0241431036
 31
0.0
  0
LINE
  5
40
330
3A
100
AcDbEntity
  8
0
  6
Continuous
 62
     7
100
AcDbLine
 10
155.4933502524
 20
152.3991431036
 30
0.0
 11
152.9933502524
 21
153.0241431036
 31
0.0
  0
LINE
  5
41
330
3A
100
AcDbEntity
  8
0
  6
Continuous
 62
     7
100
AcDbLine
 10
152.9933502524
 20
153.0241431036
 30
0.0
 11
155.4933502524
 21
153.6491431036
 31
0.0
  0
LINE
  5
42
330
3A
100
AcDbEntity
  8
PIC06
  6
Continuous
 62
     7
100
AcDbLine
 10
234.3282872681999
 20
153.0241431036
 30
0.0
 11
193.6608085875999
 21
153.0241431036
 31
0.0
  0
LINE
  5
43
330
3A
100
AcDbEntity
  8
0
  6
Continuous
 62
     7
100
AcDbLine
 10
231.8282872681999
 20
153.6491431036
 30
0.0
 11
234.3282872681999
 21
153.0241431036
 31
0.0
  0
LINE
  5
44
330
3A
100
AcDbEntity
  8
0
  6
Continuous
 62
     7
100
AcDbLine
 10
234.3282872681999
 20
153.0241431036
 30
0.0
 11
231.8282872681999
 21
152.3991431036
 31
0.0
  0
LINE
  5
45
330
3A
100
AcDbEntity
  8
PIC06
  6
Continuous
 62
     7
100
AcDbLine
 10
152.9933502524
 20
203.8522759169
 30
0.0
 11
152.9933502524
 21
152.0241434815
 31
0.0
  0
LINE
  5
46
330
3A
100
AcDbEntity
  8
PIC06
  6
Continuous
 62
     7
100
AcDbLine
 10
234.3282872681999
 20
203.8522759169
 30
0.0
 11
234.3282872681999
 21
152.0241434815
 31
0.0
  0
ENDBLK
  5
47
330
3A
100
AcDbEntity
  8
0
100
AcDbBlockEnd
  0
BLOCK
  5
49
330
48
100
AcDbEntity
  8
0
 62
     0
100
AcDbBlockBegin
  2
COMP3
 70
     0
 10
0.0
 20
0.0
 30
0.0
  3
COMP3
  1

  0
MTEXT
  5
4A
330
48
100
AcDbEntity
  8
0
 62
     7
100
AcDbMText
 10
191.3170728249999
 20
163.9790034922
 30
0.0
 40
2.5
 41
0.0
 71
     1
 72
     5
  1
4
  7
SLDTEXTSTYLE0
 73
     1
 44
1.0
1001
ACAD
1000
MTEXTBEGIN
1070
    73
1070
     1
1070
    44
1040
1.0
1070
    74
1070
     0
1000
MTEXTEND
  0
MTEXT
  5
4B
330
48
100
AcDbEntity
  8
0
 62
     7
100
AcDbMText
 10
193.035822825
 20
163.9790034922
 30
0.0
 40
2.5
 41
0.0
 71
     1
 72
     5
  1
3
  7
SLDTEXTSTYLE0
 73
     1
 44
1.0
1001
ACAD
1000
MTEXTBEGIN
1070
    73
1070
     1
1070
    44
1040
1.0
1070
    74
1070
     0
1000
MTEXTEND
  0
MTEXT
  5
4C
330
48
100
AcDbEntity
  8
0
 62
     7
100
AcDbMText
 10
194.7545728249999
 20
163.9790034922
 30
0.0
 40
2.5
 41
0.0
 71
     1
 72
     5
  1
2
  7
SLDTEXTSTYLE0
 73
     1
 44
1.0
1001
ACAD
1000
MTEXTBEGIN
1070
    73
1070
     1
1070
    44
1040
1.0
1070
    74
1070
     0
1000
MTEXTEND
  0
LINE
  5
4D
330
48
100
AcDbEntity
  8
PIC06
  6
Continuous
 62
     7
100
AcDbLine
 10
157.6600999283
 20
160.8789955807
 30
0.0
 11
193.6608085875999
 21
160.8789955807
 31
0.0
  0
LINE
  5
4E
330
48
100
AcDbEntity
  8
0
  6
Continuous
 62
     7
100
AcDbLine
 10
160.1600999282999
 20
160.2539955807
 30
0.0
 11
157.6600999283
 21
160.8789955807
 31
0.0
  0
LINE
  5
4F
330
48
100
AcDbEntity
  8
0
  6
Continuous
 62
     7
100
AcDbLine
 10
157.6600999283
 20
160.8789955807
 30
0.0
 11
160.1600999282999
 21
161.5039955807
 31
0.0
  0
LINE
  5
50
330
48
100
AcDbEntity
  8
PIC06
  6
Continuous
 62
     7
100
AcDbLine
 10
229.6615274195999
 20
160.8789955807
 30
0.0
 11
193.6608085875999
 21
160.8789955807
 31
0.0
  0
LINE
  5
51
330
48
100
AcDbEntity
  8
0
  6
Continuous
 62
     7
100
AcDbLine
 10
227.1615274195999
 20
161.5039955807
 30
0.0
 11
229.6615274195999
 21
160.8789955807
 31
0.0
  0
LINE
  5
52
330
48
100
AcDbEntity
  8
0
  6
Continuous
 62
     7
100
AcDbLine
 10
229.6615274195999
 20
160.8789955807
 30
0.0
 11
227.1615274195999
 21
160.2539955807
 31
0.0
  0
LINE
  5
53
330
48
100
AcDbEntity
  8
PIC06
  6
Continuous
 62
     7
100
AcDbLine
 10
157.6600999283
 20
203.8522759169
 30
0.0
 11
157.6600999283
 21
159.8789959586
 31
0.0
  0
LINE
  5
54
330
48
100
AcDbEntity
  8
PIC06
  6
Continuous
 62
     7
100
AcDbLine
 10
229.6615274195999
 20
203.8522759169
 30
0.0
 11
229.6615274195999
 21
159.8789959586
 31
0.0
  0
ENDBLK
  5
55
330
48
100
AcDbEntity
  8
0
100
AcDbBlockEnd
  0
BLOCK
  5
57
330
56
100
AcDbEntity
  8
0
 62
     0
100
AcDbBlockBegin
  2
COMP4
 70
     0
 10
0.0
 20
0.0
 30
0.0
  3
COMP4
  1

  0
MTEXT
  5
58
330
56
100
AcDbEntity
  8
0
 62
     7
100
AcDbMText
 10
251.0228640514999
 20
201.5084587724
 30
0.0
 40
2.5
 41
0.0
 71
     1
 72
     5
  1
4
  7
SLDTEXTSTYLE0
 11
0.0
 21
1.0
 31
0.0
 73
     1
 44
1.0
1001
ACAD
1000
MTEXTBEGIN
1070
    73
1070
     1
1070
    44
1040
1.0
1070
    74
1070
     0
1000
MTEXTEND
  0
MTEXT
  5
59
330
56
100
AcDbEntity
  8
0
 62
     7
100
AcDbMText
 10
251.0228646132
 20
203.2272087723999
 30
0.0
 40
2.5
 41
0.0
 71
     1
 72
     5
  1
1
  7
SLDTEXTSTYLE0
 11
0.0
 21
1.0
 31
0.0
 73
     1
 44
1.0
1001
ACAD
1000
MTEXTBEGIN
1070
    73
1070
     1
1070
    44
1040
1.0
1070
    74
1070
     0
1000
MTEXTEND
  0
MTEXT
  5
5A
330
56
100
AcDbEntity
  8
0
 62
     7
100
AcDbMText
 10
251.0228651748
 20
204.9459587723999
 30
0.0
 40
2.5
 41
0.0
 71
     1
 72
     5
  1
1
  7
SLDTEXTSTYLE0
 11
0.0
 21
1.0
 31
0.0
 73
     1
 44
1.0
1001
ACAD
1000
MTEXTBEGIN
1070
    73
1070
     1
1070
    44
1040
1.0
1070
    74
1070
     0
1000
MTEXTEND
  0
LINE
  5
5B
330
56
100
AcDbEntity
  8
PIC06
  6
Continuous
 62
     7
100
AcDbLine
 10
254.1228719629
 20
169.6015920280999
 30
0.0
 11
254.1228719629
 21
203.8522148804999
 31
0.0
  0
LINE
  5
5C
330
56
100
AcDbEntity
  8
0
  6
Continuous
 62
     7
100
AcDbLine
 10
254.7478719629
 20
172.1015920280999
 30
0.0
 11
254.1228719629
 21
169.6015920280999
 31
0.0
  0
LINE
  5
5D
330
56
100
AcDbEntity
  8
0
  6
Continuous
 62
     7
100
AcDbLine
 10
254.1228719629
 20
169.6015920280999
 30
0.0
 11
253.4978719629
 21
172.1015920280999
 31
0.0
  0
LINE
  5
5E
330
56
100
AcDbEntity
  8
PIC06
  6
Continuous
 62
     7
100
AcDbLine
 10
254.1228719629
 20
238.1028173875
 30
0.0
 11
254.1228719629
 21
203.8522148804999
 31
0.0
  0
LINE
  5
5F
330
56
100
AcDbEntity
  8
0
  6
Continuous
 62
     7
100
AcDbLine
 10
253.4978719629
 20
235.6028173874999
 30
0.0
 11
254.1228719629
 21
238.1028173875
 31
0.0
  0
LINE
  5
60
330
56
100
AcDbEntity
  8
0
  6
Continuous
 62
     7
100
AcDbLine
 10
254.1228719629
 20
238.1028173875
 30
0.0
 11
254.7478719629
 21
235.6028173874999
 31
0.0
  0
LINE
  5
61
330
56
100
AcDbEntity
  8
PIC06
  6
Continuous
 62
     7
100
AcDbLine
 10
193.6608085875999
 20
169.6015920280999
 30
0.0
 11
255.122871585
 21
169.6015920280999
 31
0.0
  0
LINE
  5
62
330
56
100
AcDbEntity
  8
PIC06
  6
Continuous
 62
     7
100
AcDbLine
 10
193.6608085875999
 20
238.1028173875
 30
0.0
 11
255.122871585
 21
238.1028173875
 31
0.0
  0
ENDBLK
  5
63
330
56
100
AcDbEntity
  8
0
100
AcDbBlockEnd
  0
BLOCK
  5
65
330
64
100
AcDbEntity
  8
0
 62
     0
100
AcDbBlockBegin
  2
COMP5
 70
     0
 10
0.0
 20
0.0
 30
0.0
  3
COMP5
  1

  0
MTEXT
  5
66
330
64
100
AcDbEntity
  8
0
 62
     7
100
AcDbMText
 10
243.2210318387999
 20
201.5084587724
 30
0.0
 40
2.5
 41
0.0
 71
     1
 72
     5
  1
3
  7
SLDTEXTSTYLE0
 11
0.0
 21
1.0
 31
0.0
 73
     1
 44
1.0
1001
ACAD
1000
MTEXTBEGIN
1070
    73
1070
     1
1070
    44
1040
1.0
1070
    74
1070
     0
1000
MTEXTEND
  0
MTEXT
  5
67
330
64
100
AcDbEntity
  8
0
 62
     7
100
AcDbMText
 10
243.2210324005
 20
203.2272087723999
 30
0.0
 40
2.5
 41
0.0
 71
     1
 72
     5
  1
5
  7
SLDTEXTSTYLE0
 11
0.0
 21
1.0
 31
0.0
 73
     1
 44
1.0
1001
ACAD
1000
MTEXTBEGIN
1070
    73
1070
     1
1070
    44
1040
1.0
1070
    74
1070
     0
1000
MTEXTEND
  0
MTEXT
  5
68
330
64
100
AcDbEntity
  8
0
 62
     7
100
AcDbMText
 10
243.2210329620999
 20
204.9459587723999
 30
0.0
 40
2.5
 41
0.0
 71
     1
 72
     5
  1
5
  7
SLDTEXTSTYLE0
 11
0.0
 21
1.0
 31
0.0
 73
     1
 44
1.0
1001
ACAD
1000
MTEXTBEGIN
1070
    73
1070
     1
1070
    44
1040
1.0
1070
    74
1070
     0
1000
MTEXTEND
  0
LINE
  5
69
330
64
100
AcDbEntity
  8
PIC06
  6
Continuous
 62
     7
100
AcDbLine
 10
246.3210600957
 20
174.2682501493999
 30
0.0
 11
246.3210600957
 21
203.8522148804999
 31
0.0
  0
LINE
  5
6A
330
64
100
AcDbEntity
  8
0
  6
Continuous
 62
     7
100
AcDbLine
 10
246.9460600956999
 20
176.7682501493999
 30
0.0
 11
246.3210600957
 21
174.2682501493999
 31
0.0
  0
LINE
  5
6B
330
64
100
AcDbEntity
  8
0
  6
Continuous
 62
     7
100
AcDbLine
 10
246.3210600957
 20
174.2682501493999
 30
0.0
 11
245.6960600957
 21
176.7682501493999
 31
0.0
  0
LINE
  5
6C
330
64
100
AcDbEntity
  8
PIC06
  6
Continuous
 62
     7
100
AcDbLine
 10
246.3210600957
 20
233.4361592661
 30
0.0
 11
246.3210600957
 21
203.8522148804999
 31
0.0
  0
LINE
  5
6D
330
64
100
AcDbEntity
  8
0
  6
Continuous
 62
     7
100
AcDbLine
 10
245.6960600957
 20
230.9361592660999
 30
0.0
 11
246.3210600957
 21
233.4361592661
 31
0.0
  0
LINE
  5
6E
330
64
100
AcDbEntity
  8
0
  6
Continuous
 62
     7
100
AcDbLine
 10
246.3210600957
 20
233.4361592661
 30
0.0
 11
246.9460600956999
 21
230.9361592660999
 31
0.0
  0
LINE
  5
6F
330
64
100
AcDbEntity
  8
PIC06
  6
Continuous
 62
     7
100
AcDbLine
 10
193.6608085875999
 20
174.2682501493999
 30
0.0
 11
247.3210393722999
 21
174.2682501493999
 31
0.0
  0
LINE
  5
70
330
64
100
AcDbEntity
  8
PIC06
  6
Continuous
 62
     7
100
AcDbLine
 10
193.6608085875999
 20
233.4361592661
 30
0.0
 11
247.3210393722999
 21
233.4361592661
 31
0.0
  0
ENDBLK
  5
71
330
64
100
AcDbEntity
  8
0
100
AcDbBlockEnd
  0
BLOCK
  5
73
330
72
100
AcDbEntity
  8
0
 62
     0
100
AcDbBlockBegin
  2
COMP6
 70
     0
 10
0.0
 20
0.0
 30
0.0
  3
COMP6
  1

  0
MTEXT
  5
74
330
72
100
AcDbEntity
  8
0
 62
     7
100
AcDbMText
 10
338.0152941264
 20
94.13295351030001
 30
0.0
 40
2.5
 41
0.0
 71
     1
 72
     5
  1
9
  7
SLDTEXTSTYLE0
 73
     1
 44
1.0
1001
ACAD
1000
MTEXTBEGIN
1070
    73
1070
     1
1070
    44
1040
1.0
1070
    74
1070
     0
1000
MTEXTEND
  0
MTEXT
  5
75
330
72
100
AcDbEntity
  8
0
 62
     7
100
AcDbMText
 10
339.7340441264
 20
94.13295351030001
 30
0.0
 40
2.5
 41
0.0
 71
     1
 72
     5
  1
5
  7
SLDTEXTSTYLE0
 73
     1
 44
1.0
1001
ACAD
1000
MTEXTBEGIN
1070
    73
1070
     1
1070
    44
1040
1.0
1070
    74
1070
     0
1000
MTEXTEND
  0
LINE
  5
76
330
72
100
AcDbEntity
  8
PIC06
  6
Continuous
 62
     7
100
AcDbLine
 10
347.416482818
 20
91.0329557716
 30
0.0
 11
339.4996580747999
 21
91.0329557716
 31
0.0
  0
LINE
  5
77
330
72
100
AcDbEntity
  8
0
  6
Continuous
 62
     7
100
AcDbLine
 10
344.916482818
 20
91.6579557716
 30
0.0
 11
347.416482818
 21
91.0329557716
 31
0.0
  0
LINE
  5
78
330
72
100
AcDbEntity
  8
0
  6
Continuous
 62
     7
100
AcDbLine
 10
347.416482818
 20
91.0329557716
 30
0.0
 11
344.916482818
 21
90.4079557716
 31
0.0
  0
LINE
  5
79
330
72
100
AcDbEntity
  8
PIC06
  6
Continuous
 62
     7
100
AcDbLine
 10
331.5828129862
 20
91.0329557716
 30
0.0
 11
339.4996580747999
 21
91.0329557716
 31
0.0
  0
LINE
  5
7A
330
72
100
AcDbEntity
  8
0
  6
Continuous
 62
     7
100
AcDbLine
 10
334.0828129861999
 20
90.4079557716
 30
0.0
 11
331.5828129862
 21
91.0329557716
 31
0.0
  0
LINE
  5
7B
330
72
100
AcDbEntity
  8
0
  6
Continuous
 62
     7
100
AcDbLine
 10
331.5828129862
 20
91.0329557716
 30
0.0
 11
334.0828129861999
 21
91.6579557716
 31
0.0
  0
LINE
  5
7C
330
72
100
AcDbEntity
  8
PIC06
  6
Continuous
 62
     7
100
AcDbLine
 10
347.416482818
 20
129.5311508219999
 30
0.0
 11
347.416482818
 21
90.03295614949999
 31
0.0
  0
LINE
  5
7D
330
72
100
AcDbEntity
  8
PIC06
  6
Continuous
 62
     7
100
AcDbLine
 10
331.5828129862
 20
96.03031914520002
 30
0.0
 11
331.5828129862
 21
90.03295614949999
 31
0.0
  0
ENDBLK
  5
7E
330
72
100
AcDbEntity
  8
0
100
AcDbBlockEnd
  0
BLOCK
  5
80
330
7F
100
AcDbEntity
  8
0
 62
     0
100
AcDbBlockBegin
  2
COMP7
 70
     0
 10
0.0
 20
0.0
 30
0.0
  3
COMP7
  1

  0
MTEXT
  5
81
330
7F
100
AcDbEntity
  8
0
 62
     7
100
AcDbMText
 10
189.9398073691999
 20
123.1327797874
 30
0.0
 40
2.5
 41
0.0
 71
     1
 72
     5
  1
6
  7
SLDTEXTSTYLE0
 73
     1
 44
1.0
1001
ACAD
1000
MTEXTBEGIN
1070
    73
1070
     1
1070
    44
1040
1.0
1070
    74
1070
     0
1000
MTEXTEND
  0
MTEXT
  5
82
330
7F
100
AcDbEntity
  8
0
 62
     7
100
AcDbMText
 10
191.6585573691999
 20
123.1327797874
 30
0.0
 40
2.5
 41
0.0
 71
     1
 72
     5
  1
3
  7
SLDTEXTSTYLE0
 73
     1
 44
1.0
1001
ACAD
1000
MTEXTBEGIN
1070
    73
1070
     1
1070
    44
1040
1.0
1070
    74
1070
     0
1000
MTEXTEND
  0
LINE
  5
83
330
7F
100
AcDbEntity
  8
PIC06
  6
Continuous
 62
     7
100
AcDbLine
 10
188.4107037578998
 20
119.3792757546
 30
0.0
 11
193.6608085875999
 21
119.3792757546
 31
0.0
  0
LINE
  5
84
330
7F
100
AcDbEntity
  8
0
  6
Continuous
 62
     7
100
AcDbLine
 10
190.9107037579
 20
118.7542757546
 30
0.0
 11
188.4107037578998
 21
119.3792757546
 31
0.0
  0
LINE
  5
85
330
7F
100
AcDbEntity
  8
0
  6
Continuous
 62
     7
100
AcDbLine
 10
188.4107037578998
 20
119.3792757546
 30
0.0
 11
190.9107037579
 21
120.0042757545999
 31
0.0
  0
LINE
  5
86
330
7F
100
AcDbEntity
  8
PIC06
  6
Continuous
 62
     7
100
AcDbLine
 10
198.9109134173
 20
119.3792757546
 30
0.0
 11
193.6608085875999
 21
119.3792757546
 31
0.0
  0
LINE
  5
87
330
7F
100
AcDbEntity
  8
0
  6
Continuous
 62
     7
100
AcDbLine
 10
196.4109134173
 20
120.0042757545999
 30
0.0
 11
198.9109134173
 21
119.3792757546
 31
0.0
  0
LINE
  5
88
330
7F
100
AcDbEntity
  8
0
  6
Continuous
 62
     7
100
AcDbLine
 10
198.9109134173
 20
119.3792757546
 30
0.0
 11
196.4109134173
 21
118.7542757546
 31
0.0
  0
LINE
  5
89
330
7F
100
AcDbEntity
  8
PIC06
  6
Continuous
 62
     7
100
AcDbLine
 10
188.4107037578998
 20
127.6144458841999
 30
0.0
 11
188.4107037578998
 21
118.3792761324999
 31
0.0
  0
LINE
  5
8A
330
7F
100
AcDbEntity
  8
PIC06
  6
Continuous
 62
     7
100
AcDbLine
 10
198.9109134173
 20
127.6144458841999
 30
0.0
 11
198.9109134173
 21
118.3792761324999
 31
0.0
  0
ENDBLK
  5
8B
330
7F
100
AcDbEntity
  8
0
100
AcDbBlockEnd
  0
BLOCK
  5
8D
330
8C
100
AcDbEntity
  8
0
 62
     0
100
AcDbBlockBegin
  2
COMP8
 70
     0
 10
0.0
 20
0.0
 30
0.0
  3
COMP8
  1

  0
MTEXT
  5
8E
330
8C
100
AcDbEntity
  8
0
 62
     7
100
AcDbMText
 10
178.4049386548
 20
120.0623439997
 30
0.0
 40
2.5
 41
0.0
 71
     1
 72
     5
  1
1
  7
SLDTEXTSTYLE0
 11
0.0
 21
1.0
 31
0.0
 73
     1
 44
1.0
1001
ACAD
1000
MTEXTBEGIN
1070
    73
1070
     1
1070
    44
1040
1.0
1070
    74
1070
     0
1000
MTEXTEND
  0
MTEXT
  5
8F
330
8C
100
AcDbEntity
  8
0
 62
     7
100
AcDbMText
 10
178.4049392164
 20
121.7810939997
 30
0.0
 40
2.5
 41
0.0
 71
     1
 72
     5
  1
3
  7
SLDTEXTSTYLE0
 11
0.0
 21
1.0
 31
0.0
 73
     1
 44
1.0
1001
ACAD
1000
MTEXTBEGIN
1070
    73
1070
     1
1070
    44
1040
1.0
1070
    74
1070
     0
1000
MTEXTEND
  0
LINE
  5
90
330
8C
100
AcDbEntity
  8
PIC06
  6
Continuous
 62
     7
100
AcDbLine
 10
181.5049465661999
 20
126.5310909192999
 30
0.0
 11
181.5049465661999
 21
119.5623441885999
 31
0.0
  0
LINE
  5
91
330
8C
100
AcDbEntity
  8
0
  6
Continuous
 62
     7
100
AcDbLine
 10
180.8799465662
 20
124.0310909193
 30
0.0
 11
181.5049465661999
 21
126.5310909192999
 31
0.0
  0
LINE
  5
92
330
8C
100
AcDbEntity
  8
0
  6
Continuous
 62
     7
100
AcDbLine
 10
181.5049465661999
 20
126.5310909192999
 30
0.0
 11
182.1299465662
 21
124.0310909193
 31
0.0
  0
LINE
  5
93
330
8C
100
AcDbEntity
  8
PIC06
  6
Continuous
 62
     7
100
AcDbLine
 10
181.5049465661999
 20
126.5310909192999
 30
0.0
 11
181.5049465661999
 21
127.6144458841999
 31
0.0
  0
LINE
  5
94
330
8C
100
AcDbEntity
  8
PIC06
  6
Continuous
 62
     7
100
AcDbLine
 10
181.5049465661999
 20
128.6978008489999
 30
0.0
 11
181.5049465661999
 21
127.6144458841999
 31
0.0
  0
LINE
  5
95
330
8C
100
AcDbEntity
  8
PIC06
  6
Continuous
 62
     7
100
AcDbLine
 10
181.5049465661999
 20
128.6978008489999
 30
0.0
 11
181.5049465661999
 21
131.6977997153
 31
0.0
  0
LINE
  5
96
330
8C
100
AcDbEntity
  8
0
  6
Continuous
 62
     7
100
AcDbLine
 10
182.1299465662
 20
131.197800849
 30
0.0
 11
181.5049465661999
 21
128.6978008489999
 31
0.0
  0
LINE
  5
97
330
8C
100
AcDbEntity
  8
0
  6
Continuous
 62
     7
100
AcDbLine
 10
181.5049465661999
 20
128.6978008489999
 30
0.0
 11
180.8799465662
 21
131.197800849
 31
0.0
  0
LINE
  5
98
330
8C
100
AcDbEntity
  8
PIC06
  6
Continuous
 62
     7
100
AcDbLine
 10
189.4940587227999
 20
126.5310909192999
 30
0.0
 11
180.5049469440999
 21
126.5310909192999
 31
0.0
  0
LINE
  5
99
330
8C
100
AcDbEntity
  8
PIC06
  6
Continuous
 62
     7
100
AcDbLine
 10
189.4940587227999
 20
128.6978008489999
 30
0.0
 11
180.5049469440999
 21
128.6978008489999
 31
0.0
  0
ENDBLK
  5
9A
330
8C
100
AcDbEntity
  8
0
100
AcDbBlockEnd
  0
BLOCK
  5
9C
330
9B
100
AcDbEntity
  8
0
 62
     0
100
AcDbBlockBegin
  2
COMP9
 70
     0
 10
0.0
 20
0.0
 30
0.0
  3
COMP9
  1

  0
MTEXT
  5
9D
330
9B
100
AcDbEntity
  8
0
 62
     7
100
AcDbMText
 10
308.8349314801
 20
132.3235039406
 30
0.0
 40
2.5
 41
0.0
 71
     1
 72
     5
  1
3
  7
SLDTEXTSTYLE0
 11
0.0
 21
1.0
 31
0.0
 73
     1
 44
1.0
1001
ACAD
1000
MTEXTBEGIN
1070
    73
1070
     1
1070
    44
1040
1.0
1070
    74
1070
     0
1000
MTEXTEND
  0
MTEXT
  5
9E
330
9B
100
AcDbEntity
  8
0
 62
     7
100
AcDbMText
 10
308.8349320416999
 20
134.0422539406
 30
0.0
 40
2.5
 41
0.0
 71
     1
 72
     5
  1
0
  7
SLDTEXTSTYLE0
 11
0.0
 21
1.0
 31
0.0
 73
     1
 44
1.0
1001
ACAD
1000
MTEXTBEGIN
1070
    73
1070
     1
1070
    44
1040
1.0
1070
    74
1070
     0
1000
MTEXTEND
  0
LINE
  5
9F
330
9B
100
AcDbEntity
  8
PIC06
  6
Continuous
 62
     7
100
AcDbLine
 10
312.5531564881
 20
131.5311907571
 30
0.0
 11
312.5531564881
 21
134.5311896234
 31
0.0
  0
LINE
  5
A0
330
9B
100
AcDbEntity
  8
0
  6
Continuous
 62
     7
100
AcDbLine
 10
313.1781564880999
 20
134.0311907570999
 30
0.0
 11
312.5531564881
 21
131.5311907571
 31
0.0
  0
LINE
  5
A1
330
9B
100
AcDbEntity
  8
0
  6
Continuous
 62
     7
100
AcDbLine
 10
312.5531564881
 20
131.5311907571
 30
0.0
 11
311.9281564881
 21
134.0311907570999
 31
0.0
  0
LINE
  5
A2
330
9B
100
AcDbEntity
  8
PIC06
  6
Continuous
 62
     7
100
AcDbLine
 10
312.5531564881
 20
131.5311907571
 30
0.0
 11
312.5531564881
 21
129.0311408381999
 31
0.0
  0
LINE
  5
A3
330
9B
100
AcDbEntity
  8
PIC06
  6
Continuous
 62
     7
100
AcDbLine
 10
312.5531564881
 20
126.5310909192999
 30
0.0
 11
312.5531564881
 21
129.0311408381999
 31
0.0
  0
LINE
  5
A4
330
9B
100
AcDbEntity
  8
PIC06
  6
Continuous
 62
     7
100
AcDbLine
 10
313.4272584140999
 20
131.5311907571
 30
0.0
 11
311.5531568659999
 21
131.5311907571
 31
0.0
  0
LINE
  5
A5
330
9B
100
AcDbEntity
  8
PIC06
  6
Continuous
 62
     7
100
AcDbLine
 10
314.70198276
 20
126.5310909192999
 30
0.0
 11
311.5531568659999
 21
126.5310909192999
 31
0.0
  0
ENDBLK
  5
A6
330
9B
100
AcDbEntity
  8
0
100
AcDbBlockEnd
  0
BLOCK
  5
A8
330
A7
100
AcDbEntity
  8
0
 62
     0
100
AcDbBlockBegin
  2
COMP10
 70
     0
 10
0.0
 20
0.0
 30
0.0
  3
COMP10
  1

  0
MTEXT
  5
A9
330
A7
100
AcDbEntity
  8
0
 62
     7
100
AcDbMText
 10
309.4531485767
 20
115.0204952814
 30
0.0
 40
2.5
 41
0.0
 71
     1
 72
     5
  1
1
  7
SLDTEXTSTYLE0
 11
0.0
 21
1.0
 31
0.0
 73
     1
 44
1.0
1001
ACAD
1000
MTEXTBEGIN
1070
    73
1070
     1
1070
    44
1040
1.0
1070
    74
1070
     0
1000
MTEXTEND
  0
MTEXT
  5
AA
330
A7
100
AcDbEntity
  8
0
 62
     7
100
AcDbMText
 10
309.4531491384
 20
116.7392452814
 30
0.0
 40
2.5
 41
0.0
 71
     1
 72
     5
  1
1
  7
SLDTEXTSTYLE0
 11
0.0
 21
1.0
 31
0.0
 73
     1
 44
1.0
1001
ACAD
1000
MTEXTBEGIN
1070
    73
1070
     1
1070
    44
1040
1.0
1070
    74
1070
     0
1000
MTEXTEND
  0
MTEXT
  5
AB
330
A7
100
AcDbEntity
  8
0
 62
     7
100
AcDbMText
 10
309.4531497001
 20
118.4579952813999
 30
0.0
 40
2.5
 41
0.0
 71
     1
 72
     5
  1
0
  7
SLDTEXTSTYLE0
 11
0.0
 21
1.0
 31
0.0
 73
     1
 44
1.0
1001
ACAD
1000
MTEXTBEGIN
1070
    73
1070
     1
1070
    44
1040
1.0
1070
    74
1070
     0
1000
MTEXTEND
  0
LINE
  5
AC
330
A7
100
AcDbEntity
  8
PIC06
  6
Continuous
 62
     7
100
AcDbLine
 10
312.5531564881
 20
126.5310909192999
 30
0.0
 11
312.5531564881
 21
117.3642412166999
 31
0.0
  0
LINE
  5
AD
330
A7
100
AcDbEntity
  8
0
  6
Continuous
 62
     7
100
AcDbLine
 10
311.9281564881
 20
124.0310909193
 30
0.0
 11
312.5531564881
 21
126.5310909192999
 31
0.0
  0
LINE
  5
AE
330
A7
100
AcDbEntity
  8
0
  6
Continuous
 62
     7
100
AcDbLine
 10
312.5531564881
 20
126.5310909192999
 30
0.0
 11
313.1781564880999
 21
124.0310909193
 31
0.0
  0
LINE
  5
AF
330
A7
100
AcDbEntity
  8
PIC06
  6
Continuous
 62
     7
100
AcDbLine
 10
312.5531564881
 20
108.1973915141
 30
0.0
 11
312.5531564881
 21
117.3642412166999
 31
0.0
  0
LINE
  5
B0
330
A7
100
AcDbEntity
  8
0
  6
Continuous
 62
     7
100
AcDbLine
 10
313.1781564880999
 20
110.6973915141
 30
0.0
 11
312.5531564881
 21
108.1973915141
 31
0.0
  0
LINE
  5
B1
330
A7
100
AcDbEntity
  8
0
  6
Continuous
 62
     7
100
AcDbLine
 10
312.5531564881
 20
108.1973915141
 30
0.0
 11
311.9281564881
 21
110.6973915141
 31
0.0
  0
LINE
  5
B2
330
A7
100
AcDbEntity
  8
PIC06
  6
Continuous
 62
     7
100
AcDbLine
 10
325.847489321
 20
108.1973915141
 30
0.0
 11
311.5531568659999
 21
108.1973915141
 31
0.0
  0
ENDBLK
  5
B3
330
A7
100
AcDbEntity
  8
0
100
AcDbBlockEnd
  0
BLOCK
  5
B5
330
B4
100
AcDbEntity
  8
0
 62
     0
100
AcDbBlockBegin
  2
COMP11
 70
     0
 10
0.0
 20
0.0
 30
0.0
  3
COMP11
  1

  0
MTEXT
  5
B6
330
B4
100
AcDbEntity
  8
0
 62
     7
100
AcDbMText
 10
329.2390772237
 20
120.2335316307999
 30
0.0
 40
2.5
 41
0.0
 71
     1
 72
     5
  1
%%c
  7
SLDTEXTSTYLE0
 73
     1
 44
1.0
1001
ACAD
1000
MTEXTBEGIN
1070
    73
1070
     1
1070
    44
1040
1.0
1070
    74
1070
     0
1000
MTEXTEND
  0
MTEXT
  5
B7
330
B4
100
AcDbEntity
  8
0
 62
     7
100
AcDbMText
 10
330.9578272237
 20
120.2335316307999
 30
0.0
 40
2.5
 41
0.0
 71
     1
 72
     5
  1
6
  7
SLDTEXTSTYLE0
 73
     1
 44
1.0
1001
ACAD
1000
MTEXTBEGIN
1070
    73
1070
     1
1070
    44
1040
1.0
1070
    74
1070
     0
1000
MTEXTEND
  0
MTEXT
  5
B8
330
B4
100
AcDbEntity
  8
0
 62
     7
100
AcDbMText
 10
332.6765772237
 20
120.2335316307999
 30
0.0
 40
2.5
 41
0.0
 71
     1
 72
     5
  1
4
  7
SLDTEXTSTYLE0
 73
     1
 44
1.0
1001
ACAD
1000
MTEXTBEGIN
1070
    73
1070
     1
1070
    44
1040
1.0
1070
    74
1070
     0
1000
MTEXTEND
  0
LINE
  5
B9
330
B4
100
AcDbEntity
  8
PIC06
  6
Continuous
 62
     7
100
AcDbLine
 10
326.2493731593
 20
117.1335338921
 30
0.0
 11
331.5828129862
 21
117.1335338921
 31
0.0
  0
LINE
  5
BA
330
B4
100
AcDbEntity
  8
0
  6
Continuous
 62
     7
100
AcDbLine
 10
328.7493731592999
 20
116.5085338921
 30
0.0
 11
326.2493731593
 21
117.1335338921
 31
0.0
  0
LINE
  5
BB
330
B4
100
AcDbEntity
  8
0
  6
Continuous
 62
     7
100
AcDbLine
 10
326.2493731593
 20
117.1335338921
 30
0.0
 11
328.7493731592999
 21
117.7585338921
 31
0.0
  0
LINE
  5
BC
330
B4
100
AcDbEntity
  8
PIC06
  6
Continuous
 62
     7
100
AcDbLine
 10
336.9162731587
 20
117.1335338921
 30
0.0
 11
331.5828129862
 21
117.1335338921
 31
0.0
  0
LINE
  5
BD
330
B4
100
AcDbEntity
  8
0
  6
Continuous
 62
     7
100
AcDbLine
 10
334.4162731587
 20
117.7585338921
 30
0.0
 11
336.9162731587
 21
117.1335338921
 31
0.0
  0
LINE
  5
BE
330
B4
100
AcDbEntity
  8
0
  6
Continuous
 62
     7
100
AcDbLine
 10
336.9162731587
 20
117.1335338921
 30
0.0
 11
334.4162731587
 21
116.5085338921
 31
0.0
  0
LINE
  5
BF
330
B4
100
AcDbEntity
  8
PIC06
  6
Continuous
 62
     7
100
AcDbLine
 10
326.2493731593
 20
108.1973915141
 30
0.0
 11
326.2493731593
 21
118.1335335141999
 31
0.0
  0
LINE
  5
C0
330
B4
100
AcDbEntity
  8
PIC06
  6
Continuous
 62
     7
100
AcDbLine
 10
336.9162731587
 20
108.1973915141
 30
0.0
 11
336.9162731587
 21
118.1335335141999
 31
0.0
  0
ENDBLK
  5
C1
330
B4
100
AcDbEntity
  8
0
100
AcDbBlockEnd
  0
BLOCK
  5
C3
330
C2
100
AcDbEntity
  8
0
 62
     0
100
AcDbBlockBegin
  2
COMP12
 70
     0
 10
0.0
 20
0.0
 30
0.0
  3
COMP12
  1

  0
MTEXT
  5
C4
330
C2
100
AcDbEntity
  8
0
 62
     7
100
AcDbMText
 10
329.2390772237
 20
115.0031517229
 30
0.0
 40
2.5
 41
0.0
 71
     1
 72
     5
  1
%%c
  7
SLDTEXTSTYLE0
 73
     1
 44
1.0
1001
ACAD
1000
MTEXTBEGIN
1070
    73
1070
     1
1070
    44
1040
1.0
1070
    74
1070
     0
1000
MTEXTEND
  0
MTEXT
  5
C5
330
C2
100
AcDbEntity
  8
0
 62
     7
100
AcDbMText
 10
330.9578272237
 20
115.0031517229
 30
0.0
 40
2.5
 41
0.0
 71
     1
 72
     5
  1
4
  7
SLDTEXTSTYLE0
 73
     1
 44
1.0
1001
ACAD
1000
MTEXTBEGIN
1070
    73
1070
     1
1070
    44
1040
1.0
1070
    74
1070
     0
1000
MTEXTEND
  0
MTEXT
  5
C6
330
C2
100
AcDbEntity
  8
0
 62
     7
100
AcDbMText
 10
332.6765772237
 20
115.0031517229
 30
0.0
 40
2.5
 41
0.0
 71
     1
 72
     5
  1
4
  7
SLDTEXTSTYLE0
 73
     1
 44
1.0
1001
ACAD
1000
MTEXTBEGIN
1070
    73
1070
     1
1070
    44
1040
1.0
1070
    74
1070
     0
1000
MTEXTEND
  0
LINE
  5
C7
330
C2
100
AcDbEntity
  8
PIC06
  6
Continuous
 62
     7
100
AcDbLine
 10
327.9160731051999
 20
111.9031539842
 30
0.0
 11
331.5828129862
 21
111.9031539842
 31
0.0
  0
LINE
  5
C8
330
C2
100
AcDbEntity
  8
0
  6
Continuous
 62
     7
100
AcDbLine
 10
330.4160731051999
 20
111.2781539842
 30
0.0
 11
327.9160731051999
 21
111.9031539842
 31
0.0
  0
LINE
  5
C9
330
C2
100
AcDbEntity
  8
0
  6
Continuous
 62
     7
100
AcDbLine
 10
327.9160731051999
 20
111.9031539842
 30
0.0
 11
330.4160731051999
 21
112.5281539841999
 31
0.0
  0
LINE
  5
CA
330
C2
100
AcDbEntity
  8
PIC06
  6
Continuous
 62
     7
100
AcDbLine
 10
335.2495528672999
 20
111.9031539842
 30
0.0
 11
331.5828129862
 21
111.9031539842
 31
0.0
  0
LINE
  5
CB
330
C2
100
AcDbEntity
  8
0
  6
Continuous
 62
     7
100
AcDbLine
 10
332.7495528672999
 20
112.5281539841999
 30
0.0
 11
335.2495528672999
 21
111.9031539842
 31
0.0
  0
LINE
  5
CC
330
C2
100
AcDbEntity
  8
0
  6
Continuous
 62
     7
100
AcDbLine
 10
335.2495528672999
 20
111.9031539842
 30
0.0
 11
332.7495528672999
 21
111.2781539842
 31
0.0
  0
LINE
  5
CD
330
C2
100
AcDbEntity
  8
PIC06
  6
Continuous
 62
     7
100
AcDbLine
 10
327.9160731051999
 20
106.5306915682
 30
0.0
 11
327.9160731051999
 21
112.9031536062999
 31
0.0
  0
LINE
  5
CE
330
C2
100
AcDbEntity
  8
PIC06
  6
Continuous
 62
     7
100
AcDbLine
 10
335.2495528672999
 20
106.5306915682
 30
0.0
 11
335.2495528672999
 21
112.9031536062999
 31
0.0
  0
ENDBLK
  5
CF
330
C2
100
AcDbEntity
  8
0
100
AcDbBlockEnd
  0
BLOCK
  5
D1
330
D0
100
AcDbEntity
  8
0
 62
     0
100
AcDbBlockBegin
  2
COMP13
 70
     0
 10
0.0
 20
0.0
 30
0.0
  3
COMP13
  1

  0
MTEXT
  5
D2
330
D0
100
AcDbEntity
  8
0
 62
     7
100
AcDbMText
 10
309.0136866769
 20
101.4501559609
 30
0.0
 40
2.5
 41
0.0
 71
     1
 72
     5
  1
4
  7
SLDTEXTSTYLE0
 11
0.0
 21
1.0
 31
0.0
 73
     1
 44
1.0
1001
ACAD
1000
MTEXTBEGIN
1070
    73
1070
     1
1070
    44
1040
1.0
1070
    74
1070
     0
1000
MTEXTEND
  0
MTEXT
  5
D3
330
D0
100
AcDbEntity
  8
0
 62
     7
100
AcDbMText
 10
309.0136872386
 20
103.1689059609
 30
0.0
 40
2.5
 41
0.0
 71
     1
 72
     5
  1
8
  7
SLDTEXTSTYLE0
 11
0.0
 21
1.0
 31
0.0
 73
     1
 44
1.0
1001
ACAD
1000
MTEXTBEGIN
1070
    73
1070
     1
1070
    44
1040
1.0
1070
    74
1070
     0
1000
MTEXTEND
  0
LINE
  5
D4
330
D0
100
AcDbEntity
  8
PIC06
  6
Continuous
 62
     7
100
AcDbLine
 10
312.5531564881
 20
108.1973915141
 30
0.0
 11
312.5531564881
 21
104.1973116439
 31
0.0
  0
LINE
  5
D5
330
D0
100
AcDbEntity
  8
0
  6
Continuous
 62
     7
100
AcDbLine
 10
311.9281564881
 20
105.6973915141
 30
0.0
 11
312.5531564881
 21
108.1973915141
 31
0.0
  0
LINE
  5
D6
330
D0
100
AcDbEntity
  8
0
  6
Continuous
 62
     7
100
AcDbLine
 10
312.5531564881
 20
108.1973915141
 30
0.0
 11
313.1781564880999
 21
105.6973915141
 31
0.0
  0
LINE
  5
D7
330
D0
100
AcDbEntity
  8
PIC06
  6
Continuous
 62
     7
100
AcDbLine
 10
312.5531564881
 20
100.1972317736999
 30
0.0
 11
312.5531564881
 21
104.1973116439
 31
0.0
  0
LINE
  5
D8
330
D0
100
AcDbEntity
  8
0
  6
Continuous
 62
     7
100
AcDbLine
 10
313.1781564880999
 20
102.6972317737
 30
0.0
 11
312.5531564881
 21
100.1972317736999
 31
0.0
  0
LINE
  5
D9
330
D0
100
AcDbEntity
  8
0
  6
Continuous
 62
     7
100
AcDbLine
 10
312.5531564881
 20
100.1972317736999
 30
0.0
 11
311.9281564881
 21
102.6972317737
 31
0.0
  0
LINE
  5
DA
330
D0
100
AcDbEntity
  8
PIC06
  6
Continuous
 62
     7
100
AcDbLine
 10
325.847489321
 20
108.1973915141
 30
0.0
 11
311.5531568659999
 21
108.1973915141
 31
0.0
  0
LINE
  5
DB
330
D0
100
AcDbEntity
  8
PIC06
  6
Continuous
 62
     7
100
AcDbLine
 10
327.1464044168
 20
100.1972317736999
 30
0.0
 11
311.5531568659999
 21
100.1972317736999
 31
0.0
  0
ENDBLK
  5
DC
330
D0
100
AcDbEntity
  8
0
100
AcDbBlockEnd
  0
BLOCK
  5
DE
330
DD
100
AcDbEntity
  8
0
 62
     0
100
AcDbBlockBegin
  2
COMP14
 70
     0
 10
0.0
 20
0.0
 30
0.0
  3
COMP14
  1

  0
MTEXT
  5
DF
330
DD
100
AcDbEntity
  8
0
 62
     7
100
AcDbMText
 10
251.0228640514999
 20
113.5204653301
 30
0.0
 40
2.5
 41
0.0
 71
     1
 72
     5
  1
1
  7
SLDTEXTSTYLE0
 11
0.0
 21
1.0
 31
0.0
 73
     1
 44
1.0
1001
ACAD
1000
MTEXTBEGIN
1070
    73
1070
     1
1070
    44
1040
1.0
1070
    74
1070
     0
1000
MTEXTEND
  0
MTEXT
  5
E0
330
DD
100
AcDbEntity
  8
0
 62
     7
100
AcDbMText
 10
251.0228646132
 20
115.2392153300999
 30
0.0
 40
2.5
 41
0.0
 71
     1
 72
     5
  1
8
  7
SLDTEXTSTYLE0
 11
0.0
 21
1.0
 31
0.0
 73
     1
 44
1.0
1001
ACAD
1000
MTEXTBEGIN
1070
    73
1070
     1
1070
    44
1040
1.0
1070
    74
1070
     0
1000
MTEXTEND
  0
MTEXT
  5
E1
330
DD
100
AcDbEntity
  8
0
 62
     7
100
AcDbMText
 10
251.0228651748
 20
116.9579653300999
 30
0.0
 40
2.5
 41
0.0
 71
     1
 72
     5
  1
8
  7
SLDTEXTSTYLE0
 11
0.0
 21
1.0
 31
0.0
 73
     1
 44
1.0
1001
ACAD
1000
MTEXTBEGIN
1070
    73
1070
     1
1070
    44
1040
1.0
1070
    74
1070
     0
1000
MTEXTEND
  0
LINE
  5
E2
330
DD
100
AcDbEntity
  8
PIC06
  6
Continuous
 62
     7
100
AcDbLine
 10
254.1228719629
 20
131.5311907571
 30
0.0
 11
254.1228719629
 21
115.8642112654
 31
0.0
  0
LINE
  5
E3
330
DD
100
AcDbEntity
  8
0
  6
Continuous
 62
     7
100
AcDbLine
 10
253.4978719629
 20
129.0311907571
 30
0.0
 11
254.1228719629
 21
131.5311907571
 31
0.0
  0
LINE
  5
E4
330
DD
100
AcDbEntity
  8
0
  6
Continuous
 62
     7
100
AcDbLine
 10
254.1228719629
 20
131.5311907571
 30
0.0
 11
254.7478719629
 21
129.0311907571
 31
0.0
  0
LINE
  5
E5
330
DD
100
AcDbEntity
  8
PIC06
  6
Continuous
 62
     7
100
AcDbLine
 10
254.1228719629
 20
100.1972317736999
 30
0.0
 11
254.1228719629
 21
115.8642112654
 31
0.0
  0
LINE
  5
E6
330
DD
100
AcDbEntity
  8
0
  6
Continuous
 62
     7
100
AcDbLine
 10
254.7478719629
 20
102.6972317737
 30
0.0
 11
254.1228719629
 21
100.1972317736999
 31
0.0
  0
LINE
  5
E7
330
DD
100
AcDbEntity
  8
0
  6
Continuous
 62
     7
100
AcDbLine
 10
254.1228719629
 20
100.1972317736999
 30
0.0
 11
253.4978719629
 21
102.6972317737
 31
0.0
  0
LINE
  5
E8
330
DD
100
AcDbEntity
  8
PIC06
  6
Continuous
 62
     7
100
AcDbLine
 10
233.9949472789999
 20
131.5311907571
 30
0.0
 11
255.122871585
 21
131.5311907571
 31
0.0
  0
LINE
  5
E9
330
DD
100
AcDbEntity
  8
PIC06
  6
Continuous
 62
     7
100
AcDbLine
 10
197.6370435807
 20
100.1972317736999
 30
0.0
 11
255.122871585
 21
100.1972317736999
 31
0.0
  0
ENDBLK
  5
EA
330
DD
100
AcDbEntity
  8
0
100
AcDbBlockEnd
  0
ENDSEC
  0
SECTION
  2
ENTITIES
  0
LINE
  5
EB
330
A
100
AcDbEntity
  8
PIC06
  6
Continuous
 62
     7
100
AcDbLine
 10
229.669389257
 20
78.5463950037
 30
0.0
 11
229.669389257
 21
76.71302506319999
 31
0.0
  0
LINE
  5
EC
330
A
100
AcDbEntity
  8
PIC06
  6
Continuous
 62
     7
100
AcDbLine
 10
161.5013664687
 20
74.20897506439998
 30
0.0
 11
161.5013664687
 21
78.5463950037
 31
0.0
  0
LINE
  5
ED
330
A
100
AcDbEntity
  8
PIC06
  6
Continuous
 62
     7
100
AcDbLine
 10
209.8356599005
 20
52.7125458419
 30
0.0
 11
217.8358196408999
 21
52.7125458419
 31
0.0
  0
LINE
  5
EE
330
A
100
AcDbEntity
  8
PIC06
  6
Continuous
 62
     7
100
AcDbLine
 10
210.1689998896
 20
53.71256580939999
 30
0.0
 11
217.5024796516999
 21
53.71256580939999
 31
0.0
  0
LINE
  5
EF
330
A
100
AcDbEntity
  8
PIC06
  6
Continuous
 62
     7
100
AcDbLine
 10
208.1771267843
 20
53.81873459600001
 30
0.0
 11
208.892807741
 21
53.1030536392
 31
0.0
  0
LINE
  5
F0
330
A
100
AcDbEntity
  8
PIC06
  6
Continuous
 62
     7
100
AcDbLine
 10
116.2478778069999
 20
78.7130649983
 30
0.0
 11
35.5796004242
 21
78.7130649983
 31
0.0
  0
LINE
  5
F1
330
A
100
AcDbEntity
  8
PIC06
  6
Continuous
 62
     7
100
AcDbLine
 10
229.5027192624
 20
78.7130649983
 30
0.0
 11
161.6680314632
 21
78.7130649983
 31
0.0
  0
LINE
  5
F2
330
A
100
AcDbEntity
  8
PIC06
  6
Continuous
 62
     7
100
AcDbLine
 10
35.4129304296
 20
76.71302506319999
 30
0.0
 11
35.4129304296
 21
78.5463950037
 31
0.0
  0
LINE
  5
F3
330
A
100
AcDbEntity
  8
PIC06
  6
Continuous
 62
     7
100
AcDbLine
 10
116.4145478015999
 20
78.5463950037
 30
0.0
 11
116.4145478015999
 21
76.71302506319999
 31
0.0
  0
LINE
  5
F4
330
A
100
AcDbEntity
  8
PIC06
  6
Continuous
 62
     7
100
AcDbLine
 10
209.3993282947999
 20
47.37910601489999
 30
0.0
 11
217.7967850109999
 21
47.37910601489999
 31
0.0
  0
LINE
  5
F5
330
A
100
AcDbEntity
  8
PIC06
  6
Continuous
 62
     7
100
AcDbLine
 10
35.5796004242
 20
76.5463550686
 30
0.0
 11
70.73737106910002
 21
76.5463550686
 31
0.0
  0
LINE
  5
F6
330
A
100
AcDbEntity
  8
PIC06
  6
Continuous
 62
     7
100
AcDbLine
 10
162.8347214252999
 20
74.20897506439998
 30
0.0
 11
162.8347214252999
 21
77.3797050416
 31
0.0
  0
LINE
  5
F7
330
A
100
AcDbEntity
  8
PIC06
  6
Continuous
 62
     7
100
AcDbLine
 10
164.939596787
 20
77.3797050416
 30
0.0
 11
162.8347214252999
 21
77.3797050416
 31
0.0
  0
LINE
  5
F8
330
A
100
AcDbEntity
  8
PIC06
  6
Continuous
 62
     7
100
AcDbLine
 10
210.1689998896
 20
53.71256580939999
 30
0.0
 11
210.1689998896
 21
52.7125458419
 31
0.0
  0
LINE
  5
F9
330
A
100
AcDbEntity
  8
PIC06
  6
Continuous
 62
     7
100
AcDbLine
 10
210.1689998896
 20
48.71246597159998
 30
0.0
 11
210.1689998896
 21
47.37910601489999
 31
0.0
  0
LINE
  5
FA
330
A
100
AcDbEntity
  8
PIC06
  6
Continuous
 62
     7
100
AcDbLine
 10
209.3993282947999
 20
48.71246597159998
 30
0.0
 11
217.7967850109999
 21
48.71246597159998
 31
0.0
  0
LINE
  5
FB
330
A
100
AcDbEntity
  8
PIC06
  6
Continuous
 62
     7
100
AcDbLine
 10
208.5022999437
 20
55.3792657553
 30
0.0
 11
219.1691795975999
 21
55.3792657553
 31
0.0
  0
LINE
  5
FC
330
A
100
AcDbEntity
  8
PIC06
  6
Continuous
 62
     7
100
AcDbLine
 10
217.5024796516999
 20
53.71256580939999
 30
0.0
 11
217.5024796516999
 21
52.7125458419
 31
0.0
  0
LINE
  5
FD
330
A
100
AcDbEntity
  8
PIC06
  6
Continuous
 62
     7
100
AcDbLine
 10
217.5024796516999
 20
48.71246597159998
 30
0.0
 11
217.5024796516999
 21
47.37910601489999
 31
0.0
  0
LINE
  5
FE
330
A
100
AcDbEntity
  8
PIC06
  6
Continuous
 62
     7
100
AcDbLine
 10
226.6654959444
 20
76.5463550686
 30
0.0
 11
229.5027192624
 21
76.5463550686
 31
0.0
  0
LINE
  5
FF
330
A
100
AcDbEntity
  8
PIC06
  6
Continuous
 62
     7
100
AcDbLine
 10
166.1693380081
 20
73.71296516050001
 30
0.0
 11
167.6317005407
 21
73.71296516050001
 31
0.0
  0
LINE
  5
100
330
A
100
AcDbEntity
  8
PIC06
  6
Continuous
 62
     7
100
AcDbLine
 10
218.8403396982999
 20
55.050425856
 30
0.0
 11
217.5024796516999
 21
53.71256580939999
 31
0.0
  0
LINE
  5
101
330
A
100
AcDbEntity
  8
PIC06
  6
Continuous
 62
     7
100
AcDbLine
 10
209.1199789437
 20
54.76158675539999
 30
0.0
 11
210.1689998896
 21
53.71256580939999
 31
0.0
  0
LINE
  5
102
330
A
100
AcDbEntity
  8
PIC06
  6
Continuous
 62
     7
100
AcDbLine
 10
166.758983115
 20
75.87967509020001
 30
0.0
 11
165.3547884106
 21
75.87967509020001
 31
0.0
  0
LINE
  5
103
330
A
100
AcDbEntity
  8
PIC06
  6
CENTERX2
 62
     7
100
AcDbLine
 10
33.7847312524
 20
151.0341524368
 30
0.0
 11
118.3464197089
 21
151.0341524368
 31
0.0
  0
LINE
  5
104
330
A
100
AcDbEntity
  8
PIC06
  6
CENTERX2
 62
     7
100
AcDbLine
 10
75.91373911559998
 20
187.3550443283999
 30
0.0
 11
75.91373911559998
 21
114.4529217491
 31
0.0
  0
LINE
  5
105
330
A
100
AcDbEntity
  8
PIC06
  6
CENTERX2
 62
     7
100
AcDbLine
 10
75.91373911559998
 20
80.57943559779998
 30
0.0
 11
75.91373911559998
 21
45.1278943979
 31
0.0
  0
LINE
  5
106
330
A
100
AcDbEntity
  8
PIC06
  6
HIDDEN
 62
     7
100
AcDbLine
 10
75.91373911559998
 20
73.71296516050001
 30
0.0
 11
71.7469892508
 21
73.71296516050001
 31
0.0
  0
LINE
  5
107
330
A
100
AcDbEntity
  8
PIC06
  6
HIDDEN
 62
     7
100
AcDbLine
 10
75.91373911559998
 20
75.87967509020001
 30
0.0
 11
71.7469892508
 21
75.87967509020001
 31
0.0
  0
LINE
  5
108
330
A
100
AcDbEntity
  8
PIC06
  6
CENTERX2
 62
     7
100
AcDbLine
 10
68.6224268622
 20
169.2845168447
 30
0.0
 11
82.4555364034
 21
169.2845168447
 31
0.0
  0
LINE
  5
109
330
A
100
AcDbEntity
  8
PIC06
  6
HIDDEN
 62
     7
100
AcDbLine
 10
90.9082051791
 20
76.5463550686
 30
0.0
 11
75.91373911559998
 21
76.5463550686
 31
0.0
  0
LINE
  5
10A
330
A
100
AcDbEntity
  8
PIC06
  6
HIDDEN
 62
     7
100
AcDbLine
 10
113.2209840352
 20
76.5463550686
 30
0.0
 11
90.9082051791
 21
76.5463550686
 31
0.0
  0
LINE
  5
10B
330
A
100
AcDbEntity
  8
PIC06
  6
HIDDEN
 62
     7
100
AcDbLine
 10
200.3923046768
 20
76.5463550686
 30
0.0
 11
161.5013664687
 21
76.5463550686
 31
0.0
  0
LINE
  5
10C
330
A
100
AcDbEntity
  8
PIC06
  6
HIDDEN
 62
     7
100
AcDbLine
 10
200.3923046768
 20
76.5463550686
 30
0.0
 11
226.5123262193999
 21
76.5463550686
 31
0.0
  0
LINE
  5
10D
330
A
100
AcDbEntity
  8
PIC06
  6
CENTERX2
 62
     7
100
AcDbLine
 10
213.8357397706999
 20
56.5361221878
 30
0.0
 11
213.8357397706999
 21
50.3223314494
 31
0.0
  0
LINE
  5
10E
330
A
100
AcDbEntity
  8
PIC06
  6
CENTERX2
 62
     7
100
AcDbLine
 10
213.8357397706999
 20
50.3223314494
 30
0.0
 11
213.8357397706999
 21
43.2121894801
 31
0.0
  0
LINE
  5
10F
330
A
100
AcDbEntity
  8
PIC06
  6
Continuous
 62
     7
100
AcDbLine
 10
219.1234234229999
 20
48.5787524795
 30
0.0
 11
219.5691426603999
 21
53.0009558932
 31
0.0
  0
LINE
  5
110
330
A
100
AcDbEntity
  8
PIC06
  6
Continuous
 62
     7
100
AcDbLine
 10
217.7967850109999
 20
48.71246597159998
 30
0.0
 11
218.2052183191999
 21
52.7647370389
 31
0.0
  0
LINE
  5
111
330
A
100
AcDbEntity
  8
PIC06
  6
Continuous
 62
     7
100
AcDbLine
 10
71.93752789689998
 20
47.3791050952
 30
0.0
 11
79.88995040439998
 21
47.3791050952
 31
0.0
  0
LINE
  5
112
330
A
100
AcDbEntity
  8
PIC06
  6
Continuous
 62
     7
100
AcDbLine
 10
70.6126774249
 20
48.5620655803
 30
0.0
 11
70.17908745709999
 21
52.3815063496
 31
0.0
  0
LINE
  5
113
330
A
100
AcDbEntity
  8
PIC06
  6
Continuous
 62
     7
100
AcDbLine
 10
81.2148008676
 20
48.56206550279999
 30
0.0
 11
81.64839086029997
 21
52.3815044958
 31
0.0
  0
LINE
  5
114
330
A
100
AcDbEntity
  8
PIC06
  6
Continuous
 62
     7
100
AcDbLine
 10
70.08028930489999
 20
53.2518071371
 30
0.0
 11
68.5697124026
 21
72.444990835
 31
0.0
  0
LINE
  5
115
330
A
100
AcDbEntity
  8
PIC06
  6
HIDDEN
 62
     7
100
AcDbLine
 10
68.24691936429999
 20
120.4591379703999
 30
0.0
 11
70.08437914529999
 21
169.5029179244
 31
0.0
  0
LINE
  5
116
330
A
100
AcDbEntity
  8
PIC06
  6
HIDDEN
 62
     7
100
AcDbLine
 10
83.58055886690001
 20
120.4592186725
 30
0.0
 11
81.74309907239999
 21
169.5029182831999
 31
0.0
  0
LINE
  5
117
330
A
100
AcDbEntity
  8
PIC06
  6
Continuous
 62
     7
100
AcDbLine
 10
65.74686944549999
 20
74.0463051497
 30
0.0
 11
65.74686944549999
 21
75.71300509560001
 31
0.0
  0
LINE
  5
118
330
A
100
AcDbEntity
  8
PIC06
  6
Continuous
 62
     7
100
AcDbLine
 10
66.58021941840001
 20
73.21295517679998
 30
0.0
 11
67.7389315069
 21
73.21295517679998
 31
0.0
  0
LINE
  5
119
330
A
100
AcDbEntity
  8
PIC06
  6
HIDDEN
 62
     7
100
AcDbLine
 10
65.74686944549999
 20
119.257124974
 30
0.0
 11
65.74686944549999
 21
119.9386672861
 31
0.0
  0
LINE
  5
11A
330
A
100
AcDbEntity
  8
PIC06
  6
HIDDEN
 62
     7
100
AcDbLine
 10
67.08022940220002
 20
119.257124974
 30
0.0
 11
67.08022940220002
 21
119.9386672861
 31
0.0
  0
LINE
  5
11B
330
A
100
AcDbEntity
  8
PIC06
  6
Continuous
 62
     7
100
AcDbLine
 10
116.2478778069999
 20
76.5463550686
 30
0.0
 11
113.7631668302999
 21
76.5463550686
 31
0.0
  0
LINE
  5
11C
330
A
100
AcDbEntity
  8
PIC06
  6
Continuous
 62
     7
100
AcDbLine
 10
167.6317005407
 20
73.71296516050001
 30
0.0
 11
224.5614539327
 21
73.71296516050001
 31
0.0
  0
LINE
  5
11D
330
A
100
AcDbEntity
  8
PIC06
  6
PHANTOM
 62
     7
100
AcDbLine
 10
75.91373911559998
 20
73.71296516050001
 30
0.0
 11
80.0804889804
 21
73.71296516050001
 31
0.0
  0
LINE
  5
11E
330
A
100
AcDbEntity
  8
PIC06
  6
PHANTOM
 62
     7
100
AcDbLine
 10
75.91373911559998
 20
75.87967509020001
 30
0.0
 11
80.0804889804
 21
75.87967509020001
 31
0.0
  0
LINE
  5
11F
330
A
100
AcDbEntity
  8
PIC07
  6
Continuous
 62
     7
100
AcDbLine
 10
297.9995
 20
0.0
 30
0.0
 11
0.0
 21
0.0
 31
0.0
  0
LINE
  5
120
330
A
100
AcDbEntity
  8
PIC07
  6
Continuous
 62
     7
100
AcDbLine
 10
297.9995
 20
0.0
 30
0.0
 11
297.9995
 21
210.0
 31
0.0
  0
LINE
  5
121
330
A
100
AcDbEntity
  8
PIC07
  6
Continuous
 62
     7
100
AcDbLine
 10
0.0
 20
0.0
 30
0.0
 11
0.0
 21
210.0
 31
0.0
  0
LINE
  5
122
330
A
100
AcDbEntity
  8
PIC07
  6
Continuous
 62
     7
100
AcDbLine
 10
10.0
 20
25.0
 30
0.0
 11
10.0
 21
200.0
 31
0.0
  0
LINE
  5
123
330
A
100
AcDbEntity
  8
PIC07
  6
Continuous
 62
     7
100
AcDbLine
 10
287.9995
 20
200.0
 30
0.0
 11
10.0
 21
200.0
 31
0.0
  0
LINE
  5
124
330
A
100
AcDbEntity
  8
PIC07
  6
Continuous
 62
     7
100
AcDbLine
 10
287.9995
 20
25.0
 30
0.0
 11
287.9995
 21
200.0
 31
0.0
  0
LINE
  5
125
330
A
100
AcDbEntity
  8
PIC07
  6
Continuous
 62
     7
100
AcDbLine
 10
287.9995
 20
25.0
 30
0.0
 11
10.0
 21
25.0
 31
0.0
  0
LINE
  5
126
330
A
100
AcDbEntity
  8
PIC07
  6
Continuous
 62
     7
100
AcDbLine
 10
149.0
 20
0.0
 30
0.0
 11
149.0
 21
3.5
 31
0.0
  0
LINE
  5
127
330
A
100
AcDbEntity
  8
PIC07
  6
Continuous
 62
     7
100
AcDbLine
 10
247.9995
 20
25.0
 30
0.0
 11
247.9995
 21
200.0
 31
0.0
  0
LINE
  5
128
330
A
100
AcDbEntity
  8
PIC07
  6
Continuous
 62
     7
100
AcDbLine
 10
267.9995
 20
115.0
 30
0.0
 11
267.9995
 21
200.0
 31
0.0
  0
LINE
  5
129
330
A
100
AcDbEntity
  8
PIC07
  6
Continuous
 62
     7
100
AcDbLine
 10
272.9995
 20
25.0
 30
0.0
 11
272.9995
 21
115.0
 31
0.0
  0
LINE
  5
12A
330
A
100
AcDbEntity
  8
PIC07
  6
Continuous
 62
     7
100
AcDbLine
 10
257.9995
 20
25.0
 30
0.0
 11
257.9995
 21
115.0
 31
0.0
  0
LINE
  5
12B
330
A
100
AcDbEntity
  8
PIC07
  6
Continuous
 62
     7
100
AcDbLine
 10
247.9995
 20
115.0
 30
0.0
 11
287.9995
 21
115.0
 31
0.0
  0
LINE
  5
12C
330
A
100
AcDbEntity
  8
PIC07
  6
Continuous
 62
     7
100
AcDbLine
 10
247.9995
 20
78.0
 30
0.0
 11
272.9995
 21
78.0
 31
0.0
  0
LINE
  5
12D
330
A
100
AcDbEntity
  8
PIC07
  6
Continuous
 62
     7
100
AcDbLine
 10
247.9995
 20
95.0
 30
0.0
 11
272.9995
 21
95.0
 31
0.0
  0
LINE
  5
12E
330
A
100
AcDbEntity
  8
PIC07
  6
Continuous
 62
     7
100
AcDbLine
 10
257.9995
 20
43.0
 30
0.0
 11
272.9995
 21
43.0
 31
0.0
  0
LINE
  5
230
330
A
100
AcDbEntity
  8
PIC07
  6
Continuous
 62
     7
100
AcDbLine
 10
0.0
 20
210.0
 30
0.0
 11
297.9995
 21
210.0
 31
0.0
  0
ARC
  5
268
330
A
100
AcDbEntity
  8
PIC06
  6
Continuous
 62
     7
100
AcDbCircle
 10
75.91373911559998
 20
138.450567845
 30
0.0
 40
42.1674587722
100
AcDbArc
 50
63.68407839580001
 51
90.0
  0
ARC
  5
269
330
A
100
AcDbEntity
  8
PIC06
  6
Continuous
 62
     7
100
AcDbCircle
 10
209.8356599005
 20
54.04590579859999
 30
0.0
 40
1.333394311199999
100
AcDbArc
 50
225.0
 51
270.0
  0
ARC
  5
26A
330
A
100
AcDbEntity
  8
PIC06
  6
Continuous
 62
     7
100
AcDbCircle
 10
217.8358196408999
 20
54.04590579859999
 30
0.0
 40
1.3333599567
100
AcDbArc
 50
270.0
 51
286.0838291294999
  0
ARC
  5
26B
330
A
100
AcDbEntity
  8
PIC06
  6
Continuous
 62
     7
100
AcDbCircle
 10
116.2478778069999
 20
78.5463950037
 30
0.0
 40
0.1666699946
100
AcDbArc
 50
0.0
 51
90.0
  0
ARC
  5
26C
330
A
100
AcDbEntity
  8
PIC06
  6
Continuous
 62
     7
100
AcDbCircle
 10
116.2478778069999
 20
76.71302506319999
 30
0.0
 40
0.1666699946
100
AcDbArc
 50
270.0
 51
0.0
  0
ARC
  5
26D
330
A
100
AcDbEntity
  8
PIC06
  6
Continuous
 62
     7
100
AcDbCircle
 10
35.5796004242
 20
76.71302506319999
 30
0.0
 40
0.1666699946
100
AcDbArc
 50
180.0
 51
270.0
  0
ARC
  5
26E
330
A
100
AcDbEntity
  8
PIC06
  6
Continuous
 62
     7
100
AcDbCircle
 10
35.5796004242
 20
78.5463950037
 30
0.0
 40
0.1666699946
100
AcDbArc
 50
90.0
 51
180.0
  0
ARC
  5
26F
330
A
100
AcDbEntity
  8
PIC06
  6
Continuous
 62
     7
100
AcDbCircle
 10
229.5027192624
 20
78.5463950037
 30
0.0
 40
0.1666699946
100
AcDbArc
 50
0.0
 51
90.0
  0
ARC
  5
270
330
A
100
AcDbEntity
  8
PIC06
  6
Continuous
 62
     7
100
AcDbCircle
 10
229.5027192624
 20
76.71302506319999
 30
0.0
 40
0.1666699946
100
AcDbArc
 50
270.0
 51
0.0
  0
ARC
  5
271
330
A
100
AcDbEntity
  8
PIC06
  6
Continuous
 62
     7
100
AcDbCircle
 10
161.6680314632
 20
78.5463950037
 30
0.0
 40
0.1666699946
100
AcDbArc
 50
90.0
 51
179.5561876946999
  0
CIRCLE
  5
272
330
A
100
AcDbEntity
  8
PIC06
  6
Continuous
 62
     7
100
AcDbCircle
 10
75.91373911559998
 20
169.2845168447
 30
0.0
 40
5.333439827
  0
ARC
  5
273
330
A
100
AcDbEntity
  8
PIC06
  6
Continuous
 62
     7
100
AcDbCircle
 10
75.91373911559998
 20
138.450567845
 30
0.0
 40
46.8341259775
100
AcDbArc
 50
61.5274216543
 51
90.0
  0
ARC
  5
274
330
A
100
AcDbEntity
  8
PIC06
  6
Continuous
 62
     7
100
AcDbCircle
 10
85.580598802
 20
151.0341524368
 30
0.0
 40
31.00061899419999
100
AcDbArc
 50
0.0
 51
54.03726322259998
  0
ARC
  5
275
330
A
100
AcDbEntity
  8
PIC06
  6
Continuous
 62
     7
100
AcDbCircle
 10
74.32454071719998
 20
135.5203426701
 30
0.0
 40
50.1676558766
100
AcDbArc
 50
54.0372411684
 51
61.5273902346
  0
ARC
  5
276
330
A
100
AcDbEntity
  8
PIC06
  6
Continuous
 62
     7
100
AcDbCircle
 10
75.91373911559998
 20
138.450567845
 30
0.0
 40
46.83420543559999
100
AcDbArc
 50
90.0
 51
118.4727575829
  0
ARC
  5
277
330
A
100
AcDbEntity
  8
PIC06
  6
Continuous
 62
     7
100
AcDbCircle
 10
77.5029375141
 20
135.5203426701
 30
0.0
 40
50.1676558766
100
AcDbArc
 50
118.472777093
 51
125.9627588316
  0
ARC
  5
278
330
A
100
AcDbEntity
  8
PIC06
  6
Continuous
 62
     7
100
AcDbCircle
 10
66.24687942920001
 20
151.0341524368
 30
0.0
 40
31.00061899419999
100
AcDbArc
 50
125.9629861058
 51
180.0
  0
ARC
  5
279
330
A
100
AcDbEntity
  8
PIC06
  6
Continuous
 62
     7
100
AcDbCircle
 10
75.91373911559998
 20
163.6177370284999
 30
0.0
 40
46.834351946
100
AcDbArc
 50
241.5273396242
 51
270.0
  0
ARC
  5
27A
330
A
100
AcDbEntity
  8
PIC06
  6
Continuous
 62
     7
100
AcDbCircle
 10
75.91373911559998
 20
163.6177370284999
 30
0.0
 40
46.834272488
100
AcDbArc
 50
270.0
 51
298.4731548286999
  0
ARC
  5
27B
330
A
100
AcDbEntity
  8
PIC06
  6
Continuous
 62
     7
100
AcDbCircle
 10
75.91373911559998
 20
163.6177370284999
 30
0.0
 40
41.6675602196
100
AcDbArc
 50
263.0661217909
 51
270.0
  0
ARC
  5
27C
330
A
100
AcDbEntity
  8
PIC06
  6
Continuous
 62
     7
100
AcDbCircle
 10
75.91373911559998
 20
163.6177370284999
 30
0.0
 40
41.167546803
100
AcDbArc
 50
263.0660811427
 51
270.0
  0
ARC
  5
27D
330
A
100
AcDbEntity
  8
PIC06
  6
Continuous
 62
     7
100
AcDbCircle
 10
70.9136392778
 20
122.5031160864
 30
0.0
 40
0.2500149813
100
AcDbArc
 50
180.0
 51
263.0696989160999
  0
ARC
  5
27E
330
A
100
AcDbEntity
  8
PIC06
  6
Continuous
 62
     7
100
AcDbCircle
 10
70.9136392778
 20
122.5031160864
 30
0.0
 40
0.2499984361
100
AcDbArc
 50
83.06923800979999
 51
180.0
  0
ARC
  5
27F
330
A
100
AcDbEntity
  8
PIC06
  6
Continuous
 62
     7
100
AcDbCircle
 10
80.91383895339999
 20
122.5031160864
 30
0.0
 40
0.2500149813
100
AcDbArc
 50
276.9303010839
 51
0.0
  0
ARC
  5
280
330
A
100
AcDbEntity
  8
PIC06
  6
Continuous
 62
     7
100
AcDbCircle
 10
75.91373911559998
 20
163.6177370284999
 30
0.0
 40
41.167546803
100
AcDbArc
 50
270.0
 51
276.9339188572999
  0
ARC
  5
281
330
A
100
AcDbEntity
  8
PIC06
  6
Continuous
 62
     7
100
AcDbCircle
 10
75.91373911559998
 20
163.6177370284999
 30
0.0
 40
41.6675602196
100
AcDbArc
 50
270.0
 51
276.9338782090999
  0
ARC
  5
282
330
A
100
AcDbEntity
  8
PIC06
  6
Continuous
 62
     7
100
AcDbCircle
 10
220.4957060846
 20
164.7256157578
 30
0.0
 40
111.3354671133
100
AcDbArc
 50
247.9015252916
 51
263.2908446699
  0
ARC
  5
283
330
A
100
AcDbEntity
  8
PIC06
  6
Continuous
 62
     7
100
AcDbCircle
 10
220.4957060846
 20
164.7256157578
 30
0.0
 40
115.8355603108
100
AcDbArc
 50
247.9015691747
 51
262.2880629801
  0
ARC
  5
284
330
A
100
AcDbEntity
  8
PIC06
  6
Continuous
 62
     7
100
AcDbCircle
 10
187.2642092128
 20
82.8797815291
 30
0.0
 40
27.5005964175
100
AcDbArc
 50
202.6658243696
 51
247.9014939185999
  0
ARC
  5
285
330
A
100
AcDbEntity
  8
PIC06
  6
Continuous
 62
     7
100
AcDbCircle
 10
187.2642092128
 20
82.8797815291
 30
0.0
 40
26.1672822941
100
AcDbArc
 50
202.6661168836
 51
247.9013329759999
  0
ARC
  5
286
330
A
100
AcDbEntity
  8
PIC06
  6
Continuous
 62
     7
100
AcDbCircle
 10
166.5014613064
 20
74.20897506439998
 30
0.0
 40
5.000050083799998
100
AcDbArc
 50
180.0
 51
202.6646736362999
  0
ARC
  5
287
330
A
100
AcDbEntity
  8
PIC06
  6
Continuous
 62
     7
100
AcDbCircle
 10
166.5014613064
 20
74.20897506439998
 30
0.0
 40
3.666739880999998
100
AcDbArc
 50
180.0
 51
202.6664894411
  0
ARC
  5
288
330
A
100
AcDbEntity
  8
PIC06
  6
Continuous
 62
     7
100
AcDbCircle
 10
187.2642092128
 20
82.8797815291
 30
0.0
 40
23.00052109729999
100
AcDbArc
 50
193.8351001556
 51
247.9012667746
  0
ARC
  5
289
330
A
100
AcDbEntity
  8
PIC06
  6
Continuous
 62
     7
100
AcDbCircle
 10
207.352110311
 20
52.9938847927
 30
0.0
 40
1.1666831525
100
AcDbArc
 50
44.9942119629
 51
83.28920682800001
  0
ARC
  5
28A
330
A
100
AcDbEntity
  8
PIC06
  6
Continuous
 62
     7
100
AcDbCircle
 10
220.4957060846
 20
164.7256157578
 30
0.0
 40
114.5022889228999
100
AcDbArc
 50
247.9015337665
 51
262.3043783453999
  0
ARC
  5
28B
330
A
100
AcDbEntity
  8
PIC06
  6
Continuous
 62
     7
100
AcDbCircle
 10
115.2341043095999
 20
85.87852473879998
 30
0.0
 40
110.0021495955999
100
AcDbArc
 50
345.4368574262999
 51
355.8614631808
  0
ARC
  5
28C
330
A
100
AcDbEntity
  8
PIC06
  6
Continuous
 62
     7
100
AcDbCircle
 10
217.6691496462999
 20
59.2666767092
 30
0.0
 40
5.8335019663
100
AcDbArc
 50
296.7575030059999
 51
345.4364938085998
  0
ARC
  5
28D
330
A
100
AcDbEntity
  8
PIC06
  6
Continuous
 62
     7
100
AcDbCircle
 10
207.352110311
 20
52.9938847927
 30
0.0
 40
2.499994989399999
100
AcDbArc
 50
44.99729902520001
 51
83.2923947447
  0
ARC
  5
28E
330
A
100
AcDbEntity
  8
PIC06
  6
Continuous
 62
     7
100
AcDbCircle
 10
220.608208331
 20
53.28255722339999
 30
0.0
 40
2.500111391599999
100
AcDbArc
 50
116.1584989972
 51
135.0
  0
ARC
  5
28F
330
A
100
AcDbEntity
  8
PIC06
  6
Continuous
 62
     7
100
AcDbCircle
 10
115.2341043095999
 20
85.87852473879998
 30
0.0
 40
111.6689108685
100
AcDbArc
 50
345.4369023672
 51
355.1276748848001
  0
ARC
  5
290
330
A
100
AcDbEntity
  8
PIC06
  6
Continuous
 62
     7
100
AcDbCircle
 10
187.2642092128
 20
82.8797815291
 30
0.0
 40
21.6671733215
100
AcDbArc
 50
192.8394583852
 51
247.9014667867999
  0
ARC
  5
291
330
A
100
AcDbEntity
  8
PIC06
  6
Continuous
 62
     7
100
AcDbCircle
 10
75.91373911559998
 20
84.97102328530003
 30
0.0
 40
33.3339989185
100
AcDbArc
 50
270.0
 51
276.0998473284999
  0
ARC
  5
292
330
A
100
AcDbEntity
  8
PIC06
  6
Continuous
 62
     7
100
AcDbCircle
 10
75.91373911559998
 20
84.97102328530003
 30
0.0
 40
32.0006389618
100
AcDbArc
 50
270.0
 51
276.0998474118999
  0
ARC
  5
293
330
A
100
AcDbEntity
  8
PIC06
  6
Continuous
 62
     7
100
AcDbCircle
 10
217.6691496462999
 20
59.2666767092
 30
0.0
 40
4.1668033355
100
AcDbArc
 50
296.1571276167
 51
345.4351439654999
  0
ARC
  5
294
330
A
100
AcDbEntity
  8
PIC06
  6
Continuous
 62
     7
100
AcDbCircle
 10
220.4957060846
 20
164.7256157578
 30
0.0
 40
110.0021552767999
100
AcDbArc
 50
247.9015678214
 51
263.2907920706999
  0
CIRCLE
  5
295
330
A
100
AcDbEntity
  8
PIC06
  6
Continuous
 62
     7
100
AcDbCircle
 10
75.91373911559998
 20
169.2845168447
 30
0.0
 40
3.666739880999998
  0
ARC
  5
296
330
A
100
AcDbEntity
  8
PIC06
  6
Continuous
 62
     7
100
AcDbCircle
 10
85.74726855239999
 20
151.0341524368
 30
0.0
 40
26.16718915099999
100
AcDbArc
 50
309.0614993853999
 51
50.9385006146
  0
ARC
  5
297
330
A
100
AcDbEntity
  8
PIC06
  6
Continuous
 62
     7
100
AcDbCircle
 10
80.91383895339999
 20
122.5031160864
 30
0.0
 40
0.2499984361
100
AcDbArc
 50
0.0
 51
96.93076199020001
  0
ARC
  5
298
330
A
100
AcDbEntity
  8
PIC06
  6
Continuous
 62
     7
100
AcDbCircle
 10
85.580598802
 20
151.0341524368
 30
0.0
 40
31.00061899419999
100
AcDbArc
 50
305.9628265719
 51
0.0
  0
ARC
  5
299
330
A
100
AcDbEntity
  8
PIC06
  6
Continuous
 62
     7
100
AcDbCircle
 10
74.324552795
 20
166.5479272885999
 30
0.0
 40
50.16766837239999
100
AcDbArc
 50
298.4731548286999
 51
305.9628265719
  0
ARC
  5
29A
330
A
100
AcDbEntity
  8
PIC06
  6
Continuous
 62
     7
100
AcDbCircle
 10
66.24687942920001
 20
151.0341524368
 30
0.0
 40
31.00061899419999
100
AcDbArc
 50
180.0
 51
234.0371734281
  0
ARC
  5
29B
330
A
100
AcDbEntity
  8
PIC06
  6
Continuous
 62
     7
100
AcDbCircle
 10
77.5029254363
 20
166.5479272885999
 30
0.0
 40
50.16766837239999
100
AcDbArc
 50
234.0371734281
 51
241.5268451713
  0
ARC
  5
29C
330
A
100
AcDbEntity
  8
PIC06
  6
HIDDEN
 62
     7
100
AcDbCircle
 10
85.580598802
 20
151.0341524368
 30
0.0
 40
28.0005590916
100
AcDbArc
 50
0.0
 51
54.03739347700001
  0
ARC
  5
29D
330
A
100
AcDbEntity
  8
PIC06
  6
HIDDEN
 62
     7
100
AcDbCircle
 10
74.32454071719998
 20
135.5203426701
 30
0.0
 40
47.16758763179999
100
AcDbArc
 50
54.03731708969999
 51
61.52741619510001
  0
ARC
  5
29E
330
A
100
AcDbEntity
  8
PIC06
  6
HIDDEN
 62
     7
100
AcDbCircle
 10
75.91373911559998
 20
138.450567845
 30
0.0
 40
43.8340619549
100
AcDbArc
 50
61.5273478794
 51
90.0
  0
ARC
  5
29F
330
A
100
AcDbEntity
  8
PIC06
  6
HIDDEN
 62
     7
100
AcDbCircle
 10
66.24687942920001
 20
151.0341524368
 30
0.0
 40
28.0005590916
100
AcDbArc
 50
125.9628825655999
 51
180.0
  0
ARC
  5
2A0
330
A
100
AcDbEntity
  8
PIC06
  6
HIDDEN
 62
     7
100
AcDbCircle
 10
77.5029375141
 20
135.5203426701
 30
0.0
 40
47.1676855104
100
AcDbArc
 50
118.4725838049
 51
125.9628467799
  0
ARC
  5
2A1
330
A
100
AcDbEntity
  8
PIC06
  6
HIDDEN
 62
     7
100
AcDbCircle
 10
75.91373911559998
 20
138.450567845
 30
0.0
 40
43.83414141329999
100
AcDbArc
 50
90.0
 51
118.4728436249
  0
ARC
  5
2A2
330
A
100
AcDbEntity
  8
PIC06
  6
HIDDEN
 62
     7
100
AcDbCircle
 10
71.7469892508
 20
74.7963201254
 30
0.0
 40
1.0833549649
100
AcDbArc
 50
90.0
 51
270.0
  0
ARC
  5
2A3
330
A
100
AcDbEntity
  8
PIC06
  6
HIDDEN
 62
     7
100
AcDbCircle
 10
75.91373911559998
 20
163.6177370284999
 30
0.0
 40
43.5009243276
100
AcDbArc
 50
257.9404088128999
 51
270.0
  0
ARC
  5
2A4
330
A
100
AcDbEntity
  8
PIC06
  6
HIDDEN
 62
     7
100
AcDbCircle
 10
75.91373911559998
 20
163.6177370284999
 30
0.0
 40
43.5009243276
100
AcDbArc
 50
270.0
 51
278.6626625462
  0
ARC
  5
2A5
330
A
100
AcDbEntity
  8
PIC06
  6
HIDDEN
 62
     7
100
AcDbCircle
 10
75.91373911559998
 20
163.6177370284999
 30
0.0
 40
43.83428792350001
100
AcDbArc
 50
241.5272602354
 51
258.6462632038
  0
ARC
  5
2A6
330
A
100
AcDbEntity
  8
PIC06
  6
HIDDEN
 62
     7
100
AcDbCircle
 10
75.91373911559998
 20
163.6177370284999
 30
0.0
 40
43.83420846539999
100
AcDbArc
 50
281.3537573877999
 51
298.4726161945999
  0
ARC
  5
2A7
330
A
100
AcDbEntity
  8
PIC06
  6
HIDDEN
 62
     7
100
AcDbCircle
 10
75.91373911559998
 20
163.6177370284999
 30
0.0
 40
45.5009543862
100
AcDbArc
 50
270.0
 51
275.7171073771
  0
ARC
  5
2A8
330
A
100
AcDbEntity
  8
PIC06
  6
HIDDEN
 62
     7
100
AcDbCircle
 10
75.91373911559998
 20
163.6177370284999
 30
0.0
 40
45.50097339609999
100
AcDbArc
 50
264.2829031004999
 51
270.0
  0
ARC
  5
2A9
330
A
100
AcDbEntity
  8
PIC06
  6
HIDDEN
 62
     7
100
AcDbCircle
 10
85.580598802
 20
151.0341524368
 30
0.0
 40
28.0005590916
100
AcDbArc
 50
305.9627320903999
 51
0.0
  0
ARC
  5
2AA
330
A
100
AcDbEntity
  8
PIC06
  6
HIDDEN
 62
     7
100
AcDbCircle
 10
74.3245783774
 20
166.5479458499
 30
0.0
 40
47.16760846969999
100
AcDbArc
 50
298.4726161945999
 51
305.9627320903999
  0
ARC
  5
2AB
330
A
100
AcDbEntity
  8
PIC06
  6
HIDDEN
 62
     7
100
AcDbCircle
 10
66.24687942920001
 20
151.0341524368
 30
0.0
 40
28.0005590916
100
AcDbArc
 50
180.0
 51
234.0372679096
  0
ARC
  5
2AC
330
A
100
AcDbEntity
  8
PIC06
  6
HIDDEN
 62
     7
100
AcDbCircle
 10
77.5028998538
 20
166.5479458499
 30
0.0
 40
47.16760846969999
100
AcDbArc
 50
234.0372679096
 51
241.5273838053999
  0
ARC
  5
2AD
330
A
100
AcDbEntity
  8
PIC06
  6
Continuous
 62
     7
100
AcDbCircle
 10
76.5048225389
 20
139.6456980478
 30
0.0
 40
40.8341486752
100
AcDbArc
 50
50.9385006146
 51
63.68407839580001
  0
ARC
  5
2AE
330
A
100
AcDbEntity
  8
PIC06
  6
Continuous
 62
     7
100
AcDbCircle
 10
220.8957810724
 20
52.86724240109999
 30
0.0
 40
1.3333599567
100
AcDbArc
 50
116.7575030059999
 51
174.2445261782999
  0
ARC
  5
2AF
330
A
100
AcDbEntity
  8
PIC06
  6
Continuous
 62
     7
100
AcDbCircle
 10
217.7967850109999
 20
48.71246597159998
 30
0.0
 40
1.3333599567
100
AcDbArc
 50
270.0
 51
354.2445261783
  0
ARC
  5
2B0
330
A
100
AcDbEntity
  8
PIC06
  6
Continuous
 62
     7
100
AcDbCircle
 10
75.91373911559998
 20
163.6177370284999
 30
0.0
 40
42.1674587722
100
AcDbArc
 50
270.0
 51
296.3159216043
  0
ARC
  5
2B1
330
A
100
AcDbEntity
  8
PIC06
  6
Continuous
 62
     7
100
AcDbCircle
 10
76.5048225389
 20
162.4226068257999
 30
0.0
 40
40.8341486752
100
AcDbArc
 50
296.3159216043
 51
309.0614993853999
  0
ARC
  5
2B2
330
A
100
AcDbEntity
  8
PIC06
  6
Continuous
 62
     7
100
AcDbCircle
 10
75.91373911559998
 20
138.450567845
 30
0.0
 40
42.1674587722
100
AcDbArc
 50
90.0
 51
116.3159216042
  0
ARC
  5
2B3
330
A
100
AcDbEntity
  8
PIC06
  6
Continuous
 62
     7
100
AcDbCircle
 10
75.32265569229998
 20
139.6456980478
 30
0.0
 40
40.8341486752
100
AcDbArc
 50
116.3159216042
 51
129.0614993853999
  0
ARC
  5
2B4
330
A
100
AcDbEntity
  8
PIC06
  6
Continuous
 62
     7
100
AcDbCircle
 10
66.0802096788
 20
151.0341524368
 30
0.0
 40
26.16718915099999
100
AcDbArc
 50
129.0614993853999
 51
230.9385006145999
  0
ARC
  5
2B5
330
A
100
AcDbEntity
  8
PIC06
  6
Continuous
 62
     7
100
AcDbCircle
 10
75.32265569229998
 20
162.4226068257999
 30
0.0
 40
40.8341486752
100
AcDbArc
 50
230.9385006145999
 51
243.6840783956999
  0
ARC
  5
2B6
330
A
100
AcDbEntity
  8
PIC06
  6
Continuous
 62
     7
100
AcDbCircle
 10
75.91373911559998
 20
163.6177370284999
 30
0.0
 40
42.1674587722
100
AcDbArc
 50
243.6840783956999
 51
270.0
  0
ARC
  5
2B7
330
A
100
AcDbEntity
  8
PIC06
  6
Continuous
 62
     7
100
AcDbCircle
 10
71.93752789689998
 20
48.712465052
 30
0.0
 40
1.3333599567
100
AcDbArc
 50
186.4765958958999
 51
270.0
  0
ARC
  5
2B8
330
A
100
AcDbEntity
  8
PIC06
  6
Continuous
 62
     7
100
AcDbCircle
 10
79.88995040439998
 20
48.712465052
 30
0.0
 40
1.3333599567
100
AcDbArc
 50
270.0
 51
353.5234007500999
  0
ARC
  5
2B9
330
A
100
AcDbEntity
  8
PIC06
  6
HIDDEN
 62
     7
100
AcDbCircle
 10
75.91373911559998
 20
169.2845168447
 30
0.0
 40
5.8334498107
100
AcDbArc
 50
2.1456267411
 51
177.8543767863
  0
ARC
  5
2BA
330
A
100
AcDbEntity
  8
PIC06
  6
HIDDEN
 62
     7
100
AcDbCircle
 10
80.247158975
 20
120.3332433968
 30
0.0
 40
3.3333998919
100
AcDbArc
 50
275.7171073771
 51
347.6371497415
  0
ARC
  5
2BB
330
A
100
AcDbEntity
  8
PIC06
  6
HIDDEN
 62
     7
100
AcDbCircle
 10
84.80570274939998
 20
119.3340806764999
 30
0.0
 40
1.3333599567
100
AcDbArc
 50
101.3537573878
 51
167.6371497414999
  0
ARC
  5
2BC
330
A
100
AcDbEntity
  8
PIC06
  6
HIDDEN
 62
     7
100
AcDbCircle
 10
71.5803192562
 20
120.3331635417
 30
0.0
 40
3.3333998919
100
AcDbArc
 50
192.3628658906
 51
264.2829031004999
  0
ARC
  5
2BD
330
A
100
AcDbEntity
  8
PIC06
  6
HIDDEN
 62
     7
100
AcDbCircle
 10
67.0217757544
 20
119.3339995777
 30
0.0
 40
1.3333599567
100
AcDbArc
 50
12.3628658906
 51
78.64626320380001
  0
ARC
  5
2BE
330
A
100
AcDbEntity
  8
PIC06
  6
HIDDEN
 62
     7
100
AcDbCircle
 10
80.247158975
 20
120.3332433968
 30
0.0
 40
2.000039935099999
100
AcDbArc
 50
275.7171073771
 51
347.6371497415
  0
ARC
  5
2BF
330
A
100
AcDbEntity
  8
PIC06
  6
HIDDEN
 62
     7
100
AcDbCircle
 10
84.80570274939998
 20
119.3340806764999
 30
0.0
 40
2.6667199135
100
AcDbArc
 50
151.3402071106
 51
167.6371497414999
  0
ARC
  5
2C0
330
A
100
AcDbEntity
  8
PIC06
  6
HIDDEN
 62
     7
100
AcDbCircle
 10
71.5803192562
 20
120.3331635417
 30
0.0
 40
2.000039935099999
100
AcDbArc
 50
192.3628658906
 51
264.2829031004999
  0
ARC
  5
2C1
330
A
100
AcDbEntity
  8
PIC06
  6
HIDDEN
 62
     7
100
AcDbCircle
 10
67.0217757544
 20
119.3339995777
 30
0.0
 40
2.6667199135
100
AcDbArc
 50
12.3628658906
 51
28.6619579249
  0
ARC
  5
2C2
330
A
100
AcDbEntity
  8
PIC06
  6
Continuous
 62
     7
100
AcDbCircle
 10
79.101645648
 20
55.1402808557
 30
0.0
 40
2.000039935099999
100
AcDbArc
 50
276.0998421836
 51
358.1821773304
  0
ARC
  5
2C3
330
A
100
AcDbEntity
  8
PIC06
  6
Continuous
 62
     7
100
AcDbCircle
 10
204.2804496686999
 20
44.98288227089999
 30
0.0
 40
5.000099837799998
100
AcDbArc
 50
36.0768523134
 51
82.28806689699998
  0
ARC
  5
2C4
330
A
100
AcDbEntity
  8
PIC06
  6
Continuous
 62
     7
100
AcDbCircle
 10
204.2804496686999
 20
44.98288227089999
 30
0.0
 40
6.3334597945
100
AcDbArc
 50
36.0768523134
 51
82.28806314219999
  0
ARC
  5
2C5
330
A
100
AcDbEntity
  8
PIC06
  6
Continuous
 62
     7
100
AcDbCircle
 10
209.3993282947999
 20
48.71246597159998
 30
0.0
 40
1.3333599567
100
AcDbArc
 50
216.0768523134
 51
270.0
  0
ARC
  5
2C6
330
A
100
AcDbEntity
  8
PIC06
  6
Continuous
 62
     7
100
AcDbCircle
 10
225.7805968265
 20
77.8797150253
 30
0.0
 40
0.8333499729999999
100
AcDbArc
 50
90.0
 51
175.8614631808
  0
ARC
  5
2C7
330
A
100
AcDbEntity
  8
PIC06
  6
Continuous
 62
     7
100
AcDbCircle
 10
165.3262766875
 20
77.8797150253
 30
0.0
 40
0.8333499729999999
100
AcDbArc
 50
12.8394583852
 51
90.0
  0
ARC
  5
2C8
330
A
100
AcDbEntity
  8
PIC06
  6
Continuous
 62
     7
100
AcDbCircle
 10
67.7389315069
 20
72.37960520379998
 30
0.0
 40
0.8333499729999999
100
AcDbArc
 50
4.5001204117
 51
90.0
  0
ARC
  5
2C9
330
A
100
AcDbEntity
  8
PIC06
  6
Continuous
 62
     7
100
AcDbCircle
 10
66.58021941840001
 20
74.0463051497
 30
0.0
 40
0.8333499729999999
100
AcDbArc
 50
180.0
 51
270.0
  0
ARC
  5
2CA
330
A
100
AcDbEntity
  8
PIC06
  6
Continuous
 62
     7
100
AcDbCircle
 10
64.9135194725
 20
75.71300509560001
 30
0.0
 40
0.8333499729999999
100
AcDbArc
 50
0.0
 51
90.0
  0
ARC
  5
2CB
330
A
100
AcDbEntity
  8
PIC06
  6
HIDDEN
 62
     7
100
AcDbCircle
 10
67.41356939140001
 20
119.257124974
 30
0.0
 40
1.6666999459
100
AcDbArc
 50
180.0
 51
259.1527370227999
  0
ARC
  5
2CC
330
A
100
AcDbEntity
  8
PIC06
  6
HIDDEN
 62
     7
100
AcDbCircle
 10
64.4135094887
 20
119.9386672861
 30
0.0
 40
1.3333599567
100
AcDbArc
 50
0.0
 51
75.24939859129998
  0
ARC
  5
2CD
330
A
100
AcDbEntity
  8
PIC06
  6
HIDDEN
 62
     7
100
AcDbCircle
 10
67.41356939140001
 20
119.257124974
 30
0.0
 40
0.3333399892
100
AcDbArc
 50
180.0
 51
259.1527370227999
  0
ARC
  5
2CE
330
A
100
AcDbEntity
  8
PIC06
  6
HIDDEN
 62
     7
100
AcDbCircle
 10
64.4135094887
 20
119.9386672861
 30
0.0
 40
2.6667199135
100
AcDbArc
 50
0.0
 51
25.2650933124
  0
ARC
  5
2CF
330
A
100
AcDbEntity
  8
PIC06
  6
HIDDEN
 62
     7
100
AcDbCircle
 10
75.91373911559998
 20
163.6177370284999
 30
0.0
 40
45.5009919892
100
AcDbArc
 50
259.1527370227999
 51
264.2829031004999
  0
ARC
  5
2D0
330
A
100
AcDbEntity
  8
PIC06
  6
Continuous
 62
     7
100
AcDbCircle
 10
91.91420712120001
 20
78.79027882559999
 30
0.0
 40
20.0003993511
100
AcDbArc
 50
278.3636799812
 51
357.4950218448
  0
ARC
  5
2D1
330
A
100
AcDbEntity
  8
PIC06
  6
Continuous
 62
     7
100
AcDbCircle
 10
112.7280482963
 20
77.8797150253
 30
0.0
 40
0.8333499729999999
100
AcDbArc
 50
90.0
 51
177.4950218447999
  0
ARC
  5
2D2
330
A
100
AcDbEntity
  8
PIC06
  6
Continuous
 62
     7
100
AcDbCircle
 10
82.9732413235
 20
52.2311049466
 30
0.0
 40
1.3333599567
100
AcDbArc
 50
102.5719491695999
 51
173.5234007501
  0
ARC
  5
2D3
330
A
100
AcDbEntity
  8
PIC06
  6
Continuous
 62
     7
100
AcDbCircle
 10
54.3859444923
 20
180.4180767095999
 30
0.0
 40
130.0025957823
100
AcDbArc
 50
282.5719491695998
 51
290.267757739
  0
ARC
  5
2D4
330
A
100
AcDbEntity
  8
PIC06
  6
Continuous
 62
     7
100
AcDbCircle
 10
75.91373911559998
 20
187.6225729449
 30
0.0
 40
130.0025957823
100
AcDbArc
 50
270.0
 51
278.3636799812
  0
ARC
  5
2D5
330
A
100
AcDbEntity
  8
PIC06
  6
Continuous
 62
     7
100
AcDbCircle
 10
79.101645648
 20
55.1402808557
 30
0.0
 40
3.3333998919
100
AcDbArc
 50
276.0998434406999
 51
356.4525632397999
  0
ARC
  5
2D6
330
A
100
AcDbEntity
  8
PIC06
  6
Continuous
 62
     7
100
AcDbCircle
 10
75.91373911559998
 20
187.6225729449
 30
0.0
 40
131.6692957282
100
AcDbArc
 50
273.3817972351
 51
278.3636797856
  0
ARC
  5
2D7
330
A
100
AcDbEntity
  8
PIC06
  6
Continuous
 62
     7
100
AcDbCircle
 10
83.75946357670001
 20
54.85152554779999
 30
0.0
 40
1.3333599567
100
AcDbArc
 50
93.3817972351
 51
176.4525632398
  0
ARC
  5
2D8
330
A
100
AcDbEntity
  8
PIC06
  6
Continuous
 62
     7
100
AcDbCircle
 10
83.75946357670001
 20
54.85152554779999
 30
0.0
 40
2.6667199135
100
AcDbArc
 50
144.2498055497999
 51
176.4525632398
  0
ARC
  5
2D9
330
A
100
AcDbEntity
  8
PIC06
  6
Continuous
 62
     7
100
AcDbCircle
 10
75.91373911559998
 20
187.6225729449
 30
0.0
 40
131.335955739
100
AcDbArc
 50
270.0
 51
272.4793436668
  0
ARC
  5
2DA
330
A
100
AcDbEntity
  8
PIC06
  6
Continuous
 62
     7
100
AcDbCircle
 10
91.91420712120001
 20
78.79027882559999
 30
0.0
 40
21.667099297
100
AcDbArc
 50
278.3636787923999
 51
353.2725806753999
  0
ARC
  5
2DB
330
A
100
AcDbEntity
  8
PIC06
  6
Continuous
 62
     7
100
AcDbCircle
 10
113.7631668302999
 20
76.2130150794
 30
0.0
 40
0.3333399892
100
AcDbArc
 50
90.0
 51
173.2725806754
  0
ARC
  5
2DC
330
A
100
AcDbEntity
  8
PIC06
  6
Continuous
 62
     7
100
AcDbCircle
 10
38.064311401
 20
76.2130150794
 30
0.0
 40
0.3333399892
100
AcDbArc
 50
6.7274193246
 51
90.0
  0
ARC
  5
2DD
330
A
100
AcDbEntity
  8
PIC06
  6
Continuous
 62
     7
100
AcDbCircle
 10
97.4415337389
 20
180.4180767095999
 30
0.0
 40
130.0025957823
100
AcDbArc
 50
249.732242261
 51
257.4280508304
  0
ARC
  5
2DE
330
A
100
AcDbEntity
  8
PIC06
  6
Continuous
 62
     7
100
AcDbCircle
 10
68.8542369077
 20
52.2311049466
 30
0.0
 40
1.3333602514
100
AcDbArc
 50
6.476677982999999
 51
77.4280536546
  0
ARC
  5
2DF
330
A
100
AcDbEntity
  8
PIC06
  6
Continuous
 62
     7
100
AcDbCircle
 10
59.91327111010001
 20
78.79027882559999
 30
0.0
 40
21.667099297
100
AcDbArc
 50
186.7274193245999
 51
249.732242261
  0
ARC
  5
2E0
330
A
100
AcDbEntity
  8
PIC06
  6
PHANTOM
 62
     7
100
AcDbCircle
 10
80.0804889804
 20
74.7963201254
 30
0.0
 40
1.0833549649
100
AcDbArc
 50
270.0
 51
90.0
  0
CIRCLE
  5
2E3
330
A
100
AcDbEntity
  8
PIC07
  6
Continuous
 62
     7
100
AcDbCircle
 10
269.4995
 20
105.0
 30
0.0
 40
0.25
  0
CIRCLE
  5
2E4
330
A
100
AcDbEntity
  8
PIC07
  6
Continuous
 62
     7
100
AcDbCircle
 10
266.4995
 20
105.0
 30
0.0
 40
0.25
  0
MTEXT
  5
410
330
A
100
AcDbEntity
  8
PIC06
 62
     7
100
AcDbMText
 10
172.1569573828999
 20
76.16346355180001
 30
0.0
 40
2.0
 41
0.0
 71
     1
 72
     5
  1
O
  7
SLDTEXTSTYLE1
 73
     1
 44
1.0
1001
ACAD
1000
MTEXTBEGIN
1070
    73
1070
     1
1070
    44
1040
1.0
1070
    74
1070
     0
1000
MTEXTEND
  0
MTEXT
  5
411
330
A
100
AcDbEntity
  8
PIC06
 62
     7
100
AcDbMText
 10
173.5319573829
 20
76.16346355180001
 30
0.0
 40
2.0
 41
0.0
 71
     1
 72
     5
  1
V
  7
SLDTEXTSTYLE1
 73
     1
 44
1.0
1001
ACAD
1000
MTEXTBEGIN
1070
    73
1070
     1
1070
    44
1040
1.0
1070
    74
1070
     0
1000
MTEXTEND
  0
MTEXT
  5
412
330
A
100
AcDbEntity
  8
PIC06
 62
     7
100
AcDbMText
 10
174.9069573829
 20
76.16346355180001
 30
0.0
 40
2.0
 41
0.0
 71
     1
 72
     5
  1
E
  7
SLDTEXTSTYLE1
 73
     1
 44
1.0
1001
ACAD
1000
MTEXTBEGIN
1070
    73
1070
     1
1070
    44
1040
1.0
1070
    74
1070
     0
1000
MTEXTEND
  0
MTEXT
  5
413
330
A
100
AcDbEntity
  8
PIC06
 62
     7
100
AcDbMText
 10
176.2819573829
 20
76.16346355180001
 30
0.0
 40
2.0
 41
0.0
 71
     1
 72
     5
  1
R
  7
SLDTEXTSTYLE1
 73
     1
 44
1.0
1001
ACAD
1000
MTEXTBEGIN
1070
    73
1070
     1
1070
    44
1040
1.0
1070
    74
1070
     0
1000
MTEXTEND
  0
MTEXT
  5
414
330
A
100
AcDbEntity
  8
PIC06
 62
     7
100
AcDbMText
 10
179.0319573829
 20
76.16346355180001
 30
0.0
 40
2.0
 41
0.0
 71
     1
 72
     5
  1
F
  7
SLDTEXTSTYLE1
 73
     1
 44
1.0
1001
ACAD
1000
MTEXTBEGIN
1070
    73
1070
     1
1070
    44
1040
1.0
1070
    74
1070
     0
1000
MTEXTEND
  0
MTEXT
  5
415
330
A
100
AcDbEntity
  8
PIC06
 62
     7
100
AcDbMText
 10
180.4069573829
 20
76.16346355180001
 30
0.0
 40
2.0
 41
0.0
 71
     1
 72
     5
  1
L
  7
SLDTEXTSTYLE1
 73
     1
 44
1.0
1001
ACAD
1000
MTEXTBEGIN
1070
    73
1070
     1
1070
    44
1040
1.0
1070
    74
1070
     0
1000
MTEXTEND
  0
MTEXT
  5
416
330
A
100
AcDbEntity
  8
PIC06
 62
     7
100
AcDbMText
 10
181.7819573829
 20
76.16346355180001
 30
0.0
 40
2.0
 41
0.0
 71
     1
 72
     5
  1
O
  7
SLDTEXTSTYLE1
 73
     1
 44
1.0
1001
ACAD
1000
MTEXTBEGIN
1070
    73
1070
     1
1070
    44
1040
1.0
1070
    74
1070
     0
1000
MTEXTEND
  0
MTEXT
  5
417
330
A
100
AcDbEntity
  8
PIC06
 62
     7
100
AcDbMText
 10
183.1569573829
 20
76.16346355180001
 30
0.0
 40
2.0
 41
0.0
 71
     1
 72
     5
  1
W
  7
SLDTEXTSTYLE1
 73
     1
 44
1.0
1001
ACAD
1000
MTEXTBEGIN
1070
    73
1070
     1
1070
    44
1040
1.0
1070
    74
1070
     0
1000
MTEXTEND
  0
MTEXT
  5
418
330
A
100
AcDbEntity
  8
PIC06
 62
     7
100
AcDbMText
 10
185.9069573829
 20
76.16346355180001
 30
0.0
 40
2.0
 41
0.0
 71
     1
 72
     5
  1
L
  7
SLDTEXTSTYLE1
 73
     1
 44
1.0
1001
ACAD
1000
MTEXTBEGIN
1070
    73
1070
     1
1070
    44
1040
1.0
1070
    74
1070
     0
1000
MTEXTEND
  0
MTEXT
  5
419
330
A
100
AcDbEntity
  8
PIC06
 62
     7
100
AcDbMText
 10
187.2819573829
 20
76.16346355180001
 30
0.0
 40
2.0
 41
0.0
 71
     1
 72
     5
  1
I
  7
SLDTEXTSTYLE1
 73
     1
 44
1.0
1001
ACAD
1000
MTEXTBEGIN
1070
    73
1070
     1
1070
    44
1040
1.0
1070
    74
1070
     0
1000
MTEXTEND
  0
MTEXT
  5
41A
330
A
100
AcDbEntity
  8
PIC06
 62
     7
100
AcDbMText
 10
188.6569573829
 20
76.16346355180001
 30
0.0
 40
2.0
 41
0.0
 71
     1
 72
     5
  1
N
  7
SLDTEXTSTYLE1
 73
     1
 44
1.0
1001
ACAD
1000
MTEXTBEGIN
1070
    73
1070
     1
1070
    44
1040
1.0
1070
    74
1070
     0
1000
MTEXTEND
  0
MTEXT
  5
41B
330
A
100
AcDbEntity
  8
PIC06
 62
     7
100
AcDbMText
 10
190.0319573828999
 20
76.16346355180001
 30
0.0
 40
2.0
 41
0.0
 71
     1
 72
     5
  1
E
  7
SLDTEXTSTYLE1
 73
     1
 44
1.0
1001
ACAD
1000
MTEXTBEGIN
1070
    73
1070
     1
1070
    44
1040
1.0
1070
    74
1070
     0
1000
MTEXTEND
  0
MTEXT
  5
41E
330
A
100
AcDbEntity
  8
PIC07
 62
     7
100
AcDbMText
 10
259.4994812012
 20
96.50000762940001
 30
0.0
 40
2.5
 41
0.0
 71
     1
 72
     5
  1
Scale:
  7
SLDTEXTSTYLE0
 11
0.0
 21
1.0
 31
0.0
 73
     1
 44
1.0
1001
ACAD
1000
MTEXTBEGIN
1070
    73
1070
     1
1070
    44
1040
1.0
1070
    74
1070
     0
1000
MTEXTEND
  0
MTEXT
  5
420
330
A
100
AcDbEntity
  8
PIC07
 62
     7
100
AcDbMText
 10
259.1974792479999
 20
79.2460098267
 30
0.0
 40
2.5
 41
0.0
 71
     1
 72
     5
  1
Date:
  7
SLDTEXTSTYLE0
 11
0.0
 21
1.0
 31
0.0
 73
     1
 44
1.0
1001
ACAD
1000
MTEXTBEGIN
1070
    73
1070
     1
1070
    44
1040
1.0
1070
    74
1070
     0
1000
MTEXTEND
  0
MTEXT
  5
424
330
A
100
AcDbEntity
  8
PIC07
 62
     7
100
AcDbMText
 10
269.4994812012
 20
116.5000076294
 30
0.0
 40
2.5
 41
0.0
 71
     1
 72
     5
  1
Part Number:
  7
SLDTEXTSTYLE0
 11
0.0
 21
1.0
 31
0.0
 73
     1
 44
1.0
1001
ACAD
1000
MTEXTBEGIN
1070
    73
1070
     1
1070
    44
1040
1.0
1070
    74
1070
     0
1000
MTEXTEND
  0
MTEXT
  5
42B
330
A
100
AcDbEntity
  8
PIC07
 62
     7
100
AcDbMText
 10
249.199508667
 20
96.50000762940001
 30
0.0
 40
2.5
 41
0.0
 71
     1
 72
     5
  1
Units:
  7
SLDTEXTSTYLE0
 11
0.0
 21
1.0
 31
0.0
 73
     1
 44
1.0
1001
ACAD
1000
MTEXTBEGIN
1070
    73
1070
     1
1070
    44
1040
1.0
1070
    74
1070
     0
1000
MTEXTEND
  0
MTEXT
  5
42D
330
A
100
AcDbEntity
  8
PIC07
 62
     7
100
AcDbMText
 10
253.7994812012
 20
107.5000076293999
 30
0.0
 40
2.2
 41
0.0
 71
     1
 72
     5
  1
m
  7
SLDTEXTSTYLE1
 11
0.0
 21
1.0
 31
0.0
 73
     1
 44
1.0
1001
ACAD
1000
MTEXTBEGIN
1070
    73
1070
     1
1070
    44
1040
1.0
1070
    74
1070
     0
1000
MTEXTEND
  0
MTEXT
  5
42E
330
A
100
AcDbEntity
  8
PIC07
 62
     7
100
AcDbMText
 10
253.8144958496
 20
109.4280014038
 30
0.0
 40
2.2
 41
0.0
 71
     1
 72
     5
  1
m
  7
SLDTEXTSTYLE1
 11
0.0
 21
1.0
 31
0.0
 73
     1
 44
1.0
1001
ACAD
1000
MTEXTBEGIN
1070
    73
1070
     1
1070
    44
1040
1.0
1070
    74
1070
     0
1000
MTEXTEND
  0
MTEXT
  5
431
330
A
100
AcDbEntity
  8
PIC07
 62
     7
100
AcDbMText
 10
276.3764648438
 20
132.0086212157999
 30
0.0
 40
7.0
 41
0.0
 71
     1
 72
     5
  1
L
  7
SLDTEXTSTYLE1
 11
0.0
 21
1.0
 31
0.0
 73
     1
 44
1.0
1001
ACAD
1000
MTEXTBEGIN
1070
    73
1070
     1
1070
    44
1040
1.0
1070
    74
1070
     0
1000
MTEXTEND
  0
MTEXT
  5
432
330
A
100
AcDbEntity
  8
PIC07
 62
     7
100
AcDbMText
 10
276.3764679892
 20
141.6336212157999
 30
0.0
 40
7.0
 41
0.0
 71
     1
 72
     5
  1
W
  7
SLDTEXTSTYLE1
 11
0.0
 21
1.0
 31
0.0
 73
     1
 44
1.0
1001
ACAD
1000
MTEXTBEGIN
1070
    73
1070
     1
1070
    44
1040
1.0
1070
    74
1070
     0
1000
MTEXTEND
  0
MTEXT
  5
433
330
A
100
AcDbEntity
  8
PIC07
 62
     7
100
AcDbMText
 10
276.3764711345999
 20
151.2586212158
 30
0.0
 40
7.0
 41
0.0
 71
     1
 72
     5
  1
5
  7
SLDTEXTSTYLE1
 11
0.0
 21
1.0
 31
0.0
 73
     1
 44
1.0
1001
ACAD
1000
MTEXTBEGIN
1070
    73
1070
     1
1070
    44
1040
1.0
1070
    74
1070
     0
1000
MTEXTEND
  0
MTEXT
  5
434
330
A
100
AcDbEntity
  8
PIC07
 62
     7
100
AcDbMText
 10
276.37647428
 20
160.8836212157999
 30
0.0
 40
7.0
 41
0.0
 71
     1
 72
     5
  1
7
  7
SLDTEXTSTYLE1
 11
0.0
 21
1.0
 31
0.0
 73
     1
 44
1.0
1001
ACAD
1000
MTEXTBEGIN
1070
    73
1070
     1
1070
    44
1040
1.0
1070
    74
1070
     0
1000
MTEXTEND
  0
MTEXT
  5
435
330
A
100
AcDbEntity
  8
PIC07
 62
     7
100
AcDbMText
 10
276.3764774254
 20
170.5086212157999
 30
0.0
 40
7.0
 41
0.0
 71
     1
 72
     5
  1
9
  7
SLDTEXTSTYLE1
 11
0.0
 21
1.0
 31
0.0
 73
     1
 44
1.0
1001
ACAD
1000
MTEXTBEGIN
1070
    73
1070
     1
1070
    44
1040
1.0
1070
    74
1070
     0
1000
MTEXTEND
  0
MTEXT
  5
436
330
A
100
AcDbEntity
  8
PIC07
 62
     7
100
AcDbMText
 10
276.3764805708
 20
180.1336212157999
 30
0.0
 40
7.0
 41
0.0
 71
     1
 72
     5
  1
J
  7
SLDTEXTSTYLE1
 11
0.0
 21
1.0
 31
0.0
 73
     1
 44
1.0
1001
ACAD
1000
MTEXTBEGIN
1070
    73
1070
     1
1070
    44
1040
1.0
1070
    74
1070
     0
1000
MTEXTEND
  0
MTEXT
  5
440
330
A
100
AcDbEntity
  8
PIC07
 62
     7
100
AcDbMText
 10
266.7311401366999
 20
101.265083313
 30
0.0
 40
3.0
 41
0.0
 71
     1
 72
     5
  1
1
  7
SLDTEXTSTYLE1
 11
0.0
 21
1.0
 31
0.0
 73
     1
 44
1.0
1001
ACAD
1000
MTEXTBEGIN
1070
    73
1070
     1
1070
    44
1040
1.0
1070
    74
1070
     0
1000
MTEXTEND
  0
MTEXT
  5
441
330
A
100
AcDbEntity
  8
PIC07
 62
     7
100
AcDbMText
 10
266.7311421588
 20
107.452583313
 30
0.0
 40
3.0
 41
0.0
 71
     1
 72
     5
  1
6
  7
SLDTEXTSTYLE1
 11
0.0
 21
1.0
 31
0.0
 73
     1
 44
1.0
1001
ACAD
1000
MTEXTBEGIN
1070
    73
1070
     1
1070
    44
1040
1.0
1070
    74
1070
     0
1000
MTEXTEND
  0
MTEXT
  5
442
330
A
100
AcDbEntity
  8
PIC07
 62
     7
100
AcDbMText
 10
269.8448791504
 20
79.9726715088
 30
0.0
 40
2.5
 41
0.0
 71
     1
 72
     5
  1
08/5/27
  7
SLDTEXTSTYLE1
 11
0.0
 21
1.0
 31
0.0
 73
     1
 44
1.0
1001
ACAD
1000
MTEXTBEGIN
1070
    73
1070
     1
1070
    44
1040
1.0
1070
    74
1070
     0
1000
MTEXTEND
  0
INSERT
  5
457
330
A
100
AcDbEntity
  8
PIC06
100
AcDbBlockReference
  2
COMP1
 10
-117.7470855713
 20
-52.8181266785
 30
0.0
  0
INSERT
  5
458
330
A
100
AcDbEntity
  8
PIC06
100
AcDbBlockReference
  2
COMP2
 10
-117.7470855713
 20
-52.8181266785
 30
0.0
  0
INSERT
  5
459
330
A
100
AcDbEntity
  8
PIC06
100
AcDbBlockReference
  2
COMP3
 10
-117.7470855713
 20
-52.8181266785
 30
0.0
  0
INSERT
  5
45A
330
A
100
AcDbEntity
  8
PIC06
100
AcDbBlockReference
  2
COMP4
 10
-117.7470855713
 20
-52.8181266785
 30
0.0
  0
INSERT
  5
45B
330
A
100
AcDbEntity
  8
PIC06
100
AcDbBlockReference
  2
COMP5
 10
-117.7470855713
 20
-52.8181266785
 30
0.0
  0
INSERT
  5
45C
330
A
100
AcDbEntity
  8
PIC06
100
AcDbBlockReference
  2
COMP6
 10
-117.7470855713
 20
-52.8181266785
 30
0.0
  0
INSERT
  5
45D
330
A
100
AcDbEntity
  8
PIC06
100
AcDbBlockReference
  2
COMP7
 10
-117.7470855713
 20
-52.8181266785
 30
0.0
  0
INSERT
  5
45E
330
A
100
AcDbEntity
  8
PIC06
100
AcDbBlockReference
  2
COMP8
 10
-117.7470855713
 20
-52.8181266785
 30
0.0
  0
INSERT
  5
45F
330
A
100
AcDbEntity
  8
PIC06
100
AcDbBlockReference
  2
COMP9
 10
-117.7470855713
 20
-52.8181266785
 30
0.0
  0
INSERT
  5
460
330
A
100
AcDbEntity
  8
PIC06
100
AcDbBlockReference
  2
COMP10
 10
-117.7470855713
 20
-52.8181266785
 30
0.0
  0
INSERT
  5
461
330
A
100
AcDbEntity
  8
PIC06
100
AcDbBlockReference
  2
COMP11
 10
-117.7470855713
 20
-52.8181266785
 30
0.0
  0
INSERT
  5
462
330
A
100
AcDbEntity
  8
PIC06
100
AcDbBlockReference
  2
COMP12
 10
-117.7470855713
 20
-52.8181266785
 30
0.0
  0
INSERT
  5
463
330
A
100
AcDbEntity
  8
PIC06
100
AcDbBlockReference
  2
COMP13
 10
-117.7470855713
 20
-52.8181266785
 30
0.0
  0
INSERT
  5
464
330
A
100
AcDbEntity
  8
PIC06
100
AcDbBlockReference
  2
COMP14
 10
-117.7470855713
 20
-52.8181266785
 30
0.0
  0
VIEWPORT
  5
4CB
102
{ACAD_XDICTIONARY
360
4DF
102
}
330
B
100
AcDbEntity
 67
     1
  8
0
  6
Continuous
100
AcDbViewport
 10
5.250183132535525
 20
4.000122090685323
 30
0.0
 40
10.63098306903433
 41
6.454849668730496
 68
     1
 69
     1
 12
5.250183132535525
 22
4.000122090685323
 13
0.0
 23
0.0
 14
0.5
 24
0.5
 15
0.5
 25
0.5
 16
0.0
 26
0.0
 36
1.0
 17
0.0
 27
0.0
 37
0.0
 42
50.0
 43
0.0
 44
0.0
 45
6.454849668730496
 50
0.0
 51
0.0
 72
  2000
 90
   819232
  1

281
     0
 71
     1
 74
     0
110
0.0
120
0.0
130
0.0
111
1.0
121
0.0
131
0.0
112
0.0
122
1.0
132
0.0
 79
     0
146
0.0
  0
VIEWPORT
  5
4CE
102
{ACAD_XDICTIONARY
360
4E1
102
}
330
B
100
AcDbEntity
 67
     1
  8
0
  6
Continuous
100
AcDbViewport
 10
5.249999761581421
 20
3.999999761581421
 30
0.0
 40
8.399999618530275
 41
6.399999618530274
 68
     2
 69
     2
 12
148.9997506938341
 22
105.0000004889444
 13
0.0
 23
0.0
 14
1.0
 24
1.0
 15
0.0
 25
0.0
 16
0.0
 26
0.0
 36
1.0
 17
0.0
 27
0.0
 37
0.0
 42
50.0
 43
0.0
 44
0.0
 45
229.1128495986284
 50
0.0
 51
0.0
 72
  2000
 90
   819232
  1

281
     0
 71
     1
 74
     0
110
0.0
120
0.0
130
0.0
111
1.0
121
0.0
131
0.0
112
0.0
122
1.0
132
0.0
 79
     0
146
0.0
  0
ENDSEC
  0
SECTION
  2
OBJECTS
  0
DICTIONARY
  5
19
330
0
100
AcDbDictionary
281
     1
  3
ACAD_COLOR
350
49B
  3
ACAD_GROUP
350
1A
  3
ACAD_LAYOUT
350
46B
  3
ACAD_MATERIAL
350
49A
  3
ACAD_MLINESTYLE
350
1B
  3
ACAD_PLOTSETTINGS
350
46C
  3
ACAD_PLOTSTYLENAME
350
469
  3
ACAD_TABLESTYLE
350
49C
  3
ACAD_VISUALSTYLE
350
4B4
  3
ACDBVARIABLEDICTIONARY
350
471
  3
ASE_INDEX_DICTIONARY
350
4A3
  3
DWGPROPS
350
4D2
  0
DICTIONARY
  5
494
330
A
100
AcDbDictionary
280
     1
281
     1
  3
ACAD_LAYOUTSELFREF
360
495
  0
DICTIONARY
  5
496
330
B
100
AcDbDictionary
280
     1
281
     1
  3
ACAD_LAYOUTSELFREF
360
497
  0
DICTIONARY
  5
4DF
330
4CB
100
AcDbDictionary
280
     1
281
     1
  3
ACAD_XREC_ROUNDTRIP
360
4E0
  0
DICTIONARY
  5
4E1
330
4CE
100
AcDbDictionary
280
     1
281
     1
  3
ACAD_XREC_ROUNDTRIP
360
4E2
  0
DICTIONARY
  5
49B
102
{ACAD_REACTORS
330
19
102
}
330
19
100
AcDbDictionary
281
     1
  0
DICTIONARY
  5
1A
102
{ACAD_REACTORS
330
19
102
}
330
19
100
AcDbDictionary
281
     1
  0
DICTIONARY
  5
46B
102
{ACAD_REACTORS
330
19
102
}
330
19
100
AcDbDictionary
281
     1
  3
Layout1
350
49F
  3
Model
350
49E
  0
DICTIONARY
  5
49A
102
{ACAD_REACTORS
330
19
102
}
330
19
100
AcDbDictionary
281
     1
  3
ByBlock
350
4B2
  3
ByLayer
350
4B1
  3
Global
350
4B3
  0
DICTIONARY
  5
1B
102
{ACAD_REACTORS
330
19
102
}
330
19
100
AcDbDictionary
281
     1
  3
STANDARD
350
1C
  0
DICTIONARY
  5
46C
102
{ACAD_REACTORS
330
19
102
}
330
19
100
AcDbDictionary
281
     1
  0
ACDBDICTIONARYWDFLT
  5
469
102
{ACAD_REACTORS
330
19
102
}
330
19
100
AcDbDictionary
281
     1
  3
Normal
350
46A
100
AcDbDictionaryWithDefault
340
46A
  0
DICTIONARY
  5
49C
102
{ACAD_REACTORS
330
19
102
}
330
19
100
AcDbDictionary
281
     1
  3
Standard
350
49D
  0
DICTIONARY
  5
4B4
102
{ACAD_REACTORS
330
19
102
}
330
19
100
AcDbDictionary
281
     1
  3
2dWireframe
350
4BA
  3
3D Hidden
350
4BC
  3
3dWireframe
350
4BB
  3
Basic
350
4B9
  3
Brighten
350
4C0
  3
ColorChange
350
4C4
  3
Conceptual
350
4BD
  3
Dim
350
4BF
  3
Facepattern
350
4C3
  3
Flat
350
4B5
  3
FlatWithEdges
350
4B6
  3
Gouraud
350
4B7
  3
GouraudWithEdges
350
4B8
  3
Linepattern
350
4C2
  3
Realistic
350
4BE
  3
Thicken
350
4C1
  0
DICTIONARY
  5
471
102
{ACAD_REACTORS
330
19
102
}
330
19
100
AcDbDictionary
281
     1
  3
CTABLESTYLE
350
4A7
  3
DIMASSOC
350
472
  3
INDEXCTL
350
4D1
  3
SORTENTS
350
4D0
  0
DICTIONARY
  5
4A3
102
{ACAD_REACTORS
330
19
102
}
330
19
100
AcDbDictionary
281
     1
  3
ASEBlockHierarchyIndexRecord
350
4A5
1001
DCO15
1040
1652003635.925
  0
XRECORD
  5
4D2
102
{ACAD_REACTORS
330
19
102
}
330
19
100
AcDbXrecord
280
     1
  1
DWGPROPS COOKIE
  2

  3

  4

  6

  7

  8
nnguyen
  9

300
=
301
=
302
=
303
=
304
=
305
=
306
=
307
=
308
=
309
=
 40
0.0208703240740741
 41
2311949.136595336
 42
2454923.624304688
  1

 90
        0
  0
XRECORD
  5
495
102
{ACAD_REACTORS
330
494
102
}
330
494
100
AcDbXrecord
280
     1
340
A
  0
XRECORD
  5
497
102
{ACAD_REACTORS
330
496
102
}
330
496
100
AcDbXrecord
280
     1
340
B
  0
XRECORD
  5
4E0
102
{ACAD_REACTORS
330
4DF
102
}
330
4DF
100
AcDbXrecord
280
     1
102
SHADEPLOT
 70
     0
  0
XRECORD
  5
4E2
102
{ACAD_REACTORS
330
4E1
102
}
330
4E1
100
AcDbXrecord
280
     1
102
SHADEPLOT
 70
     0
  0
LAYOUT
  5
49F
102
{ACAD_XDICTIONARY
360
4D7
102
}
102
{ACAD_REACTORS
330
46B
102
}
330
46B
100
AcDbPlotSettings
  1

  2
none_device
  4
Letter_(8.50_x_11.00_Inches)
  6

 40
6.349999904632568
 41
6.349999904632568
 42
6.350006103515625
 43
6.350006103515625
 44
215.8999938964844
 45
279.3999938964844
 46
0.0
 47
0.0
 48
0.0
 49
0.0
140
0.0
141
0.0
142
1.0
143
1.0
 70
   688
 72
     0
 73
     1
 74
     5
  7

 75
    16
147
1.0
148
0.0
149
0.0
100
AcDbLayout
  1
Layout1
 70
     1
 71
     1
 10
-0.2500002402958907
 20
-0.2499999962453767
 11
10.74999951940822
 21
8.249999763458733
 12
0.0
 22
0.0
 32
0.0
 14
1.049743681505489
 24
0.7996673802841308
 34
-0.0015258207003583
 15
9.450622583565561
 25
7.200576801086516
 35
0.0000000349246037
146
0.0
 13
0.0
 23
0.0
 33
0.0
 16
1.0
 26
0.0
 36
0.0
 17
0.0
 27
1.0
 37
0.0
 76
     0
330
B
331
4CB
1001
ACAD_PSEXT
1000
None
1000
None
1000
Not applicable
1000
The layout will not be plotted unless a new plotter configuration name is selected.
1070
     0
  0
LAYOUT
  5
49E
102
{ACAD_XDICTIONARY
360
4D5
102
}
102
{ACAD_REACTORS
330
46B
102
}
330
46B
100
AcDbPlotSettings
  1

  2
HP Color LaserJet 2840 PS
  4

  6

 40
0.0
 41
0.0
 42
0.0
 43
0.0
 44
0.0
 45
0.0
 46
0.0
 47
0.0
 48
0.0
 49
0.0
140
0.0
141
0.0
142
1.0
143
1.0
 70
  1712
 72
     0
 73
     0
 74
     0
  7

 75
     0
147
1.0
148
0.0
149
0.0
100
AcDbLayout
  1
Model
 70
     1
 71
     0
 10
0.0
 20
0.0
 11
12.0
 21
9.0
 12
0.0
 22
0.0
 32
0.0
 14
0.0
 24
0.0
 34
0.0
 15
0.0
 25
0.0
 35
0.0
146
0.0
 13
0.0
 23
0.0
 33
0.0
 16
1.0
 26
0.0
 36
0.0
 17
0.0
 27
1.0
 37
0.0
 76
     0
330
A
  0
MATERIAL
  5
4B2
102
{ACAD_XDICTIONARY
360
4DB
102
}
102
{ACAD_REACTORS
330
49A
102
}
330
49A
100
AcDbMaterial
  1
ByBlock
  0
MATERIAL
  5
4B1
102
{ACAD_XDICTIONARY
360
4D9
102
}
102
{ACAD_REACTORS
330
49A
102
}
330
49A
100
AcDbMaterial
  1
ByLayer
  0
MATERIAL
  5
4B3
102
{ACAD_XDICTIONARY
360
4DD
102
}
102
{ACAD_REACTORS
330
49A
102
}
330
49A
100
AcDbMaterial
  1
Global
  0
MLINESTYLE
  5
1C
102
{ACAD_REACTORS
330
1B
102
}
330
1B
100
AcDbMlineStyle
  2
STANDARD
 70
     0
  3

 62
     0
 51
90.0
 52
90.0
 71
     2
 49
0.5
 62
   256
  6
BYLAYER
 49
-0.5
 62
   256
  6
BYLAYER
  0
ACDBPLACEHOLDER
  5
46A
102
{ACAD_REACTORS
330
469
102
}
330
469
  0
TABLESTYLE
  5
49D
102
{ACAD_XDICTIONARY
360
4D3
102
}
102
{ACAD_REACTORS
330
49C
102
}
330
49C
100
AcDbTableStyle
  3
Standard
 70
     0
 71
     0
 40
0.06
 41
0.06
280
     0
281
     0
  7
STANDARD
140
0.18
170
     2
 62
     0
 63
     7
283
     0
274
    -2
284
     1
 64
     0
275
    -2
285
     1
 65
     0
276
    -2
286
     1
 66
     0
277
    -2
287
     1
 67
     0
278
    -2
288
     1
 68
     0
279
    -2
289
     1
 69
     0
  7
STANDARD
140
0.25
170
     5
 62
     0
 63
     7
283
     0
274
    -2
284
     1
 64
     0
275
    -2
285
     1
 65
     0
276
    -2
286
     1
 66
     0
277
    -2
287
     1
 67
     0
278
    -2
288
     1
 68
     0
279
    -2
289
     1
 69
     0
  7
STANDARD
140
0.18
170
     5
 62
     0
 63
     7
283
     0
274
    -2
284
     1
 64
     0
275
    -2
285
     1
 65
     0
276
    -2
286
     1
 66
     0
277
    -2
287
     1
 67
     0
278
    -2
288
     1
 68
     0
279
    -2
289
     1
 69
     0
  0
VISUALSTYLE
  5
4BA
102
{ACAD_REACTORS
330
4B4
102
}
330
4B4
100
AcDbVisualStyle
  2
2dWireframe
 70
     4
 71
     0
 72
     2
 73
     0
 90
        0
 40
-0.6
 41
-30.0
 62
     5
 63
     7
 74
     1
 91
        4
 64
     7
 65
   257
 75
     1
175
     1
 42
1.0
 92
        0
 66
   257
 43
1.0
 76
     1
 77
     6
 78
     2
 67
     7
 79
     5
170
     0
171
     0
290
     0
174
     0
 93
        1
 44
0.0
173
     0
291
     0
 45
0.0
1001
ACAD
1000
AcDbSavedByObjectVersion
1070
     0
  0
VISUALSTYLE
  5
4BC
102
{ACAD_REACTORS
330
4B4
102
}
330
4B4
100
AcDbVisualStyle
  2
3D Hidden
 70
     6
 71
     1
 72
     2
 73
     2
 90
        0
 40
-0.6
 41
-30.0
 62
     5
 63
     7
 74
     2
 91
        2
 64
     7
 65
   257
 75
     2
175
     1
 42
40.0
 92
        0
 66
   257
 43
1.0
 76
     1
 77
     6
 78
     2
 67
     7
 79
     3
170
     0
171
     0
290
     0
174
     0
 93
        1
 44
0.0
173
     0
291
     0
 45
0.0
1001
ACAD
1000
AcDbSavedByObjectVersion
1070
     0
  0
VISUALSTYLE
  5
4BB
102
{ACAD_REACTORS
330
4B4
102
}
330
4B4
100
AcDbVisualStyle
  2
3dWireframe
 70
     5
 71
     0
 72
     2
 73
     0
 90
        0
 40
-0.6
 41
-30.0
 62
     5
 63
     7
 74
     1
 91
        4
 64
     7
 65
   257
 75
     1
175
     1
 42
1.0
 92
        0
 66
   257
 43
1.0
 76
     1
 77
     6
 78
     2
 67
     7
 79
     5
170
     0
171
     0
290
     0
174
     0
 93
        1
 44
0.0
173
     0
291
     0
 45
0.0
1001
ACAD
1000
AcDbSavedByObjectVersion
1070
     0
  0
VISUALSTYLE
  5
4B9
102
{ACAD_REACTORS
330
4B4
102
}
330
4B4
100
AcDbVisualStyle
  2
Basic
 70
     7
 71
     1
 72
     0
 73
     1
 90
        0
 40
-0.6
 41
-30.0
 62
     5
 63
     7
 74
     0
 91
        4
 64
     7
 65
   257
 75
     1
175
     1
 42
1.0
 92
        8
 66
     7
 43
1.0
 76
     1
 77
     6
 78
     2
 67
     7
 79
     5
170
     0
171
     0
290
     0
174
     0
 93
        1
 44
0.0
173
     0
291
     1
 45
0.0
1001
ACAD
1000
AcDbSavedByObjectVersion
1070
     0
  0
VISUALSTYLE
  5
4C0
102
{ACAD_REACTORS
330
4B4
102
}
330
4B4
100
AcDbVisualStyle
  2
Brighten
 70
    12
 71
     2
 72
     2
 73
     0
 90
        0
 40
-0.6
 41
-30.0
 62
     5
 63
     7
 74
     1
 91
        4
 64
     7
 65
   257
 75
     1
175
     1
 42
1.0
 92
        8
 66
     7
 43
1.0
 76
     1
 77
     6
 78
     2
 67
     7
 79
     5
170
     0
171
     0
290
     0
174
     0
 93
        1
 44
50.0
173
     0
291
     1
 45
0.0
1001
ACAD
1000
AcDbSavedByObjectVersion
1070
     0
  0
VISUALSTYLE
  5
4C4
102
{ACAD_REACTORS
330
4B4
102
}
330
4B4
100
AcDbVisualStyle
  2
ColorChange
 70
    16
 71
     2
 72
     2
 73
     3
 90
        0
 40
-0.6
 41
-30.0
 62
     5
 63
     8
 74
     1
 91
        4
 64
     7
 65
   257
 75
     1
175
     1
 42
1.0
 92
        8
 66
     8
 43
1.0
 76
     1
 77
     6
 78
     2
 67
     7
 79
     5
170
     0
171
     0
290
     0
174
     0
 93
        1
 44
0.0
173
     0
291
     1
 45
0.0
1001
ACAD
1000
AcDbSavedByObjectVersion
1070
     0
  0
VISUALSTYLE
  5
4BD
102
{ACAD_REACTORS
330
4B4
102
}
330
4B4
100
AcDbVisualStyle
  2
Conceptual
 70
     9
 71
     3
 72
     2
 73
     0
 90
        0
 40
-0.6
 41
-30.0
 62
     5
 63
     7
 74
     2
 91
        2
 64
     7
 65
   257
 75
     1
175
     1
 42
40.0
 92
        8
 66
     7
 43
1.0
 76
     1
 77
     6
 78
     2
 67
     7
 79
     3
170
     0
171
     0
290
     0
174
     0
 93
        1
 44
0.0
173
     0
291
     0
 45
0.0
1001
ACAD
1000
AcDbSavedByObjectVersion
1070
     0
  0
VISUALSTYLE
  5
4BF
102
{ACAD_REACTORS
330
4B4
102
}
330
4B4
100
AcDbVisualStyle
  2
Dim
 70
    11
 71
     2
 72
     2
 73
     0
 90
        0
 40
-0.6
 41
-30.0
 62
     5
 63
     7
 74
     1
 91
        4
 64
     7
 65
   257
 75
     1
175
     1
 42
1.0
 92
        8
 66
     7
 43
1.0
 76
     1
 77
     6
 78
     2
 67
     7
 79
     5
170
     0
171
     0
290
     0
174
     0
 93
        1
 44
-50.0
173
     0
291
     1
 45
0.0
1001
ACAD
1000
AcDbSavedByObjectVersion
1070
     0
  0
VISUALSTYLE
  5
4C3
102
{ACAD_REACTORS
330
4B4
102
}
330
4B4
100
AcDbVisualStyle
  2
Facepattern
 70
    15
 71
     2
 72
     2
 73
     0
 90
        0
 40
-0.6
 41
-30.0
 62
     5
 63
     7
 74
     1
 91
        4
 64
     7
 65
   257
 75
     1
175
     1
 42
1.0
 92
        8
 66
     7
 43
1.0
 76
     1
 77
     6
 78
     2
 67
     7
 79
     5
170
     0
171
     0
290
     0
174
     0
 93
        1
 44
0.0
173
     0
291
     1
 45
0.0
1001
ACAD
1000
AcDbSavedByObjectVersion
1070
     0
  0
VISUALSTYLE
  5
4B5
102
{ACAD_REACTORS
330
4B4
102
}
330
4B4
100
AcDbVisualStyle
  2
Flat
 70
     0
 71
     2
 72
     1
 73
     1
 90
        2
 40
-0.6
 41
30.0
 62
     5
 63
     7
 74
     0
 91
        4
 64
     7
 65
   257
 75
     1
175
     1
 42
1.0
 92
        8
 66
     7
 43
1.0
 76
     1
 77
     6
 78
     2
 67
     7
 79
     5
170
     0
171
     0
290
     0
174
     0
 93
       13
 44
0.0
173
     0
291
     1
 45
0.0
1001
ACAD
1000
AcDbSavedByObjectVersion
1070
     0
  0
VISUALSTYLE
  5
4B6
102
{ACAD_REACTORS
330
4B4
102
}
330
4B4
100
AcDbVisualStyle
  2
FlatWithEdges
 70
     1
 71
     2
 72
     1
 73
     1
 90
        2
 40
-0.6
 41
30.0
 62
     5
 63
     7
 74
     1
 91
        4
 64
     7
 65
   257
 75
     1
175
     1
 42
1.0
 92
        0
 66
   257
 43
1.0
 76
     1
 77
     6
 78
     2
 67
     7
 79
     5
170
     0
171
     0
290
     0
174
     0
 93
       13
 44
0.0
173
     0
291
     1
 45
0.0
1001
ACAD
1000
AcDbSavedByObjectVersion
1070
     0
  0
VISUALSTYLE
  5
4B7
102
{ACAD_REACTORS
330
4B4
102
}
330
4B4
100
AcDbVisualStyle
  2
Gouraud
 70
     2
 71
     2
 72
     2
 73
     1
 90
        2
 40
-0.6
 41
30.0
 62
     5
 63
     7
 74
     0
 91
        4
 64
     7
 65
   257
 75
     1
175
     1
 42
1.0
 92
        0
 66
     7
 43
1.0
 76
     1
 77
     6
 78
     2
 67
     7
 79
     5
170
     0
171
     0
290
     0
174
     0
 93
       13
 44
0.0
173
     0
291
     1
 45
0.0
1001
ACAD
1000
AcDbSavedByObjectVersion
1070
     0
  0
VISUALSTYLE
  5
4B8
102
{ACAD_REACTORS
330
4B4
102
}
330
4B4
100
AcDbVisualStyle
  2
GouraudWithEdges
 70
     3
 71
     2
 72
     2
 73
     1
 90
        2
 40
-0.6
 41
30.0
 62
     5
 63
     7
 74
     1
 91
        4
 64
     7
 65
   257
 75
     1
175
     1
 42
1.0
 92
        0
 66
   257
 43
1.0
 76
     1
 77
     6
 78
     2
 67
     7
 79
     5
170
     0
171
     0
290
     0
174
     0
 93
       13
 44
0.0
173
     0
291
     1
 45
0.0
1001
ACAD
1000
AcDbSavedByObjectVersion
1070
     0
  0
VISUALSTYLE
  5
4C2
102
{ACAD_REACTORS
330
4B4
102
}
330
4B4
100
AcDbVisualStyle
  2
Linepattern
 70
    14
 71
     2
 72
     2
 73
     0
 90
        0
 40
-0.6
 41
-30.0
 62
     5
 63
     7
 74
     1
 91
        4
 64
     7
 65
   257
 75
     7
175
     7
 42
1.0
 92
        8
 66
     7
 43
1.0
 76
     1
 77
     6
 78
     2
 67
     7
 79
     5
170
     0
171
     0
290
     0
174
     0
 93
        1
 44
0.0
173
     0
291
     1
 45
0.0
1001
ACAD
1000
AcDbSavedByObjectVersion
1070
     0
  0
VISUALSTYLE
  5
4BE
102
{ACAD_REACTORS
330
4B4
102
}
330
4B4
100
AcDbVisualStyle
  2
Realistic
 70
     8
 71
     2
 72
     2
 73
     0
 90
        0
 40
-0.6
 41
-30.0
 62
     5
 63
     7
 74
     1
 91
        0
 64
     7
 65
   257
 75
     1
175
     1
 42
1.0
 92
        8
 66
     8
 43
1.0
 76
     1
 77
     6
 78
     2
 67
     7
 79
     5
170
     0
171
     0
290
     0
174
     0
 93
       13
 44
0.0
173
     0
291
     0
 45
0.0
1001
ACAD
1000
AcDbSavedByObjectVersion
1070
     0
  0
VISUALSTYLE
  5
4C1
102
{ACAD_REACTORS
330
4B4
102
}
330
4B4
100
AcDbVisualStyle
  2
Thicken
 70
    13
 71
     2
 72
     2
 73
     0
 90
        0
 40
-0.6
 41
-30.0
 62
     5
 63
     7
 74
     1
 91
        4
 64
     7
 65
   257
 75
     1
175
     1
 42
1.0
 92
       12
 66
     7
 43
1.0
 76
     1
 77
     6
 78
     2
 67
     7
 79
     5
170
     0
171
     0
290
     0
174
     0
 93
        1
 44
0.0
173
     0
291
     1
 45
0.0
1001
ACAD
1000
AcDbSavedByObjectVersion
1070
     0
  0
DICTIONARYVAR
  5
4A7
102
{ACAD_REACTORS
330
471
102
}
330
471
100
DictionaryVariables
280
     0
  1
STANDARD
  0
DICTIONARYVAR
  5
472
102
{ACAD_REACTORS
330
471
102
}
330
471
100
DictionaryVariables
280
     0
  1
1
  0
DICTIONARYVAR
  5
4D1
102
{ACAD_REACTORS
330
471
102
}
330
471
100
DictionaryVariables
280
     0
  1
0
  0
DICTIONARYVAR
  5
4D0
102
{ACAD_REACTORS
330
471
102
}
330
471
100
DictionaryVariables
280
     0
  1
127
  0
XRECORD
  5
4A5
102
{ACAD_REACTORS
330
4A3
102
}
330
4A3
100
AcDbXrecord
280
     1
330
457
330
458
330
459
330
45A
330
45B
330
45C
330
45D
330
45E
330
45F
330
460
330
461
330
462
330
463
330
464
  0
DICTIONARY
  5
4D7
330
49F
100
AcDbDictionary
280
     1
281
     1
  3
ACAD_XREC_ROUNDTRIP
360
4D8
  0
DICTIONARY
  5
4D5
330
49E
100
AcDbDictionary
280
     1
281
     1
  3
ACAD_XREC_ROUNDTRIP
360
4D6
  0
DICTIONARY
  5
4DB
330
4B2
100
AcDbDictionary
280
     1
281
     1
  3
ACAD_XREC_ROUNDTRIP
360
4DC
  0
DICTIONARY
  5
4D9
330
4B1
100
AcDbDictionary
280
     1
281
     1
  3
ACAD_XREC_ROUNDTRIP
360
4DA
  0
DICTIONARY
  5
4DD
330
4B3
100
AcDbDictionary
280
     1
281
     1
  3
ACAD_XREC_ROUNDTRIP
360
4DE
  0
DICTIONARY
  5
4D3
330
49D
100
AcDbDictionary
280
     1
281
     1
  3
ACAD_XREC_ROUNDTRIP
360
4D4
  0
XRECORD
  5
4D8
102
{ACAD_REACTORS
330
4D7
102
}
330
4D7
100
AcDbXrecord
280
     1
102
SHADEPLOT
 70
     0
102
SHADEPLOTRESLEVEL
 70
     2
102
SHADEPLOTCUSTOMDPI
 70
   300
  0
XRECORD
  5
4D6
102
{ACAD_REACTORS
330
4D5
102
}
330
4D5
100
AcDbXrecord
280
     1
102
SHADEPLOT
 70
     0
102
SHADEPLOTRESLEVEL
 70
     2
102
SHADEPLOTCUSTOMDPI
 70
   300
  0
XRECORD
  5
4DC
102
{ACAD_REACTORS
330
4DB
102
}
330
4DB
100
AcDbXrecord
280
     1
102
MATERIAL
148
0.0
149
0.0
149
0.0
 93
        0
 94
       63
282
     0
 72
     1
 77
     1
171
     1
175
     1
179
     1
273
     0
  0
XRECORD
  5
4DA
102
{ACAD_REACTORS
330
4D9
102
}
330
4D9
100
AcDbXrecord
280
     1
102
MATERIAL
148
0.0
149
0.0
149
0.0
 93
        0
 94
       63
282
     0
 72
     1
 77
     1
171
     1
175
     1
179
     1
273
     0
  0
XRECORD
  5
4DE
102
{ACAD_REACTORS
330
4DD
102
}
330
4DD
100
AcDbXrecord
280
     1
102
MATERIAL
148
0.0
149
0.0
149
0.0
 93
        0
 94
       63
282
     0
 72
     1
 77
     1
171
     1
175
     1
179
     1
273
     0
  0
XRECORD
  5
4D4
102
{ACAD_REACTORS
330
4D3
102
}
330
4D3
100
AcDbXrecord
280
     1
102
ACAD_ROUNDTRIP_PRE2007_TABLESTYLE
 90
        4
 91
        0
  1

 92
        4
 93
        0
  2

 94
        4
 95
        0
  3

  0
ENDSEC
  0
EOF
