  0
SECTION
  2
HEADER
  9
$ACADVER
  1
AC1015
  9
$ACADMAINTVER
 70
    20
  9
$DWGCODEPAGE
  3
ANSI_1252
  9
$INSBASE
 10
0.0
 20
0.0
 30
0.0
  9
$EXTMIN
 10
1265.760210603212
 20
1015.781186876381
 30
0.0
  9
$EXTMAX
 10
1317.794386069604
 20
1058.400677747011
 30
0.0
  9
$LIMMIN
 10
0.0
 20
0.0
  9
$LIMMAX
 10
12.0
 20
9.0
  9
$ORTHOMODE
 70
     1
  9
$REGENMODE
 70
     1
  9
$FILLMODE
 70
     1
  9
$QTEXTMODE
 70
     0
  9
$MIRRTEXT
 70
     0
  9
$LTSCALE
 40
1.0
  9
$ATTMODE
 70
     1
  9
$TEXTSIZE
 40
0.2
  9
$TRACEWID
 40
0.05
  9
$TEXTSTYLE
  7
Standard
  9
$CLAYER
  8
0
  9
$CELTYPE
  6
ByLayer
  9
$CECOLOR
 62
   256
  9
$CELTSCALE
 40
1.0
  9
$DISPSILH
 70
     0
  9
$DIMSCALE
 40
1.0
  9
$DIMASZ
 40
0.18
  9
$DIMEXO
 40
0.0625
  9
$DIMDLI
 40
0.38
  9
$DIMRND
 40
0.0
  9
$DIMDLE
 40
0.0
  9
$DIMEXE
 40
0.18
  9
$DIMTP
 40
0.0
  9
$DIMTM
 40
0.0
  9
$DIMTXT
 40
0.18
  9
$DIMCEN
 40
0.09
  9
$DIMTSZ
 40
0.0
  9
$DIMTOL
 70
     0
  9
$DIMLIM
 70
     0
  9
$DIMTIH
 70
     1
  9
$DIMTOH
 70
     1
  9
$DIMSE1
 70
     0
  9
$DIMSE2
 70
     0
  9
$DIMTAD
 70
     0
  9
$DIMZIN
 70
     0
  9
$DIMBLK
  1

  9
$DIMASO
 70
     1
  9
$DIMSHO
 70
     1
  9
$DIMPOST
  1

  9
$DIMAPOST
  1
mm
  9
$DIMALT
 70
     1
  9
$DIMALTD
 70
     2
  9
$DIMALTF
 40
25.4
  9
$DIMLFAC
 40
1.0
  9
$DIMTOFL
 70
     0
  9
$DIMTVP
 40
0.0
  9
$DIMTIX
 70
     0
  9
$DIMSOXD
 70
     0
  9
$DIMSAH
 70
     0
  9
$DIMBLK1
  1

  9
$DIMBLK2
  1

  9
$DIMSTYLE
  2
Standard
  9
$DIMCLRD
 70
     0
  9
$DIMCLRE
 70
     0
  9
$DIMCLRT
 70
     0
  9
$DIMTFAC
 40
1.0
  9
$DIMGAP
 40
0.09
  9
$DIMJUST
 70
     0
  9
$DIMSD1
 70
     0
  9
$DIMSD2
 70
     0
  9
$DIMTOLJ
 70
     1
  9
$DIMTZIN
 70
     0
  9
$DIMALTZ
 70
     0
  9
$DIMALTTZ
 70
     0
  9
$DIMUPT
 70
     0
  9
$DIMDEC
 70
     4
  9
$DIMTDEC
 70
     4
  9
$DIMALTU
 70
     2
  9
$DIMALTTD
 70
     2
  9
$DIMTXSTY
  7
Standard
  9
$DIMAUNIT
 70
     0
  9
$DIMADEC
 70
     0
  9
$DIMALTRND
 40
0.0
  9
$DIMAZIN
 70
     0
  9
$DIMDSEP
 70
    46
  9
$DIMATFIT
 70
     3
  9
$DIMFRAC
 70
     0
  9
$DIMLDRBLK
  1

  9
$DIMLUNIT
 70
     5
  9
$DIMLWD
 70
    -2
  9
$DIMLWE
 70
    -2
  9
$DIMTMOVE
 70
     0
  9
$LUNITS
 70
     2
  9
$LUPREC
 70
     4
  9
$SKETCHINC
 40
0.1
  9
$FILLETRAD
 40
0.0
  9
$AUNITS
 70
     0
  9
$AUPREC
 70
     0
  9
$MENU
  1
.
  9
$ELEVATION
 40
0.0
  9
$PELEVATION
 40
0.0
  9
$THICKNESS
 40
0.0
  9
$LIMCHECK
 70
     0
  9
$CHAMFERA
 40
0.0
  9
$CHAMFERB
 40
0.0
  9
$CHAMFERC
 40
0.0
  9
$CHAMFERD
 40
0.0
  9
$SKPOLY
 70
     0
  9
$TDCREATE
 40
2454741.571576030
  9
$TDUCREATE
 40
2454741.738242697
  9
$TDUPDATE
 40
2456134.630724815
  9
$TDUUPDATE
 40
2456134.797391482
  9
$TDINDWG
 40
0.0613634838
  9
$TDUSRTIMER
 40
0.0613631366
  9
$USRTIMER
 70
     1
  9
$ANGBASE
 50
0.0
  9
$ANGDIR
 70
     0
  9
$PDMODE
 70
     0
  9
$PDSIZE
 40
0.0
  9
$PLINEWID
 40
0.0
  9
$SPLFRAME
 70
     0
  9
$SPLINETYPE
 70
     6
  9
$SPLINESEGS
 70
     8
  9
$HANDSEED
  5
342F
  9
$SURFTAB1
 70
     6
  9
$SURFTAB2
 70
     6
  9
$SURFTYPE
 70
     6
  9
$SURFU
 70
     6
  9
$SURFV
 70
     6
  9
$UCSBASE
  2

  9
$UCSNAME
  2

  9
$UCSORG
 10
0.0
 20
0.0
 30
0.0
  9
$UCSXDIR
 10
1.0
 20
0.0
 30
0.0
  9
$UCSYDIR
 10
0.0
 20
1.0
 30
0.0
  9
$UCSORTHOREF
  2

  9
$UCSORTHOVIEW
 70
     0
  9
$UCSORGTOP
 10
0.0
 20
0.0
 30
0.0
  9
$UCSORGBOTTOM
 10
0.0
 20
0.0
 30
0.0
  9
$UCSORGLEFT
 10
0.0
 20
0.0
 30
0.0
  9
$UCSORGRIGHT
 10
0.0
 20
0.0
 30
0.0
  9
$UCSORGFRONT
 10
0.0
 20
0.0
 30
0.0
  9
$UCSORGBACK
 10
0.0
 20
0.0
 30
0.0
  9
$PUCSBASE
  2

  9
$PUCSNAME
  2

  9
$PUCSORG
 10
0.0
 20
0.0
 30
0.0
  9
$PUCSXDIR
 10
1.0
 20
0.0
 30
0.0
  9
$PUCSYDIR
 10
0.0
 20
1.0
 30
0.0
  9
$PUCSORTHOREF
  2

  9
$PUCSORTHOVIEW
 70
     0
  9
$PUCSORGTOP
 10
0.0
 20
0.0
 30
0.0
  9
$PUCSORGBOTTOM
 10
0.0
 20
0.0
 30
0.0
  9
$PUCSORGLEFT
 10
0.0
 20
0.0
 30
0.0
  9
$PUCSORGRIGHT
 10
0.0
 20
0.0
 30
0.0
  9
$PUCSORGFRONT
 10
0.0
 20
0.0
 30
0.0
  9
$PUCSORGBACK
 10
0.0
 20
0.0
 30
0.0
  9
$USERI1
 70
     0
  9
$USERI2
 70
     0
  9
$USERI3
 70
     0
  9
$USERI4
 70
     0
  9
$USERI5
 70
     0
  9
$USERR1
 40
0.0
  9
$USERR2
 40
0.0
  9
$USERR3
 40
0.0
  9
$USERR4
 40
0.0
  9
$USERR5
 40
0.0
  9
$WORLDVIEW
 70
     1
  9
$SHADEDGE
 70
     3
  9
$SHADEDIF
 70
    70
  9
$TILEMODE
 70
     1
  9
$MAXACTVP
 70
    64
  9
$PINSBASE
 10
0.0
 20
0.0
 30
0.0
  9
$PLIMCHECK
 70
     0
  9
$PEXTMIN
 10
1.000000000000000E+20
 20
1.000000000000000E+20
 30
1.000000000000000E+20
  9
$PEXTMAX
 10
-1.000000000000000E+20
 20
-1.000000000000000E+20
 30
-1.000000000000000E+20
  9
$PLIMMIN
 10
-20.0
 20
-7.5
  9
$PLIMMAX
 10
277.0
 20
202.5
  9
$UNITMODE
 70
     0
  9
$VISRETAIN
 70
     1
  9
$PLINEGEN
 70
     0
  9
$PSLTSCALE
 70
     1
  9
$TREEDEPTH
 70
  3020
  9
$CMLSTYLE
  2
Standard
  9
$CMLJUST
 70
     0
  9
$CMLSCALE
 40
1.0
  9
$PROXYGRAPHICS
 70
     1
  9
$MEASUREMENT
 70
     0
  9
$CELWEIGHT
370
    -1
  9
$ENDCAPS
280
     0
  9
$JOINSTYLE
280
     0
  9
$LWDISPLAY
290
     0
  9
$INSUNITS
 70
     1
  9
$HYPERLINKBASE
  1

  9
$STYLESHEET
  1

  9
$XEDIT
290
     1
  9
$CEPSNTYPE
380
     0
  9
$PSTYLEMODE
290
     1
  9
$FINGERPRINTGUID
  2
{CE3D1872-8BE4-4280-B1B1-C751DCEBB459}
  9
$VERSIONGUID
  2
{D2947A4A-A689-493D-8FFF-3309EAFED499}
  9
$EXTNAMES
290
     1
  9
$PSVPSCALE
 40
0.0
  9
$OLESTARTUP
290
     0
  0
ENDSEC
  0
SECTION
  2
CLASSES
  0
CLASS
  1
ACDBDICTIONARYWDFLT
  2
AcDbDictionaryWithDefault
  3
ObjectDBX Classes
 90
        0
280
     0
281
     0
  0
CLASS
  1
ACDBPLACEHOLDER
  2
AcDbPlaceHolder
  3
ObjectDBX Classes
 90
        0
280
     0
281
     0
  0
CLASS
  1
LAYOUT
  2
AcDbLayout
  3
ObjectDBX Classes
 90
        0
280
     0
281
     0
  0
CLASS
  1
DICTIONARYVAR
  2
AcDbDictionaryVar
  3
ObjectDBX Classes
 90
        0
280
     0
281
     0
  0
CLASS
  1
TABLESTYLE
  2
AcDbTableStyle
  3
ObjectDBX Classes
 90
     4095
280
     0
281
     0
  0
CLASS
  1
SORTENTSTABLE
  2
AcDbSortentsTable
  3
ObjectDBX Classes
 90
    32768
280
     0
281
     0
  0
CLASS
  1
DIMASSOC
  2
AcDbDimAssoc
  3
"AcDbDimAssoc|Product Desc:     AcDim ARX App For Dimension|Company:          Autodesk, Inc.|WEB Address:      www.autodesk.com"
 90
    32768
280
     0
281
     0
  0
CLASS
  1
MATERIAL
  2
AcDbMaterial
  3
ObjectDBX Classes
 90
     1153
280
     0
281
     0
  0
CLASS
  1
VISUALSTYLE
  2
AcDbVisualStyle
  3
ObjectDBX Classes
 90
     4095
280
     0
281
     0
  0
CLASS
  1
SCALE
  2
AcDbScale
  3
ObjectDBX Classes
 90
     1153
280
     0
281
     0
  0
CLASS
  1
MLEADERSTYLE
  2
AcDbMLeaderStyle
  3
ACDB_MLEADERSTYLE_CLASS
 90
     4095
280
     0
281
     0
  0
CLASS
  1
CELLSTYLEMAP
  2
AcDbCellStyleMap
  3
ObjectDBX Classes
 90
     1152
280
     0
281
     0
  0
ENDSEC
  0
SECTION
  2
TABLES
  0
TABLE
  2
VPORT
  5
8
330
0
100
AcDbSymbolTable
 70
     1
  0
VPORT
  5
3391
330
8
100
AcDbSymbolTableRecord
100
AcDbViewportTableRecord
  2
*Active
 70
     0
 10
0.0
 20
0.0
 11
1.0
 21
1.0
 12
1324.009391280174
 22
1047.530655555666
 13
0.0
 23
0.0
 14
0.5
 24
0.5
 15
0.5
 25
0.5
 16
0.0
 26
0.0
 36
1.0
 17
0.0
 27
0.0
 37
0.0
 40
84.5630728944978
 41
2.408320493066255
 42
50.0
 43
0.0
 44
0.0
 50
0.0
 51
0.0
 71
     0
 72
 20000
 73
     1
 74
     3
 75
     0
 76
     0
 77
     0
 78
     0
281
     0
 65
     1
110
0.0
120
0.0
130
0.0
111
1.0
121
0.0
131
0.0
112
0.0
122
1.0
132
0.0
 79
     0
146
0.0
1001
ACAD_NAV_VCDISPLAY
1070
     3
  0
ENDTAB
  0
TABLE
  2
LTYPE
  5
5
330
0
100
AcDbSymbolTable
 70
     3
  0
LTYPE
  5
14
330
5
100
AcDbSymbolTableRecord
100
AcDbLinetypeTableRecord
  2
ByBlock
 70
     0
  3

 72
    65
 73
     0
 40
0.0
  0
LTYPE
  5
15
330
5
100
AcDbSymbolTableRecord
100
AcDbLinetypeTableRecord
  2
ByLayer
 70
     0
  3

 72
    65
 73
     0
 40
0.0
  0
LTYPE
  5
16
330
5
100
AcDbSymbolTableRecord
100
AcDbLinetypeTableRecord
  2
Continuous
 70
     0
  3
Solid line
 72
    65
 73
     0
 40
0.0
  0
LTYPE
  5
2ACE
330
5
100
AcDbSymbolTableRecord
100
AcDbLinetypeTableRecord
  2
HIDDEN
 70
     0
  3
Hidden __ __ __ __ __ __ __ __ __ __ __ __ __ __
 72
    65
 73
     2
 40
1.905
 49
1.27
 74
     0
 49
-0.635
 74
     0
  0
LTYPE
  5
2ACF
330
5
100
AcDbSymbolTableRecord
100
AcDbLinetypeTableRecord
  2
CENTERX2
 70
     0
  3
Center (2x) ________  __  ________  __  _____
 72
    65
 73
     4
 40
20.32
 49
12.7
 74
     0
 49
-2.54
 74
     0
 49
2.54
 74
     0
 49
-2.54
 74
     0
  0
ENDTAB
  0
TABLE
  2
LAYER
  5
2
102
{ACAD_XDICTIONARY
360
1D0
102
}
330
0
100
AcDbSymbolTable
 70
     3
  0
LAYER
  5
10
102
{ACAD_XDICTIONARY
360
33E3
102
}
330
2
100
AcDbSymbolTableRecord
100
AcDbLayerTableRecord
  2
0
 70
     0
 62
     7
  6
Continuous
370
    -3
390
F
  0
LAYER
  5
200
330
2
100
AcDbSymbolTableRecord
100
AcDbLayerTableRecord
  2
Defpoints
 70
     0
 62
     7
  6
Continuous
290
     0
370
    -3
390
F
  0
LAYER
  5
2AD0
102
{ACAD_XDICTIONARY
360
33E5
102
}
330
2
100
AcDbSymbolTableRecord
100
AcDbLayerTableRecord
  2
PIC06
 70
     0
 62
     7
  6
Continuous
370
    -3
390
F
  0
ENDTAB
  0
TABLE
  2
STYLE
  5
3
330
0
100
AcDbSymbolTable
 70
     1
  0
STYLE
  5
11
330
3
100
AcDbSymbolTableRecord
100
AcDbTextStyleTableRecord
  2
Standard
 70
     0
 40
0.0
 41
1.0
 50
0.0
 71
     0
 42
0.2
  3
txt
  4

  0
ENDTAB
  0
TABLE
  2
VIEW
  5
6
330
0
100
AcDbSymbolTable
 70
     0
  0
ENDTAB
  0
TABLE
  2
UCS
  5
7
330
0
100
AcDbSymbolTable
 70
     0
  0
ENDTAB
  0
TABLE
  2
APPID
  5
9
330
0
100
AcDbSymbolTable
 70
    13
  0
APPID
  5
12
330
9
100
AcDbSymbolTableRecord
100
AcDbRegAppTableRecord
  2
ACAD
 70
     0
  0
APPID
  5
1CA
330
9
100
AcDbSymbolTableRecord
100
AcDbRegAppTableRecord
  2
ACAD_PSEXT
 70
     0
  0
APPID
  5
1CB
330
9
100
AcDbSymbolTableRecord
100
AcDbRegAppTableRecord
  2
ACAD_DSTYLE_DIMEXT_LENGTH
 70
     0
  0
APPID
  5
1CC
330
9
100
AcDbSymbolTableRecord
100
AcDbRegAppTableRecord
  2
ACAD_DSTYLE_DIMEXT_ENABLED
 70
     0
  0
APPID
  5
1CD
330
9
100
AcDbSymbolTableRecord
100
AcDbRegAppTableRecord
  2
ACAD_DSTYLE_DIMJOGGED_JOGANGLE_SYMBOL
 70
     0
  0
APPID
  5
1CE
330
9
100
AcDbSymbolTableRecord
100
AcDbRegAppTableRecord
  2
ACAD_DSTYLE_DIMARC_LENGTH_SYMBOL
 70
     0
  0
APPID
  5
1CF
330
9
100
AcDbSymbolTableRecord
100
AcDbRegAppTableRecord
  2
DCO15
 70
     0
  0
APPID
  5
2A8
330
9
100
AcDbSymbolTableRecord
100
AcDbRegAppTableRecord
  2
ACAD_DSTYLE_DIMTEXT_FILL
 70
     0
  0
APPID
  5
2AB
330
9
100
AcDbSymbolTableRecord
100
AcDbRegAppTableRecord
  2
ACAD_DSTYLE_DIM_LINETYPE
 70
     0
  0
APPID
  5
2AC
330
9
100
AcDbSymbolTableRecord
100
AcDbRegAppTableRecord
  2
ACAD_DSTYLE_DIM_EXT1_LINETYPE
 70
     0
  0
APPID
  5
2AD
330
9
100
AcDbSymbolTableRecord
100
AcDbRegAppTableRecord
  2
ACAD_DSTYLE_DIM_EXT2_LINETYPE
 70
     0
  0
APPID
  5
33EC
330
9
100
AcDbSymbolTableRecord
100
AcDbRegAppTableRecord
  2
ACAD_NAV_VCDISPLAY
 70
     0
  0
APPID
  5
342E
330
9
100
AcDbSymbolTableRecord
100
AcDbRegAppTableRecord
  2
ACAD_MLEADERVER
 70
     0
  0
ENDTAB
  0
TABLE
  2
DIMSTYLE
  5
A
330
0
100
AcDbSymbolTable
 70
     1
100
AcDbDimStyleTable
 71
     1
340
27
  0
DIMSTYLE
105
27
330
A
100
AcDbSymbolTableRecord
100
AcDbDimStyleTableRecord
  2
Standard
 70
     0
  4
mm
170
     1
277
     5
340
11
1001
ACAD_DSTYLE_DIMJOGGED_JOGANGLE_SYMBOL
1070
   384
1040
0.7853981633974483
1001
ACAD_DSTYLE_DIMEXT_LENGTH
1070
   378
1040
0.18
  0
ENDTAB
  0
TABLE
  2
BLOCK_RECORD
  5
1
330
0
100
AcDbSymbolTable
 70
     0
  0
BLOCK_RECORD
  5
1F
330
1
100
AcDbSymbolTableRecord
100
AcDbBlockTableRecord
  2
*Model_Space
340
22
  0
BLOCK_RECORD
  5
58
330
1
100
AcDbSymbolTableRecord
100
AcDbBlockTableRecord
  2
*Paper_Space
340
59
  0
ENDTAB
  0
ENDSEC
  0
SECTION
  2
BLOCKS
  0
BLOCK
  5
20
330
1F
100
AcDbEntity
  8
0
100
AcDbBlockBegin
  2
*Model_Space
 70
     0
 10
0.0
 20
0.0
 30
0.0
  3
*Model_Space
  1

  0
ENDBLK
  5
21
330
1F
100
AcDbEntity
  8
0
100
AcDbBlockEnd
  0
BLOCK
  5
5A
330
58
100
AcDbEntity
 67
     1
  8
0
100
AcDbBlockBegin
  2
*Paper_Space
 70
     0
 10
0.0
 20
0.0
 30
0.0
  3
*Paper_Space
  1

  0
ENDBLK
  5
5B
330
58
100
AcDbEntity
 67
     1
  8
0
100
AcDbBlockEnd
  0
ENDSEC
  0
SECTION
  2
ENTITIES
  0
LINE
  5
2F0F
330
1F
100
AcDbEntity
  8
PIC06
  6
Continuous
 62
     7
100
AcDbLine
 10
1266.84497205592
 20
1031.30771077411
 30
0.0
 11
1292.569957329282
 21
1031.30771077411
 31
0.0
  0
LINE
  5
2F10
330
1F
100
AcDbEntity
  8
PIC06
  6
Continuous
 62
     7
100
AcDbLine
 10
1271.152657686693
 20
1016.347097053186
 30
0.0
 11
1285.325870685477
 21
1016.347097053186
 31
0.0
  0
LINE
  5
2F11
330
1F
100
AcDbEntity
  8
PIC06
  6
Continuous
 62
     7
100
AcDbLine
 10
1272.926770034929
 20
1030.914010413015
 30
0.0
 11
1290.576128965182
 21
1030.914010413015
 31
0.0
  0
LINE
  5
2F12
330
1F
100
AcDbEntity
  8
PIC06
  6
Continuous
 62
     7
100
AcDbLine
 10
1266.66447357043
 20
1031.30771077411
 30
0.0
 11
1267.363246491163
 21
1031.30771077411
 31
0.0
  0
LINE
  5
2F13
330
1F
100
AcDbEntity
  8
PIC06
  6
Continuous
 62
     7
100
AcDbLine
 10
1267.950126293682
 20
1030.914010413015
 30
0.0
 11
1271.55166282197
 21
1030.914010413015
 31
0.0
  0
LINE
  5
2F14
330
1F
100
AcDbEntity
  8
PIC06
  6
Continuous
 62
     7
100
AcDbLine
 10
1266.748729077169
 20
1030.992750485234
 30
0.0
 11
1267.289956983964
 21
1030.992750485234
 31
0.0
  0
LINE
  5
2F15
330
1F
100
AcDbEntity
  8
PIC06
  6
Continuous
 62
     7
100
AcDbLine
 10
1266.91826156312
 20
1030.992750485234
 30
0.0
 11
1267.518849156375
 21
1030.992750485234
 31
0.0
  0
LINE
  5
2F16
330
1F
100
AcDbEntity
  8
PIC06
  6
Continuous
 62
     7
100
AcDbLine
 10
1271.982939959278
 20
1030.992750485234
 30
0.0
 11
1272.61090827025
 21
1030.992750485234
 31
0.0
  0
LINE
  5
2F17
330
1F
100
AcDbEntity
  8
PIC06
  6
Continuous
 62
     7
100
AcDbLine
 10
1273.038294975737
 20
1028.630548318786
 30
0.0
 11
1272.724474543504
 21
1028.603776694215
 31
0.0
  0
LINE
  5
2F18
330
1F
100
AcDbEntity
  8
PIC06
  6
Continuous
 62
     7
100
AcDbLine
 10
1272.998831448745
 20
1029.142358788185
 30
0.0
 11
1272.684969984604
 21
1029.115583663255
 31
0.0
  0
LINE
  5
2F19
330
1F
100
AcDbEntity
  8
PIC06
  6
Continuous
 62
     7
100
AcDbLine
 10
1284.932170324406
 20
1016.347097053186
 30
0.0
 11
1284.932170324406
 21
1016.386467089271
 31
0.0
  0
LINE
  5
2F1A
330
1F
100
AcDbEntity
  8
PIC06
  6
Continuous
 62
     7
100
AcDbLine
 10
1284.61721003553
 20
1016.347097053186
 30
0.0
 11
1284.61721003553
 21
1016.386467089271
 31
0.0
  0
LINE
  5
2F1B
330
1F
100
AcDbEntity
  8
PIC06
  6
Continuous
 62
     7
100
AcDbLine
 10
1271.152657686693
 20
1016.347097053186
 30
0.0
 11
1271.152657686693
 21
1023.464960421094
 31
0.0
  0
LINE
  5
2F1C
330
1F
100
AcDbEntity
  8
PIC06
  6
Continuous
 62
     7
100
AcDbLine
 10
1310.314079209118
 20
1031.30771077411
 30
0.0
 11
1303.069992565313
 21
1031.30771077411
 31
0.0
  0
LINE
  5
2F1D
330
1F
100
AcDbEntity
  8
PIC06
  6
Continuous
 62
     7
100
AcDbLine
 10
1271.546358047764
 20
1017.331347955874
 30
0.0
 11
1275.286511478019
 21
1017.331347955874
 31
0.0
  0
LINE
  5
2F1E
330
1F
100
AcDbEntity
  8
PIC06
  6
Continuous
 62
     7
100
AcDbLine
 10
1271.546358047764
 20
1017.252607883655
 30
0.0
 11
1275.68021183909
 21
1017.252607883655
 31
0.0
  0
LINE
  5
2F1F
330
1F
100
AcDbEntity
  8
PIC06
  6
Continuous
 62
     7
100
AcDbLine
 10
1266.993031947029
 20
1028.158107885497
 30
0.0
 11
1267.350035949905
 21
1028.158107885497
 31
0.0
  0
LINE
  5
2F20
330
1F
100
AcDbEntity
  8
PIC06
  6
Continuous
 62
     7
100
AcDbLine
 10
1266.600232133505
 20
1028.525194701259
 30
0.0
 11
1266.428793682297
 21
1031.055522430259
 31
0.0
  0
LINE
  5
2F21
330
1F
100
AcDbEntity
  8
PIC06
  6
Continuous
 62
     7
100
AcDbLine
 10
1266.993031947029
 20
1028.473068174349
 30
0.0
 11
1267.276719556586
 21
1028.473068174349
 31
0.0
  0
LINE
  5
2F22
330
1F
100
AcDbEntity
  8
PIC06
  6
Continuous
 62
     7
100
AcDbLine
 10
1266.914471984333
 20
1028.546485537511
 30
0.0
 11
1266.748729077169
 21
1030.992750485234
 31
0.0
  0
LINE
  5
2F23
330
1F
100
AcDbEntity
  8
PIC06
  6
Continuous
 62
     7
100
AcDbLine
 10
1275.714937133493
 20
1017.284662368508
 30
0.0
 11
1275.478811188269
 21
1017.331347955874
 31
0.0
  0
LINE
  5
2F24
330
1F
100
AcDbEntity
  8
PIC06
  6
Continuous
 62
     7
100
AcDbLine
 10
1275.877062019613
 20
1016.347097053186
 30
0.0
 11
1275.877062019613
 21
1016.858907522585
 31
0.0
  0
LINE
  5
2F25
330
1F
100
AcDbEntity
  8
PIC06
  6
Continuous
 62
     7
100
AcDbLine
 10
1275.877062019613
 20
1017.449458064179
 30
0.0
 11
1275.877062019613
 21
1017.824231420514
 31
0.0
  0
LINE
  5
2F26
330
1F
100
AcDbEntity
  8
PIC06
  6
Continuous
 62
     7
100
AcDbLine
 10
1275.877062019613
 20
1016.858907522585
 30
0.0
 11
1275.877062019613
 21
1017.449458064179
 31
0.0
  0
LINE
  5
2F27
330
1F
100
AcDbEntity
  8
PIC06
  6
Continuous
 62
     7
100
AcDbLine
 10
1267.585655860064
 20
1028.37749810855
 30
0.0
 11
1267.753776368549
 21
1030.731185227149
 31
0.0
  0
LINE
  5
2F28
330
1F
100
AcDbEntity
  8
PIC06
  6
Continuous
 62
     7
100
AcDbLine
 10
1267.276719556586
 20
1028.473068174349
 30
0.0
 11
1267.439616488313
 21
1030.753625218573
 31
0.0
  0
LINE
  5
2F29
330
1F
100
AcDbEntity
  8
PIC06
  6
Continuous
 62
     7
100
AcDbLine
 10
1284.22350967446
 20
1016.347097053186
 30
0.0
 11
1283.827718542952
 21
1025.230139545945
 31
0.0
  0
LINE
  5
2F2A
330
1F
100
AcDbEntity
  8
PIC06
  6
Continuous
 62
     7
100
AcDbLine
 10
1284.519318519221
 20
1016.783940708409
 30
0.0
 11
1284.142366663808
 21
1025.244158947043
 31
0.0
  0
LINE
  5
2F2B
330
1F
100
AcDbEntity
  8
PIC06
  6
Continuous
 62
     7
100
AcDbLine
 10
1273.038294975737
 20
1028.630548318786
 30
0.0
 11
1288.555011974645
 21
1028.630548318786
 31
0.0
  0
LINE
  5
2F2C
330
1F
100
AcDbEntity
  8
PIC06
  6
Continuous
 62
     7
100
AcDbLine
 10
1274.219665268864
 20
1023.827403913648
 30
0.0
 11
1276.353359145072
 21
1023.827403913648
 31
0.0
  0
LINE
  5
2F2D
330
1F
100
AcDbEntity
  8
PIC06
  6
Continuous
 62
     7
100
AcDbLine
 10
1275.483361658543
 20
1017.528198136398
 30
0.0
 11
1275.483361658543
 21
1017.824231420514
 31
0.0
  0
LINE
  5
2F2E
330
1F
100
AcDbEntity
  8
PIC06
  6
Continuous
 62
     7
100
AcDbLine
 10
1271.440041036966
 20
1024.221104274718
 30
0.0
 11
1273.331258086213
 21
1024.221104274718
 31
0.0
  0
LINE
  5
2F2F
330
1F
100
AcDbEntity
  8
PIC06
  6
Continuous
 62
     7
100
AcDbLine
 10
1271.490193903745
 20
1023.827403913648
 30
0.0
 11
1273.142914886331
 21
1023.827403913648
 31
0.0
  0
LINE
  5
2F30
330
1F
100
AcDbEntity
  8
PIC06
  6
Continuous
 62
     7
100
AcDbLine
 10
1273.476313335862
 20
1024.138447093515
 30
0.0
 11
1273.331258086213
 21
1023.827403913648
 31
0.0
  0
LINE
  5
2F31
330
1F
100
AcDbEntity
  8
PIC06
  6
Continuous
 62
     7
100
AcDbLine
 10
1273.908560943197
 20
1025.717165646806
 30
0.0
 11
1276.664463470739
 21
1025.717165646806
 31
0.0
  0
LINE
  5
2F32
330
1F
100
AcDbEntity
  8
PIC06
  6
Continuous
 62
     7
100
AcDbLine
 10
1283.504698330733
 20
1025.766014463312
 30
0.0
 11
1283.794877325392
 21
1025.330533334052
 31
0.0
  0
LINE
  5
2F33
330
1F
100
AcDbEntity
  8
PIC06
  6
Continuous
 62
     7
100
AcDbLine
 10
1283.766800503461
 20
1025.940663925415
 30
0.0
 11
1284.056979498096
 21
1025.505182796155
 31
0.0
  0
LINE
  5
2F34
330
1F
100
AcDbEntity
  8
PIC06
  6
Continuous
 62
     7
100
AcDbLine
 10
1274.400686394541
 20
1025.205355177407
 30
0.0
 11
1276.172338019395
 21
1025.205355177407
 31
0.0
  0
LINE
  5
2F35
330
1F
100
AcDbEntity
  8
PIC06
  6
Continuous
 62
     7
100
AcDbLine
 10
1274.190881926467
 20
1024.96913496075
 30
0.0
 11
1276.369419471948
 21
1024.96913496075
 31
0.0
  0
LINE
  5
2F36
330
1F
100
AcDbEntity
  8
PIC06
  6
Continuous
 62
     7
100
AcDbLine
 10
1274.284759122255
 20
1024.1423642025
 30
0.0
 11
1276.282466066584
 21
1024.1423642025
 31
0.0
  0
LINE
  5
2F37
330
1F
100
AcDbEntity
  8
PIC06
  6
Continuous
 62
     7
100
AcDbLine
 10
1276.49630337386
 20
1025.542279146063
 30
0.0
 11
1276.172338019395
 21
1025.205355177407
 31
0.0
  0
LINE
  5
2F38
330
1F
100
AcDbEntity
  8
PIC06
  6
Continuous
 62
     7
100
AcDbLine
 10
1274.400686394541
 20
1025.205355177407
 30
0.0
 11
1273.911440103062
 21
1025.714171320547
 31
0.0
  0
LINE
  5
2F39
330
1F
100
AcDbEntity
  8
PIC06
  6
Continuous
 62
     7
100
AcDbLine
 10
1276.172338019395
 20
1023.827403913648
 30
0.0
 11
1276.172338019395
 21
1024.1423642025
 31
0.0
  0
LINE
  5
2F3A
330
1F
100
AcDbEntity
  8
PIC06
  6
Continuous
 62
     7
100
AcDbLine
 10
1276.172338019395
 20
1024.96913496075
 30
0.0
 11
1276.172338019395
 21
1025.205355177407
 31
0.0
  0
LINE
  5
2F3B
330
1F
100
AcDbEntity
  8
PIC06
  6
Continuous
 62
     7
100
AcDbLine
 10
1274.400686394541
 20
1023.827403913648
 30
0.0
 11
1274.400686394541
 21
1024.1423642025
 31
0.0
  0
LINE
  5
2F3C
330
1F
100
AcDbEntity
  8
PIC06
  6
Continuous
 62
     7
100
AcDbLine
 10
1274.400686394541
 20
1024.96913496075
 30
0.0
 11
1274.400686394541
 21
1025.205355177407
 31
0.0
  0
LINE
  5
2F3D
330
1F
100
AcDbEntity
  8
PIC06
  6
Continuous
 62
     7
100
AcDbLine
 10
1274.190881926467
 20
1024.96913496075
 30
0.0
 11
1273.6801179947
 21
1025.5003294498
 31
0.0
  0
LINE
  5
2F3E
330
1F
100
AcDbEntity
  8
PIC06
  6
Continuous
 62
     7
100
AcDbLine
 10
1276.588283659169
 20
1024.038916572244
 30
0.0
 11
1276.694639032641
 21
1025.050165210697
 31
0.0
  0
LINE
  5
2F3F
330
1F
100
AcDbEntity
  8
PIC06
  6
Continuous
 62
     7
100
AcDbLine
 10
1276.282466066584
 20
1024.1423642025
 30
0.0
 11
1276.369419471948
 21
1024.96913496075
 31
0.0
  0
LINE
  5
2F40
330
1F
100
AcDbEntity
  8
PIC06
  6
Continuous
 62
     7
100
AcDbLine
 10
1310.314079209118
 20
1016.347097053186
 30
0.0
 11
1305.786525056746
 21
1016.347097053186
 31
0.0
  0
LINE
  5
2F41
330
1F
100
AcDbEntity
  8
PIC06
  6
CENTERX2
 62
     7
100
AcDbLine
 10
1265.760210603212
 20
1050.920370886549
 30
0.0
 11
1293.312261898678
 21
1050.920370886549
 31
0.0
  0
LINE
  5
2F42
330
1F
100
AcDbEntity
  8
PIC06
  6
CENTERX2
 62
     7
100
AcDbLine
 10
1270.365256964552
 20
1049.892547702824
 30
0.0
 11
1270.365256964552
 21
1052.016580779971
 31
0.0
  0
LINE
  5
2F43
330
1F
100
AcDbEntity
  8
PIC06
  6
CENTERX2
 62
     7
100
AcDbLine
 10
1275.286511478019
 20
1049.349121499754
 30
0.0
 11
1275.286511478019
 21
1052.600379314753
 31
0.0
  0
LINE
  5
2F44
330
1F
100
AcDbEntity
  8
PIC06
  6
CENTERX2
 62
     7
100
AcDbLine
 10
1310.314079209118
 20
1015.781186876381
 30
0.0
 11
1310.314079209118
 21
1031.931728339791
 31
0.0
  0
LINE
  5
2F45
330
1F
100
AcDbEntity
  8
PIC06
  6
CENTERX2
 62
     7
100
AcDbLine
 10
1274.302260575306
 20
1015.970032358596
 30
0.0
 11
1274.302260575306
 21
1017.706533538611
 31
0.0
  0
LINE
  5
2F46
330
1F
100
AcDbEntity
  8
PIC06
  6
HIDDEN
 62
     7
100
AcDbLine
 10
1271.152657686693
 20
1016.93764759478
 30
0.0
 11
1275.299197863508
 21
1016.93764759478
 31
0.0
  0
LINE
  5
2F47
330
1F
100
AcDbEntity
  8
PIC06
  6
HIDDEN
 62
     7
100
AcDbLine
 10
1275.495612051966
 20
1016.753891693482
 30
0.0
 11
1275.522731694652
 21
1016.347097053186
 31
0.0
  0
LINE
  5
2F48
330
1F
100
AcDbEntity
  8
PIC06
  6
CENTERX2
 62
     7
100
AcDbLine
 10
1270.365257693489
 20
1030.494590460015
 30
0.0
 11
1270.365257693489
 21
1031.993189353962
 31
0.0
  0
LINE
  5
2F49
330
1F
100
AcDbEntity
  8
PIC06
  6
Continuous
 62
     7
100
AcDbLine
 10
1310.314079209118
 20
1016.347097053186
 30
0.0
 11
1314.841633361514
 21
1016.347097053186
 31
0.0
  0
LINE
  5
2F4A
330
1F
100
AcDbEntity
  8
PIC06
  6
Continuous
 62
     7
100
AcDbLine
 10
1310.314079209118
 20
1031.30771077411
 30
0.0
 11
1317.558165852948
 21
1031.30771077411
 31
0.0
  0
LINE
  5
2F4B
330
1F
100
AcDbEntity
  8
PIC06
  6
CENTERX2
 62
     7
100
AcDbLine
 10
1275.286512206956
 20
1023.582359290835
 30
0.0
 11
1275.286512206956
 21
1025.921435405813
 31
0.0
  0
LINE
  5
2F4C
330
1F
100
AcDbEntity
  8
PIC06
  6
HIDDEN
 62
     7
100
AcDbLine
 10
1271.152657686693
 20
1053.686191505099
 30
0.0
 11
1271.152657686693
 21
1054.62688068823
 31
0.0
  0
LINE
  5
2F4D
330
1F
100
AcDbEntity
  8
PIC06
  6
HIDDEN
 62
     7
100
AcDbLine
 10
1271.152657686693
 20
1048.154550267976
 30
0.0
 11
1271.152657686693
 21
1047.213861084869
 31
0.0
  0
LINE
  5
2F4E
330
1F
100
AcDbEntity
  8
PIC06
  6
HIDDEN
 62
     7
100
AcDbLine
 10
1271.349507867241
 20
1048.351400448523
 30
0.0
 11
1275.286511478019
 21
1048.351400448523
 31
0.0
  0
LINE
  5
2F4F
330
1F
100
AcDbEntity
  8
PIC06
  6
HIDDEN
 62
     7
100
AcDbLine
 10
1271.349507867241
 20
1053.489341324575
 30
0.0
 11
1275.286511478019
 21
1053.489341324575
 31
0.0
  0
LINE
  5
2F50
330
1F
100
AcDbEntity
  8
PIC06
  6
CENTERX2
 62
     7
100
AcDbLine
 10
1273.720158828074
 20
1054.316036500834
 30
0.0
 11
1274.614092944026
 21
1054.316036500834
 31
0.0
  0
LINE
  5
2F51
330
1F
100
AcDbEntity
  8
PIC06
  6
CENTERX2
 62
     7
100
AcDbLine
 10
1274.302260575306
 20
1050.920370886549
 30
0.0
 11
1274.302260575306
 21
1054.832132492627
 31
0.0
  0
LINE
  5
2F52
330
1F
100
AcDbEntity
  8
PIC06
  6
CENTERX2
 62
     7
100
AcDbLine
 10
1274.302260575306
 20
1050.920370886549
 30
0.0
 11
1274.302260575306
 21
1047.00860928047
 31
0.0
  0
LINE
  5
2F53
330
1F
100
AcDbEntity
  8
PIC06
  6
CENTERX2
 62
     7
100
AcDbLine
 10
1273.720158828074
 20
1047.524705272264
 30
0.0
 11
1274.866478320257
 21
1047.524705272264
 31
0.0
  0
LINE
  5
2F54
330
1F
100
AcDbEntity
  8
PIC06
  6
HIDDEN
 62
     7
100
AcDbLine
 10
1275.877062019613
 20
1054.147474187516
 30
0.0
 11
1275.877062019613
 21
1054.079891866193
 31
0.0
  0
LINE
  5
2F55
330
1F
100
AcDbEntity
  8
PIC06
  6
HIDDEN
 62
     7
100
AcDbLine
 10
1275.877062019613
 20
1047.760849906905
 30
0.0
 11
1275.877062019613
 21
1047.693267585582
 31
0.0
  0
LINE
  5
2F56
330
1F
100
AcDbEntity
  8
PIC06
  6
HIDDEN
 62
     7
100
AcDbLine
 10
1307.745184353084
 20
1016.347097053186
 30
0.0
 11
1307.775680088135
 21
1017.056710903468
 31
0.0
  0
LINE
  5
2F57
330
1F
100
AcDbEntity
  8
PIC06
  6
Continuous
 62
     7
100
AcDbLine
 10
1307.390852016204
 20
1016.347097053186
 30
0.0
 11
1307.745184353084
 21
1016.347097053186
 31
0.0
  0
LINE
  5
2F58
330
1F
100
AcDbEntity
  8
PIC06
  6
HIDDEN
 62
     7
100
AcDbLine
 10
1307.588236414096
 20
1017.261796667834
 30
0.0
 11
1306.20918863671
 21
1017.326493998359
 31
0.0
  0
LINE
  5
2F59
330
1F
100
AcDbEntity
  8
PIC06
  6
CENTERX2
 62
     7
100
AcDbLine
 10
1306.918413594833
 20
1016.107764257507
 30
0.0
 11
1306.918413594833
 21
1017.620069614234
 31
0.0
  0
LINE
  5
2F5A
330
1F
100
AcDbEntity
  8
PIC06
  6
HIDDEN
 62
     7
100
AcDbLine
 10
1310.314079209118
 20
1029.142358788185
 30
0.0
 11
1309.585733541117
 21
1029.142358788185
 31
0.0
  0
LINE
  5
2F5B
330
1F
100
AcDbEntity
  8
PIC06
  6
HIDDEN
 62
     7
100
AcDbLine
 10
1310.314079209118
 20
1028.630548318786
 30
0.0
 11
1309.585733541117
 21
1028.630548318786
 31
0.0
  0
LINE
  5
2F5C
330
1F
100
AcDbEntity
  8
PIC06
  6
HIDDEN
 62
     7
100
AcDbLine
 10
1310.314079209118
 20
1023.827403913648
 30
0.0
 11
1309.247033828487
 21
1023.827403913648
 31
0.0
  0
LINE
  5
2F5D
330
1F
100
AcDbEntity
  8
PIC06
  6
HIDDEN
 62
     7
100
AcDbLine
 10
1309.01213235237
 20
1024.038698495449
 30
0.0
 11
1308.895884768582
 21
1025.134226420951
 31
0.0
  0
LINE
  5
2F5E
330
1F
100
AcDbEntity
  8
PIC06
  6
HIDDEN
 62
     7
100
AcDbLine
 10
1307.969549901507
 20
1021.567922208046
 30
0.0
 11
1308.133540473441
 21
1025.383865026184
 31
0.0
  0
LINE
  5
2F5F
330
1F
100
AcDbEntity
  8
PIC06
  6
HIDDEN
 62
     7
100
AcDbLine
 10
1307.637935565301
 20
1020.959141094174
 30
0.0
 11
1306.28201445749
 21
1019.998921919166
 31
0.0
  0
LINE
  5
2F60
330
1F
100
AcDbEntity
  8
PIC06
  6
HIDDEN
 62
     7
100
AcDbLine
 10
1308.547721235059
 20
1030.914010413015
 30
0.0
 11
1310.314079209118
 21
1030.914010413015
 31
0.0
  0
LINE
  5
2F61
330
1F
100
AcDbEntity
  8
PIC06
  6
HIDDEN
 62
     7
100
AcDbLine
 10
1308.744498297933
 20
1030.722525034678
 30
0.0
 11
1308.897526101047
 21
1025.109575924666
 31
0.0
  0
LINE
  5
2F62
330
1F
100
AcDbEntity
  8
PIC06
  6
CENTERX2
 62
     7
100
AcDbLine
 10
1313.709744823404
 20
1016.107764257507
 30
0.0
 11
1313.709744823404
 21
1017.620069614234
 31
0.0
  0
LINE
  5
2F63
330
1F
100
AcDbEntity
  8
PIC06
  6
HIDDEN
 62
     7
100
AcDbLine
 10
1312.882974065153
 20
1016.347097053186
 30
0.0
 11
1312.852478330102
 21
1017.056710903468
 31
0.0
  0
LINE
  5
2F64
330
1F
100
AcDbEntity
  8
PIC06
  6
HIDDEN
 62
     7
100
AcDbLine
 10
1313.03992200414
 20
1017.261796667834
 30
0.0
 11
1314.418969781526
 21
1017.326493998359
 31
0.0
  0
LINE
  5
2F65
330
1F
100
AcDbEntity
  8
PIC06
  6
HIDDEN
 62
     7
100
AcDbLine
 10
1312.990222852936
 20
1020.959141094174
 30
0.0
 11
1314.346143960747
 21
1019.998921919166
 31
0.0
  0
LINE
  5
2F66
330
1F
100
AcDbEntity
  8
PIC06
  6
HIDDEN
 62
     7
100
AcDbLine
 10
1310.314079209118
 20
1029.142358788185
 30
0.0
 11
1311.042424877119
 21
1029.142358788185
 31
0.0
  0
LINE
  5
2F67
330
1F
100
AcDbEntity
  8
PIC06
  6
HIDDEN
 62
     7
100
AcDbLine
 10
1310.314079209118
 20
1028.630548318786
 30
0.0
 11
1311.042424877119
 21
1028.630548318786
 31
0.0
  0
LINE
  5
2F68
330
1F
100
AcDbEntity
  8
PIC06
  6
HIDDEN
 62
     7
100
AcDbLine
 10
1310.314079209118
 20
1023.827403913648
 30
0.0
 11
1311.38112458975
 21
1023.827403913648
 31
0.0
  0
LINE
  5
2F69
330
1F
100
AcDbEntity
  8
PIC06
  6
HIDDEN
 62
     7
100
AcDbLine
 10
1311.616026065867
 20
1024.038698495449
 30
0.0
 11
1311.732273649655
 21
1025.134226420951
 31
0.0
  0
LINE
  5
2F6A
330
1F
100
AcDbEntity
  8
PIC06
  6
HIDDEN
 62
     7
100
AcDbLine
 10
1311.883660120304
 20
1030.722525034678
 30
0.0
 11
1311.730632317213
 21
1025.109575924666
 31
0.0
  0
LINE
  5
2F6B
330
1F
100
AcDbEntity
  8
PIC06
  6
HIDDEN
 62
     7
100
AcDbLine
 10
1312.65860851673
 20
1021.567922208046
 30
0.0
 11
1312.494617944796
 21
1025.383865026184
 31
0.0
  0
LINE
  5
2F6C
330
1F
100
AcDbEntity
  8
PIC06
  6
HIDDEN
 62
     7
100
AcDbLine
 10
1312.080437183178
 20
1030.914010413015
 30
0.0
 11
1310.314079209118
 21
1030.914010413015
 31
0.0
  0
LINE
  5
2F6D
330
1F
100
AcDbEntity
  8
PIC06
  6
HIDDEN
 62
     7
100
AcDbLine
 10
1274.125095412838
 20
1054.138871338342
 30
0.0
 11
1274.125095412838
 21
1054.493201663327
 31
0.0
  0
LINE
  5
2F6E
330
1F
100
AcDbEntity
  8
PIC06
  6
HIDDEN
 62
     7
100
AcDbLine
 10
1274.479425737799
 20
1054.138871338342
 30
0.0
 11
1274.479425737799
 21
1054.493201663327
 31
0.0
  0
LINE
  5
2F6F
330
1F
100
AcDbEntity
  8
PIC06
  6
HIDDEN
 62
     7
100
AcDbLine
 10
1274.125095412838
 20
1047.701870434733
 30
0.0
 11
1274.125095412838
 21
1047.347540109771
 31
0.0
  0
LINE
  5
2F70
330
1F
100
AcDbEntity
  8
PIC06
  6
HIDDEN
 62
     7
100
AcDbLine
 10
1274.479425737799
 20
1047.701870434733
 30
0.0
 11
1274.479425737799
 21
1047.347540109771
 31
0.0
  0
LINE
  5
2F71
330
1F
100
AcDbEntity
  8
PIC06
  6
HIDDEN
 62
     7
100
AcDbLine
 10
1274.125095412838
 20
1016.93764759478
 30
0.0
 11
1274.125095412838
 21
1017.293133254169
 31
0.0
  0
LINE
  5
2F72
330
1F
100
AcDbEntity
  8
PIC06
  6
HIDDEN
 62
     7
100
AcDbLine
 10
1274.479425737799
 20
1016.93764759478
 30
0.0
 11
1274.479425737799
 21
1017.293133254169
 31
0.0
  0
LINE
  5
2F73
330
1F
100
AcDbEntity
  8
PIC06
  6
Continuous
 62
     7
100
AcDbLine
 10
1273.905360830175
 20
1025.720589224959
 30
0.0
 11
1273.911440103062
 21
1025.714171320547
 31
0.0
  0
LINE
  5
2F74
330
1F
100
AcDbEntity
  8
PIC06
  6
Continuous
 62
     7
100
AcDbLine
 10
1273.911440103062
 20
1025.714171320547
 30
0.0
 11
1274.400686394541
 21
1025.205355177407
 31
0.0
  0
LINE
  5
2F75
330
1F
100
AcDbEntity
  8
PIC06
  6
Continuous
 62
     7
100
AcDbLine
 10
1274.400686394541
 20
1025.205355177407
 30
0.0
 11
1274.400686394541
 21
1024.96913496075
 31
0.0
  0
LINE
  5
2F76
330
1F
100
AcDbEntity
  8
PIC06
  6
Continuous
 62
     7
100
AcDbLine
 10
1274.400686394541
 20
1024.96913496075
 30
0.0
 11
1274.190881926467
 21
1024.96913496075
 31
0.0
  0
LINE
  5
2F77
330
1F
100
AcDbEntity
  8
PIC06
  6
Continuous
 62
     7
100
AcDbLine
 10
1274.190881926467
 20
1024.96913496075
 30
0.0
 11
1273.6801179947
 21
1025.5003294498
 31
0.0
  0
LINE
  5
2F78
330
1F
100
AcDbEntity
  8
PIC06
  6
Continuous
 62
     7
100
AcDbLine
 10
1272.724474543504
 20
1028.603776694215
 30
0.0
 11
1273.038294975737
 21
1028.630548318786
 31
0.0
  0
LINE
  5
2F79
330
1F
100
AcDbEntity
  8
PIC06
  6
Continuous
 62
     7
100
AcDbLine
 10
1273.905360830175
 20
1025.720589224959
 30
0.0
 11
1273.911440103062
 21
1025.714171320547
 31
0.0
  0
LINE
  5
2F7A
330
1F
100
AcDbEntity
  8
PIC06
  6
Continuous
 62
     7
100
AcDbLine
 10
1273.911440103062
 20
1025.714171320547
 30
0.0
 11
1274.400686394541
 21
1025.205355177407
 31
0.0
  0
LINE
  5
2F7B
330
1F
100
AcDbEntity
  8
PIC06
  6
Continuous
 62
     7
100
AcDbLine
 10
1274.400686394541
 20
1025.205355177407
 30
0.0
 11
1274.400686394541
 21
1024.96913496075
 31
0.0
  0
LINE
  5
2F7C
330
1F
100
AcDbEntity
  8
PIC06
  6
Continuous
 62
     7
100
AcDbLine
 10
1274.400686394541
 20
1024.96913496075
 30
0.0
 11
1274.190881926467
 21
1024.96913496075
 31
0.0
  0
LINE
  5
2F7D
330
1F
100
AcDbEntity
  8
PIC06
  6
Continuous
 62
     7
100
AcDbLine
 10
1274.190881926467
 20
1024.96913496075
 30
0.0
 11
1273.6801179947
 21
1025.5003294498
 31
0.0
  0
LINE
  5
2F7E
330
1F
100
AcDbEntity
  8
PIC06
  6
Continuous
 62
     7
100
AcDbLine
 10
1272.724474543504
 20
1028.603776694215
 30
0.0
 11
1273.038294975737
 21
1028.630548318786
 31
0.0
  0
LINE
  5
2F7F
330
1F
100
AcDbEntity
  8
PIC06
  6
Continuous
 62
     7
100
AcDbLine
 10
1267.276719556586
 20
1028.473068174349
 30
0.0
 11
1267.439616488313
 21
1030.753625218573
 31
0.0
  0
LINE
  5
2F80
330
1F
100
AcDbEntity
  8
PIC06
  6
Continuous
 62
     7
100
AcDbLine
 10
1267.518849156375
 20
1030.992750485234
 30
0.0
 11
1266.748729077169
 21
1030.992750485234
 31
0.0
  0
LINE
  5
2F81
330
1F
100
AcDbEntity
  8
PIC06
  6
Continuous
 62
     7
100
AcDbLine
 10
1266.748729077169
 20
1030.992750485234
 30
0.0
 11
1266.914471984333
 21
1028.546485537511
 31
0.0
  0
LINE
  5
2F82
330
1F
100
AcDbEntity
  8
PIC06
  6
Continuous
 62
     7
100
AcDbLine
 10
1266.993031947029
 20
1028.473068174349
 30
0.0
 11
1267.276719556586
 21
1028.473068174349
 31
0.0
  0
LINE
  5
2F83
330
1F
100
AcDbEntity
  8
PIC06
  6
Continuous
 62
     7
100
AcDbLine
 10
1266.993031947029
 20
1028.473068174349
 30
0.0
 11
1267.276719556586
 21
1028.473068174349
 31
0.0
  0
LINE
  5
2F84
330
1F
100
AcDbEntity
  8
PIC06
  6
Continuous
 62
     7
100
AcDbLine
 10
1267.276719556586
 20
1028.473068174349
 30
0.0
 11
1267.439616488313
 21
1030.753625218573
 31
0.0
  0
LINE
  5
2F85
330
1F
100
AcDbEntity
  8
PIC06
  6
Continuous
 62
     7
100
AcDbLine
 10
1267.518849156375
 20
1030.992750485234
 30
0.0
 11
1266.748729077169
 21
1030.992750485234
 31
0.0
  0
LINE
  5
2F86
330
1F
100
AcDbEntity
  8
PIC06
  6
Continuous
 62
     7
100
AcDbLine
 10
1266.748729077169
 20
1030.992750485234
 30
0.0
 11
1266.914471984333
 21
1028.546485537511
 31
0.0
  0
LINE
  5
2F87
330
1F
100
AcDbEntity
  8
PIC06
  6
Continuous
 62
     7
100
AcDbLine
 10
1266.748729077169
 20
1030.992750485234
 30
0.0
 11
1266.914471984333
 21
1028.546485537511
 31
0.0
  0
LINE
  5
2F88
330
1F
100
AcDbEntity
  8
PIC06
  6
Continuous
 62
     7
100
AcDbLine
 10
1266.993031947029
 20
1028.473068174349
 30
0.0
 11
1267.276719556586
 21
1028.473068174349
 31
0.0
  0
LINE
  5
2F89
330
1F
100
AcDbEntity
  8
PIC06
  6
Continuous
 62
     7
100
AcDbLine
 10
1267.276719556586
 20
1028.473068174349
 30
0.0
 11
1267.439616488313
 21
1030.753625218573
 31
0.0
  0
LINE
  5
2F8A
330
1F
100
AcDbEntity
  8
PIC06
  6
Continuous
 62
     7
100
AcDbLine
 10
1266.748729077169
 20
1030.992750485234
 30
0.0
 11
1267.518849156375
 21
1030.992750485234
 31
0.0
  0
LINE
  5
2F8B
330
1F
100
AcDbEntity
  8
PIC06
  6
Continuous
 62
     7
100
AcDbLine
 10
1285.325870685477
 20
1016.347097053186
 30
0.0
 11
1284.932170324406
 21
1016.347097053186
 31
0.0
  0
LINE
  5
2F8C
330
1F
100
AcDbEntity
  8
PIC06
  6
Continuous
 62
     7
100
AcDbLine
 10
1284.932170324406
 20
1016.347097053186
 30
0.0
 11
1284.932170324406
 21
1016.386467089271
 31
0.0
  0
LINE
  5
2F8D
330
1F
100
AcDbEntity
  8
PIC06
  6
Continuous
 62
     7
100
AcDbLine
 10
1284.61721003553
 20
1016.386467089271
 30
0.0
 11
1284.61721003553
 21
1016.347097053186
 31
0.0
  0
LINE
  5
2F8E
330
1F
100
AcDbEntity
  8
PIC06
  6
Continuous
 62
     7
100
AcDbLine
 10
1284.61721003553
 20
1016.347097053186
 30
0.0
 11
1284.22350967446
 21
1016.347097053186
 31
0.0
  0
LINE
  5
2F8F
330
1F
100
AcDbEntity
  8
PIC06
  6
Continuous
 62
     7
100
AcDbLine
 10
1284.22350967446
 20
1016.347097053186
 30
0.0
 11
1283.827718542952
 21
1025.230139545945
 31
0.0
  0
LINE
  5
2F90
330
1F
100
AcDbEntity
  8
PIC06
  6
Continuous
 62
     7
100
AcDbLine
 10
1283.794877325392
 20
1025.330533334052
 30
0.0
 11
1283.504698330733
 21
1025.766014463312
 31
0.0
  0
LINE
  5
2F91
330
1F
100
AcDbEntity
  8
PIC06
  6
Continuous
 62
     7
100
AcDbLine
 10
1276.588283659169
 20
1024.038916572244
 30
0.0
 11
1276.694639032641
 21
1025.050165210697
 31
0.0
  0
LINE
  5
2F92
330
1F
100
AcDbEntity
  8
PIC06
  6
Continuous
 62
     7
100
AcDbLine
 10
1276.353359145072
 20
1023.827403913648
 30
0.0
 11
1276.172338019395
 21
1023.827403913648
 31
0.0
  0
LINE
  5
2F93
330
1F
100
AcDbEntity
  8
PIC06
  6
Continuous
 62
     7
100
AcDbLine
 10
1276.172338019395
 20
1023.827403913648
 30
0.0
 11
1276.172338019395
 21
1024.1423642025
 31
0.0
  0
LINE
  5
2F94
330
1F
100
AcDbEntity
  8
PIC06
  6
Continuous
 62
     7
100
AcDbLine
 10
1276.172338019395
 20
1024.1423642025
 30
0.0
 11
1276.282466066584
 21
1024.1423642025
 31
0.0
  0
LINE
  5
2F95
330
1F
100
AcDbEntity
  8
PIC06
  6
Continuous
 62
     7
100
AcDbLine
 10
1276.282466066584
 20
1024.1423642025
 30
0.0
 11
1276.369419471948
 21
1024.96913496075
 31
0.0
  0
LINE
  5
2F96
330
1F
100
AcDbEntity
  8
PIC06
  6
Continuous
 62
     7
100
AcDbLine
 10
1276.369419471948
 20
1024.96913496075
 30
0.0
 11
1276.172338019395
 21
1024.96913496075
 31
0.0
  0
LINE
  5
2F97
330
1F
100
AcDbEntity
  8
PIC06
  6
Continuous
 62
     7
100
AcDbLine
 10
1276.172338019395
 20
1024.96913496075
 30
0.0
 11
1276.172338019395
 21
1025.205355177407
 31
0.0
  0
LINE
  5
2F98
330
1F
100
AcDbEntity
  8
PIC06
  6
Continuous
 62
     7
100
AcDbLine
 10
1276.172338019395
 20
1025.205355177407
 30
0.0
 11
1276.49630337386
 21
1025.542279146063
 31
0.0
  0
LINE
  5
2F99
330
1F
100
AcDbEntity
  8
PIC06
  6
Continuous
 62
     7
100
AcDbLine
 10
1283.766800503461
 20
1025.940663925415
 30
0.0
 11
1284.056979498096
 21
1025.505182796155
 31
0.0
  0
LINE
  5
2F9A
330
1F
100
AcDbEntity
  8
PIC06
  6
Continuous
 62
     7
100
AcDbLine
 10
1284.142366663808
 20
1025.244158947043
 30
0.0
 11
1284.519318519221
 21
1016.783940708409
 31
0.0
  0
LINE
  5
2F9B
330
1F
100
AcDbEntity
  8
PIC06
  6
Continuous
 62
     7
100
AcDbLine
 10
1276.588283659169
 20
1024.038916572244
 30
0.0
 11
1276.694639032641
 21
1025.050165210697
 31
0.0
  0
LINE
  5
2F9C
330
1F
100
AcDbEntity
  8
PIC06
  6
Continuous
 62
     7
100
AcDbLine
 10
1276.353359145072
 20
1023.827403913648
 30
0.0
 11
1276.172338019395
 21
1023.827403913648
 31
0.0
  0
LINE
  5
2F9D
330
1F
100
AcDbEntity
  8
PIC06
  6
Continuous
 62
     7
100
AcDbLine
 10
1276.172338019395
 20
1023.827403913648
 30
0.0
 11
1276.172338019395
 21
1024.1423642025
 31
0.0
  0
LINE
  5
2F9E
330
1F
100
AcDbEntity
  8
PIC06
  6
Continuous
 62
     7
100
AcDbLine
 10
1276.172338019395
 20
1024.1423642025
 30
0.0
 11
1276.282466066584
 21
1024.1423642025
 31
0.0
  0
LINE
  5
2F9F
330
1F
100
AcDbEntity
  8
PIC06
  6
Continuous
 62
     7
100
AcDbLine
 10
1276.282466066584
 20
1024.1423642025
 30
0.0
 11
1276.369419471948
 21
1024.96913496075
 31
0.0
  0
LINE
  5
2FA0
330
1F
100
AcDbEntity
  8
PIC06
  6
Continuous
 62
     7
100
AcDbLine
 10
1276.369419471948
 20
1024.96913496075
 30
0.0
 11
1276.172338019395
 21
1024.96913496075
 31
0.0
  0
LINE
  5
2FA1
330
1F
100
AcDbEntity
  8
PIC06
  6
Continuous
 62
     7
100
AcDbLine
 10
1276.172338019395
 20
1024.96913496075
 30
0.0
 11
1276.172338019395
 21
1025.205355177407
 31
0.0
  0
LINE
  5
2FA2
330
1F
100
AcDbEntity
  8
PIC06
  6
Continuous
 62
     7
100
AcDbLine
 10
1276.172338019395
 20
1025.205355177407
 30
0.0
 11
1276.49630337386
 21
1025.542279146063
 31
0.0
  0
LINE
  5
2FA3
330
1F
100
AcDbEntity
  8
PIC06
  6
Continuous
 62
     7
100
AcDbLine
 10
1285.325870685477
 20
1016.347097053186
 30
0.0
 11
1284.932170324406
 21
1016.347097053186
 31
0.0
  0
LINE
  5
2FA4
330
1F
100
AcDbEntity
  8
PIC06
  6
Continuous
 62
     7
100
AcDbLine
 10
1284.932170324406
 20
1016.347097053186
 30
0.0
 11
1284.932170324406
 21
1016.386467089271
 31
0.0
  0
LINE
  5
2FA5
330
1F
100
AcDbEntity
  8
PIC06
  6
Continuous
 62
     7
100
AcDbLine
 10
1284.61721003553
 20
1016.386467089271
 30
0.0
 11
1284.61721003553
 21
1016.347097053186
 31
0.0
  0
LINE
  5
2FA6
330
1F
100
AcDbEntity
  8
PIC06
  6
Continuous
 62
     7
100
AcDbLine
 10
1284.61721003553
 20
1016.347097053186
 30
0.0
 11
1284.22350967446
 21
1016.347097053186
 31
0.0
  0
LINE
  5
2FA7
330
1F
100
AcDbEntity
  8
PIC06
  6
Continuous
 62
     7
100
AcDbLine
 10
1284.22350967446
 20
1016.347097053186
 30
0.0
 11
1283.827718542952
 21
1025.230139545945
 31
0.0
  0
LINE
  5
2FA8
330
1F
100
AcDbEntity
  8
PIC06
  6
Continuous
 62
     7
100
AcDbLine
 10
1283.794877325392
 20
1025.330533334052
 30
0.0
 11
1283.504698330733
 21
1025.766014463312
 31
0.0
  0
LINE
  5
2FA9
330
1F
100
AcDbEntity
  8
PIC06
  6
Continuous
 62
     7
100
AcDbLine
 10
1276.282466066584
 20
1024.1423642025
 30
0.0
 11
1276.369419471948
 21
1024.96913496075
 31
0.0
  0
LINE
  5
2FAA
330
1F
100
AcDbEntity
  8
PIC06
  6
Continuous
 62
     7
100
AcDbLine
 10
1276.369419471948
 20
1024.96913496075
 30
0.0
 11
1276.172338019395
 21
1024.96913496075
 31
0.0
  0
LINE
  5
2FAB
330
1F
100
AcDbEntity
  8
PIC06
  6
Continuous
 62
     7
100
AcDbLine
 10
1276.172338019395
 20
1024.96913496075
 30
0.0
 11
1276.172338019395
 21
1025.205355177407
 31
0.0
  0
LINE
  5
2FAC
330
1F
100
AcDbEntity
  8
PIC06
  6
Continuous
 62
     7
100
AcDbLine
 10
1276.172338019395
 20
1025.205355177407
 30
0.0
 11
1276.49630337386
 21
1025.542279146063
 31
0.0
  0
LINE
  5
2FAD
330
1F
100
AcDbEntity
  8
PIC06
  6
Continuous
 62
     7
100
AcDbLine
 10
1285.325870685477
 20
1016.347097053186
 30
0.0
 11
1284.932170324406
 21
1016.347097053186
 31
0.0
  0
LINE
  5
2FAE
330
1F
100
AcDbEntity
  8
PIC06
  6
Continuous
 62
     7
100
AcDbLine
 10
1284.932170324406
 20
1016.347097053186
 30
0.0
 11
1284.932170324406
 21
1016.386467089271
 31
0.0
  0
LINE
  5
2FAF
330
1F
100
AcDbEntity
  8
PIC06
  6
Continuous
 62
     7
100
AcDbLine
 10
1284.61721003553
 20
1016.386467089271
 30
0.0
 11
1284.61721003553
 21
1016.347097053186
 31
0.0
  0
LINE
  5
2FB0
330
1F
100
AcDbEntity
  8
PIC06
  6
Continuous
 62
     7
100
AcDbLine
 10
1284.61721003553
 20
1016.347097053186
 30
0.0
 11
1284.22350967446
 21
1016.347097053186
 31
0.0
  0
LINE
  5
2FB1
330
1F
100
AcDbEntity
  8
PIC06
  6
Continuous
 62
     7
100
AcDbLine
 10
1284.22350967446
 20
1016.347097053186
 30
0.0
 11
1283.827718542952
 21
1025.230139545945
 31
0.0
  0
LINE
  5
2FB2
330
1F
100
AcDbEntity
  8
PIC06
  6
Continuous
 62
     7
100
AcDbLine
 10
1283.794877325392
 20
1025.330533334052
 30
0.0
 11
1283.504698330733
 21
1025.766014463312
 31
0.0
  0
LINE
  5
2FB3
330
1F
100
AcDbEntity
  8
PIC06
  6
Continuous
 62
     7
100
AcDbLine
 10
1276.588283659169
 20
1024.038916572244
 30
0.0
 11
1276.694639032641
 21
1025.050165210697
 31
0.0
  0
LINE
  5
2FB4
330
1F
100
AcDbEntity
  8
PIC06
  6
Continuous
 62
     7
100
AcDbLine
 10
1276.353359145072
 20
1023.827403913648
 30
0.0
 11
1276.172338019395
 21
1023.827403913648
 31
0.0
  0
LINE
  5
2FB5
330
1F
100
AcDbEntity
  8
PIC06
  6
Continuous
 62
     7
100
AcDbLine
 10
1276.172338019395
 20
1023.827403913648
 30
0.0
 11
1276.172338019395
 21
1024.1423642025
 31
0.0
  0
LINE
  5
2FB6
330
1F
100
AcDbEntity
  8
PIC06
  6
Continuous
 62
     7
100
AcDbLine
 10
1276.172338019395
 20
1024.1423642025
 30
0.0
 11
1276.282466066584
 21
1024.1423642025
 31
0.0
  0
LINE
  5
2FB7
330
1F
100
AcDbEntity
  8
PIC06
  6
Continuous
 62
     7
100
AcDbLine
 10
1283.794877325392
 20
1025.330533334052
 30
0.0
 11
1283.504698330733
 21
1025.766014463312
 31
0.0
  0
LINE
  5
2FB8
330
1F
100
AcDbEntity
  8
PIC06
  6
Continuous
 62
     7
100
AcDbLine
 10
1276.588283659169
 20
1024.038916572244
 30
0.0
 11
1276.694639032641
 21
1025.050165210697
 31
0.0
  0
LINE
  5
2FB9
330
1F
100
AcDbEntity
  8
PIC06
  6
Continuous
 62
     7
100
AcDbLine
 10
1276.353359145072
 20
1023.827403913648
 30
0.0
 11
1276.172338019395
 21
1023.827403913648
 31
0.0
  0
LINE
  5
2FBA
330
1F
100
AcDbEntity
  8
PIC06
  6
Continuous
 62
     7
100
AcDbLine
 10
1276.172338019395
 20
1023.827403913648
 30
0.0
 11
1276.172338019395
 21
1024.1423642025
 31
0.0
  0
LINE
  5
2FBB
330
1F
100
AcDbEntity
  8
PIC06
  6
Continuous
 62
     7
100
AcDbLine
 10
1276.172338019395
 20
1024.1423642025
 30
0.0
 11
1276.282466066584
 21
1024.1423642025
 31
0.0
  0
LINE
  5
2FBC
330
1F
100
AcDbEntity
  8
PIC06
  6
Continuous
 62
     7
100
AcDbLine
 10
1276.282466066584
 20
1024.1423642025
 30
0.0
 11
1276.369419471948
 21
1024.96913496075
 31
0.0
  0
LINE
  5
2FBD
330
1F
100
AcDbEntity
  8
PIC06
  6
Continuous
 62
     7
100
AcDbLine
 10
1276.369419471948
 20
1024.96913496075
 30
0.0
 11
1276.172338019395
 21
1024.96913496075
 31
0.0
  0
LINE
  5
2FBE
330
1F
100
AcDbEntity
  8
PIC06
  6
Continuous
 62
     7
100
AcDbLine
 10
1276.172338019395
 20
1024.96913496075
 30
0.0
 11
1276.172338019395
 21
1025.205355177407
 31
0.0
  0
LINE
  5
2FBF
330
1F
100
AcDbEntity
  8
PIC06
  6
Continuous
 62
     7
100
AcDbLine
 10
1276.172338019395
 20
1025.205355177407
 30
0.0
 11
1276.49630337386
 21
1025.542279146063
 31
0.0
  0
LINE
  5
2FC0
330
1F
100
AcDbEntity
  8
PIC06
  6
Continuous
 62
     7
100
AcDbLine
 10
1285.325870685477
 20
1016.347097053186
 30
0.0
 11
1284.932170324406
 21
1016.347097053186
 31
0.0
  0
LINE
  5
2FC1
330
1F
100
AcDbEntity
  8
PIC06
  6
Continuous
 62
     7
100
AcDbLine
 10
1284.932170324406
 20
1016.347097053186
 30
0.0
 11
1284.932170324406
 21
1016.386467089271
 31
0.0
  0
LINE
  5
2FC2
330
1F
100
AcDbEntity
  8
PIC06
  6
Continuous
 62
     7
100
AcDbLine
 10
1284.61721003553
 20
1016.386467089271
 30
0.0
 11
1284.61721003553
 21
1016.347097053186
 31
0.0
  0
LINE
  5
2FC3
330
1F
100
AcDbEntity
  8
PIC06
  6
Continuous
 62
     7
100
AcDbLine
 10
1284.61721003553
 20
1016.347097053186
 30
0.0
 11
1284.22350967446
 21
1016.347097053186
 31
0.0
  0
LINE
  5
2FC4
330
1F
100
AcDbEntity
  8
PIC06
  6
Continuous
 62
     7
100
AcDbLine
 10
1284.22350967446
 20
1016.347097053186
 30
0.0
 11
1283.827718542952
 21
1025.230139545945
 31
0.0
  0
LINE
  5
2FC5
330
1F
100
AcDbEntity
  8
PIC06
  6
Continuous
 62
     7
100
AcDbLine
 10
1284.22350967446
 20
1016.347097053186
 30
0.0
 11
1283.827718542952
 21
1025.230139545945
 31
0.0
  0
LINE
  5
2FC6
330
1F
100
AcDbEntity
  8
PIC06
  6
Continuous
 62
     7
100
AcDbLine
 10
1283.794877325392
 20
1025.330533334052
 30
0.0
 11
1283.504698330733
 21
1025.766014463312
 31
0.0
  0
LINE
  5
2FC7
330
1F
100
AcDbEntity
  8
PIC06
  6
Continuous
 62
     7
100
AcDbLine
 10
1276.588283659169
 20
1024.038916572244
 30
0.0
 11
1276.694639032641
 21
1025.050165210697
 31
0.0
  0
LINE
  5
2FC8
330
1F
100
AcDbEntity
  8
PIC06
  6
Continuous
 62
     7
100
AcDbLine
 10
1276.353359145072
 20
1023.827403913648
 30
0.0
 11
1276.172338019395
 21
1023.827403913648
 31
0.0
  0
LINE
  5
2FC9
330
1F
100
AcDbEntity
  8
PIC06
  6
Continuous
 62
     7
100
AcDbLine
 10
1276.172338019395
 20
1023.827403913648
 30
0.0
 11
1276.172338019395
 21
1024.1423642025
 31
0.0
  0
LINE
  5
2FCA
330
1F
100
AcDbEntity
  8
PIC06
  6
Continuous
 62
     7
100
AcDbLine
 10
1276.172338019395
 20
1024.1423642025
 30
0.0
 11
1276.282466066584
 21
1024.1423642025
 31
0.0
  0
LINE
  5
2FCB
330
1F
100
AcDbEntity
  8
PIC06
  6
Continuous
 62
     7
100
AcDbLine
 10
1276.282466066584
 20
1024.1423642025
 30
0.0
 11
1276.369419471948
 21
1024.96913496075
 31
0.0
  0
LINE
  5
2FCC
330
1F
100
AcDbEntity
  8
PIC06
  6
Continuous
 62
     7
100
AcDbLine
 10
1276.369419471948
 20
1024.96913496075
 30
0.0
 11
1276.172338019395
 21
1024.96913496075
 31
0.0
  0
LINE
  5
2FCD
330
1F
100
AcDbEntity
  8
PIC06
  6
Continuous
 62
     7
100
AcDbLine
 10
1276.172338019395
 20
1024.96913496075
 30
0.0
 11
1276.172338019395
 21
1025.205355177407
 31
0.0
  0
LINE
  5
2FCE
330
1F
100
AcDbEntity
  8
PIC06
  6
Continuous
 62
     7
100
AcDbLine
 10
1276.172338019395
 20
1025.205355177407
 30
0.0
 11
1276.49630337386
 21
1025.542279146063
 31
0.0
  0
LINE
  5
2FCF
330
1F
100
AcDbEntity
  8
PIC06
  6
Continuous
 62
     7
100
AcDbLine
 10
1285.325870685477
 20
1016.347097053186
 30
0.0
 11
1284.932170324406
 21
1016.347097053186
 31
0.0
  0
LINE
  5
2FD0
330
1F
100
AcDbEntity
  8
PIC06
  6
Continuous
 62
     7
100
AcDbLine
 10
1284.932170324406
 20
1016.347097053186
 30
0.0
 11
1284.932170324406
 21
1016.386467089271
 31
0.0
  0
LINE
  5
2FD1
330
1F
100
AcDbEntity
  8
PIC06
  6
Continuous
 62
     7
100
AcDbLine
 10
1284.61721003553
 20
1016.386467089271
 30
0.0
 11
1284.61721003553
 21
1016.347097053186
 31
0.0
  0
LINE
  5
2FD2
330
1F
100
AcDbEntity
  8
PIC06
  6
Continuous
 62
     7
100
AcDbLine
 10
1284.61721003553
 20
1016.347097053186
 30
0.0
 11
1284.22350967446
 21
1016.347097053186
 31
0.0
  0
LINE
  5
2FD3
330
1F
100
AcDbEntity
  8
PIC06
  6
Continuous
 62
     7
100
AcDbLine
 10
1284.61721003553
 20
1016.386467089271
 30
0.0
 11
1284.61721003553
 21
1016.347097053186
 31
0.0
  0
LINE
  5
2FD4
330
1F
100
AcDbEntity
  8
PIC06
  6
Continuous
 62
     7
100
AcDbLine
 10
1284.61721003553
 20
1016.347097053186
 30
0.0
 11
1284.22350967446
 21
1016.347097053186
 31
0.0
  0
LINE
  5
2FD5
330
1F
100
AcDbEntity
  8
PIC06
  6
Continuous
 62
     7
100
AcDbLine
 10
1284.22350967446
 20
1016.347097053186
 30
0.0
 11
1283.827718542952
 21
1025.230139545945
 31
0.0
  0
LINE
  5
2FD6
330
1F
100
AcDbEntity
  8
PIC06
  6
Continuous
 62
     7
100
AcDbLine
 10
1283.794877325392
 20
1025.330533334052
 30
0.0
 11
1283.504698330733
 21
1025.766014463312
 31
0.0
  0
LINE
  5
2FD7
330
1F
100
AcDbEntity
  8
PIC06
  6
Continuous
 62
     7
100
AcDbLine
 10
1276.588283659169
 20
1024.038916572244
 30
0.0
 11
1276.694639032641
 21
1025.050165210697
 31
0.0
  0
LINE
  5
2FD8
330
1F
100
AcDbEntity
  8
PIC06
  6
Continuous
 62
     7
100
AcDbLine
 10
1276.353359145072
 20
1023.827403913648
 30
0.0
 11
1276.172338019395
 21
1023.827403913648
 31
0.0
  0
LINE
  5
2FD9
330
1F
100
AcDbEntity
  8
PIC06
  6
Continuous
 62
     7
100
AcDbLine
 10
1276.172338019395
 20
1023.827403913648
 30
0.0
 11
1276.172338019395
 21
1024.1423642025
 31
0.0
  0
LINE
  5
2FDA
330
1F
100
AcDbEntity
  8
PIC06
  6
Continuous
 62
     7
100
AcDbLine
 10
1276.172338019395
 20
1024.1423642025
 30
0.0
 11
1276.282466066584
 21
1024.1423642025
 31
0.0
  0
LINE
  5
2FDB
330
1F
100
AcDbEntity
  8
PIC06
  6
Continuous
 62
     7
100
AcDbLine
 10
1276.282466066584
 20
1024.1423642025
 30
0.0
 11
1276.369419471948
 21
1024.96913496075
 31
0.0
  0
LINE
  5
2FDC
330
1F
100
AcDbEntity
  8
PIC06
  6
Continuous
 62
     7
100
AcDbLine
 10
1276.369419471948
 20
1024.96913496075
 30
0.0
 11
1276.172338019395
 21
1024.96913496075
 31
0.0
  0
LINE
  5
2FDD
330
1F
100
AcDbEntity
  8
PIC06
  6
Continuous
 62
     7
100
AcDbLine
 10
1276.172338019395
 20
1024.96913496075
 30
0.0
 11
1276.172338019395
 21
1025.205355177407
 31
0.0
  0
LINE
  5
2FDE
330
1F
100
AcDbEntity
  8
PIC06
  6
Continuous
 62
     7
100
AcDbLine
 10
1276.172338019395
 20
1025.205355177407
 30
0.0
 11
1276.49630337386
 21
1025.542279146063
 31
0.0
  0
LINE
  5
2FDF
330
1F
100
AcDbEntity
  8
PIC06
  6
Continuous
 62
     7
100
AcDbLine
 10
1285.325870685477
 20
1016.347097053186
 30
0.0
 11
1284.932170324406
 21
1016.347097053186
 31
0.0
  0
LINE
  5
2FE0
330
1F
100
AcDbEntity
  8
PIC06
  6
Continuous
 62
     7
100
AcDbLine
 10
1284.932170324406
 20
1016.347097053186
 30
0.0
 11
1284.932170324406
 21
1016.386467089271
 31
0.0
  0
LINE
  5
2FE1
330
1F
100
AcDbEntity
  8
PIC06
  6
Continuous
 62
     7
100
AcDbLine
 10
1283.766800503461
 20
1025.940663925415
 30
0.0
 11
1284.056979498096
 21
1025.505182796155
 31
0.0
  0
LINE
  5
2FE2
330
1F
100
AcDbEntity
  8
PIC06
  6
Continuous
 62
     7
100
AcDbLine
 10
1284.142366663808
 20
1025.244158947043
 30
0.0
 11
1284.519318519221
 21
1016.783940708409
 31
0.0
  0
LINE
  5
2FE3
330
1F
100
AcDbEntity
  8
PIC06
  6
Continuous
 62
     7
100
AcDbLine
 10
1283.766800503461
 20
1025.940663925415
 30
0.0
 11
1284.056979498096
 21
1025.505182796155
 31
0.0
  0
LINE
  5
2FE4
330
1F
100
AcDbEntity
  8
PIC06
  6
Continuous
 62
     7
100
AcDbLine
 10
1284.142366663808
 20
1025.244158947043
 30
0.0
 11
1284.519318519221
 21
1016.783940708409
 31
0.0
  0
LINE
  5
2FE5
330
1F
100
AcDbEntity
  8
PIC06
  6
Continuous
 62
     7
100
AcDbLine
 10
1285.224037663445
 20
1016.347097053186
 30
0.0
 11
1285.367315434778
 21
1016.490374824495
 31
0.0
  0
LINE
  5
2FE6
330
1F
100
AcDbEntity
  8
PIC06
  6
Continuous
 62
     7
100
AcDbLine
 10
1285.057004733122
 20
1016.347097053186
 30
0.0
 11
1285.435295720377
 21
1016.725388040441
 31
0.0
  0
LINE
  5
2FE7
330
1F
100
AcDbEntity
  8
PIC06
  6
Continuous
 62
     7
100
AcDbLine
 10
1284.932011271769
 20
1016.389136522134
 30
0.0
 11
1285.503276006
 21
1016.960401256364
 31
0.0
  0
LINE
  5
2FE8
330
1F
100
AcDbEntity
  8
PIC06
  6
Continuous
 62
     7
100
AcDbLine
 10
1284.879760136199
 20
1016.503918316887
 30
0.0
 11
1285.102379138513
 21
1016.726537319201
 31
0.0
  0
LINE
  5
2FE9
330
1F
100
AcDbEntity
  8
PIC06
  6
Continuous
 62
     7
100
AcDbLine
 10
1285.111636546601
 20
1016.735794727289
 30
0.0
 11
1285.571256291599
 21
1017.195414472287
 31
0.0
  0
LINE
  5
2FEA
330
1F
100
AcDbEntity
  8
PIC06
  6
Continuous
 62
     7
100
AcDbLine
 10
1284.555905942174
 20
1016.347097053186
 30
0.0
 11
1284.618776134965
 21
1016.409967245953
 31
0.0
  0
LINE
  5
2FEB
330
1F
100
AcDbEntity
  8
PIC06
  6
Continuous
 62
     7
100
AcDbLine
 10
1284.751190023287
 20
1016.542381134298
 30
0.0
 11
1285.006705226311
 21
1016.797896337322
 31
0.0
  0
LINE
  5
2FEC
330
1F
100
AcDbEntity
  8
PIC06
  6
Continuous
 62
     7
100
AcDbLine
 10
1285.17901075366
 20
1016.970201864671
 30
0.0
 11
1285.639236577198
 21
1017.43042768821
 31
0.0
  0
LINE
  5
2FED
330
1F
100
AcDbEntity
  8
PIC06
  6
Continuous
 62
     7
100
AcDbLine
 10
1284.38887301185
 20
1016.347097053186
 30
0.0
 11
1284.887124729572
 21
1016.845348770908
 31
0.0
  0
LINE
  5
2FEE
330
1F
100
AcDbEntity
  8
PIC06
  6
Continuous
 62
     7
100
AcDbLine
 10
1285.246384960718
 20
1017.204609002053
 30
0.0
 11
1285.707216862821
 21
1017.665440904133
 31
0.0
  0
LINE
  5
2FEF
330
1F
100
AcDbEntity
  8
PIC06
  6
Continuous
 62
     7
100
AcDbLine
 10
1284.223438457517
 20
1016.348695429177
 30
0.0
 11
1284.731906914165
 21
1016.857163885801
 31
0.0
  0
LINE
  5
2FF0
330
1F
100
AcDbEntity
  8
PIC06
  6
Continuous
 62
     7
100
AcDbLine
 10
1285.313759167776
 20
1017.439016139411
 30
0.0
 11
1285.77519714842
 21
1017.900454120055
 31
0.0
  0
LINE
  5
2FF1
330
1F
100
AcDbEntity
  8
PIC06
  6
Continuous
 62
     7
100
AcDbLine
 10
1284.216313623184
 20
1016.508603525143
 30
0.0
 11
1284.518138345529
 21
1016.810428247488
 31
0.0
  0
LINE
  5
2FF2
330
1F
100
AcDbEntity
  8
PIC06
  6
Continuous
 62
     7
100
AcDbLine
 10
1285.381133374834
 20
1017.673423276793
 30
0.0
 11
1285.843000047895
 21
1018.135289949854
 31
0.0
  0
LINE
  5
2FF3
330
1F
100
AcDbEntity
  8
PIC06
  6
Continuous
 62
     7
100
AcDbLine
 10
1284.209188788826
 20
1016.668511621109
 30
0.0
 11
1284.511013511195
 21
1016.970336343455
 31
0.0
  0
LINE
  5
2FF4
330
1F
100
AcDbEntity
  8
PIC06
  6
Continuous
 62
     7
100
AcDbLine
 10
1285.448507581892
 20
1017.907830414151
 30
0.0
 11
1285.906518137873
 21
1018.365840970157
 31
0.0
  0
LINE
  5
2FF5
330
1F
100
AcDbEntity
  8
PIC06
  6
Continuous
 62
     7
100
AcDbLine
 10
1284.202063954492
 20
1016.828419717075
 30
0.0
 11
1284.503888676838
 21
1017.130244439444
 31
0.0
  0
LINE
  5
2FF6
330
1F
100
AcDbEntity
  8
PIC06
  6
Continuous
 62
     7
100
AcDbLine
 10
1285.51588178895
 20
1018.142237551533
 30
0.0
 11
1285.970036227876
 21
1018.59639199046
 31
0.0
  0
LINE
  5
2FF7
330
1F
100
AcDbEntity
  8
PIC06
  6
Continuous
 62
     7
100
AcDbLine
 10
1284.194939120134
 20
1016.988327813065
 30
0.0
 11
1284.496763842503
 21
1017.29015253541
 31
0.0
  0
LINE
  5
2FF8
330
1F
100
AcDbEntity
  8
PIC06
  6
Continuous
 62
     7
100
AcDbLine
 10
1285.583255995984
 20
1018.376644688915
 30
0.0
 11
1286.033554317855
 21
1018.826943010762
 31
0.0
  0
LINE
  5
2FF9
330
1F
100
AcDbEntity
  8
PIC06
  6
Continuous
 62
     7
100
AcDbLine
 10
1284.1878142858
 20
1017.148235909031
 30
0.0
 11
1284.489639008146
 21
1017.450060631376
 31
0.0
  0
LINE
  5
2FFA
330
1F
100
AcDbEntity
  8
PIC06
  6
Continuous
 62
     7
100
AcDbLine
 10
1285.647276182536
 20
1018.607697805766
 30
0.0
 11
1286.097072407858
 21
1019.057494031089
 31
0.0
  0
LINE
  5
2FFB
330
1F
100
AcDbEntity
  8
PIC06
  6
Continuous
 62
     7
100
AcDbLine
 10
1284.180689451442
 20
1017.308144004997
 30
0.0
 11
1284.482514173812
 21
1017.609968727366
 31
0.0
  0
LINE
  5
2FFC
330
1F
100
AcDbEntity
  8
PIC06
  6
Continuous
 62
     7
100
AcDbLine
 10
1285.710389848619
 20
1018.837844402173
 30
0.0
 11
1286.160590497837
 21
1019.288045051391
 31
0.0
  0
LINE
  5
2FFD
330
1F
100
AcDbEntity
  8
PIC06
  6
Continuous
 62
     7
100
AcDbLine
 10
1284.173564617109
 20
1017.468052100987
 30
0.0
 11
1284.475389339454
 21
1017.769876823332
 31
0.0
  0
LINE
  5
2FFE
330
1F
100
AcDbEntity
  8
PIC06
  6
Continuous
 62
     7
100
AcDbLine
 10
1285.773503514701
 20
1019.06799099858
 30
0.0
 11
1286.22410858784
 21
1019.518596071694
 31
0.0
  0
LINE
  5
2FFF
330
1F
100
AcDbEntity
  8
PIC06
  6
Continuous
 62
     7
100
AcDbLine
 10
1284.166439782775
 20
1017.627960196953
 30
0.0
 11
1284.46826450512
 21
1017.929784919298
 31
0.0
  0
LINE
  5
3000
330
1F
100
AcDbEntity
  8
PIC06
  6
Continuous
 62
     7
100
AcDbLine
 10
1285.836617180784
 20
1019.298137594963
 30
0.0
 11
1286.287626677819
 21
1019.749147092021
 31
0.0
  0
LINE
  5
3001
330
1F
100
AcDbEntity
  8
PIC06
  6
Continuous
 62
     7
100
AcDbLine
 10
1284.159314948417
 20
1017.787868292919
 30
0.0
 11
1284.461139670762
 21
1018.089693015264
 31
0.0
  0
LINE
  5
3002
330
1F
100
AcDbEntity
  8
PIC06
  6
Continuous
 62
     7
100
AcDbLine
 10
1285.899730846867
 20
1019.528284191369
 30
0.0
 11
1286.349979115619
 21
1019.978532460145
 31
0.0
  0
LINE
  5
3003
330
1F
100
AcDbEntity
  8
PIC06
  6
Continuous
 62
     7
100
AcDbLine
 10
1284.152190114083
 20
1017.947776388909
 30
0.0
 11
1284.454014836428
 21
1018.249601111254
 31
0.0
  0
LINE
  5
3004
330
1F
100
AcDbEntity
  8
PIC06
  6
Continuous
 62
     7
100
AcDbLine
 10
1285.96284451295
 20
1019.758430787776
 30
0.0
 11
1286.409552353694
 21
1020.20513862852
 31
0.0
  0
LINE
  5
3005
330
1F
100
AcDbEntity
  8
PIC06
  6
Continuous
 62
     7
100
AcDbLine
 10
1284.145065279725
 20
1018.107684484875
 30
0.0
 11
1284.446890002071
 21
1018.40950920722
 31
0.0
  0
LINE
  5
3006
330
1F
100
AcDbEntity
  8
PIC06
  6
Continuous
 62
     7
100
AcDbLine
 10
1286.025958179033
 20
1019.988577384159
 30
0.0
 11
1286.469125591769
 21
1020.431744796918
 31
0.0
  0
LINE
  5
3007
330
1F
100
AcDbEntity
  8
PIC06
  6
Continuous
 62
     7
100
AcDbLine
 10
1284.137940445391
 20
1018.267592580841
 30
0.0
 11
1284.439765167737
 21
1018.569417303186
 31
0.0
  0
LINE
  5
3008
330
1F
100
AcDbEntity
  8
PIC06
  6
Continuous
 62
     7
100
AcDbLine
 10
1286.087735343911
 20
1020.217387479385
 30
0.0
 11
1286.528698829844
 21
1020.658350965294
 31
0.0
  0
LINE
  5
3009
330
1F
100
AcDbEntity
  8
PIC06
  6
Continuous
 62
     7
100
AcDbLine
 10
1284.130815611033
 20
1018.42750067683
 30
0.0
 11
1284.432640333379
 21
1018.729325399176
 31
0.0
  0
LINE
  5
300A
330
1F
100
AcDbEntity
  8
PIC06
  6
Continuous
 62
     7
100
AcDbLine
 10
1286.147075438351
 20
1020.443760504124
 30
0.0
 11
1286.588272067895
 21
1020.884957133692
 31
0.0
  0
LINE
  5
300B
330
1F
100
AcDbEntity
  8
PIC06
  6
Continuous
 62
     7
100
AcDbLine
 10
1284.123690776699
 20
1018.587408772796
 30
0.0
 11
1284.425515499045
 21
1018.889233495142
 31
0.0
  0
LINE
  5
300C
330
1F
100
AcDbEntity
  8
PIC06
  6
Continuous
 62
     7
100
AcDbLine
 10
1286.206415532767
 20
1020.670133528864
 30
0.0
 11
1286.647845305971
 21
1021.111563302068
 31
0.0
  0
LINE
  5
300D
330
1F
100
AcDbEntity
  8
PIC06
  6
Continuous
 62
     7
100
AcDbLine
 10
1284.116565942342
 20
1018.747316868763
 30
0.0
 11
1284.418390664687
 21
1019.049141591108
 31
0.0
  0
LINE
  5
300E
330
1F
100
AcDbEntity
  8
PIC06
  6
Continuous
 62
     7
100
AcDbLine
 10
1286.265755627206
 20
1020.896506553627
 30
0.0
 11
1286.707418544046
 21
1021.338169470466
 31
0.0
  0
LINE
  5
300F
330
1F
100
AcDbEntity
  8
PIC06
  6
Continuous
 62
     7
100
AcDbLine
 10
1284.109441108008
 20
1018.907224964729
 30
0.0
 11
1284.411265830353
 21
1019.209049687098
 31
0.0
  0
LINE
  5
3010
330
1F
100
AcDbEntity
  8
PIC06
  6
Continuous
 62
     7
100
AcDbLine
 10
1286.325095721622
 20
1021.122879578367
 30
0.0
 11
1286.766991782121
 21
1021.564775638842
 31
0.0
  0
LINE
  5
3011
330
1F
100
AcDbEntity
  8
PIC06
  6
Continuous
 62
     7
100
AcDbLine
 10
1284.10231627365
 20
1019.067133060718
 30
0.0
 11
1284.404140995995
 21
1019.368957783064
 31
0.0
  0
LINE
  5
3012
330
1F
100
AcDbEntity
  8
PIC06
  6
Continuous
 62
     7
100
AcDbLine
 10
1286.384435816038
 20
1021.349252603106
 30
0.0
 11
1286.82496094645
 21
1021.789777733495
 31
0.0
  0
LINE
  5
3013
330
1F
100
AcDbEntity
  8
PIC06
  6
Continuous
 62
     7
100
AcDbLine
 10
1284.095191439316
 20
1019.227041156685
 30
0.0
 11
1284.397016161662
 21
1019.52886587903
 31
0.0
  0
LINE
  5
3014
330
1F
100
AcDbEntity
  8
PIC06
  6
Continuous
 62
     7
100
AcDbLine
 10
1286.443775910478
 20
1021.575625627846
 30
0.0
 11
1286.880436129083
 21
1022.012285846451
 31
0.0
  0
LINE
  5
3015
330
1F
100
AcDbEntity
  8
PIC06
  6
Continuous
 62
     7
100
AcDbLine
 10
1284.088066604958
 20
1019.386949252651
 30
0.0
 11
1284.389891327327
 21
1019.68877397502
 31
0.0
  0
LINE
  5
3016
330
1F
100
AcDbEntity
  8
PIC06
  6
Continuous
 62
     7
100
AcDbLine
 10
1286.503116004893
 20
1021.801998652586
 30
0.0
 11
1286.935911311715
 21
1022.234793959407
 31
0.0
  0
LINE
  5
3017
330
1F
100
AcDbEntity
  8
PIC06
  6
Continuous
 62
     7
100
AcDbLine
 10
1284.080941770624
 20
1019.54685734864
 30
0.0
 11
1284.38276649297
 21
1019.848682070986
 31
0.0
  0
LINE
  5
3018
330
1F
100
AcDbEntity
  8
PIC06
  6
Continuous
 62
     7
100
AcDbLine
 10
1286.55941540364
 20
1022.025330981656
 30
0.0
 11
1286.991386494347
 21
1022.457302072363
 31
0.0
  0
LINE
  5
3019
330
1F
100
AcDbEntity
  8
PIC06
  6
Continuous
 62
     7
100
AcDbLine
 10
1284.073816936266
 20
1019.706765444606
 30
0.0
 11
1284.375641658636
 21
1020.008590166952
 31
0.0
  0
LINE
  5
301A
330
1F
100
AcDbEntity
  8
PIC06
  6
Continuous
 62
     7
100
AcDbLine
 10
1286.614828496107
 20
1022.247777004447
 30
0.0
 11
1287.046861676979
 21
1022.679810185296
 31
0.0
  0
LINE
  5
301B
330
1F
100
AcDbEntity
  8
PIC06
  6
Continuous
 62
     7
100
AcDbLine
 10
1284.066692101933
 20
1019.866673540573
 30
0.0
 11
1284.368516824278
 21
1020.168498262941
 31
0.0
  0
LINE
  5
301C
330
1F
100
AcDbEntity
  8
PIC06
  6
Continuous
 62
     7
100
AcDbLine
 10
1286.670241588598
 20
1022.470223027237
 30
0.0
 11
1287.102336859612
 21
1022.902318298251
 31
0.0
  0
LINE
  5
301D
330
1F
100
AcDbEntity
  8
PIC06
  6
Continuous
 62
     7
100
AcDbLine
 10
1284.059567267575
 20
1020.026581636562
 30
0.0
 11
1284.361391989944
 21
1020.328406358908
 31
0.0
  0
LINE
  5
301E
330
1F
100
AcDbEntity
  8
PIC06
  6
Continuous
 62
     7
100
AcDbLine
 10
1286.725654681088
 20
1022.692669050051
 30
0.0
 11
1287.157812042244
 21
1023.124826411208
 31
0.0
  0
LINE
  5
301F
330
1F
100
AcDbEntity
  8
PIC06
  6
Continuous
 62
     7
100
AcDbLine
 10
1284.052442433241
 20
1020.186489732528
 30
0.0
 11
1284.354267155586
 21
1020.488314454874
 31
0.0
  0
LINE
  5
3020
330
1F
100
AcDbEntity
  8
PIC06
  6
Continuous
 62
     7
100
AcDbLine
 10
1286.781067773555
 20
1022.915115072842
 30
0.0
 11
1287.213287224876
 21
1023.347334524164
 31
0.0
  0
LINE
  5
3021
330
1F
100
AcDbEntity
  8
PIC06
  6
Continuous
 62
     7
100
AcDbLine
 10
1284.045317598907
 20
1020.346397828494
 30
0.0
 11
1284.347142321253
 21
1020.64822255084
 31
0.0
  0
LINE
  5
3022
330
1F
100
AcDbEntity
  8
PIC06
  6
Continuous
 62
     7
100
AcDbLine
 10
1286.836480866045
 20
1023.137561095657
 30
0.0
 11
1287.269552170671
 21
1023.570632400282
 31
0.0
  0
LINE
  5
3023
330
1F
100
AcDbEntity
  8
PIC06
  6
Continuous
 62
     7
100
AcDbLine
 10
1284.038192764549
 20
1020.506305924484
 30
0.0
 11
1284.340017486895
 21
1020.808130646829
 31
0.0
  0
LINE
  5
3024
330
1F
100
AcDbEntity
  8
PIC06
  6
Continuous
 62
     7
100
AcDbLine
 10
1286.891893958536
 20
1023.360007118447
 30
0.0
 11
1287.341985894767
 21
1023.810099054679
 31
0.0
  0
LINE
  5
3025
330
1F
100
AcDbEntity
  8
PIC06
  6
Continuous
 62
     7
100
AcDbLine
 10
1284.031067930215
 20
1020.66621402045
 30
0.0
 11
1284.332892652561
 21
1020.968038742796
 31
0.0
  0
LINE
  5
3026
330
1F
100
AcDbEntity
  8
PIC06
  6
Continuous
 62
     7
100
AcDbLine
 10
1286.947392804292
 20
1023.582538894551
 30
0.0
 11
1287.449613455474
 21
1024.084759545709
 31
0.0
  0
LINE
  5
3027
330
1F
100
AcDbEntity
  8
PIC06
  6
Continuous
 62
     7
100
AcDbLine
 10
1284.023943095857
 20
1020.826122116416
 30
0.0
 11
1284.325767818203
 21
1021.127946838762
 31
0.0
  0
LINE
  5
3028
330
1F
100
AcDbEntity
  8
PIC06
  6
Continuous
 62
     7
100
AcDbLine
 10
1287.01217708794
 20
1023.814356108499
 30
0.0
 11
1287.61953440913
 21
1024.421713429689
 31
0.0
  0
LINE
  5
3029
330
1F
100
AcDbEntity
  8
PIC06
  6
Continuous
 62
     7
100
AcDbLine
 10
1284.016818261523
 20
1020.986030212382
 30
0.0
 11
1284.318642983869
 21
1021.287854934751
 31
0.0
  0
LINE
  5
302A
330
1F
100
AcDbEntity
  8
PIC06
  6
Continuous
 62
     7
100
AcDbLine
 10
1287.103510531661
 20
1024.072722482544
 30
0.0
 11
1288.050185553819
 21
1025.019397504702
 31
0.0
  0
LINE
  5
302B
330
1F
100
AcDbEntity
  8
PIC06
  6
Continuous
 62
     7
100
AcDbLine
 10
1284.009693427166
 20
1021.145938308372
 30
0.0
 11
1284.311518149511
 21
1021.447763030717
 31
0.0
  0
LINE
  5
302C
330
1F
100
AcDbEntity
  8
PIC06
  6
Continuous
 62
     7
100
AcDbLine
 10
1287.236836084989
 20
1024.373080966195
 30
0.0
 11
1290.084971239348
 21
1027.221216120531
 31
0.0
  0
LINE
  5
302D
330
1F
100
AcDbEntity
  8
PIC06
  6
Continuous
 62
     7
100
AcDbLine
 10
1284.002568592832
 20
1021.305846404338
 30
0.0
 11
1284.304393315177
 21
1021.607671126684
 31
0.0
  0
LINE
  5
302E
330
1F
100
AcDbEntity
  8
PIC06
  6
Continuous
 62
     7
100
AcDbLine
 10
1287.458519870479
 20
1024.761797681985
 30
0.0
 11
1290.797304107339
 21
1028.100581918845
 31
0.0
  0
LINE
  5
302F
330
1F
100
AcDbEntity
  8
PIC06
  6
Continuous
 62
     7
100
AcDbLine
 10
1283.995443758474
 20
1021.465754500304
 30
0.0
 11
1284.29726848082
 21
1021.767579222673
 31
0.0
  0
LINE
  5
3030
330
1F
100
AcDbEntity
  8
PIC06
  6
Continuous
 62
     7
100
AcDbLine
 10
1289.077128902411
 20
1026.547439644241
 30
0.0
 11
1291.31979882235
 21
1028.79010956418
 31
0.0
  0
LINE
  5
3031
330
1F
100
AcDbEntity
  8
PIC06
  6
Continuous
 62
     7
100
AcDbLine
 10
1283.98831892414
 20
1021.625662596294
 30
0.0
 11
1284.290143646486
 21
1021.927487318639
 31
0.0
  0
LINE
  5
3032
330
1F
100
AcDbEntity
  8
PIC06
  6
Continuous
 62
     7
100
AcDbLine
 10
1290.120422964609
 20
1027.757766636763
 30
0.0
 11
1291.745769064826
 21
1029.38311273698
 31
0.0
  0
LINE
  5
3033
330
1F
100
AcDbEntity
  8
PIC06
  6
Continuous
 62
     7
100
AcDbLine
 10
1283.981194089782
 20
1021.78557069226
 30
0.0
 11
1284.283018812152
 21
1022.087395414605
 31
0.0
  0
LINE
  5
3034
330
1F
100
AcDbEntity
  8
PIC06
  6
Continuous
 62
     7
100
AcDbLine
 10
1290.74817075835
 20
1028.552547360804
 30
0.0
 11
1292.108532585328
 21
1029.912909187782
 31
0.0
  0
LINE
  5
3035
330
1F
100
AcDbEntity
  8
PIC06
  6
Continuous
 62
     7
100
AcDbLine
 10
1283.974069255448
 20
1021.945478788226
 30
0.0
 11
1284.275893977794
 21
1022.247303510595
 31
0.0
  0
LINE
  5
3036
330
1F
100
AcDbEntity
  8
PIC06
  6
Continuous
 62
     7
100
AcDbLine
 10
1291.230064754874
 20
1029.201474287652
 30
0.0
 11
1292.426031457214
 21
1030.397440989991
 31
0.0
  0
LINE
  5
3037
330
1F
100
AcDbEntity
  8
PIC06
  6
Continuous
 62
     7
100
AcDbLine
 10
1283.966944421091
 20
1022.105386884216
 30
0.0
 11
1284.26876914346
 21
1022.407211606561
 31
0.0
  0
LINE
  5
3038
330
1F
100
AcDbEntity
  8
PIC06
  6
Continuous
 62
     7
100
AcDbLine
 10
1291.628271895138
 20
1029.76671435824
 30
0.0
 11
1292.70934960017
 21
1030.847792063272
 31
0.0
  0
LINE
  5
3039
330
1F
100
AcDbEntity
  8
PIC06
  6
Continuous
 62
     7
100
AcDbLine
 10
1283.959819586757
 20
1022.265294980182
 30
0.0
 11
1284.261644309102
 21
1022.567119702527
 31
0.0
  0
LINE
  5
303A
330
1F
100
AcDbEntity
  8
PIC06
  6
Continuous
 62
     7
100
AcDbLine
 10
1291.972146745255
 20
1030.27762213868
 30
0.0
 11
1292.803211451518
 21
1031.108686844943
 31
0.0
  0
LINE
  5
303B
330
1F
100
AcDbEntity
  8
PIC06
  6
Continuous
 62
     7
100
AcDbLine
 10
1283.952694752399
 20
1022.425203076148
 30
0.0
 11
1284.254519474768
 21
1022.727027798493
 31
0.0
  0
LINE
  5
303C
330
1F
100
AcDbEntity
  8
PIC06
  6
Continuous
 62
     7
100
AcDbLine
 10
1292.276116897171
 20
1030.748625220919
 30
0.0
 11
1292.751042946042
 21
1031.223551269792
 31
0.0
  0
LINE
  5
303D
330
1F
100
AcDbEntity
  8
PIC06
  6
Continuous
 62
     7
100
AcDbLine
 10
1283.945569918065
 20
1022.585111172138
 30
0.0
 11
1284.24739464041
 21
1022.886935894483
 31
0.0
  0
LINE
  5
303E
330
1F
100
AcDbEntity
  8
PIC06
  6
Continuous
 62
     7
100
AcDbLine
 10
1292.274051162742
 20
1030.913592416815
 30
0.0
 11
1292.652968083585
 21
1031.292509337658
 31
0.0
  0
LINE
  5
303F
330
1F
100
AcDbEntity
  8
PIC06
  6
Continuous
 62
     7
100
AcDbLine
 10
1283.938445083731
 20
1022.745019268104
 30
0.0
 11
1284.240269806076
 21
1023.046843990449
 31
0.0
  0
LINE
  5
3040
330
1F
100
AcDbEntity
  8
PIC06
  6
Continuous
 62
     7
100
AcDbLine
 10
1292.053742940068
 20
1030.860317124464
 30
0.0
 11
1292.487438872482
 21
1031.294013056878
 31
0.0
  0
LINE
  5
3041
330
1F
100
AcDbEntity
  8
PIC06
  6
Continuous
 62
     7
100
AcDbLine
 10
1283.931320249373
 20
1022.90492736407
 30
0.0
 11
1284.233144971719
 21
1023.206752086415
 31
0.0
  0
LINE
  5
3042
330
1F
100
AcDbEntity
  8
PIC06
  6
Continuous
 62
     7
100
AcDbLine
 10
1291.837786354735
 20
1030.811393469431
 30
0.0
 11
1292.261118682465
 21
1031.234725797161
 31
0.0
  0
LINE
  5
3043
330
1F
100
AcDbEntity
  8
PIC06
  6
Continuous
 62
     7
100
AcDbLine
 10
1283.924195415039
 20
1023.064835460036
 30
0.0
 11
1284.226020137385
 21
1023.366660182405
 31
0.0
  0
LINE
  5
3044
330
1F
100
AcDbEntity
  8
PIC06
  6
Continuous
 62
     7
100
AcDbLine
 10
1291.625739892926
 20
1030.766379937946
 30
0.0
 11
1292.039766477231
 21
1031.180406522252
 31
0.0
  0
LINE
  5
3045
330
1F
100
AcDbEntity
  8
PIC06
  6
Continuous
 62
     7
100
AcDbLine
 10
1283.917070580681
 20
1023.224743556025
 30
0.0
 11
1284.218895303027
 21
1023.526568278371
 31
0.0
  0
LINE
  5
3046
330
1F
100
AcDbEntity
  8
PIC06
  6
Continuous
 62
     7
100
AcDbLine
 10
1291.417353328304
 20
1030.725026303624
 30
0.0
 11
1291.822725911819
 21
1031.130398887163
 31
0.0
  0
LINE
  5
3047
330
1F
100
AcDbEntity
  8
PIC06
  6
Continuous
 62
     7
100
AcDbLine
 10
1283.909945746347
 20
1023.384651651991
 30
0.0
 11
1284.211770468693
 21
1023.686476374337
 31
0.0
  0
LINE
  5
3048
330
1F
100
AcDbEntity
  8
PIC06
  6
Continuous
 62
     7
100
AcDbLine
 10
1291.212399293646
 20
1030.687105199313
 30
0.0
 11
1291.609712964489
 21
1031.084418870157
 31
0.0
  0
LINE
  5
3049
330
1F
100
AcDbEntity
  8
PIC06
  6
Continuous
 62
     7
100
AcDbLine
 10
1283.90282091199
 20
1023.544559747958
 30
0.0
 11
1284.204645634335
 21
1023.846384470327
 31
0.0
  0
LINE
  5
304A
330
1F
100
AcDbEntity
  8
PIC06
  6
Continuous
 62
     7
100
AcDbLine
 10
1288.703072991367
 20
1028.344811827335
 30
0.0
 11
1290.32814248099
 21
1029.969881316981
 31
0.0
  0
LINE
  5
304B
330
1F
100
AcDbEntity
  8
PIC06
  6
Continuous
 62
     7
100
AcDbLine
 10
1291.010726900065
 20
1030.652465736032
 30
0.0
 11
1291.400470206032
 21
1031.042209041999
 31
0.0
  0
LINE
  5
304C
330
1F
100
AcDbEntity
  8
PIC06
  6
Continuous
 62
     7
100
AcDbLine
 10
1283.895696077656
 20
1023.704467843947
 30
0.0
 11
1284.197520800001
 21
1024.006292566293
 31
0.0
  0
LINE
  5
304D
330
1F
100
AcDbEntity
  8
PIC06
  6
Continuous
 62
     7
100
AcDbLine
 10
1288.021673701361
 20
1027.830445467652
 30
0.0
 11
1291.194901389826
 21
1031.003673156118
 31
0.0
  0
LINE
  5
304E
330
1F
100
AcDbEntity
  8
PIC06
  6
Continuous
 62
     7
100
AcDbLine
 10
1283.888571243298
 20
1023.864375939913
 30
0.0
 11
1284.190395965644
 21
1024.166200662259
 31
0.0
  0
LINE
  5
304F
330
1F
100
AcDbEntity
  8
PIC06
  6
Continuous
 62
     7
100
AcDbLine
 10
1287.532182529808
 20
1027.507987226423
 30
0.0
 11
1290.992872316912
 21
1030.968677013527
 31
0.0
  0
LINE
  5
3050
330
1F
100
AcDbEntity
  8
PIC06
  6
Continuous
 62
     7
100
AcDbLine
 10
1283.881446408964
 20
1024.024284035879
 30
0.0
 11
1284.18327113131
 21
1024.326108758249
 31
0.0
  0
LINE
  5
3051
330
1F
100
AcDbEntity
  8
PIC06
  6
Continuous
 62
     7
100
AcDbLine
 10
1287.121393809139
 20
1027.264231436079
 30
0.0
 11
1288.228850257966
 21
1028.371687884882
 31
0.0
  0
LINE
  5
3052
330
1F
100
AcDbEntity
  8
PIC06
  6
Continuous
 62
     7
100
AcDbLine
 10
1290.300559047712
 20
1030.443396674628
 30
0.0
 11
1290.794267718351
 21
1030.937105345266
 31
0.0
  0
LINE
  5
3053
330
1F
100
AcDbEntity
  8
PIC06
  6
Continuous
 62
     7
100
AcDbLine
 10
1283.874321574606
 20
1024.184192131869
 30
0.0
 11
1284.176146296952
 21
1024.486016854215
 31
0.0
  0
LINE
  5
3054
330
1F
100
AcDbEntity
  8
PIC06
  6
Continuous
 62
     7
100
AcDbLine
 10
1286.756492517245
 20
1027.066363074508
 30
0.0
 11
1287.645571115597
 21
1027.95544167286
 31
0.0
  0
LINE
  5
3055
330
1F
100
AcDbEntity
  8
PIC06
  6
Continuous
 62
     7
100
AcDbLine
 10
1283.867196740272
 20
1024.344100227835
 30
0.0
 11
1284.169021462618
 21
1024.645924950181
 31
0.0
  0
LINE
  5
3056
330
1F
100
AcDbEntity
  8
PIC06
  6
Continuous
 62
     7
100
AcDbLine
 10
1286.42407448565
 20
1026.900977973213
 30
0.0
 11
1287.192834675577
 21
1027.66973816314
 31
0.0
  0
LINE
  5
3057
330
1F
100
AcDbEntity
  8
PIC06
  6
Continuous
 62
     7
100
AcDbLine
 10
1283.860071905914
 20
1024.504008323801
 30
0.0
 11
1284.161896628284
 21
1024.805833046147
 31
0.0
  0
LINE
  5
3058
330
1F
100
AcDbEntity
  8
PIC06
  6
Continuous
 62
     7
100
AcDbLine
 10
1286.115570751806
 20
1026.759507169693
 30
0.0
 11
1286.804964578556
 21
1027.448900996419
 31
0.0
  0
LINE
  5
3059
330
1F
100
AcDbEntity
  8
PIC06
  6
Continuous
 62
     7
100
AcDbLine
 10
1283.85294707158
 20
1024.663916419791
 30
0.0
 11
1284.154771793926
 21
1024.965741142137
 31
0.0
  0
LINE
  5
305A
330
1F
100
AcDbEntity
  8
PIC06
  6
Continuous
 62
     7
100
AcDbLine
 10
1285.825238435194
 20
1026.636207783404
 30
0.0
 11
1286.456438105468
 21
1027.267407453679
 31
0.0
  0
LINE
  5
305B
330
1F
100
AcDbEntity
  8
PIC06
  6
Continuous
 62
     7
100
AcDbLine
 10
1283.845822237223
 20
1024.823824515757
 30
0.0
 11
1284.147646959592
 21
1025.125649238103
 31
0.0
  0
LINE
  5
305C
330
1F
100
AcDbEntity
  8
PIC06
  6
Continuous
 62
     7
100
AcDbLine
 10
1285.549669285425
 20
1026.527671563935
 30
0.0
 11
1286.136107323242
 21
1027.114109601753
 31
0.0
  0
LINE
  5
305D
330
1F
100
AcDbEntity
  8
PIC06
  6
Continuous
 62
     7
100
AcDbLine
 10
1283.838697402889
 20
1024.983732611723
 30
0.0
 11
1284.13923425388
 21
1025.284269462715
 31
0.0
  0
LINE
  5
305E
330
1F
100
AcDbEntity
  8
PIC06
  6
Continuous
 62
     7
100
AcDbLine
 10
1285.287332523446
 20
1026.432367732281
 30
0.0
 11
1285.836886444392
 21
1026.981921653226
 31
0.0
  0
LINE
  5
305F
330
1F
100
AcDbEntity
  8
PIC06
  6
Continuous
 62
     7
100
AcDbLine
 10
1283.831572568531
 20
1025.143640707689
 30
0.0
 11
1284.104185269811
 21
1025.416253408969
 31
0.0
  0
LINE
  5
3060
330
1F
100
AcDbEntity
  8
PIC06
  6
Continuous
 62
     7
100
AcDbLine
 10
1285.035201726604
 20
1026.347269865762
 30
0.0
 11
1285.555455404743
 21
1026.8675235439
 31
0.0
  0
LINE
  5
3061
330
1F
100
AcDbEntity
  8
PIC06
  6
Continuous
 62
     7
100
AcDbLine
 10
1283.814165159366
 20
1025.293266228825
 30
0.0
 11
1284.044624011074
 21
1025.523725080556
 31
0.0
  0
LINE
  5
3062
330
1F
100
AcDbEntity
  8
PIC06
  6
Continuous
 62
     7
100
AcDbLine
 10
1284.792346771234
 20
1026.271447840692
 30
0.0
 11
1285.287593768789
 21
1026.766694838271
 31
0.0
  0
LINE
  5
3063
330
1F
100
AcDbEntity
  8
PIC06
  6
Continuous
 62
     7
100
AcDbLine
 10
1283.750699078112
 20
1025.396833077893
 30
0.0
 11
1283.977830416943
 21
1025.623964416749
 31
0.0
  0
LINE
  5
3064
330
1F
100
AcDbEntity
  8
PIC06
  6
Continuous
 62
     7
100
AcDbLine
 10
1284.558117811038
 20
1026.204251810844
 30
0.0
 11
1285.031574467479
 21
1026.677708467285
 31
0.0
  0
LINE
  5
3065
330
1F
100
AcDbEntity
  8
PIC06
  6
Continuous
 62
     7
100
AcDbLine
 10
1283.683905483981
 20
1025.497072414087
 30
0.0
 11
1283.911036822813
 21
1025.724203752919
 31
0.0
  0
LINE
  5
3066
330
1F
100
AcDbEntity
  8
PIC06
  6
Continuous
 62
     7
100
AcDbLine
 10
1284.330794469232
 20
1026.143961399338
 30
0.0
 11
1284.785235629367
 21
1026.598402559473
 31
0.0
  0
LINE
  5
3067
330
1F
100
AcDbEntity
  8
PIC06
  6
Continuous
 62
     7
100
AcDbLine
 10
1283.61711188985
 20
1025.59731175028
 30
0.0
 11
1283.844243228682
 21
1025.824443089112
 31
0.0
  0
LINE
  5
3068
330
1F
100
AcDbEntity
  8
PIC06
  6
Continuous
 62
     7
100
AcDbLine
 10
1284.109806573921
 20
1026.09000643435
 30
0.0
 11
1284.548398416644
 21
1026.528598277073
 31
0.0
  0
LINE
  5
3069
330
1F
100
AcDbEntity
  8
PIC06
  6
Continuous
 62
     7
100
AcDbLine
 10
1283.550318295696
 20
1025.697551086449
 30
0.0
 11
1283.777449634552
 21
1025.924682425305
 31
0.0
  0
LINE
  5
306A
330
1F
100
AcDbEntity
  8
PIC06
  6
Continuous
 62
     7
100
AcDbLine
 10
1283.894788344646
 20
1026.042021135399
 30
0.0
 11
1284.318871671535
 21
1026.466104462288
 31
0.0
  0
LINE
  5
306B
330
1F
100
AcDbEntity
  8
PIC06
  6
Continuous
 62
     7
100
AcDbLine
 10
1283.480842288449
 20
1025.795108009502
 30
0.0
 11
1284.096031703793
 21
1026.410297424847
 31
0.0
  0
LINE
  5
306C
330
1F
100
AcDbEntity
  8
PIC06
  6
Continuous
 62
     7
100
AcDbLine
 10
1283.370159684532
 20
1025.851458335933
 30
0.0
 11
1283.879693896052
 21
1026.360992547429
 31
0.0
  0
LINE
  5
306D
330
1F
100
AcDbEntity
  8
PIC06
  6
Continuous
 62
     7
100
AcDbLine
 10
1283.18677019571
 20
1025.835101777435
 30
0.0
 11
1283.669245166689
 21
1026.31757674839
 31
0.0
  0
LINE
  5
306E
330
1F
100
AcDbEntity
  8
PIC06
  6
Continuous
 62
     7
100
AcDbLine
 10
1282.994388669411
 20
1025.809753181435
 30
0.0
 11
1283.463861383188
 21
1026.279225895212
 31
0.0
  0
LINE
  5
306F
330
1F
100
AcDbEntity
  8
PIC06
  6
Continuous
 62
     7
100
AcDbLine
 10
1282.802007143111
 20
1025.78440458546
 30
0.0
 11
1283.263181554524
 21
1026.245578996849
 31
0.0
  0
LINE
  5
3070
330
1F
100
AcDbEntity
  8
PIC06
  6
Continuous
 62
     7
100
AcDbLine
 10
1282.610640876984
 20
1025.760071249632
 30
0.0
 11
1283.067037235024
 21
1026.216467607672
 31
0.0
  0
LINE
  5
3071
330
1F
100
AcDbEntity
  8
PIC06
  6
Continuous
 62
     7
100
AcDbLine
 10
1282.420825172507
 20
1025.737288475503
 30
0.0
 11
1282.874491884795
 21
1026.190955187767
 31
0.0
  0
LINE
  5
3072
330
1F
100
AcDbEntity
  8
PIC06
  6
Continuous
 62
     7
100
AcDbLine
 10
1282.231009468054
 20
1025.71450570135
 30
0.0
 11
1282.683175427091
 21
1026.166671660387
 31
0.0
  0
LINE
  5
3073
330
1F
100
AcDbEntity
  8
PIC06
  6
Continuous
 62
     7
100
AcDbLine
 10
1282.041376710522
 20
1025.691905874142
 30
0.0
 11
1282.491858969411
 21
1026.142388133031
 31
0.0
  0
LINE
  5
3074
330
1F
100
AcDbEntity
  8
PIC06
  6
Continuous
 62
     7
100
AcDbLine
 10
1281.853863361249
 20
1025.671425455193
 30
0.0
 11
1282.301434407271
 21
1026.118996501215
 31
0.0
  0
LINE
  5
3075
330
1F
100
AcDbEntity
  8
PIC06
  6
Continuous
 62
     7
100
AcDbLine
 10
1281.666350011977
 20
1025.650945036244
 30
0.0
 11
1282.112570273811
 21
1026.097165298055
 31
0.0
  0
LINE
  5
3076
330
1F
100
AcDbEntity
  8
PIC06
  6
Continuous
 62
     7
100
AcDbLine
 10
1281.478836662704
 20
1025.630464617272
 30
0.0
 11
1281.923706140327
 21
1026.075334094918
 31
0.0
  0
LINE
  5
3077
330
1F
100
AcDbEntity
  8
PIC06
  6
Continuous
 62
     7
100
AcDbLine
 10
1281.292933996415
 20
1025.611594881306
 30
0.0
 11
1281.735195336358
 21
1026.053856221249
 31
0.0
  0
LINE
  5
3078
330
1F
100
AcDbEntity
  8
PIC06
  6
Continuous
 62
     7
100
AcDbLine
 10
1281.107662652664
 20
1025.593356467879
 30
0.0
 11
1281.548534311734
 21
1026.034228126949
 31
0.0
  0
LINE
  5
3079
330
1F
100
AcDbEntity
  8
PIC06
  6
Continuous
 62
     7
100
AcDbLine
 10
1280.922391308912
 20
1025.575118054451
 30
0.0
 11
1281.36187328711
 21
1026.014600032649
 31
0.0
  0
LINE
  5
307A
330
1F
100
AcDbEntity
  8
PIC06
  6
Continuous
 62
     7
100
AcDbLine
 10
1280.737803537764
 20
1025.557563213603
 30
0.0
 11
1281.17521226251
 21
1025.994971938349
 31
0.0
  0
LINE
  5
307B
330
1F
100
AcDbEntity
  8
PIC06
  6
Continuous
 62
     7
100
AcDbLine
 10
1280.554716682477
 20
1025.541509288639
 30
0.0
 11
1280.99051758488
 21
1025.977310191065
 31
0.0
  0
LINE
  5
307C
330
1F
100
AcDbEntity
  8
PIC06
  6
Continuous
 62
     7
100
AcDbLine
 10
1280.37162982719
 20
1025.525455363652
 30
0.0
 11
1280.806004253597
 21
1025.959829790083
 31
0.0
  0
LINE
  5
307D
330
1F
100
AcDbEntity
  8
PIC06
  6
Continuous
 62
     7
100
AcDbLine
 10
1280.188542971879
 20
1025.509401438689
 30
0.0
 11
1280.621490922314
 21
1025.9423493891
 31
0.0
  0
LINE
  5
307E
330
1F
100
AcDbEntity
  8
PIC06
  6
Continuous
 62
     7
100
AcDbLine
 10
1280.007294793147
 20
1025.495186190257
 30
0.0
 11
1280.438296451308
 21
1025.926187848418
 31
0.0
  0
LINE
  5
307F
330
1F
100
AcDbEntity
  8
PIC06
  6
Continuous
 62
     7
100
AcDbLine
 10
1279.82633757281
 20
1025.481261900243
 30
0.0
 11
1280.255877902678
 21
1025.910802230135
 31
0.0
  0
LINE
  5
3080
330
1F
100
AcDbEntity
  8
PIC06
  6
Continuous
 62
     7
100
AcDbLine
 10
1279.645380352449
 20
1025.467337610207
 30
0.0
 11
1280.07345935407
 21
1025.895416611828
 31
0.0
  0
LINE
  5
3081
330
1F
100
AcDbEntity
  8
PIC06
  6
Continuous
 62
     7
100
AcDbLine
 10
1279.465192081618
 20
1025.454182269676
 30
0.0
 11
1279.891659838015
 21
1025.880650026073
 31
0.0
  0
LINE
  5
3082
330
1F
100
AcDbEntity
  8
PIC06
  6
Continuous
 62
     7
100
AcDbLine
 10
1279.286312149789
 20
1025.442335268194
 30
0.0
 11
1279.711285522391
 21
1025.867308640773
 31
0.0
  0
LINE
  5
3083
330
1F
100
AcDbEntity
  8
PIC06
  6
Continuous
 62
     7
100
AcDbLine
 10
1279.107432217984
 20
1025.430488266689
 30
0.0
 11
1279.530911206768
 21
1025.853967255473
 31
0.0
  0
LINE
  5
3084
330
1F
100
AcDbEntity
  8
PIC06
  6
Continuous
 62
     7
100
AcDbLine
 10
1278.928552286178
 20
1025.418641265207
 30
0.0
 11
1279.350536891145
 21
1025.840625870173
 31
0.0
  0
LINE
  5
3085
330
1F
100
AcDbEntity
  8
PIC06
  6
Continuous
 62
     7
100
AcDbLine
 10
1278.751362515133
 20
1025.408484424486
 30
0.0
 11
1279.172029938299
 21
1025.829151847652
 31
0.0
  0
LINE
  5
3086
330
1F
100
AcDbEntity
  8
PIC06
  6
Continuous
 62
     7
100
AcDbLine
 10
1278.574509887526
 20
1025.398664727203
 30
0.0
 11
1278.993651533385
 21
1025.817806373062
 31
0.0
  0
LINE
  5
3087
330
1F
100
AcDbEntity
  8
PIC06
  6
Continuous
 62
     7
100
AcDbLine
 10
1278.397657259919
 20
1025.38884502992
 30
0.0
 11
1278.815273128495
 21
1025.806460898472
 31
0.0
  0
LINE
  5
3088
330
1F
100
AcDbEntity
  8
PIC06
  6
Continuous
 62
     7
100
AcDbLine
 10
1278.221308160114
 20
1025.379528860415
 30
0.0
 11
1278.637924701018
 21
1025.796145401318
 31
0.0
  0
LINE
  5
3089
330
1F
100
AcDbEntity
  8
PIC06
  6
Continuous
 62
     7
100
AcDbLine
 10
1278.046435079955
 20
1025.371688710579
 30
0.0
 11
1278.461495987779
 21
1025.786749618403
 31
0.0
  0
LINE
  5
308A
330
1F
100
AcDbEntity
  8
PIC06
  6
Continuous
 62
     7
100
AcDbLine
 10
1276.3351173527
 20
1023.827403913648
 30
0.0
 11
1276.593179362837
 21
1024.085465923785
 31
0.0
  0
LINE
  5
308B
330
1F
100
AcDbEntity
  8
PIC06
  6
Continuous
 62
     7
100
AcDbLine
 10
1277.87156199982
 20
1025.363848560768
 30
0.0
 11
1278.285067274516
 21
1025.777353835464
 31
0.0
  0
LINE
  5
308C
330
1F
100
AcDbEntity
  8
PIC06
  6
Continuous
 62
     7
100
AcDbLine
 10
1276.172338019395
 20
1023.831657510643
 30
0.0
 11
1276.612811346378
 21
1024.27213083765
 31
0.0
  0
LINE
  5
308D
330
1F
100
AcDbEntity
  8
PIC06
  6
Continuous
 62
     7
100
AcDbLine
 10
1277.696688919684
 20
1025.356008410932
 30
0.0
 11
1278.108793341034
 21
1025.768112832282
 31
0.0
  0
LINE
  5
308E
330
1F
100
AcDbEntity
  8
PIC06
  6
Continuous
 62
     7
100
AcDbLine
 10
1276.172338019395
 20
1023.998690440967
 30
0.0
 11
1276.632443329919
 21
1024.458795751491
 31
0.0
  0
LINE
  5
308F
330
1F
100
AcDbEntity
  8
PIC06
  6
Continuous
 62
     7
100
AcDbLine
 10
1277.523139854733
 20
1025.349492276328
 30
0.0
 11
1277.93427008807
 21
1025.760622509642
 31
0.0
  0
LINE
  5
3090
330
1F
100
AcDbEntity
  8
PIC06
  6
Continuous
 62
     7
100
AcDbLine
 10
1276.298155301177
 20
1024.291540653072
 30
0.0
 11
1276.65207531346
 21
1024.645460665356
 31
0.0
  0
LINE
  5
3091
330
1F
100
AcDbEntity
  8
PIC06
  6
Continuous
 62
     7
100
AcDbLine
 10
1277.350359826994
 20
1025.34374517889
 30
0.0
 11
1277.759746835106
 21
1025.753132187002
 31
0.0
  0
LINE
  5
3092
330
1F
100
AcDbEntity
  8
PIC06
  6
Continuous
 62
     7
100
AcDbLine
 10
1276.317787284718
 20
1024.478205566937
 30
0.0
 11
1276.671707297002
 21
1024.832125579221
 31
0.0
  0
LINE
  5
3093
330
1F
100
AcDbEntity
  8
PIC06
  6
Continuous
 62
     7
100
AcDbLine
 10
1277.177579799256
 20
1025.337998081475
 30
0.0
 11
1277.585223582142
 21
1025.745641864361
 31
0.0
  0
LINE
  5
3094
330
1F
100
AcDbEntity
  8
PIC06
  6
Continuous
 62
     7
100
AcDbLine
 10
1276.337419268259
 20
1024.664870480802
 30
0.0
 11
1276.691339280566
 21
1025.018790493086
 31
0.0
  0
LINE
  5
3095
330
1F
100
AcDbEntity
  8
PIC06
  6
Continuous
 62
     7
100
AcDbLine
 10
1277.004799771517
 20
1025.332250984037
 30
0.0
 11
1277.411899787763
 21
1025.739351000306
 31
0.0
  0
LINE
  5
3096
330
1F
100
AcDbEntity
  8
PIC06
  6
Continuous
 62
     7
100
AcDbLine
 10
1276.357051251824
 20
1024.851535394667
 30
0.0
 11
1277.239393046902
 21
1025.733877189745
 31
0.0
  0
LINE
  5
3097
330
1F
100
AcDbEntity
  8
PIC06
  6
Continuous
 62
     7
100
AcDbLine
 10
1276.307617887584
 20
1024.96913496075
 30
0.0
 11
1277.066886306017
 21
1025.728403379184
 31
0.0
  0
LINE
  5
3098
330
1F
100
AcDbEntity
  8
PIC06
  6
Continuous
 62
     7
100
AcDbLine
 10
1276.172338019395
 20
1025.000888022886
 30
0.0
 11
1276.894074313337
 21
1025.722624316828
 31
0.0
  0
LINE
  5
3099
330
1F
100
AcDbEntity
  8
PIC06
  6
Continuous
 62
     7
100
AcDbLine
 10
1276.172338019395
 20
1025.167920953186
 30
0.0
 11
1276.672742200807
 21
1025.668325134621
 31
0.0
  0
LINE
  5
309A
330
1F
100
AcDbEntity
  8
PIC06
  6
Continuous
 62
     7
100
AcDbLine
 10
1271.054233325381
 20
1030.914010413015
 30
0.0
 11
1271.054233325381
 21
1031.30771077411
 31
0.0
  0
LINE
  5
309B
330
1F
100
AcDbEntity
  8
PIC06
  6
Continuous
 62
     7
100
AcDbLine
 10
1269.676282061622
 20
1030.914010413015
 30
0.0
 11
1269.676282061622
 21
1031.30771077411
 31
0.0
  0
LINE
  5
309C
330
1F
100
AcDbEntity
  8
PIC06
  6
Continuous
 62
     7
100
AcDbLine
 10
1267.950126293682
 20
1030.914010413015
 30
0.0
 11
1269.676282061622
 21
1030.914010413015
 31
0.0
  0
LINE
  5
309D
330
1F
100
AcDbEntity
  8
PIC06
  6
Continuous
 62
     7
100
AcDbLine
 10
1267.585655860064
 20
1028.37749810855
 30
0.0
 11
1267.753776368549
 21
1030.731185227149
 31
0.0
  0
LINE
  5
309E
330
1F
100
AcDbEntity
  8
PIC06
  6
Continuous
 62
     7
100
AcDbLine
 10
1266.993031947029
 20
1028.158107885497
 30
0.0
 11
1267.350035949905
 21
1028.158107885497
 31
0.0
  0
LINE
  5
309F
330
1F
100
AcDbEntity
  8
PIC06
  6
Continuous
 62
     7
100
AcDbLine
 10
1266.600232133505
 20
1028.525194701259
 30
0.0
 11
1266.428793682297
 21
1031.055522430259
 31
0.0
  0
LINE
  5
30A0
330
1F
100
AcDbEntity
  8
PIC06
  6
Continuous
 62
     7
100
AcDbLine
 10
1266.66447357043
 20
1031.30771077411
 30
0.0
 11
1269.676282061622
 21
1031.30771077411
 31
0.0
  0
LINE
  5
30A1
330
1F
100
AcDbEntity
  8
PIC06
  6
Continuous
 62
     7
100
AcDbLine
 10
1269.676282061622
 20
1031.30771077411
 30
0.0
 11
1269.676282061622
 21
1030.914010413015
 31
0.0
  0
LINE
  5
30A2
330
1F
100
AcDbEntity
  8
PIC06
  6
Continuous
 62
     7
100
AcDbLine
 10
1267.518849156375
 20
1030.992750485234
 30
0.0
 11
1266.748729077169
 21
1030.992750485234
 31
0.0
  0
LINE
  5
30A3
330
1F
100
AcDbEntity
  8
PIC06
  6
Continuous
 62
     7
100
AcDbLine
 10
1266.748729077169
 20
1030.992750485234
 30
0.0
 11
1266.914471984333
 21
1028.546485537511
 31
0.0
  0
LINE
  5
30A4
330
1F
100
AcDbEntity
  8
PIC06
  6
Continuous
 62
     7
100
AcDbLine
 10
1266.993031947029
 20
1028.473068174349
 30
0.0
 11
1267.276719556586
 21
1028.473068174349
 31
0.0
  0
LINE
  5
30A5
330
1F
100
AcDbEntity
  8
PIC06
  6
Continuous
 62
     7
100
AcDbLine
 10
1267.276719556586
 20
1028.473068174349
 30
0.0
 11
1267.439616488313
 21
1030.753625218573
 31
0.0
  0
LINE
  5
30A6
330
1F
100
AcDbEntity
  8
PIC06
  6
Continuous
 62
     7
100
AcDbLine
 10
1266.91826156312
 20
1030.992750485234
 30
0.0
 11
1266.748729077169
 21
1030.992750485234
 31
0.0
  0
LINE
  5
30A7
330
1F
100
AcDbEntity
  8
PIC06
  6
Continuous
 62
     7
100
AcDbLine
 10
1266.748729077169
 20
1030.992750485234
 30
0.0
 11
1266.914471984333
 21
1028.546485537511
 31
0.0
  0
LINE
  5
30A8
330
1F
100
AcDbEntity
  8
PIC06
  6
Continuous
 62
     7
100
AcDbLine
 10
1266.993031947029
 20
1028.473068174349
 30
0.0
 11
1267.276719556586
 21
1028.473068174349
 31
0.0
  0
LINE
  5
30A9
330
1F
100
AcDbEntity
  8
PIC06
  6
Continuous
 62
     7
100
AcDbLine
 10
1267.276719556586
 20
1028.473068174349
 30
0.0
 11
1267.439616488313
 21
1030.753625218573
 31
0.0
  0
LINE
  5
30AA
330
1F
100
AcDbEntity
  8
PIC06
  6
Continuous
 62
     7
100
AcDbLine
 10
1266.91826156312
 20
1030.992750485234
 30
0.0
 11
1267.518849156375
 21
1030.992750485234
 31
0.0
  0
LINE
  5
30AB
330
1F
100
AcDbEntity
  8
PIC06
  6
Continuous
 62
     7
100
AcDbLine
 10
1266.600232133505
 20
1028.525194701259
 30
0.0
 11
1266.428793682297
 21
1031.055522430259
 31
0.0
  0
LINE
  5
30AC
330
1F
100
AcDbEntity
  8
PIC06
  6
Continuous
 62
     7
100
AcDbLine
 10
1266.66447357043
 20
1031.30771077411
 30
0.0
 11
1269.676282061622
 21
1031.30771077411
 31
0.0
  0
LINE
  5
30AD
330
1F
100
AcDbEntity
  8
PIC06
  6
Continuous
 62
     7
100
AcDbLine
 10
1269.676282061622
 20
1031.30771077411
 30
0.0
 11
1269.676282061622
 21
1030.914010413015
 31
0.0
  0
LINE
  5
30AE
330
1F
100
AcDbEntity
  8
PIC06
  6
Continuous
 62
     7
100
AcDbLine
 10
1269.676282061622
 20
1030.914010413015
 30
0.0
 11
1267.950126293682
 21
1030.914010413015
 31
0.0
  0
LINE
  5
30AF
330
1F
100
AcDbEntity
  8
PIC06
  6
Continuous
 62
     7
100
AcDbLine
 10
1267.585655860064
 20
1028.37749810855
 30
0.0
 11
1267.753776368549
 21
1030.731185227149
 31
0.0
  0
LINE
  5
30B0
330
1F
100
AcDbEntity
  8
PIC06
  6
Continuous
 62
     7
100
AcDbLine
 10
1266.993031947029
 20
1028.158107885497
 30
0.0
 11
1267.350035949905
 21
1028.158107885497
 31
0.0
  0
LINE
  5
30B1
330
1F
100
AcDbEntity
  8
PIC06
  6
Continuous
 62
     7
100
AcDbLine
 10
1267.303186899074
 20
1028.158107885497
 30
0.0
 11
1267.590508070671
 21
1028.445429057093
 31
0.0
  0
LINE
  5
30B2
330
1F
100
AcDbEntity
  8
PIC06
  6
Continuous
 62
     7
100
AcDbLine
 10
1267.136153968751
 20
1028.158107885497
 30
0.0
 11
1267.603356757634
 21
1028.62531067438
 31
0.0
  0
LINE
  5
30B3
330
1F
100
AcDbEntity
  8
PIC06
  6
Continuous
 62
     7
100
AcDbLine
 10
1266.969971096352
 20
1028.158957943421
 30
0.0
 11
1267.616205444572
 21
1028.805192291642
 31
0.0
  0
LINE
  5
30B4
330
1F
100
AcDbEntity
  8
PIC06
  6
Continuous
 62
     7
100
AcDbLine
 10
1266.835202473385
 20
1028.191222250779
 30
0.0
 11
1267.117048396978
 21
1028.473068174349
 31
0.0
  0
LINE
  5
30B5
330
1F
100
AcDbEntity
  8
PIC06
  6
Continuous
 62
     7
100
AcDbLine
 10
1267.289001953477
 20
1028.645021730847
 30
0.0
 11
1267.629054131535
 21
1028.985073908905
 31
0.0
  0
LINE
  5
30B6
330
1F
100
AcDbEntity
  8
PIC06
  6
Continuous
 62
     7
100
AcDbLine
 10
1269.557990635646
 20
1030.914010413015
 30
0.0
 11
1269.676282061622
 21
1031.032301838991
 31
0.0
  0
LINE
  5
30B7
330
1F
100
AcDbEntity
  8
PIC06
  6
Continuous
 62
     7
100
AcDbLine
 10
1266.733041387095
 20
1028.256094094788
 30
0.0
 11
1266.958241757921
 21
1028.481294465615
 31
0.0
  0
LINE
  5
30B8
330
1F
100
AcDbEntity
  8
PIC06
  6
Continuous
 62
     7
100
AcDbLine
 10
1267.301850640416
 20
1028.82490334811
 30
0.0
 11
1267.641902818474
 21
1029.164955526168
 31
0.0
  0
LINE
  5
30B9
330
1F
100
AcDbEntity
  8
PIC06
  6
Continuous
 62
     7
100
AcDbLine
 10
1269.390957705322
 20
1030.914010413015
 30
0.0
 11
1269.676282061622
 21
1031.199334769315
 31
0.0
  0
LINE
  5
30BA
330
1F
100
AcDbEntity
  8
PIC06
  6
Continuous
 62
     7
100
AcDbLine
 10
1266.656928670506
 20
1028.347014308523
 30
0.0
 11
1266.910787065784
 21
1028.600872703802
 31
0.0
  0
LINE
  5
30BB
330
1F
100
AcDbEntity
  8
PIC06
  6
Continuous
 62
     7
100
AcDbLine
 10
1267.314699327378
 20
1029.004784965396
 30
0.0
 11
1267.654751505413
 21
1029.34483714343
 31
0.0
  0
LINE
  5
30BC
330
1F
100
AcDbEntity
  8
PIC06
  6
Continuous
 62
     7
100
AcDbLine
 10
1269.223924775022
 20
1030.914010413015
 30
0.0
 11
1269.617625136092
 21
1031.30771077411
 31
0.0
  0
LINE
  5
30BD
330
1F
100
AcDbEntity
  8
PIC06
  6
Continuous
 62
     7
100
AcDbLine
 10
1266.60885653028
 20
1028.465975098622
 30
0.0
 11
1266.900188122362
 21
1028.757306690702
 31
0.0
  0
LINE
  5
30BE
330
1F
100
AcDbEntity
  8
PIC06
  6
Continuous
 62
     7
100
AcDbLine
 10
1267.327548014317
 20
1029.184666582658
 30
0.0
 11
1267.667600192375
 21
1029.524718760693
 31
0.0
  0
LINE
  5
30BF
330
1F
100
AcDbEntity
  8
PIC06
  6
Continuous
 62
     7
100
AcDbLine
 10
1269.056891844698
 20
1030.914010413015
 30
0.0
 11
1269.450592205769
 21
1031.30771077411
 31
0.0
  0
LINE
  5
30C0
330
1F
100
AcDbEntity
  8
PIC06
  6
Continuous
 62
     7
100
AcDbLine
 10
1266.593938177791
 20
1028.618089676432
 30
0.0
 11
1266.889589178962
 21
1028.913740677603
 31
0.0
  0
LINE
  5
30C1
330
1F
100
AcDbEntity
  8
PIC06
  6
Continuous
 62
     7
100
AcDbLine
 10
1267.34039670128
 20
1029.364548199921
 30
0.0
 11
1267.680448879314
 21
1029.704600377955
 31
0.0
  0
LINE
  5
30C2
330
1F
100
AcDbEntity
  8
PIC06
  6
Continuous
 62
     7
100
AcDbLine
 10
1268.889858914374
 20
1030.914010413015
 30
0.0
 11
1269.283559275445
 21
1031.30771077411
 31
0.0
  0
LINE
  5
30C3
330
1F
100
AcDbEntity
  8
PIC06
  6
Continuous
 62
     7
100
AcDbLine
 10
1266.583339234368
 20
1028.774523663333
 30
0.0
 11
1266.878990235539
 21
1029.070174664504
 31
0.0
  0
LINE
  5
30C4
330
1F
100
AcDbEntity
  8
PIC06
  6
Continuous
 62
     7
100
AcDbLine
 10
1267.353245388219
 20
1029.544429817184
 30
0.0
 11
1267.693297566253
 21
1029.884481995242
 31
0.0
  0
LINE
  5
30C5
330
1F
100
AcDbEntity
  8
PIC06
  6
Continuous
 62
     7
100
AcDbLine
 10
1268.72282598405
 20
1030.914010413015
 30
0.0
 11
1269.116526345121
 21
1031.30771077411
 31
0.0
  0
LINE
  5
30C6
330
1F
100
AcDbEntity
  8
PIC06
  6
Continuous
 62
     7
100
AcDbLine
 10
1266.572740290945
 20
1028.930957650233
 30
0.0
 11
1266.868391292116
 21
1029.226608651405
 31
0.0
  0
LINE
  5
30C7
330
1F
100
AcDbEntity
  8
PIC06
  6
Continuous
 62
     7
100
AcDbLine
 10
1267.366094075157
 20
1029.724311434446
 30
0.0
 11
1267.706146253215
 21
1030.064363612504
 31
0.0
  0
LINE
  5
30C8
330
1F
100
AcDbEntity
  8
PIC06
  6
Continuous
 62
     7
100
AcDbLine
 10
1268.555793053727
 20
1030.914010413015
 30
0.0
 11
1268.949493414821
 21
1031.30771077411
 31
0.0
  0
LINE
  5
30C9
330
1F
100
AcDbEntity
  8
PIC06
  6
Continuous
 62
     7
100
AcDbLine
 10
1266.562141347522
 20
1029.087391637135
 30
0.0
 11
1266.857792348693
 21
1029.383042638306
 31
0.0
  0
LINE
  5
30CA
330
1F
100
AcDbEntity
  8
PIC06
  6
Continuous
 62
     7
100
AcDbLine
 10
1267.37894276212
 20
1029.904193051709
 30
0.0
 11
1267.718994940154
 21
1030.244245229767
 31
0.0
  0
LINE
  5
30CB
330
1F
100
AcDbEntity
  8
PIC06
  6
Continuous
 62
     7
100
AcDbLine
 10
1268.388760123426
 20
1030.914010413015
 30
0.0
 11
1268.782460484497
 21
1031.30771077411
 31
0.0
  0
LINE
  5
30CC
330
1F
100
AcDbEntity
  8
PIC06
  6
Continuous
 62
     7
100
AcDbLine
 10
1266.551542404099
 20
1029.243825624035
 30
0.0
 11
1266.84719340527
 21
1029.539476625206
 31
0.0
  0
LINE
  5
30CD
330
1F
100
AcDbEntity
  8
PIC06
  6
Continuous
 62
     7
100
AcDbLine
 10
1267.391791449059
 20
1030.084074668972
 30
0.0
 11
1267.731843627117
 21
1030.424126847029
 31
0.0
  0
LINE
  5
30CE
330
1F
100
AcDbEntity
  8
PIC06
  6
Continuous
 62
     7
100
AcDbLine
 10
1268.221727193103
 20
1030.914010413015
 30
0.0
 11
1268.615427554173
 21
1031.30771077411
 31
0.0
  0
LINE
  5
30CF
330
1F
100
AcDbEntity
  8
PIC06
  6
Continuous
 62
     7
100
AcDbLine
 10
1266.5409434607
 20
1029.400259610936
 30
0.0
 11
1266.836594461871
 21
1029.695910612107
 31
0.0
  0
LINE
  5
30D0
330
1F
100
AcDbEntity
  8
PIC06
  6
Continuous
 62
     7
100
AcDbLine
 10
1267.404640135998
 20
1030.263956286258
 30
0.0
 11
1267.744692314056
 21
1030.604008464292
 31
0.0
  0
LINE
  5
30D1
330
1F
100
AcDbEntity
  8
PIC06
  6
Continuous
 62
     7
100
AcDbLine
 10
1268.054694262779
 20
1030.914010413015
 30
0.0
 11
1268.44839462385
 21
1031.30771077411
 31
0.0
  0
LINE
  5
30D2
330
1F
100
AcDbEntity
  8
PIC06
  6
Continuous
 62
     7
100
AcDbLine
 10
1266.530344517277
 20
1029.556693597837
 30
0.0
 11
1266.825995518448
 21
1029.852344599008
 31
0.0
  0
LINE
  5
30D3
330
1F
100
AcDbEntity
  8
PIC06
  6
Continuous
 62
     7
100
AcDbLine
 10
1267.41748882296
 20
1030.443837903521
 30
0.0
 11
1267.769911741892
 21
1030.796260822453
 31
0.0
  0
LINE
  5
30D4
330
1F
100
AcDbEntity
  8
PIC06
  6
Continuous
 62
     7
100
AcDbLine
 10
1267.870958297219
 20
1030.897307377779
 30
0.0
 11
1268.281361693549
 21
1031.30771077411
 31
0.0
  0
LINE
  5
30D5
330
1F
100
AcDbEntity
  8
PIC06
  6
Continuous
 62
     7
100
AcDbLine
 10
1266.519745573854
 20
1029.713127584737
 30
0.0
 11
1266.815396575025
 21
1030.008778585909
 31
0.0
  0
LINE
  5
30D6
330
1F
100
AcDbEntity
  8
PIC06
  6
Continuous
 62
     7
100
AcDbLine
 10
1267.430337509899
 20
1030.623719520783
 30
0.0
 11
1268.114328763226
 21
1031.30771077411
 31
0.0
  0
LINE
  5
30D7
330
1F
100
AcDbEntity
  8
PIC06
  6
Continuous
 62
     7
100
AcDbLine
 10
1266.509146630431
 20
1029.869561571638
 30
0.0
 11
1266.804797631602
 21
1030.16521257281
 31
0.0
  0
LINE
  5
30D8
330
1F
100
AcDbEntity
  8
PIC06
  6
Continuous
 62
     7
100
AcDbLine
 10
1267.446249269013
 20
1030.80666421022
 30
0.0
 11
1267.947295832902
 21
1031.30771077411
 31
0.0
  0
LINE
  5
30D9
330
1F
100
AcDbEntity
  8
PIC06
  6
Continuous
 62
     7
100
AcDbLine
 10
1266.498547687008
 20
1030.025995558539
 30
0.0
 11
1266.794198688202
 21
1030.32164655971
 31
0.0
  0
LINE
  5
30DA
330
1F
100
AcDbEntity
  8
PIC06
  6
Continuous
 62
     7
100
AcDbLine
 10
1267.465302613726
 20
1030.992750485234
 30
0.0
 11
1267.780262902578
 21
1031.30771077411
 31
0.0
  0
LINE
  5
30DB
330
1F
100
AcDbEntity
  8
PIC06
  6
Continuous
 62
     7
100
AcDbLine
 10
1266.487948743608
 20
1030.18242954544
 30
0.0
 11
1266.783599744779
 21
1030.478080546611
 31
0.0
  0
LINE
  5
30DC
330
1F
100
AcDbEntity
  8
PIC06
  6
Continuous
 62
     7
100
AcDbLine
 10
1267.298269683403
 20
1030.992750485234
 30
0.0
 11
1267.613229972278
 21
1031.30771077411
 31
0.0
  0
LINE
  5
30DD
330
1F
100
AcDbEntity
  8
PIC06
  6
Continuous
 62
     7
100
AcDbLine
 10
1266.477349800185
 20
1030.338863532341
 30
0.0
 11
1266.773000801356
 21
1030.634514533512
 31
0.0
  0
LINE
  5
30DE
330
1F
100
AcDbEntity
  8
PIC06
  6
Continuous
 62
     7
100
AcDbLine
 10
1267.131236753079
 20
1030.992750485234
 30
0.0
 11
1267.446197041955
 21
1031.30771077411
 31
0.0
  0
LINE
  5
30DF
330
1F
100
AcDbEntity
  8
PIC06
  6
Continuous
 62
     7
100
AcDbLine
 10
1266.466750856762
 20
1030.495297519241
 30
0.0
 11
1266.762401857933
 21
1030.790948520413
 31
0.0
  0
LINE
  5
30E0
330
1F
100
AcDbEntity
  8
PIC06
  6
Continuous
 62
     7
100
AcDbLine
 10
1266.964203822779
 20
1030.992750485234
 30
0.0
 11
1267.279164111631
 21
1031.30771077411
 31
0.0
  0
LINE
  5
30E1
330
1F
100
AcDbEntity
  8
PIC06
  6
Continuous
 62
     7
100
AcDbLine
 10
1266.456151913339
 20
1030.651731506142
 30
0.0
 11
1266.751802914511
 21
1030.947382507314
 31
0.0
  0
LINE
  5
30E2
330
1F
100
AcDbEntity
  8
PIC06
  6
Continuous
 62
     7
100
AcDbLine
 10
1266.797170892455
 20
1030.992750485234
 30
0.0
 11
1267.112131181307
 21
1031.30771077411
 31
0.0
  0
LINE
  5
30E3
330
1F
100
AcDbEntity
  8
PIC06
  6
Continuous
 62
     7
100
AcDbLine
 10
1266.445552969916
 20
1030.808165493043
 30
0.0
 11
1266.945098250983
 21
1031.30771077411
 31
0.0
  0
LINE
  5
30E4
330
1F
100
AcDbEntity
  8
PIC06
  6
Continuous
 62
     7
100
AcDbLine
 10
1266.434954026517
 20
1030.964599479944
 30
0.0
 11
1266.778065320683
 21
1031.30771077411
 31
0.0
  0
LINE
  5
30E5
330
1F
100
AcDbEntity
  8
PIC06
  6
Continuous
 62
     7
100
AcDbLine
 10
1266.436372630159
 20
1031.133051013909
 30
0.0
 11
1266.602797334577
 21
1031.299475718328
 31
0.0
  0
LINE
  5
30E6
330
1F
100
AcDbEntity
  8
PIC06
  6
Continuous
 62
     7
100
AcDbLine
 10
1273.911440103062
 20
1025.714171320547
 30
0.0
 11
1274.400686394541
 21
1025.205355177407
 31
0.0
  0
LINE
  5
30E7
330
1F
100
AcDbEntity
  8
PIC06
  6
Continuous
 62
     7
100
AcDbLine
 10
1274.400686394541
 20
1025.205355177407
 30
0.0
 11
1274.400686394541
 21
1024.96913496075
 31
0.0
  0
LINE
  5
30E8
330
1F
100
AcDbEntity
  8
PIC06
  6
Continuous
 62
     7
100
AcDbLine
 10
1274.400686394541
 20
1024.96913496075
 30
0.0
 11
1274.190881926467
 21
1024.96913496075
 31
0.0
  0
LINE
  5
30E9
330
1F
100
AcDbEntity
  8
PIC06
  6
Continuous
 62
     7
100
AcDbLine
 10
1274.190881926467
 20
1024.96913496075
 30
0.0
 11
1273.6801179947
 21
1025.5003294498
 31
0.0
  0
LINE
  5
30EA
330
1F
100
AcDbEntity
  8
PIC06
  6
Continuous
 62
     7
100
AcDbLine
 10
1272.724474543504
 20
1028.603776694215
 30
0.0
 11
1273.038294975737
 21
1028.630548318786
 31
0.0
  0
LINE
  5
30EB
330
1F
100
AcDbEntity
  8
PIC06
  6
Continuous
 62
     7
100
AcDbLine
 10
1273.905360830175
 20
1025.720589224959
 30
0.0
 11
1273.911440103062
 21
1025.714171320547
 31
0.0
  0
LINE
  5
30EC
330
1F
100
AcDbEntity
  8
PIC06
  6
Continuous
 62
     7
100
AcDbLine
 10
1272.724474543504
 20
1028.603776694215
 30
0.0
 11
1273.038294975737
 21
1028.630548318786
 31
0.0
  0
LINE
  5
30ED
330
1F
100
AcDbEntity
  8
PIC06
  6
Continuous
 62
     7
100
AcDbLine
 10
1273.905360830175
 20
1025.720589224959
 30
0.0
 11
1273.911440103062
 21
1025.714171320547
 31
0.0
  0
LINE
  5
30EE
330
1F
100
AcDbEntity
  8
PIC06
  6
Continuous
 62
     7
100
AcDbLine
 10
1273.911440103062
 20
1025.714171320547
 30
0.0
 11
1274.400686394541
 21
1025.205355177407
 31
0.0
  0
LINE
  5
30EF
330
1F
100
AcDbEntity
  8
PIC06
  6
Continuous
 62
     7
100
AcDbLine
 10
1274.400686394541
 20
1025.205355177407
 30
0.0
 11
1274.400686394541
 21
1024.96913496075
 31
0.0
  0
LINE
  5
30F0
330
1F
100
AcDbEntity
  8
PIC06
  6
Continuous
 62
     7
100
AcDbLine
 10
1274.400686394541
 20
1024.96913496075
 30
0.0
 11
1274.190881926467
 21
1024.96913496075
 31
0.0
  0
LINE
  5
30F1
330
1F
100
AcDbEntity
  8
PIC06
  6
Continuous
 62
     7
100
AcDbLine
 10
1274.190881926467
 20
1024.96913496075
 30
0.0
 11
1273.6801179947
 21
1025.5003294498
 31
0.0
  0
LINE
  5
30F2
330
1F
100
AcDbEntity
  8
PIC06
  6
Continuous
 62
     7
100
AcDbLine
 10
1272.724474543504
 20
1028.603776694215
 30
0.0
 11
1273.038294975737
 21
1028.630548318786
 31
0.0
  0
LINE
  5
30F3
330
1F
100
AcDbEntity
  8
PIC06
  6
Continuous
 62
     7
100
AcDbLine
 10
1273.905360830175
 20
1025.720589224959
 30
0.0
 11
1273.911440103062
 21
1025.714171320547
 31
0.0
  0
LINE
  5
30F4
330
1F
100
AcDbEntity
  8
PIC06
  6
Continuous
 62
     7
100
AcDbLine
 10
1273.911440103062
 20
1025.714171320547
 30
0.0
 11
1274.400686394541
 21
1025.205355177407
 31
0.0
  0
LINE
  5
30F5
330
1F
100
AcDbEntity
  8
PIC06
  6
Continuous
 62
     7
100
AcDbLine
 10
1274.400686394541
 20
1025.205355177407
 30
0.0
 11
1274.400686394541
 21
1024.96913496075
 31
0.0
  0
LINE
  5
30F6
330
1F
100
AcDbEntity
  8
PIC06
  6
Continuous
 62
     7
100
AcDbLine
 10
1274.400686394541
 20
1024.96913496075
 30
0.0
 11
1274.190881926467
 21
1024.96913496075
 31
0.0
  0
LINE
  5
30F7
330
1F
100
AcDbEntity
  8
PIC06
  6
Continuous
 62
     7
100
AcDbLine
 10
1274.190881926467
 20
1024.96913496075
 30
0.0
 11
1273.6801179947
 21
1025.5003294498
 31
0.0
  0
LINE
  5
30F8
330
1F
100
AcDbEntity
  8
PIC06
  6
Continuous
 62
     7
100
AcDbLine
 10
1271.982939959278
 20
1030.992750485234
 30
0.0
 11
1272.61090827025
 21
1030.992750485234
 31
0.0
  0
LINE
  5
30F9
330
1F
100
AcDbEntity
  8
PIC06
  6
Continuous
 62
     7
100
AcDbLine
 10
1274.284759122255
 20
1024.1423642025
 30
0.0
 11
1274.400686394541
 21
1024.1423642025
 31
0.0
  0
LINE
  5
30FA
330
1F
100
AcDbEntity
  8
PIC06
  6
Continuous
 62
     7
100
AcDbLine
 10
1274.400686394541
 20
1024.1423642025
 30
0.0
 11
1274.400686394541
 21
1023.827403913648
 31
0.0
  0
LINE
  5
30FB
330
1F
100
AcDbEntity
  8
PIC06
  6
Continuous
 62
     7
100
AcDbLine
 10
1274.400686394541
 20
1023.827403913648
 30
0.0
 11
1274.219665268864
 21
1023.827403913648
 31
0.0
  0
LINE
  5
30FC
330
1F
100
AcDbEntity
  8
PIC06
  6
Continuous
 62
     7
100
AcDbLine
 10
1271.55166282197
 20
1030.914010413015
 30
0.0
 11
1271.054233325381
 21
1030.914010413015
 31
0.0
  0
LINE
  5
30FD
330
1F
100
AcDbEntity
  8
PIC06
  6
Continuous
 62
     7
100
AcDbLine
 10
1271.054233325381
 20
1030.914010413015
 30
0.0
 11
1271.054233325381
 21
1031.30771077411
 31
0.0
  0
LINE
  5
30FE
330
1F
100
AcDbEntity
  8
PIC06
  6
Continuous
 62
     7
100
AcDbLine
 10
1271.054233325381
 20
1031.30771077411
 30
0.0
 11
1272.688968338658
 21
1031.30771077411
 31
0.0
  0
LINE
  5
30FF
330
1F
100
AcDbEntity
  8
PIC06
  6
Continuous
 62
     7
100
AcDbLine
 10
1272.684969984604
 20
1029.115583663255
 30
0.0
 11
1272.998831448745
 21
1029.142358788185
 31
0.0
  0
LINE
  5
3100
330
1F
100
AcDbEntity
  8
PIC06
  6
Continuous
 62
     7
100
AcDbLine
 10
1271.982939959278
 20
1030.992750485234
 30
0.0
 11
1272.61090827025
 21
1030.992750485234
 31
0.0
  0
LINE
  5
3101
330
1F
100
AcDbEntity
  8
PIC06
  6
Continuous
 62
     7
100
AcDbLine
 10
1274.284759122255
 20
1024.1423642025
 30
0.0
 11
1274.400686394541
 21
1024.1423642025
 31
0.0
  0
LINE
  5
3102
330
1F
100
AcDbEntity
  8
PIC06
  6
Continuous
 62
     7
100
AcDbLine
 10
1274.400686394541
 20
1024.1423642025
 30
0.0
 11
1274.400686394541
 21
1023.827403913648
 31
0.0
  0
LINE
  5
3103
330
1F
100
AcDbEntity
  8
PIC06
  6
Continuous
 62
     7
100
AcDbLine
 10
1274.400686394541
 20
1023.827403913648
 30
0.0
 11
1274.219665268864
 21
1023.827403913648
 31
0.0
  0
LINE
  5
3104
330
1F
100
AcDbEntity
  8
PIC06
  6
Continuous
 62
     7
100
AcDbLine
 10
1271.55166282197
 20
1030.914010413015
 30
0.0
 11
1271.054233325381
 21
1030.914010413015
 31
0.0
  0
LINE
  5
3105
330
1F
100
AcDbEntity
  8
PIC06
  6
Continuous
 62
     7
100
AcDbLine
 10
1271.054233325381
 20
1030.914010413015
 30
0.0
 11
1271.054233325381
 21
1031.30771077411
 31
0.0
  0
LINE
  5
3106
330
1F
100
AcDbEntity
  8
PIC06
  6
Continuous
 62
     7
100
AcDbLine
 10
1271.054233325381
 20
1031.30771077411
 30
0.0
 11
1272.688968338658
 21
1031.30771077411
 31
0.0
  0
LINE
  5
3107
330
1F
100
AcDbEntity
  8
PIC06
  6
Continuous
 62
     7
100
AcDbLine
 10
1272.684969984604
 20
1029.115583663255
 30
0.0
 11
1272.998831448745
 21
1029.142358788185
 31
0.0
  0
LINE
  5
3108
330
1F
100
AcDbEntity
  8
PIC06
  6
Continuous
 62
     7
100
AcDbLine
 10
1271.054233325381
 20
1031.30771077411
 30
0.0
 11
1272.688968338658
 21
1031.30771077411
 31
0.0
  0
LINE
  5
3109
330
1F
100
AcDbEntity
  8
PIC06
  6
Continuous
 62
     7
100
AcDbLine
 10
1272.684969984604
 20
1029.115583663255
 30
0.0
 11
1272.998831448745
 21
1029.142358788185
 31
0.0
  0
LINE
  5
310A
330
1F
100
AcDbEntity
  8
PIC06
  6
Continuous
 62
     7
100
AcDbLine
 10
1271.982939959278
 20
1030.992750485234
 30
0.0
 11
1272.61090827025
 21
1030.992750485234
 31
0.0
  0
LINE
  5
310B
330
1F
100
AcDbEntity
  8
PIC06
  6
Continuous
 62
     7
100
AcDbLine
 10
1274.284759122255
 20
1024.1423642025
 30
0.0
 11
1274.400686394541
 21
1024.1423642025
 31
0.0
  0
LINE
  5
310C
330
1F
100
AcDbEntity
  8
PIC06
  6
Continuous
 62
     7
100
AcDbLine
 10
1274.400686394541
 20
1024.1423642025
 30
0.0
 11
1274.400686394541
 21
1023.827403913648
 31
0.0
  0
LINE
  5
310D
330
1F
100
AcDbEntity
  8
PIC06
  6
Continuous
 62
     7
100
AcDbLine
 10
1274.400686394541
 20
1023.827403913648
 30
0.0
 11
1274.219665268864
 21
1023.827403913648
 31
0.0
  0
LINE
  5
310E
330
1F
100
AcDbEntity
  8
PIC06
  6
Continuous
 62
     7
100
AcDbLine
 10
1271.55166282197
 20
1030.914010413015
 30
0.0
 11
1271.054233325381
 21
1030.914010413015
 31
0.0
  0
LINE
  5
310F
330
1F
100
AcDbEntity
  8
PIC06
  6
Continuous
 62
     7
100
AcDbLine
 10
1271.054233325381
 20
1030.914010413015
 30
0.0
 11
1271.054233325381
 21
1031.30771077411
 31
0.0
  0
LINE
  5
3110
330
1F
100
AcDbEntity
  8
PIC06
  6
Continuous
 62
     7
100
AcDbLine
 10
1271.55166282197
 20
1030.914010413015
 30
0.0
 11
1271.054233325381
 21
1030.914010413015
 31
0.0
  0
LINE
  5
3111
330
1F
100
AcDbEntity
  8
PIC06
  6
Continuous
 62
     7
100
AcDbLine
 10
1271.054233325381
 20
1030.914010413015
 30
0.0
 11
1271.054233325381
 21
1031.30771077411
 31
0.0
  0
LINE
  5
3112
330
1F
100
AcDbEntity
  8
PIC06
  6
Continuous
 62
     7
100
AcDbLine
 10
1271.054233325381
 20
1031.30771077411
 30
0.0
 11
1272.688968338658
 21
1031.30771077411
 31
0.0
  0
LINE
  5
3113
330
1F
100
AcDbEntity
  8
PIC06
  6
Continuous
 62
     7
100
AcDbLine
 10
1272.684969984604
 20
1029.115583663255
 30
0.0
 11
1272.998831448745
 21
1029.142358788185
 31
0.0
  0
LINE
  5
3114
330
1F
100
AcDbEntity
  8
PIC06
  6
Continuous
 62
     7
100
AcDbLine
 10
1271.982939959278
 20
1030.992750485234
 30
0.0
 11
1272.61090827025
 21
1030.992750485234
 31
0.0
  0
LINE
  5
3115
330
1F
100
AcDbEntity
  8
PIC06
  6
Continuous
 62
     7
100
AcDbLine
 10
1274.284759122255
 20
1024.1423642025
 30
0.0
 11
1274.400686394541
 21
1024.1423642025
 31
0.0
  0
LINE
  5
3116
330
1F
100
AcDbEntity
  8
PIC06
  6
Continuous
 62
     7
100
AcDbLine
 10
1274.400686394541
 20
1024.1423642025
 30
0.0
 11
1274.400686394541
 21
1023.827403913648
 31
0.0
  0
LINE
  5
3117
330
1F
100
AcDbEntity
  8
PIC06
  6
Continuous
 62
     7
100
AcDbLine
 10
1274.400686394541
 20
1023.827403913648
 30
0.0
 11
1274.219665268864
 21
1023.827403913648
 31
0.0
  0
LINE
  5
3118
330
1F
100
AcDbEntity
  8
PIC06
  6
Continuous
 62
     7
100
AcDbLine
 10
1274.284759122255
 20
1024.1423642025
 30
0.0
 11
1274.400686394541
 21
1024.1423642025
 31
0.0
  0
LINE
  5
3119
330
1F
100
AcDbEntity
  8
PIC06
  6
Continuous
 62
     7
100
AcDbLine
 10
1274.400686394541
 20
1024.1423642025
 30
0.0
 11
1274.400686394541
 21
1023.827403913648
 31
0.0
  0
LINE
  5
311A
330
1F
100
AcDbEntity
  8
PIC06
  6
Continuous
 62
     7
100
AcDbLine
 10
1274.400686394541
 20
1023.827403913648
 30
0.0
 11
1274.219665268864
 21
1023.827403913648
 31
0.0
  0
LINE
  5
311B
330
1F
100
AcDbEntity
  8
PIC06
  6
Continuous
 62
     7
100
AcDbLine
 10
1271.55166282197
 20
1030.914010413015
 30
0.0
 11
1271.054233325381
 21
1030.914010413015
 31
0.0
  0
LINE
  5
311C
330
1F
100
AcDbEntity
  8
PIC06
  6
Continuous
 62
     7
100
AcDbLine
 10
1271.054233325381
 20
1030.914010413015
 30
0.0
 11
1271.054233325381
 21
1031.30771077411
 31
0.0
  0
LINE
  5
311D
330
1F
100
AcDbEntity
  8
PIC06
  6
Continuous
 62
     7
100
AcDbLine
 10
1271.054233325381
 20
1031.30771077411
 30
0.0
 11
1272.688968338658
 21
1031.30771077411
 31
0.0
  0
LINE
  5
311E
330
1F
100
AcDbEntity
  8
PIC06
  6
Continuous
 62
     7
100
AcDbLine
 10
1272.684969984604
 20
1029.115583663255
 30
0.0
 11
1272.998831448745
 21
1029.142358788185
 31
0.0
  0
LINE
  5
311F
330
1F
100
AcDbEntity
  8
PIC06
  6
Continuous
 62
     7
100
AcDbLine
 10
1271.982939959278
 20
1030.992750485234
 30
0.0
 11
1272.61090827025
 21
1030.992750485234
 31
0.0
  0
LINE
  5
3120
330
1F
100
AcDbEntity
  8
PIC06
  6
Continuous
 62
     7
100
AcDbLine
 10
1274.284759122255
 20
1024.1423642025
 30
0.0
 11
1274.400686394541
 21
1024.1423642025
 31
0.0
  0
LINE
  5
3121
330
1F
100
AcDbEntity
  8
PIC06
  6
Continuous
 62
     7
100
AcDbLine
 10
1274.400686394541
 20
1024.1423642025
 30
0.0
 11
1274.400686394541
 21
1023.827403913648
 31
0.0
  0
LINE
  5
3122
330
1F
100
AcDbEntity
  8
PIC06
  6
Continuous
 62
     7
100
AcDbLine
 10
1274.400686394541
 20
1023.827403913648
 30
0.0
 11
1274.219665268864
 21
1023.827403913648
 31
0.0
  0
LINE
  5
3123
330
1F
100
AcDbEntity
  8
PIC06
  6
Continuous
 62
     7
100
AcDbLine
 10
1271.55166282197
 20
1030.914010413015
 30
0.0
 11
1271.054233325381
 21
1030.914010413015
 31
0.0
  0
LINE
  5
3124
330
1F
100
AcDbEntity
  8
PIC06
  6
Continuous
 62
     7
100
AcDbLine
 10
1271.054233325381
 20
1030.914010413015
 30
0.0
 11
1271.054233325381
 21
1031.30771077411
 31
0.0
  0
LINE
  5
3125
330
1F
100
AcDbEntity
  8
PIC06
  6
Continuous
 62
     7
100
AcDbLine
 10
1271.054233325381
 20
1031.30771077411
 30
0.0
 11
1272.688968338658
 21
1031.30771077411
 31
0.0
  0
LINE
  5
3126
330
1F
100
AcDbEntity
  8
PIC06
  6
Continuous
 62
     7
100
AcDbLine
 10
1272.684969984604
 20
1029.115583663255
 30
0.0
 11
1272.998831448745
 21
1029.142358788185
 31
0.0
  0
LINE
  5
3127
330
1F
100
AcDbEntity
  8
PIC06
  6
Continuous
 62
     7
100
AcDbLine
 10
1271.982939959278
 20
1030.992750485234
 30
0.0
 11
1272.61090827025
 21
1030.992750485234
 31
0.0
  0
LINE
  5
3128
330
1F
100
AcDbEntity
  8
PIC06
  6
Continuous
 62
     7
100
AcDbLine
 10
1271.55166282197
 20
1030.914010413015
 30
0.0
 11
1271.054233325381
 21
1030.914010413015
 31
0.0
  0
LINE
  5
3129
330
1F
100
AcDbEntity
  8
PIC06
  6
Continuous
 62
     7
100
AcDbLine
 10
1271.054233325381
 20
1030.914010413015
 30
0.0
 11
1271.054233325381
 21
1031.30771077411
 31
0.0
  0
LINE
  5
312A
330
1F
100
AcDbEntity
  8
PIC06
  6
Continuous
 62
     7
100
AcDbLine
 10
1271.054233325381
 20
1031.30771077411
 30
0.0
 11
1272.688968338658
 21
1031.30771077411
 31
0.0
  0
LINE
  5
312B
330
1F
100
AcDbEntity
  8
PIC06
  6
Continuous
 62
     7
100
AcDbLine
 10
1272.684969984604
 20
1029.115583663255
 30
0.0
 11
1272.998831448745
 21
1029.142358788185
 31
0.0
  0
LINE
  5
312C
330
1F
100
AcDbEntity
  8
PIC06
  6
Continuous
 62
     7
100
AcDbLine
 10
1271.982939959278
 20
1030.992750485234
 30
0.0
 11
1272.61090827025
 21
1030.992750485234
 31
0.0
  0
LINE
  5
312D
330
1F
100
AcDbEntity
  8
PIC06
  6
Continuous
 62
     7
100
AcDbLine
 10
1274.284759122255
 20
1024.1423642025
 30
0.0
 11
1274.400686394541
 21
1024.1423642025
 31
0.0
  0
LINE
  5
312E
330
1F
100
AcDbEntity
  8
PIC06
  6
Continuous
 62
     7
100
AcDbLine
 10
1274.400686394541
 20
1024.1423642025
 30
0.0
 11
1274.400686394541
 21
1023.827403913648
 31
0.0
  0
LINE
  5
312F
330
1F
100
AcDbEntity
  8
PIC06
  6
Continuous
 62
     7
100
AcDbLine
 10
1274.400686394541
 20
1023.827403913648
 30
0.0
 11
1274.219665268864
 21
1023.827403913648
 31
0.0
  0
LINE
  5
3130
330
1F
100
AcDbEntity
  8
PIC06
  6
Continuous
 62
     7
100
AcDbLine
 10
1274.284759122255
 20
1024.1423642025
 30
0.0
 11
1274.400686394541
 21
1024.1423642025
 31
0.0
  0
LINE
  5
3131
330
1F
100
AcDbEntity
  8
PIC06
  6
Continuous
 62
     7
100
AcDbLine
 10
1274.400686394541
 20
1024.1423642025
 30
0.0
 11
1274.400686394541
 21
1023.827403913648
 31
0.0
  0
LINE
  5
3132
330
1F
100
AcDbEntity
  8
PIC06
  6
Continuous
 62
     7
100
AcDbLine
 10
1274.400686394541
 20
1023.827403913648
 30
0.0
 11
1274.219665268864
 21
1023.827403913648
 31
0.0
  0
LINE
  5
3133
330
1F
100
AcDbEntity
  8
PIC06
  6
Continuous
 62
     7
100
AcDbLine
 10
1271.55166282197
 20
1030.914010413015
 30
0.0
 11
1271.054233325381
 21
1030.914010413015
 31
0.0
  0
LINE
  5
3134
330
1F
100
AcDbEntity
  8
PIC06
  6
Continuous
 62
     7
100
AcDbLine
 10
1271.054233325381
 20
1030.914010413015
 30
0.0
 11
1271.054233325381
 21
1031.30771077411
 31
0.0
  0
LINE
  5
3135
330
1F
100
AcDbEntity
  8
PIC06
  6
Continuous
 62
     7
100
AcDbLine
 10
1271.054233325381
 20
1031.30771077411
 30
0.0
 11
1272.688968338658
 21
1031.30771077411
 31
0.0
  0
LINE
  5
3136
330
1F
100
AcDbEntity
  8
PIC06
  6
Continuous
 62
     7
100
AcDbLine
 10
1272.684969984604
 20
1029.115583663255
 30
0.0
 11
1272.998831448745
 21
1029.142358788185
 31
0.0
  0
LINE
  5
3137
330
1F
100
AcDbEntity
  8
PIC06
  6
Continuous
 62
     7
100
AcDbLine
 10
1271.982939959278
 20
1030.992750485234
 30
0.0
 11
1272.61090827025
 21
1030.992750485234
 31
0.0
  0
LINE
  5
3138
330
1F
100
AcDbEntity
  8
PIC06
  6
Continuous
 62
     7
100
AcDbLine
 10
1274.330722188862
 20
1023.827403913648
 30
0.0
 11
1274.400686394541
 21
1023.897368119303
 31
0.0
  0
LINE
  5
3139
330
1F
100
AcDbEntity
  8
PIC06
  6
Continuous
 62
     7
100
AcDbLine
 10
1274.169145681088
 20
1023.83286033615
 30
0.0
 11
1274.400686394541
 21
1024.064401049627
 31
0.0
  0
LINE
  5
313A
330
1F
100
AcDbEntity
  8
PIC06
  6
Continuous
 62
     7
100
AcDbLine
 10
1274.059375222781
 20
1023.89012280819
 30
0.0
 11
1274.31161661709
 21
1024.1423642025
 31
0.0
  0
LINE
  5
313B
330
1F
100
AcDbEntity
  8
PIC06
  6
Continuous
 62
     7
100
AcDbLine
 10
1273.994592091581
 20
1023.992372607291
 30
0.0
 11
1274.248871102809
 21
1024.246651618518
 31
0.0
  0
LINE
  5
313C
330
1F
100
AcDbEntity
  8
PIC06
  6
Continuous
 62
     7
100
AcDbLine
 10
1273.959020492859
 20
1024.123833938893
 30
0.0
 11
1274.188524261451
 21
1024.353337707508
 31
0.0
  0
LINE
  5
313D
330
1F
100
AcDbEntity
  8
PIC06
  6
Continuous
 62
     7
100
AcDbLine
 10
1273.889005217035
 20
1024.220851593392
 30
0.0
 11
1274.111750192769
 21
1024.443596569126
 31
0.0
  0
LINE
  5
313E
330
1F
100
AcDbEntity
  8
PIC06
  6
Continuous
 62
     7
100
AcDbLine
 10
1273.790810952343
 20
1024.289690259
 30
0.0
 11
1274.01865198633
 21
1024.517531292987
 31
0.0
  0
LINE
  5
313F
330
1F
100
AcDbEntity
  8
PIC06
  6
Continuous
 62
     7
100
AcDbLine
 10
1273.690387906136
 20
1024.35630014314
 30
0.0
 11
1273.916965181835
 21
1024.58287741884
 31
0.0
  0
LINE
  5
3140
330
1F
100
AcDbEntity
  8
PIC06
  6
Continuous
 62
     7
100
AcDbLine
 10
1274.30322272377
 20
1024.96913496075
 30
0.0
 11
1274.400686394541
 21
1025.066598631522
 31
0.0
  0
LINE
  5
3141
330
1F
100
AcDbEntity
  8
PIC06
  6
Continuous
 62
     7
100
AcDbLine
 10
1273.59268506476
 20
1024.425630232065
 30
0.0
 11
1273.81811425088
 21
1024.651059418185
 31
0.0
  0
LINE
  5
3142
330
1F
100
AcDbEntity
  8
PIC06
  6
Continuous
 62
     7
100
AcDbLine
 10
1274.164072057331
 20
1024.997017224659
 30
0.0
 11
1274.386825421762
 21
1025.21977058909
 31
0.0
  0
LINE
  5
3143
330
1F
100
AcDbEntity
  8
PIC06
  6
Continuous
 62
     7
100
AcDbLine
 10
1273.497570745707
 20
1024.497548843335
 30
0.0
 11
1273.722084630709
 21
1024.722062728337
 31
0.0
  0
LINE
  5
3144
330
1F
100
AcDbEntity
  8
PIC06
  6
Continuous
 62
     7
100
AcDbLine
 10
1274.082193169941
 20
1025.08217126757
 30
0.0
 11
1274.304946534372
 21
1025.304924632001
 31
0.0
  0
LINE
  5
3145
330
1F
100
AcDbEntity
  8
PIC06
  6
Continuous
 62
     7
100
AcDbLine
 10
1273.405013908817
 20
1024.57202493677
 30
0.0
 11
1273.628819298001
 21
1024.795830325953
 31
0.0
  0
LINE
  5
3146
330
1F
100
AcDbEntity
  8
PIC06
  6
Continuous
 62
     7
100
AcDbLine
 10
1274.000314282528
 20
1025.16732531048
 30
0.0
 11
1274.223067646959
 21
1025.390078674911
 31
0.0
  0
LINE
  5
3147
330
1F
100
AcDbEntity
  8
PIC06
  6
Continuous
 62
     7
100
AcDbLine
 10
1273.314990400207
 20
1024.649034358482
 30
0.0
 11
1273.538290383273
 21
1024.872334341549
 31
0.0
  0
LINE
  5
3148
330
1F
100
AcDbEntity
  8
PIC06
  6
Continuous
 62
     7
100
AcDbLine
 10
1273.918435395115
 20
1025.252479353367
 30
0.0
 11
1274.141188759546
 21
1025.475232717798
 31
0.0
  0
LINE
  5
3149
330
1F
100
AcDbEntity
  8
PIC06
  6
Continuous
 62
     7
100
AcDbLine
 10
1273.227482710684
 20
1024.72855959926
 30
0.0
 11
1273.450477872529
 21
1024.951554761105
 31
0.0
  0
LINE
  5
314A
330
1F
100
AcDbEntity
  8
PIC06
  6
Continuous
 62
     7
100
AcDbLine
 10
1273.836556507702
 20
1025.337633396278
 30
0.0
 11
1274.059309872133
 21
1025.560386760709
 31
0.0
  0
LINE
  5
314B
330
1F
100
AcDbEntity
  8
PIC06
  6
Continuous
 62
     7
100
AcDbLine
 10
1273.142479800954
 20
1024.810589619877
 30
0.0
 11
1273.365369397313
 21
1025.033479216212
 31
0.0
  0
LINE
  5
314C
330
1F
100
AcDbEntity
  8
PIC06
  6
Continuous
 62
     7
100
AcDbLine
 10
1273.754677620289
 20
1025.422787439188
 30
0.0
 11
1273.97743098472
 21
1025.64554080362
 31
0.0
  0
LINE
  5
314D
330
1F
100
AcDbEntity
  8
PIC06
  6
Continuous
 62
     7
100
AcDbLine
 10
1273.059976990359
 20
1024.895119739583
 30
0.0
 11
1273.282960105025
 21
1025.118102854249
 31
0.0
  0
LINE
  5
314E
330
1F
100
AcDbEntity
  8
PIC06
  6
Continuous
 62
     7
100
AcDbLine
 10
1273.672994940911
 20
1025.508137690134
 30
0.0
 11
1273.895891556885
 21
1025.731034306109
 31
0.0
  0
LINE
  5
314F
330
1F
100
AcDbEntity
  8
PIC06
  6
Continuous
 62
     7
100
AcDbLine
 10
1272.980058521947
 20
1024.982234201494
 30
0.0
 11
1273.203252606652
 21
1025.205428286199
 31
0.0
  0
LINE
  5
3150
330
1F
100
AcDbEntity
  8
PIC06
  6
Continuous
 62
     7
100
AcDbLine
 10
1273.594016680792
 20
1025.59619236034
 30
0.0
 11
1273.81745468115
 21
1025.819630360697
 31
0.0
  0
LINE
  5
3151
330
1F
100
AcDbEntity
  8
PIC06
  6
Continuous
 62
     7
100
AcDbLine
 10
1272.902690159396
 20
1025.071898769243
 30
0.0
 11
1273.126257001065
 21
1025.295465610936
 31
0.0
  0
LINE
  5
3152
330
1F
100
AcDbEntity
  8
PIC06
  6
Continuous
 62
     7
100
AcDbLine
 10
1273.518383725608
 20
1025.687592335456
 30
0.0
 11
1273.742661300741
 21
1025.911869910612
 31
0.0
  0
LINE
  5
3153
330
1F
100
AcDbEntity
  8
PIC06
  6
Continuous
 62
     7
100
AcDbLine
 10
1272.827852934839
 20
1025.16409447501
 30
0.0
 11
1273.052227202496
 21
1025.388468742667
 31
0.0
  0
LINE
  5
3154
330
1F
100
AcDbEntity
  8
PIC06
  6
Continuous
 62
     7
100
AcDbLine
 10
1273.445951375176
 20
1025.782192915347
 30
0.0
 11
1273.671384093686
 21
1026.007625633857
 31
0.0
  0
LINE
  5
3155
330
1F
100
AcDbEntity
  8
PIC06
  6
Continuous
 62
     7
100
AcDbLine
 10
1272.755570337191
 20
1025.258844807686
 30
0.0
 11
1272.98098180011
 21
1025.484256270605
 31
0.0
  0
LINE
  5
3156
330
1F
100
AcDbEntity
  8
PIC06
  6
Continuous
 62
     7
100
AcDbLine
 10
1273.376761605179
 20
1025.880036075674
 30
0.0
 11
1273.604051990056
 21
1026.107326460551
 31
0.0
  0
LINE
  5
3157
330
1F
100
AcDbEntity
  8
PIC06
  6
Continuous
 62
     7
100
AcDbLine
 10
1272.685872720523
 20
1025.356180121341
 30
0.0
 11
1272.912541193452
 21
1025.582848594271
 31
0.0
  0
LINE
  5
3158
330
1F
100
AcDbEntity
  8
PIC06
  6
Continuous
 62
     7
100
AcDbLine
 10
1273.310921858662
 20
1025.981229259457
 30
0.0
 11
1273.54064269
 21
1026.210950090795
 31
0.0
  0
LINE
  5
3159
330
1F
100
AcDbEntity
  8
PIC06
  6
Continuous
 62
     7
100
AcDbLine
 10
1272.618797611751
 20
1025.45613794287
 30
0.0
 11
1272.846951181025
 21
1025.684291512144
 31
0.0
  0
LINE
  5
315A
330
1F
100
AcDbEntity
  8
PIC06
  6
Continuous
 62
     7
100
AcDbLine
 10
1273.248899591078
 20
1026.08623992222
 30
0.0
 11
1273.48100099998
 21
1026.318341331099
 31
0.0
  0
LINE
  5
315B
330
1F
100
AcDbEntity
  8
PIC06
  6
Continuous
 62
     7
100
AcDbLine
 10
1272.554390095463
 20
1025.55876335693
 30
0.0
 11
1272.784266711845
 21
1025.788639973311
 31
0.0
  0
LINE
  5
315C
330
1F
100
AcDbEntity
  8
PIC06
  6
Continuous
 62
     7
100
AcDbLine
 10
1273.190364387962
 20
1026.194737649405
 30
0.0
 11
1273.425327185151
 21
1026.429700446593
 31
0.0
  0
LINE
  5
315D
330
1F
100
AcDbEntity
  8
PIC06
  6
Continuous
 62
     7
100
AcDbLine
 10
1272.492703283652
 20
1025.664109475418
 30
0.0
 11
1272.724552507894
 21
1025.895958699661
 31
0.0
  0
LINE
  5
315E
330
1F
100
AcDbEntity
  8
PIC06
  6
Continuous
 62
     7
100
AcDbLine
 10
1273.135421406269
 20
1026.306827598058
 30
0.0
 11
1273.374407363044
 21
1026.545813554833
 31
0.0
  0
LINE
  5
315F
330
1F
100
AcDbEntity
  8
PIC06
  6
Continuous
 62
     7
100
AcDbLine
 10
1272.433798879679
 20
1025.772238001769
 30
0.0
 11
1272.667883812079
 21
1026.006322934169
 31
0.0
  0
LINE
  5
3160
330
1F
100
AcDbEntity
  8
PIC06
  6
Continuous
 62
     7
100
AcDbLine
 10
1273.08419349093
 20
1026.42263261302
 30
0.0
 11
1273.327742745591
 21
1026.666181867681
 31
0.0
  0
LINE
  5
3161
330
1F
100
AcDbEntity
  8
PIC06
  6
Continuous
 62
     7
100
AcDbLine
 10
1272.377747848656
 20
1025.883219901047
 30
0.0
 11
1272.614596255963
 21
1026.120068308377
 31
0.0
  0
LINE
  5
3162
330
1F
100
AcDbEntity
  8
PIC06
  6
Continuous
 62
     7
100
AcDbLine
 10
1273.037405164326
 20
1026.542877216739
 30
0.0
 11
1273.285823193614
 21
1026.791295246004
 31
0.0
  0
LINE
  5
3163
330
1F
100
AcDbEntity
  8
PIC06
  6
Continuous
 62
     7
100
AcDbLine
 10
1272.324631208249
 20
1025.997136190964
 30
0.0
 11
1272.564754310056
 21
1026.237259292793
 31
0.0
  0
LINE
  5
3164
330
1F
100
AcDbEntity
  8
PIC06
  6
Continuous
 62
     7
100
AcDbLine
 10
1272.994854959129
 20
1026.667359941866
 30
0.0
 11
1273.249428980225
 21
1026.921933962962
 31
0.0
  0
LINE
  5
3165
330
1F
100
AcDbEntity
  8
PIC06
  6
Continuous
 62
     7
100
AcDbLine
 10
1272.274540957711
 20
1026.114078870772
 30
0.0
 11
1272.518310618653
 21
1026.357848531691
 31
0.0
  0
LINE
  5
3166
330
1F
100
AcDbEntity
  8
PIC06
  6
Continuous
 62
     7
100
AcDbLine
 10
1272.956615556061
 20
1026.796153469123
 30
0.0
 11
1273.218140750202
 21
1027.05767866324
 31
0.0
  0
LINE
  5
3167
330
1F
100
AcDbEntity
  8
PIC06
  6
Continuous
 62
     7
100
AcDbLine
 10
1272.227861108232
 20
1026.234431951594
 30
0.0
 11
1272.475401864902
 21
1026.481972708263
 31
0.0
  0
LINE
  5
3168
330
1F
100
AcDbEntity
  8
PIC06
  6
Continuous
 62
     7
100
AcDbLine
 10
1272.923561057613
 20
1026.930131900975
 30
0.0
 11
1273.193886551008
 21
1027.200457394369
 31
0.0
  0
LINE
  5
3169
330
1F
100
AcDbEntity
  8
PIC06
  6
Continuous
 62
     7
100
AcDbLine
 10
1272.184571381705
 20
1026.358175155366
 30
0.0
 11
1272.43618290384
 21
1026.609786677525
 31
0.0
  0
LINE
  5
316A
330
1F
100
AcDbEntity
  8
PIC06
  6
Continuous
 62
     7
100
AcDbLine
 10
1272.895836426426
 20
1027.069440200087
 30
0.0
 11
1273.1745056263
 21
1027.348109399985
 31
0.0
  0
LINE
  5
316B
330
1F
100
AcDbEntity
  8
PIC06
  6
Continuous
 62
     7
100
AcDbLine
 10
1272.144723438128
 20
1026.485360142137
 30
0.0
 11
1272.401523269527
 21
1026.742159973536
 31
0.0
  0
LINE
  5
316C
330
1F
100
AcDbEntity
  8
PIC06
  6
Continuous
 62
     7
100
AcDbLine
 10
1272.873838227766
 20
1027.214474931774
 30
0.0
 11
1273.155895736338
 21
1027.496532440323
 31
0.0
  0
LINE
  5
316D
330
1F
100
AcDbEntity
  8
PIC06
  6
Continuous
 62
     7
100
AcDbLine
 10
1272.108475633397
 20
1026.616145267706
 30
0.0
 11
1272.3710567622
 21
1026.878726396509
 31
0.0
  0
LINE
  5
316E
330
1F
100
AcDbEntity
  8
PIC06
  6
Continuous
 62
     7
100
AcDbLine
 10
1272.855228337969
 20
1027.362897972301
 30
0.0
 11
1273.137875371619
 21
1027.645545005952
 31
0.0
  0
LINE
  5
316F
330
1F
100
AcDbEntity
  8
PIC06
  6
Continuous
 62
     7
100
AcDbLine
 10
1272.076006452935
 20
1026.750709017567
 30
0.0
 11
1272.344996236919
 21
1027.019698801575
 31
0.0
  0
LINE
  5
3170
330
1F
100
AcDbEntity
  8
PIC06
  6
Continuous
 62
     7
100
AcDbLine
 10
1272.836618448172
 20
1027.511321012828
 30
0.0
 11
1273.120885660788
 21
1027.795588225421
 31
0.0
  0
LINE
  5
3171
330
1F
100
AcDbEntity
  8
PIC06
  6
Continuous
 62
     7
100
AcDbLine
 10
1272.047975530604
 20
1026.889711025561
 30
0.0
 11
1272.324396485844
 21
1027.166131980801
 31
0.0
  0
LINE
  5
3172
330
1F
100
AcDbEntity
  8
PIC06
  6
Continuous
 62
     7
100
AcDbLine
 10
1272.819165234577
 20
1027.66090072951
 30
0.0
 11
1273.103982811805
 21
1027.945718306762
 31
0.0
  0
LINE
  5
3173
330
1F
100
AcDbEntity
  8
PIC06
  6
Continuous
 62
     7
100
AcDbLine
 10
1272.024629694123
 20
1027.033398119403
 30
0.0
 11
1272.305734448051
 21
1027.314502873331
 31
0.0
  0
LINE
  5
3174
330
1F
100
AcDbEntity
  8
PIC06
  6
Continuous
 62
     7
100
AcDbLine
 10
1272.802175523864
 20
1027.810943949121
 30
0.0
 11
1273.088516335066
 21
1028.097284760346
 31
0.0
  0
LINE
  5
3175
330
1F
100
AcDbEntity
  8
PIC06
  6
Continuous
 62
     7
100
AcDbLine
 10
1272.00509972856
 20
1027.180901084141
 30
0.0
 11
1272.287113940036
 21
1027.462915295616
 31
0.0
  0
LINE
  5
3176
330
1F
100
AcDbEntity
  8
PIC06
  6
Continuous
 62
     7
100
AcDbLine
 10
1272.78577075142
 20
1027.961572107024
 30
0.0
 11
1273.073049858351
 21
1028.248851213931
 31
0.0
  0
LINE
  5
3177
330
1F
100
AcDbEntity
  8
PIC06
  6
Continuous
 62
     7
100
AcDbLine
 10
1271.986437690814
 20
1027.329271976742
 30
0.0
 11
1272.269933079819
 21
1027.612767365747
 31
0.0
  0
LINE
  5
3178
330
1F
100
AcDbEntity
  8
PIC06
  6
Continuous
 62
     7
100
AcDbLine
 10
1272.770304274776
 20
1028.113138560704
 30
0.0
 11
1273.058879202728
 21
1028.401713488656
 31
0.0
  0
LINE
  5
3179
330
1F
100
AcDbEntity
  8
PIC06
  6
Continuous
 62
     7
100
AcDbLine
 10
1271.968338580942
 20
1027.47820579717
 30
0.0
 11
1272.252752219626
 21
1027.762619435853
 31
0.0
  0
LINE
  5
317A
330
1F
100
AcDbEntity
  8
PIC06
  6
Continuous
 62
     7
100
AcDbLine
 10
1272.754963523099
 20
1028.264830739327
 30
0.0
 11
1273.045094194515
 21
1028.554961410743
 31
0.0
  0
LINE
  5
317B
330
1F
100
AcDbEntity
  8
PIC06
  6
Continuous
 62
     7
100
AcDbLine
 10
1271.951157720796
 20
1027.628057867348
 30
0.0
 11
1272.236760967335
 21
1027.913661113887
 31
0.0
  0
LINE
  5
317C
330
1F
100
AcDbEntity
  8
PIC06
  6
Continuous
 62
     7
100
AcDbLine
 10
1272.74117851491
 20
1028.418078661438
 30
0.0
 11
1272.945753582947
 21
1028.622653729475
 31
0.0
  0
LINE
  5
317D
330
1F
100
AcDbEntity
  8
PIC06
  6
Continuous
 62
     7
100
AcDbLine
 10
1271.934236163404
 20
1027.778169240279
 30
0.0
 11
1272.220970434442
 21
1028.064903511293
 31
0.0
  0
LINE
  5
317E
330
1F
100
AcDbEntity
  8
PIC06
  6
Continuous
 62
     7
100
AcDbLine
 10
1272.727393506696
 20
1028.571326583572
 30
0.0
 11
1272.763142316176
 21
1028.607075393051
 31
0.0
  0
LINE
  5
317F
330
1F
100
AcDbEntity
  8
PIC06
  6
Continuous
 62
     7
100
AcDbLine
 10
1271.918445630557
 20
1027.929411637733
 30
0.0
 11
1272.206170385619
 21
1028.217136392794
 31
0.0
  0
LINE
  5
3180
330
1F
100
AcDbEntity
  8
PIC06
  6
Continuous
 62
     7
100
AcDbLine
 10
1271.902670232558
 20
1028.080669170057
 30
0.0
 11
1272.191793201092
 21
1028.369792138615
 31
0.0
  0
LINE
  5
3181
330
1F
100
AcDbEntity
  8
PIC06
  6
Continuous
 62
     7
100
AcDbLine
 10
1272.961144854978
 20
1029.139143792477
 30
0.0
 11
1272.996738708294
 21
1029.174737645793
 31
0.0
  0
LINE
  5
3182
330
1F
100
AcDbEntity
  8
PIC06
  6
Continuous
 62
     7
100
AcDbLine
 10
1271.888293048078
 20
1028.233324915901
 30
0.0
 11
1272.178226312476
 21
1028.523258180299
 31
0.0
  0
LINE
  5
3183
330
1F
100
AcDbEntity
  8
PIC06
  6
Continuous
 62
     7
100
AcDbLine
 10
1272.77853358823
 20
1029.123565456053
 30
0.0
 11
1272.986598285754
 21
1029.331630153577
 31
0.0
  0
LINE
  5
3184
330
1F
100
AcDbEntity
  8
PIC06
  6
Continuous
 62
     7
100
AcDbLine
 10
1271.873915863598
 20
1028.385980661745
 30
0.0
 11
1272.16528637112
 21
1028.677351169266
 31
0.0
  0
LINE
  5
3185
330
1F
100
AcDbEntity
  8
PIC06
  6
Continuous
 62
     7
100
AcDbLine
 10
1272.680002015907
 20
1029.192066814053
 30
0.0
 11
1272.976718888192
 21
1029.488783686315
 31
0.0
  0
LINE
  5
3186
330
1F
100
AcDbEntity
  8
PIC06
  6
Continuous
 62
     7
100
AcDbLine
 10
1271.860764487046
 20
1028.539862215517
 30
0.0
 11
1272.152996728129
 21
1028.832094456576
 31
0.0
  0
LINE
  5
3187
330
1F
100
AcDbEntity
  8
PIC06
  6
Continuous
 62
     7
100
AcDbLine
 10
1272.669814134201
 20
1029.348911862648
 30
0.0
 11
1272.968234140272
 21
1029.647331868719
 31
0.0
  0
LINE
  5
3188
330
1F
100
AcDbEntity
  8
PIC06
  6
Continuous
 62
     7
100
AcDbLine
 10
1271.847824545737
 20
1028.693955204508
 30
0.0
 11
1272.141518838122
 21
1028.987649496916
 31
0.0
  0
LINE
  5
3189
330
1F
100
AcDbEntity
  8
PIC06
  6
Continuous
 62
     7
100
AcDbLine
 10
1272.660414849296
 20
1029.506545508067
 30
0.0
 11
1272.959950340713
 21
1029.806080999484
 31
0.0
  0
LINE
  5
318A
330
1F
100
AcDbEntity
  8
PIC06
  6
Continuous
 62
     7
100
AcDbLine
 10
1271.835927435248
 20
1028.849091024342
 30
0.0
 11
1272.130552792521
 21
1029.143716381615
 31
0.0
  0
LINE
  5
318B
330
1F
100
AcDbEntity
  8
PIC06
  6
Continuous
 62
     7
100
AcDbLine
 10
1272.651819204152
 20
1029.664982793246
 30
0.0
 11
1272.953023425016
 21
1029.96618701411
 31
0.0
  0
LINE
  5
318C
330
1F
100
AcDbEntity
  8
PIC06
  6
Continuous
 62
     7
100
AcDbLine
 10
1271.824449545287
 20
1029.004646064705
 30
0.0
 11
1272.120562717722
 21
1029.30075923714
 31
0.0
  0
LINE
  5
318D
330
1F
100
AcDbEntity
  8
PIC06
  6
Continuous
 62
     7
100
AcDbLine
 10
1272.644004527678
 20
1029.824201047096
 30
0.0
 11
1272.946285519655
 21
1030.126482039049
 31
0.0
  0
LINE
  5
318E
330
1F
100
AcDbEntity
  8
PIC06
  6
Continuous
 62
     7
100
AcDbLine
 10
1271.813852530375
 20
1029.161081980117
 30
0.0
 11
1272.11096903561
 21
1029.458198485352
 31
0.0
  0
LINE
  5
318F
330
1F
100
AcDbEntity
  8
PIC06
  6
Continuous
 62
     7
100
AcDbLine
 10
1272.636905913642
 20
1029.984135363384
 30
0.0
 11
1272.940945933992
 21
1030.288175383711
 31
0.0
  0
LINE
  5
3190
330
1F
100
AcDbEntity
  8
PIC06
  6
Continuous
 62
     7
100
AcDbLine
 10
1271.803862455623
 20
1029.318124835689
 30
0.0
 11
1272.102493540228
 21
1029.61675592027
 31
0.0
  0
LINE
  5
3191
330
1F
100
AcDbEntity
  8
PIC06
  6
Continuous
 62
     7
100
AcDbLine
 10
1272.630669419876
 20
1030.144931799941
 30
0.0
 11
1272.935813634164
 21
1030.450076014205
 31
0.0
  0
LINE
  5
3192
330
1F
100
AcDbEntity
  8
PIC06
  6
Continuous
 62
     7
100
AcDbLine
 10
1271.794613748604
 20
1029.47590905897
 30
0.0
 11
1272.094323561509
 21
1029.775618871874
 31
0.0
  0
LINE
  5
3193
330
1F
100
AcDbEntity
  8
PIC06
  6
Continuous
 62
     7
100
AcDbLine
 10
1272.625095051573
 20
1030.306390361962
 30
0.0
 11
1272.932092063851
 21
1030.613387374216
 31
0.0
  0
LINE
  5
3194
330
1F
100
AcDbEntity
  8
PIC06
  6
Continuous
 62
     7
100
AcDbLine
 10
1271.786138253222
 20
1029.634466493911
 30
0.0
 11
1272.087390457532
 21
1029.935718698222
 31
0.0
  0
LINE
  5
3195
330
1F
100
AcDbEntity
  8
PIC06
  6
Continuous
 62
     7
100
AcDbLine
 10
1272.620494488141
 20
1030.468822728831
 30
0.0
 11
1272.928650121927
 21
1030.776978362617
 31
0.0
  0
LINE
  5
3196
330
1F
100
AcDbEntity
  8
PIC06
  6
Continuous
 62
     7
100
AcDbLine
 10
1271.778288606838
 20
1029.793649777851
 30
0.0
 11
1272.080698267666
 21
1030.096059438655
 31
0.0
  0
LINE
  5
3197
330
1F
100
AcDbEntity
  8
PIC06
  6
Continuous
 62
     7
100
AcDbLine
 10
1272.616472632795
 20
1030.631833803809
 30
0.0
 11
1272.926717476083
 21
1030.942078647096
 31
0.0
  0
LINE
  5
3198
330
1F
100
AcDbEntity
  8
PIC06
  6
Continuous
 62
     7
100
AcDbLine
 10
1271.771355502886
 20
1029.953749604199
 30
0.0
 11
1272.07533646544
 21
1030.257730566753
 31
0.0
  0
LINE
  5
3199
330
1F
100
AcDbEntity
  8
PIC06
  6
Continuous
 62
     7
100
AcDbLine
 10
1272.613662873635
 20
1030.796056974972
 30
0.0
 11
1272.922773004438
 21
1031.105167105752
 31
0.0
  0
LINE
  5
319A
330
1F
100
AcDbEntity
  8
PIC06
  6
Continuous
 62
     7
100
AcDbLine
 10
1271.764958380193
 20
1030.11438541183
 30
0.0
 11
1272.070196293328
 21
1030.419623324965
 31
0.0
  0
LINE
  5
319B
330
1F
100
AcDbEntity
  8
PIC06
  6
Continuous
 62
     7
100
AcDbLine
 10
1272.611355960488
 20
1030.960782992125
 30
0.0
 11
1272.871825855434
 21
1031.221252887094
 31
0.0
  0
LINE
  5
319C
330
1F
100
AcDbEntity
  8
PIC06
  6
Continuous
 62
     7
100
AcDbLine
 10
1271.759596577967
 20
1030.276056539928
 30
0.0
 11
1272.066570695884
 21
1030.583030657845
 31
0.0
  0
LINE
  5
319D
330
1F
100
AcDbEntity
  8
PIC06
  6
Continuous
 62
     7
100
AcDbLine
 10
1272.476290523274
 20
1030.992750485234
 30
0.0
 11
1272.774954788125
 21
1031.291414750085
 31
0.0
  0
LINE
  5
319E
330
1F
100
AcDbEntity
  8
PIC06
  6
Continuous
 62
     7
100
AcDbLine
 10
1271.754748210917
 20
1030.438241103178
 30
0.0
 11
1272.062398474633
 21
1030.745891366917
 31
0.0
  0
LINE
  5
319F
330
1F
100
AcDbEntity
  8
PIC06
  6
Continuous
 62
     7
100
AcDbLine
 10
1272.30925759295
 20
1030.992750485234
 30
0.0
 11
1272.624217881825
 21
1031.30771077411
 31
0.0
  0
LINE
  5
31A0
330
1F
100
AcDbEntity
  8
PIC06
  6
Continuous
 62
     7
100
AcDbLine
 10
1271.751122613474
 20
1030.601648436082
 30
0.0
 11
1272.035156086648
 21
1030.885681909233
 31
0.0
  0
LINE
  5
31A1
330
1F
100
AcDbEntity
  8
PIC06
  6
Continuous
 62
     7
100
AcDbLine
 10
1272.14222466265
 20
1030.992750485234
 30
0.0
 11
1272.457184951502
 21
1031.30771077411
 31
0.0
  0
LINE
  5
31A2
330
1F
100
AcDbEntity
  8
PIC06
  6
Continuous
 62
     7
100
AcDbLine
 10
1271.743443866359
 20
1030.761002619291
 30
0.0
 11
1272.290152021178
 21
1031.30771077411
 31
0.0
  0
LINE
  5
31A3
330
1F
100
AcDbEntity
  8
PIC06
  6
Continuous
 62
     7
100
AcDbLine
 10
1271.680886315577
 20
1030.86547799881
 30
0.0
 11
1272.123119090854
 21
1031.30771077411
 31
0.0
  0
LINE
  5
31A4
330
1F
100
AcDbEntity
  8
PIC06
  6
Continuous
 62
     7
100
AcDbLine
 10
1271.561836622374
 20
1030.91346123593
 30
0.0
 11
1271.956086160554
 21
1031.30771077411
 31
0.0
  0
LINE
  5
31A5
330
1F
100
AcDbEntity
  8
PIC06
  6
Continuous
 62
     7
100
AcDbLine
 10
1271.395352869159
 20
1030.914010413015
 30
0.0
 11
1271.78905323023
 21
1031.30771077411
 31
0.0
  0
LINE
  5
31A6
330
1F
100
AcDbEntity
  8
PIC06
  6
Continuous
 62
     7
100
AcDbLine
 10
1271.228319938836
 20
1030.914010413015
 30
0.0
 11
1271.622020299906
 21
1031.30771077411
 31
0.0
  0
LINE
  5
31A7
330
1F
100
AcDbEntity
  8
PIC06
  6
Continuous
 62
     7
100
AcDbLine
 10
1271.061287008512
 20
1030.914010413015
 30
0.0
 11
1271.454987369583
 21
1031.30771077411
 31
0.0
  0
LINE
  5
31A8
330
1F
100
AcDbEntity
  8
PIC06
  6
Continuous
 62
     7
100
AcDbLine
 10
1271.054233325381
 20
1031.073989660208
 30
0.0
 11
1271.287954439282
 21
1031.30771077411
 31
0.0
  0
LINE
  5
31A9
330
1F
100
AcDbEntity
  8
PIC06
  6
Continuous
 62
     7
100
AcDbLine
 10
1271.054233325381
 20
1031.241022590532
 30
0.0
 11
1271.120921508959
 21
1031.30771077411
 31
0.0
  0
ARC
  5
31AA
330
1F
100
AcDbEntity
  8
PIC06
  6
Continuous
 62
     7
100
AcDbCircle
 10
1288.47547357409
 20
1050.920370886549
 30
0.0
 40
4.330703971849021
100
AcDbArc
 50
0.0
 51
37.71093521039518
  0
ARC
  5
31AB
330
1F
100
AcDbEntity
  8
PIC06
  6
Continuous
 62
     7
100
AcDbCircle
 10
1270.758957325623
 20
1050.920370886549
 30
0.0
 40
4.330703971849021
100
AcDbArc
 50
142.2890647896048
 51
180.0
  0
ARC
  5
31AC
330
1F
100
AcDbEntity
  8
PIC06
  6
Continuous
 62
     7
100
AcDbCircle
 10
1279.617215449844
 20
1036.747157887766
 30
0.0
 40
21.65351985924511
100
AcDbArc
 50
69.42027440219813
 51
110.5797255978018
  0
ARC
  5
31AD
330
1F
100
AcDbEntity
  8
PIC06
  6
Continuous
 62
     7
100
AcDbCircle
 10
1281.782567435769
 20
1060.467604642662
 30
0.0
 40
14.56691335985365
100
AcDbArc
 50
247.7437148355992
 51
292.2562851644008
  0
ARC
  5
31AE
330
1F
100
AcDbEntity
  8
PIC06
  6
Continuous
 62
     7
100
AcDbCircle
 10
1288.47547357409
 20
1050.920370886549
 30
0.0
 40
2.16535198592451
100
AcDbArc
 50
335.8346828564088
 51
24.16531714359119
  0
ARC
  5
31AF
330
1F
100
AcDbEntity
  8
PIC06
  6
Continuous
 62
     7
100
AcDbCircle
 10
1275.089661297472
 20
1050.920370886549
 30
0.0
 40
2.16535198592451
100
AcDbArc
 50
155.8346828564088
 51
204.1653171435912
  0
ARC
  5
31B0
330
1F
100
AcDbEntity
  8
PIC06
  6
Continuous
 62
     7
100
AcDbCircle
 10
1258.357395951694
 20
1050.920370886549
 30
0.0
 40
14.56691335985365
100
AcDbArc
 50
0.0
 51
24.14109163429872
  0
ARC
  5
31B1
330
1F
100
AcDbEntity
  8
PIC06
  6
Continuous
 62
     7
100
AcDbCircle
 10
1258.357395951694
 20
1050.920370886549
 30
0.0
 40
14.56691335985365
100
AcDbArc
 50
335.8589083657013
 51
0.0
  0
ARC
  5
31B2
330
1F
100
AcDbEntity
  8
PIC06
  6
Continuous
 62
     7
100
AcDbCircle
 10
1292.569957329282
 20
1031.071490557453
 30
0.0
 40
0.2362202166566176
100
AcDbArc
 50
328.5027175272923
 51
105.1348836542992
  0
ARC
  5
31B3
330
1F
100
AcDbEntity
  8
PIC06
  6
Continuous
 62
     7
100
AcDbCircle
 10
1290.693477997657
 20
1022.659324177889
 30
0.0
 40
3.543303249683916
100
AcDbArc
 50
134.7320593954865
 51
166.2813112644062
  0
ARC
  5
31B4
330
1F
100
AcDbEntity
  8
PIC06
  6
Continuous
 62
     7
100
AcDbCircle
 10
1288.396597161993
 20
1046.501293620718
 30
0.0
 40
15.74801444308949
100
AcDbArc
 50
278.5640409726825
 51
285.1348836542992
  0
ARC
  5
31B5
330
1F
100
AcDbEntity
  8
PIC06
  6
Continuous
 62
     7
100
AcDbCircle
 10
1304.420338197703
 20
1031.30771077411
 30
0.0
 40
31.49602888615535
100
AcDbArc
 50
180.4265233899018
 51
187.4107148459114
  0
ARC
  5
31B6
330
1F
100
AcDbEntity
  8
PIC06
  6
Continuous
 62
     7
100
AcDbCircle
 10
1272.688968338658
 20
1031.071490557453
 30
0.0
 40
0.2362202166566176
100
AcDbArc
 50
0.4265233899018138
 51
90.0
  0
ARC
  5
31B7
330
1F
100
AcDbEntity
  8
PIC06
  6
Continuous
 62
     7
100
AcDbCircle
 10
1304.420338197703
 20
1031.30771077411
 30
0.0
 40
32.67712996939122
100
AcDbArc
 50
181.0293208669882
 51
187.4107147999998
  0
ARC
  5
31B8
330
1F
100
AcDbEntity
  8
PIC06
  6
Continuous
 62
     7
100
AcDbCircle
 10
1271.55166282197
 20
1030.717160232492
 30
0.0
 40
0.1968501805471815
100
AcDbArc
 50
1.029320866988256
 51
90.0
  0
ARC
  5
31B9
330
1F
100
AcDbEntity
  8
PIC06
  6
Continuous
 62
     7
100
AcDbCircle
 10
1304.420338197703
 20
1031.30771077411
 30
0.0
 40
32.36216968053933
100
AcDbArc
 50
181.0293208669882
 51
187.410714823915
  0
ARC
  5
31BA
330
1F
100
AcDbEntity
  8
PIC06
  6
Continuous
 62
     7
100
AcDbCircle
 10
1304.420338197703
 20
1031.30771077411
 30
0.0
 40
31.81098917503084
100
AcDbArc
 50
180.5672942145019
 51
187.410714759205
  0
ARC
  5
31BB
330
1F
100
AcDbEntity
  8
PIC06
  6
Continuous
 62
     7
100
AcDbCircle
 10
1271.55166282197
 20
1030.717160232492
 30
0.0
 40
0.5118104693990504
100
AcDbArc
 50
1.029320866988256
 51
32.57897039279202
  0
ARC
  5
31BC
330
1F
100
AcDbEntity
  8
PIC06
  6
Continuous
 62
     7
100
AcDbCircle
 10
1284.774690179968
 20
1016.386467089271
 30
0.0
 40
0.1574801444377452
100
AcDbArc
 50
0.0
 51
90.0
  0
ARC
  5
31BD
330
1F
100
AcDbEntity
  8
PIC06
  6
Continuous
 62
     7
100
AcDbCircle
 10
1284.774690179968
 20
1016.386467089271
 30
0.0
 40
0.1574801444377452
100
AcDbArc
 50
90.0
 51
180.0
  0
ARC
  5
31BE
330
1F
100
AcDbEntity
  8
PIC06
  6
Continuous
 62
     7
100
AcDbCircle
 10
1284.774690179968
 20
1016.386467089271
 30
0.0
 40
0.4724404332896137
100
AcDbArc
 50
45.20044535900124
 51
90.0
  0
ARC
  5
31BF
330
1F
100
AcDbEntity
  8
PIC06
  6
Continuous
 62
     7
100
AcDbCircle
 10
1284.774690179968
 20
1016.386467089271
 30
0.0
 40
0.4724404332896137
100
AcDbArc
 50
90.0
 51
122.7202204465831
  0
ARC
  5
31C0
330
1F
100
AcDbEntity
  8
PIC06
  6
Continuous
 62
     7
100
AcDbCircle
 10
1134.263736787348
 20
1060.846845278295
 30
0.0
 40
157.1651841419486
100
AcDbArc
 50
343.6946403330142
 51
346.2813112644062
  0
ARC
  5
31C1
330
1F
100
AcDbEntity
  8
PIC06
  6
Continuous
 62
     7
100
AcDbCircle
 10
1288.396597161993
 20
1046.501293620718
 30
0.0
 40
16.06297473194136
100
AcDbArc
 50
278.6847592323872
 51
284.4297915833077
  0
ARC
  5
31C2
330
1F
100
AcDbEntity
  8
PIC06
  6
Continuous
 62
     7
100
AcDbCircle
 10
1266.587231900173
 20
1046.992094358366
 30
0.0
 40
30.39366787513836
100
AcDbArc
 50
314.7320593954865
 51
328.1313718836117
  0
ARC
  5
31C3
330
1F
100
AcDbEntity
  8
PIC06
  6
Continuous
 62
     7
100
AcDbCircle
 10
1290.693477997657
 20
1022.659324177889
 30
0.0
 40
3.858263538559405
100
AcDbArc
 50
134.7320593954865
 51
166.2813112644062
  0
ARC
  5
31C4
330
1F
100
AcDbEntity
  8
PIC06
  6
Continuous
 62
     7
100
AcDbCircle
 10
1266.428253353774
 20
1023.577028225679
 30
0.0
 40
4.724404332919762
100
AcDbArc
 50
11.66644593339914
 51
75.85090460870024
  0
ARC
  5
31C5
330
1F
100
AcDbEntity
  8
PIC06
  6
Continuous
 62
     7
100
AcDbCircle
 10
1303.069992565313
 20
1031.071490557453
 30
0.0
 40
0.2362202166566176
100
AcDbArc
 50
90.0
 51
188.4750831314863
  0
ARC
  5
31C6
330
1F
100
AcDbEntity
  8
PIC06
  6
Continuous
 62
     7
100
AcDbCircle
 10
1301.696440756045
 20
1023.516378046345
 30
0.0
 40
3.543303249683916
100
AcDbArc
 50
2.948739402201936
 51
28.86580266469391
  0
ARC
  5
31C7
330
1F
100
AcDbEntity
  8
PIC06
  6
Continuous
 62
     7
100
AcDbCircle
 10
1271.546358047764
 20
1016.93764759478
 30
0.0
 40
0.3937003610707415
100
AcDbArc
 50
90.0
 51
180.0
  0
ARC
  5
31C8
330
1F
100
AcDbEntity
  8
PIC06
  6
Continuous
 62
     7
100
AcDbCircle
 10
1275.483361658543
 20
1016.858907522585
 30
0.0
 40
0.3937003610707415
100
AcDbArc
 50
0.0
 51
90.0
  0
ARC
  5
31C9
330
1F
100
AcDbEntity
  8
PIC06
  6
Continuous
 62
     7
100
AcDbCircle
 10
1271.546358047764
 20
1016.858907522585
 30
0.0
 40
0.3937003610707415
100
AcDbArc
 50
90.0
 51
180.0
  0
ARC
  5
31CA
330
1F
100
AcDbEntity
  8
PIC06
  6
Continuous
 62
     7
100
AcDbCircle
 10
1266.66447357043
 20
1031.071490557453
 30
0.0
 40
0.2362202166566176
100
AcDbArc
 50
90.0
 51
183.8760633186089
  0
ARC
  5
31CB
330
1F
100
AcDbEntity
  8
PIC06
  6
Continuous
 62
     7
100
AcDbCircle
 10
1266.993031947029
 20
1028.551808246567
 30
0.0
 40
0.3937003610707415
100
AcDbArc
 50
183.8760633186089
 51
270.0
  0
ARC
  5
31CC
330
1F
100
AcDbEntity
  8
PIC06
  6
Continuous
 62
     7
100
AcDbCircle
 10
1266.428253353774
 20
1023.464960421094
 30
0.0
 40
4.724404332919762
100
AcDbArc
 50
0.0
 51
83.66455605759218
  0
ARC
  5
31CD
330
1F
100
AcDbEntity
  8
PIC06
  6
Continuous
 62
     7
100
AcDbCircle
 10
1266.993031947029
 20
1028.551808246567
 30
0.0
 40
0.0787400722188726
100
AcDbArc
 50
183.8760633186089
 51
270.0
  0
ARC
  5
31CE
330
1F
100
AcDbEntity
  8
PIC06
  6
Continuous
 62
     7
100
AcDbCircle
 10
1275.68021183909
 20
1017.449458064179
 30
0.0
 40
0.1968501805471815
100
AcDbArc
 50
270.0
 51
0.0
  0
ARC
  5
31CF
330
1F
100
AcDbEntity
  8
PIC06
  6
Continuous
 62
     7
100
AcDbCircle
 10
1267.350035949905
 20
1028.39432810213
 30
0.0
 40
0.2362202166566176
100
AcDbArc
 50
270.0
 51
355.9143832200035
  0
ARC
  5
31D0
330
1F
100
AcDbEntity
  8
PIC06
  6
Continuous
 62
     7
100
AcDbCircle
 10
1267.950126293682
 20
1030.717160232492
 30
0.0
 40
0.1968501805471815
100
AcDbArc
 50
90.0
 51
175.9143832200035
  0
ARC
  5
31D1
330
1F
100
AcDbEntity
  8
PIC06
  6
Continuous
 62
     7
100
AcDbCircle
 10
1267.950126293682
 20
1030.717160232492
 30
0.0
 40
0.5118104693990504
100
AcDbArc
 50
147.4210296072079
 51
175.9143832200035
  0
ARC
  5
31D2
330
1F
100
AcDbEntity
  8
PIC06
  6
Continuous
 62
     7
100
AcDbCircle
 10
1266.587231900173
 20
1046.992094358366
 30
0.0
 40
30.70862816401389
100
AcDbArc
 50
314.7320593954865
 51
328.502615286791
  0
ARC
  5
31D3
330
1F
100
AcDbEntity
  8
PIC06
  6
Continuous
 62
     7
100
AcDbCircle
 10
1134.263736787348
 20
1060.846845278295
 30
0.0
 40
157.4801444308241
100
AcDbArc
 50
343.5861281697947
 51
346.2813112644062
  0
ARC
  5
31D4
330
1F
100
AcDbEntity
  8
PIC06
  6
Continuous
 62
     7
100
AcDbCircle
 10
1462.506686676269
 20
1031.799825999756
 30
0.0
 40
157.4801444308241
100
AcDbArc
 50
182.9487394022019
 51
185.6312061005072
  0
ARC
  5
31D5
330
1F
100
AcDbEntity
  8
PIC06
  6
Continuous
 62
     7
100
AcDbCircle
 10
1275.286511478019
 20
1017.528198136398
 30
0.0
 40
0.1968501805471815
100
AcDbArc
 50
270.0
 51
0.0
  0
ARC
  5
31D6
330
1F
100
AcDbEntity
  8
PIC06
  6
Continuous
 62
     7
100
AcDbCircle
 10
1271.440041036966
 20
1024.614804635789
 30
0.0
 40
0.3937003610707415
100
AcDbArc
 50
191.6987401896966
 51
270.0
  0
ARC
  5
31D7
330
1F
100
AcDbEntity
  8
PIC06
  6
Continuous
 62
     7
100
AcDbCircle
 10
1271.490193903745
 20
1024.221104274718
 30
0.0
 40
0.3937003610707415
100
AcDbArc
 50
188.4959230413001
 51
270.0
  0
ARC
  5
31D8
330
1F
100
AcDbEntity
  8
PIC06
  6
Continuous
 62
     7
100
AcDbCircle
 10
1266.034552992703
 20
1017.824231420514
 30
0.0
 40
9.842509026933887
100
AcDbArc
 50
0.0
 51
39.4449423212057
  0
ARC
  5
31D9
330
1F
100
AcDbEntity
  8
PIC06
  6
Continuous
 62
     7
100
AcDbCircle
 10
1266.034552992703
 20
1017.824231420514
 30
0.0
 40
9.448808665839525
100
AcDbArc
 50
0.0
 51
38.27828119342335
  0
ARC
  5
31DA
330
1F
100
AcDbEntity
  8
PIC06
  6
Continuous
 62
     7
100
AcDbCircle
 10
1273.331258086213
 20
1023.827403913648
 30
0.0
 40
0.3937003610707415
100
AcDbArc
 50
39.4449423212057
 51
90.0
  0
ARC
  5
31DB
330
1F
100
AcDbEntity
  8
PIC06
  6
Continuous
 62
     7
100
AcDbCircle
 10
1273.142914886331
 20
1023.433703552553
 30
0.0
 40
0.3937003610707415
100
AcDbArc
 50
38.27828119342335
 51
90.0
  0
ARC
  5
31DC
330
1F
100
AcDbEntity
  8
PIC06
  6
Continuous
 62
     7
100
AcDbCircle
 10
1275.920276435821
 20
1027.600779067334
 30
0.0
 40
2.755902527542433
100
AcDbArc
 50
187.4107118240038
 51
223.0190160161892
  0
ARC
  5
31DD
330
1F
100
AcDbEntity
  8
PIC06
  6
Continuous
 62
     7
100
AcDbCircle
 10
1275.920276435821
 20
1027.600779067334
 30
0.0
 40
3.070862816394299
100
AcDbArc
 50
187.4107112353101
 51
223.1564879053997
  0
ARC
  5
31DE
330
1F
100
AcDbEntity
  8
PIC06
  6
Continuous
 62
     7
100
AcDbCircle
 10
1275.920276435821
 20
1027.600779067334
 30
0.0
 40
3.937003610778279
100
AcDbArc
 50
187.410712349489
 51
238.0985619442205
  0
ARC
  5
31DF
330
1F
100
AcDbEntity
  8
PIC06
  6
Continuous
 62
     7
100
AcDbCircle
 10
1275.920276435821
 20
1027.600779067334
 30
0.0
 40
3.622043321902789
100
AcDbArc
 50
187.4107123499883
 51
238.098561314201
  0
ARC
  5
31E0
330
1F
100
AcDbEntity
  8
PIC06
  6
Continuous
 62
     7
100
AcDbCircle
 10
1275.286512206956
 20
1084.75614152155
 30
0.0
 40
59.05505416155604
100
AcDbArc
 50
271.5712443665016
 51
277.4799881481936
  0
ARC
  5
31E1
330
1F
100
AcDbEntity
  8
PIC06
  6
Continuous
 62
     7
100
AcDbCircle
 10
1281.539240773115
 20
1037.133426320287
 30
0.0
 40
11.02361011014611
100
AcDbArc
 50
277.4799881481936
 51
325.1255688231024
  0
ARC
  5
31E2
330
1F
100
AcDbEntity
  8
PIC06
  6
Continuous
 62
     7
100
AcDbCircle
 10
1290.776885744352
 20
1030.695282614711
 30
0.0
 40
0.2362202166566176
100
AcDbArc
 50
98.5640409727139
 51
145.1255688231024
  0
ARC
  5
31E3
330
1F
100
AcDbEntity
  8
PIC06
  6
Continuous
 62
     7
100
AcDbCircle
 10
1281.539240773115
 20
1037.133426320287
 30
0.0
 40
11.3385703990216
100
AcDbArc
 50
281.0653759793923
 51
324.9543754753095
  0
ARC
  5
31E4
330
1F
100
AcDbEntity
  8
PIC06
  6
Continuous
 62
     7
100
AcDbCircle
 10
1275.286512206956
 20
1084.75614152155
 30
0.0
 40
59.44875452262683
100
AcDbArc
 50
271.6505044436025
 51
277.7607679007155
  0
ARC
  5
31E5
330
1F
100
AcDbEntity
  8
PIC06
  6
Continuous
 62
     7
100
AcDbCircle
 10
1283.631063467431
 20
1025.22137742025
 30
0.0
 40
0.1968501805471815
100
AcDbArc
 50
2.551172403683988
 51
33.67715337599905
  0
ARC
  5
31E6
330
1F
100
AcDbEntity
  8
PIC06
  6
Continuous
 62
     7
100
AcDbCircle
 10
1283.340884472772
 20
1025.65685854951
 30
0.0
 40
0.1968501805471815
100
AcDbArc
 50
33.67715337599905
 51
97.76076790071547
  0
ARC
  5
31E7
330
1F
100
AcDbEntity
  8
PIC06
  6
Continuous
 62
     7
100
AcDbCircle
 10
1283.340884472772
 20
1025.65685854951
 30
0.0
 40
0.5118104693990504
100
AcDbArc
 50
33.67715337599905
 51
42.96033760409456
  0
ARC
  5
31E8
330
1F
100
AcDbEntity
  8
PIC06
  6
Continuous
 62
     7
100
AcDbCircle
 10
1283.631063467431
 20
1025.22137742025
 30
0.0
 40
0.5118104693990504
100
AcDbArc
 50
2.551172403683988
 51
33.67715337599905
  0
ARC
  5
31E9
330
1F
100
AcDbEntity
  8
PIC06
  6
Continuous
 62
     7
100
AcDbCircle
 10
1278.878850196642
 20
1084.132443843977
 30
0.0
 40
59.05505416155604
100
AcDbArc
 50
267.8945304234114
 51
274.8047011088103
  0
CIRCLE
  5
31EA
330
1F
100
AcDbEntity
  8
PIC06
  6
Continuous
 62
     7
100
AcDbCircle
 10
1275.286511478019
 20
1050.920370886549
 30
0.0
 40
1.377951263759406
  0
CIRCLE
  5
31EB
330
1F
100
AcDbEntity
  8
PIC06
  6
Continuous
 62
     7
100
AcDbCircle
 10
1275.286511478019
 20
1050.920370886549
 30
0.0
 40
0.8858258124150733
  0
ARC
  5
31EC
330
1F
100
AcDbEntity
  8
PIC06
  6
Continuous
 62
     7
100
AcDbCircle
 10
1277.007871718119
 20
1025.017221799958
 30
0.0
 40
0.3149602888518689
100
AcDbArc
 50
91.65050444360245
 51
173.9961412296012
  0
ARC
  5
31ED
330
1F
100
AcDbEntity
  8
PIC06
  6
Continuous
 62
     7
100
AcDbCircle
 10
1276.353359145072
 20
1024.063624130281
 30
0.0
 40
0.2362202166566176
100
AcDbArc
 50
270.0
 51
353.9961412296012
  0
ARC
  5
31EE
330
1F
100
AcDbEntity
  8
PIC06
  6
Continuous
 62
     7
100
AcDbCircle
 10
1274.219665268864
 20
1024.063624130281
 30
0.0
 40
0.2362202166566176
100
AcDbArc
 50
187.5673325680932
 51
270.0
  0
ARC
  5
31EF
330
1F
100
AcDbEntity
  8
PIC06
  6
Continuous
 62
     7
100
AcDbCircle
 10
1273.673285112519
 20
1023.991038495406
 30
0.0
 40
0.3149602888518689
100
AcDbArc
 50
7.567332568093254
 51
58.09856194422051
  0
ARC
  5
31F0
330
1F
100
AcDbEntity
  8
PIC06
  6
Continuous
 62
     7
100
AcDbCircle
 10
1273.673285112519
 20
1023.991038495406
 30
0.0
 40
0.6299205777273594
100
AcDbArc
 50
13.90010492650437
 51
58.09856556639855
  0
ARC
  5
31F1
330
1F
100
AcDbEntity
  8
PIC06
  6
Continuous
 62
     7
100
AcDbCircle
 10
1274.337128459944
 20
1026.123487048317
 30
0.0
 40
0.5905505416179225
100
AcDbArc
 50
223.0190160161892
 51
223.8766972859016
  0
ARC
  5
31F2
330
1F
100
AcDbEntity
  8
PIC06
  6
Continuous
 62
     7
100
AcDbCircle
 10
1276.921991730765
 20
1025.132963418294
 30
0.0
 40
0.5905505416179225
100
AcDbArc
 50
91.57124436650155
 51
136.1233027140983
  0
ARC
  5
31F3
330
1F
100
AcDbEntity
  8
PIC06
  6
HIDDEN
 62
     7
100
AcDbCircle
 10
1275.299197863508
 20
1016.740797414256
 30
0.0
 40
0.1968501805471815
100
AcDbArc
 50
3.814074834308697
 51
90.0
  0
ARC
  5
31F4
330
1F
100
AcDbEntity
  8
PIC06
  6
Continuous
 62
     7
100
AcDbCircle
 10
1283.492129015701
 20
1047.067285053564
 30
0.0
 40
10.62990974907537
100
AcDbArc
 50
37.71093521039518
 51
69.42027440219813
  0
ARC
  5
31F5
330
1F
100
AcDbEntity
  8
PIC06
  6
Continuous
 62
     7
100
AcDbCircle
 10
1275.742301884012
 20
1047.067285053564
 30
0.0
 40
10.62990974907537
100
AcDbArc
 50
110.5797255978018
 51
142.2890647896048
  0
ARC
  5
31F6
330
1F
100
AcDbEntity
  8
PIC06
  6
Continuous
 62
     7
100
AcDbCircle
 10
1288.47547357409
 20
1050.920370886549
 30
0.0
 40
4.330703971849021
100
AcDbArc
 50
322.2890647896048
 51
0.0
  0
ARC
  5
31F7
330
1F
100
AcDbEntity
  8
PIC06
  6
Continuous
 62
     7
100
AcDbCircle
 10
1283.492129015701
 20
1054.773456719535
 30
0.0
 40
10.62990974907537
100
AcDbArc
 50
290.5797255978018
 51
322.2890647896048
  0
ARC
  5
31F8
330
1F
100
AcDbEntity
  8
PIC06
  6
Continuous
 62
     7
100
AcDbCircle
 10
1279.617215449844
 20
1065.093583885332
 30
0.0
 40
21.65351985924511
100
AcDbArc
 50
249.4202744021981
 51
290.5797255978018
  0
ARC
  5
31F9
330
1F
100
AcDbEntity
  8
PIC06
  6
Continuous
 62
     7
100
AcDbCircle
 10
1275.742301884012
 20
1054.773456719535
 30
0.0
 40
10.62990974907537
100
AcDbArc
 50
217.7109352103952
 51
249.4202744021981
  0
ARC
  5
31FA
330
1F
100
AcDbEntity
  8
PIC06
  6
Continuous
 62
     7
100
AcDbCircle
 10
1270.758957325623
 20
1050.920370886549
 30
0.0
 40
4.330703971849021
100
AcDbArc
 50
180.0
 51
217.7109352103952
  0
ARC
  5
31FB
330
1F
100
AcDbEntity
  8
PIC06
  6
Continuous
 62
     7
100
AcDbCircle
 10
1285.063076940968
 20
1049.389261190945
 30
0.0
 40
5.905505416155606
100
AcDbArc
 50
24.16531714359119
 51
67.74371483559919
  0
ARC
  5
31FC
330
1F
100
AcDbEntity
  8
PIC06
  6
Continuous
 62
     7
100
AcDbCircle
 10
1278.502057930569
 20
1049.389261190945
 30
0.0
 40
5.905505416155606
100
AcDbArc
 50
112.2562851644008
 51
155.8346828564088
  0
ARC
  5
31FD
330
1F
100
AcDbEntity
  8
PIC06
  6
Continuous
 62
     7
100
AcDbCircle
 10
1285.063076940968
 20
1052.451480582153
 30
0.0
 40
5.905505416155606
100
AcDbArc
 50
292.2562851644008
 51
335.8346828564088
  0
ARC
  5
31FE
330
1F
100
AcDbEntity
  8
PIC06
  6
Continuous
 62
     7
100
AcDbCircle
 10
1278.502057930569
 20
1052.451480582153
 30
0.0
 40
5.905505416155606
100
AcDbArc
 50
204.1653171435912
 51
247.7437148355992
  0
ARC
  5
31FF
330
1F
100
AcDbEntity
  8
PIC06
  6
Continuous
 62
     7
100
AcDbCircle
 10
1319.970003455414
 20
1033.589700939804
 30
0.0
 40
17.32281588739608
100
AcDbArc
 50
188.4750831314863
 51
208.8658026646939
  0
ARC
  5
3200
330
1F
100
AcDbEntity
  8
PIC06
  6
Continuous
 62
     7
100
AcDbCircle
 10
1281.782567435769
 20
1041.373137130436
 30
0.0
 40
14.56691335985365
100
AcDbArc
 50
67.74371483559919
 51
112.2562851644008
  0
ARC
  5
3201
330
1F
100
AcDbEntity
  8
PIC06
  6
Continuous
 62
     7
100
AcDbCircle
 10
1317.558165852948
 20
1031.071490557453
 30
0.0
 40
0.2362202166566176
100
AcDbArc
 50
351.5249168685138
 51
90.0
  0
ARC
  5
3202
330
1F
100
AcDbEntity
  8
PIC06
  6
Continuous
 62
     7
100
AcDbCircle
 10
1318.931717662191
 20
1023.516378046345
 30
0.0
 40
3.543303249683916
100
AcDbArc
 50
151.1341973353061
 51
177.051260597798
  0
ARC
  5
3203
330
1F
100
AcDbEntity
  8
PIC06
  6
Continuous
 62
     7
100
AcDbCircle
 10
1158.121471741968
 20
1031.799825999756
 30
0.0
 40
157.4801444308241
100
AcDbArc
 50
354.3687938994927
 51
357.0512605977981
  0
ARC
  5
3204
330
1F
100
AcDbEntity
  8
PIC06
  6
Continuous
 62
     7
100
AcDbCircle
 10
1300.658154962823
 20
1033.589700939804
 30
0.0
 40
17.32281588739608
100
AcDbArc
 50
331.134197335306
 51
351.5249168685138
  0
ARC
  5
3205
330
1F
100
AcDbEntity
  8
PIC06
  6
HIDDEN
 62
     7
100
AcDbCircle
 10
1271.349507867241
 20
1054.62688068823
 30
0.0
 40
0.1968501805471815
100
AcDbArc
 50
105.6992732675949
 51
180.0
  0
ARC
  5
3206
330
1F
100
AcDbEntity
  8
PIC06
  6
HIDDEN
 62
     7
100
AcDbCircle
 10
1275.877062019613
 20
1038.51880951262
 30
0.0
 40
16.92911552630172
100
AcDbArc
 50
74.74440108119883
 51
105.6992732675949
  0
ARC
  5
3207
330
1F
100
AcDbEntity
  8
PIC06
  6
HIDDEN
 62
     7
100
AcDbCircle
 10
1277.534543637725
 20
1044.596041457305
 30
0.0
 40
10.62990974907537
100
AcDbArc
 50
48.3444589476082
 51
74.74440108119883
  0
ARC
  5
3208
330
1F
100
AcDbEntity
  8
PIC06
  6
HIDDEN
 62
     7
100
AcDbCircle
 10
1283.160518699552
 20
1050.920370886549
 30
0.0
 40
2.16535198592451
100
AcDbArc
 50
0.0
 51
48.3444589476082
  0
ARC
  5
3209
330
1F
100
AcDbEntity
  8
PIC06
  6
HIDDEN
 62
     7
100
AcDbCircle
 10
1283.160518699552
 20
1050.920370886549
 30
0.0
 40
2.16535198592451
100
AcDbArc
 50
311.6555410523917
 51
0.0
  0
ARC
  5
320A
330
1F
100
AcDbEntity
  8
PIC06
  6
HIDDEN
 62
     7
100
AcDbCircle
 10
1277.534543637725
 20
1057.24470031577
 30
0.0
 40
10.62990974907537
100
AcDbArc
 50
285.2555989188012
 51
311.6555410523917
  0
ARC
  5
320B
330
1F
100
AcDbEntity
  8
PIC06
  6
HIDDEN
 62
     7
100
AcDbCircle
 10
1275.877062019613
 20
1063.321932260478
 30
0.0
 40
16.92911552630172
100
AcDbArc
 50
254.3007265959978
 51
285.2555989188012
  0
ARC
  5
320C
330
1F
100
AcDbEntity
  8
PIC06
  6
HIDDEN
 62
     7
100
AcDbCircle
 10
1271.349507867241
 20
1047.213861084869
 30
0.0
 40
0.1968501805471815
100
AcDbArc
 50
180.0
 51
254.3007150011996
  0
ARC
  5
320D
330
1F
100
AcDbEntity
  8
PIC06
  6
HIDDEN
 62
     7
100
AcDbCircle
 10
1271.349507867241
 20
1048.154550267976
 30
0.0
 40
0.1968501805471815
100
AcDbArc
 50
90.0
 51
180.0
  0
ARC
  5
320E
330
1F
100
AcDbEntity
  8
PIC06
  6
HIDDEN
 62
     7
100
AcDbCircle
 10
1275.286511478019
 20
1047.760849906905
 30
0.0
 40
0.5905505416179225
100
AcDbArc
 50
0.0
 51
90.0
  0
ARC
  5
320F
330
1F
100
AcDbEntity
  8
PIC06
  6
HIDDEN
 62
     7
100
AcDbCircle
 10
1276.07391220016
 20
1047.693267585582
 30
0.0
 40
0.1968501805471815
100
AcDbArc
 50
180.0
 51
270.7216283920896
  0
ARC
  5
3210
330
1F
100
AcDbEntity
  8
PIC06
  6
HIDDEN
 62
     7
100
AcDbCircle
 10
1275.877062019613
 20
1063.321932260478
 30
0.0
 40
15.82675451530837
100
AcDbArc
 50
270.7216283920896
 51
285.2555989188012
  0
ARC
  5
3211
330
1F
100
AcDbEntity
  8
PIC06
  6
HIDDEN
 62
     7
100
AcDbCircle
 10
1277.534543637725
 20
1057.24470031577
 30
0.0
 40
9.527548738058397
100
AcDbArc
 50
285.2555989188012
 51
311.6555410523917
  0
ARC
  5
3212
330
1F
100
AcDbEntity
  8
PIC06
  6
HIDDEN
 62
     7
100
AcDbCircle
 10
1283.160518699552
 20
1050.920370886549
 30
0.0
 40
1.062990974907536
100
AcDbArc
 50
311.6555410523917
 51
0.0
  0
ARC
  5
3213
330
1F
100
AcDbEntity
  8
PIC06
  6
HIDDEN
 62
     7
100
AcDbCircle
 10
1283.160518699552
 20
1050.920370886549
 30
0.0
 40
1.062990974907536
100
AcDbArc
 50
0.0
 51
48.3444589476082
  0
ARC
  5
3214
330
1F
100
AcDbEntity
  8
PIC06
  6
HIDDEN
 62
     7
100
AcDbCircle
 10
1277.534543637725
 20
1044.596041457305
 30
0.0
 40
9.527548738058397
100
AcDbArc
 50
48.3444589476082
 51
74.74440108119883
  0
ARC
  5
3215
330
1F
100
AcDbEntity
  8
PIC06
  6
HIDDEN
 62
     7
100
AcDbCircle
 10
1275.877062019613
 20
1038.51880951262
 30
0.0
 40
15.82675451530837
100
AcDbArc
 50
74.74440108119883
 51
89.27837160791035
  0
ARC
  5
3216
330
1F
100
AcDbEntity
  8
PIC06
  6
HIDDEN
 62
     7
100
AcDbCircle
 10
1276.07391220016
 20
1054.147474187516
 30
0.0
 40
0.1968501805471815
100
AcDbArc
 50
89.27837160791035
 51
180.0
  0
ARC
  5
3217
330
1F
100
AcDbEntity
  8
PIC06
  6
HIDDEN
 62
     7
100
AcDbCircle
 10
1275.286511478019
 20
1054.079891866193
 30
0.0
 40
0.5905505416179225
100
AcDbArc
 50
270.0
 51
0.0
  0
ARC
  5
3218
330
1F
100
AcDbEntity
  8
PIC06
  6
HIDDEN
 62
     7
100
AcDbCircle
 10
1271.349507867241
 20
1053.686191505099
 30
0.0
 40
0.1968501805471815
100
AcDbArc
 50
180.0
 51
270.0
  0
ARC
  5
3219
330
1F
100
AcDbEntity
  8
PIC06
  6
HIDDEN
 62
     7
100
AcDbCircle
 10
1307.579011433601
 20
1017.065162761025
 30
0.0
 40
0.1968501805471815
100
AcDbArc
 50
357.5392215883919
 51
87.31396688959945
  0
ARC
  5
321A
330
1F
100
AcDbEntity
  8
PIC06
  6
HIDDEN
 62
     7
100
AcDbCircle
 10
1306.214723625008
 20
1017.444474342458
 30
0.0
 40
0.1181101083283089
100
AcDbArc
 50
184.7962015368026
 51
267.3139668895994
  0
ARC
  5
321B
330
1F
100
AcDbEntity
  8
PIC06
  6
HIDDEN
 62
     7
100
AcDbCircle
 10
1462.633417980866
 20
1030.568876143371
 30
0.0
 40
157.0864440697297
100
AcDbArc
 50
184.1138042790991
 51
184.7962015368026
  0
ARC
  5
321C
330
1F
100
AcDbEntity
  8
PIC06
  6
HIDDEN
 62
     7
100
AcDbCircle
 10
1309.585733541117
 20
1028.886453553474
 30
0.0
 40
0.255905234711336
100
AcDbArc
 50
90.0
 51
180.0
  0
ARC
  5
321D
330
1F
100
AcDbEntity
  8
PIC06
  6
HIDDEN
 62
     7
100
AcDbCircle
 10
1309.585733541117
 20
1028.886453553474
 30
0.0
 40
0.255905234711336
100
AcDbArc
 50
180.0
 51
270.0
  0
ARC
  5
321E
330
1F
100
AcDbEntity
  8
PIC06
  6
HIDDEN
 62
     7
100
AcDbCircle
 10
1309.247033828487
 20
1024.063624130281
 30
0.0
 40
0.2362202166566176
100
AcDbArc
 50
186.0570481599058
 51
270.0
  0
ARC
  5
321F
330
1F
100
AcDbEntity
  8
PIC06
  6
HIDDEN
 62
     7
100
AcDbCircle
 10
1308.582682800426
 20
1025.100992241167
 30
0.0
 40
0.3149602888518689
100
AcDbArc
 50
6.057048159905864
 51
63.72819746149384
  0
ARC
  5
3220
330
1F
100
AcDbEntity
  8
PIC06
  6
HIDDEN
 62
     7
100
AcDbCircle
 10
1310.290465765397
 20
1028.560714033097
 30
0.0
 40
3.543303249683916
100
AcDbArc
 50
238.3915650490941
 51
243.7281974614939
  0
ARC
  5
3221
330
1F
100
AcDbEntity
  8
PIC06
  6
HIDDEN
 62
     7
100
AcDbCircle
 10
1308.330209127998
 20
1025.375413168627
 30
0.0
 40
0.1968501805471815
100
AcDbArc
 50
58.39156504909408
 51
177.5392215883919
  0
ARC
  5
3222
330
1F
100
AcDbEntity
  8
PIC06
  6
HIDDEN
 62
     7
100
AcDbCircle
 10
1307.182875283325
 20
1021.601729638274
 30
0.0
 40
0.7874007221651046
100
AcDbArc
 50
305.3048834775091
 51
357.5392215883919
  0
ARC
  5
3223
330
1F
100
AcDbEntity
  8
PIC06
  6
HIDDEN
 62
     7
100
AcDbCircle
 10
1306.737074739466
 20
1019.356333375089
 30
0.0
 40
0.7874007221651046
100
AcDbArc
 50
125.3048834775091
 51
184.1137920652976
  0
ARC
  5
3224
330
1F
100
AcDbEntity
  8
PIC06
  6
HIDDEN
 62
     7
100
AcDbCircle
 10
1308.547721235059
 20
1030.717160232492
 30
0.0
 40
0.1968501805471815
100
AcDbArc
 50
1.561688109204971
 51
90.0
  0
ARC
  5
3225
330
1F
100
AcDbEntity
  8
PIC06
  6
HIDDEN
 62
     7
100
AcDbCircle
 10
1313.049146984635
 20
1017.065162761025
 30
0.0
 40
0.1968501805471815
100
AcDbArc
 50
92.68603311040058
 51
182.460778411608
  0
ARC
  5
3226
330
1F
100
AcDbEntity
  8
PIC06
  6
HIDDEN
 62
     7
100
AcDbCircle
 10
1314.413434793229
 20
1017.444474342458
 30
0.0
 40
0.1181101083283089
100
AcDbArc
 50
272.6860331104006
 51
355.2037984631974
  0
ARC
  5
3227
330
1F
100
AcDbEntity
  8
PIC06
  6
HIDDEN
 62
     7
100
AcDbCircle
 10
1157.994740437371
 20
1030.568876143371
 30
0.0
 40
157.0864440697297
100
AcDbArc
 50
355.2037984633096
 51
355.8861957209009
  0
ARC
  5
3228
330
1F
100
AcDbEntity
  8
PIC06
  6
HIDDEN
 62
     7
100
AcDbCircle
 10
1313.89108367877
 20
1019.356333375089
 30
0.0
 40
0.7874007221651046
100
AcDbArc
 50
355.8862079347024
 51
54.69511652249086
  0
ARC
  5
3229
330
1F
100
AcDbEntity
  8
PIC06
  6
HIDDEN
 62
     7
100
AcDbCircle
 10
1313.445283134912
 20
1021.601729638274
 30
0.0
 40
0.7874007221651046
100
AcDbArc
 50
182.460778411608
 51
234.6951165224909
  0
ARC
  5
322A
330
1F
100
AcDbEntity
  8
PIC06
  6
HIDDEN
 62
     7
100
AcDbCircle
 10
1311.042424877119
 20
1028.886453553474
 30
0.0
 40
0.255905234711336
100
AcDbArc
 50
0.0
 51
90.0
  0
ARC
  5
322B
330
1F
100
AcDbEntity
  8
PIC06
  6
HIDDEN
 62
     7
100
AcDbCircle
 10
1311.042424877119
 20
1028.886453553474
 30
0.0
 40
0.255905234711336
100
AcDbArc
 50
270.0
 51
0.0
  0
ARC
  5
322C
330
1F
100
AcDbEntity
  8
PIC06
  6
HIDDEN
 62
     7
100
AcDbCircle
 10
1311.38112458975
 20
1024.063624130281
 30
0.0
 40
0.2362202166566176
100
AcDbArc
 50
270.0
 51
353.9429518400941
  0
ARC
  5
322D
330
1F
100
AcDbEntity
  8
PIC06
  6
HIDDEN
 62
     7
100
AcDbCircle
 10
1312.045475617811
 20
1025.100992241167
 30
0.0
 40
0.3149602888518689
100
AcDbArc
 50
116.2718025385061
 51
173.9429518400941
  0
ARC
  5
322E
330
1F
100
AcDbEntity
  8
PIC06
  6
HIDDEN
 62
     7
100
AcDbCircle
 10
1310.33769265284
 20
1028.560714033097
 30
0.0
 40
3.543303249683916
100
AcDbArc
 50
296.2718025385062
 51
301.6084349509059
  0
ARC
  5
322F
330
1F
100
AcDbEntity
  8
PIC06
  6
HIDDEN
 62
     7
100
AcDbCircle
 10
1312.297949290239
 20
1025.375413168627
 30
0.0
 40
0.1968501805471815
100
AcDbArc
 50
2.460778411608086
 51
121.6084349509059
  0
ARC
  5
3230
330
1F
100
AcDbEntity
  8
PIC06
  6
HIDDEN
 62
     7
100
AcDbCircle
 10
1312.080437183178
 20
1030.717160232492
 30
0.0
 40
0.1968501805471815
100
AcDbArc
 50
90.0
 51
178.4383118909053
  0
ARC
  5
3231
330
1F
100
AcDbEntity
  8
PIC06
  6
HIDDEN
 62
     7
100
AcDbCircle
 10
1274.302260575306
 20
1054.493201663327
 30
0.0
 40
0.1771651624924634
100
AcDbArc
 50
0.0
 51
90.0
  0
ARC
  5
3232
330
1F
100
AcDbEntity
  8
PIC06
  6
HIDDEN
 62
     7
100
AcDbCircle
 10
1274.302260575306
 20
1054.138871338342
 30
0.0
 40
0.1771651624924634
100
AcDbArc
 50
270.0
 51
0.0
  0
ARC
  5
3233
330
1F
100
AcDbEntity
  8
PIC06
  6
HIDDEN
 62
     7
100
AcDbCircle
 10
1274.302260575306
 20
1054.138871338342
 30
0.0
 40
0.1771651624924634
100
AcDbArc
 50
180.0
 51
270.0
  0
ARC
  5
3234
330
1F
100
AcDbEntity
  8
PIC06
  6
HIDDEN
 62
     7
100
AcDbCircle
 10
1274.302260575306
 20
1054.493201663327
 30
0.0
 40
0.1771651624924634
100
AcDbArc
 50
90.0
 51
180.0
  0
ARC
  5
3235
330
1F
100
AcDbEntity
  8
PIC06
  6
HIDDEN
 62
     7
100
AcDbCircle
 10
1274.302260575306
 20
1047.347540109771
 30
0.0
 40
0.1771651624924634
100
AcDbArc
 50
270.0
 51
0.0
  0
ARC
  5
3236
330
1F
100
AcDbEntity
  8
PIC06
  6
HIDDEN
 62
     7
100
AcDbCircle
 10
1274.302260575306
 20
1047.347540109771
 30
0.0
 40
0.1771651624924634
100
AcDbArc
 50
180.0
 51
270.0
  0
ARC
  5
3237
330
1F
100
AcDbEntity
  8
PIC06
  6
HIDDEN
 62
     7
100
AcDbCircle
 10
1274.302260575306
 20
1047.701870434733
 30
0.0
 40
0.1771651624924634
100
AcDbArc
 50
90.0
 51
180.0
  0
ARC
  5
3238
330
1F
100
AcDbEntity
  8
PIC06
  6
HIDDEN
 62
     7
100
AcDbCircle
 10
1274.302260575306
 20
1047.701870434733
 30
0.0
 40
0.1771651624924634
100
AcDbArc
 50
0.0
 51
90.0
  0
ARC
  5
3239
330
1F
100
AcDbEntity
  8
PIC06
  6
Continuous
 62
     7
100
AcDbCircle
 10
1274.470407587737
 20
1017.287741838928
 30
0.0
 40
0.0105068734240839
100
AcDbArc
 50
30.87269122289852
 51
88.10702445369415
  0
ARC
  5
323A
330
1F
100
AcDbEntity
  8
PIC06
  6
Continuous
 62
     7
100
AcDbCircle
 10
1274.425525802874
 20
1017.122323245063
 30
0.0
 40
0.1816408596471338
100
AcDbArc
 50
75.58156336189917
 51
83.65805558289236
  0
ARC
  5
323B
330
1F
100
AcDbEntity
  8
PIC06
  6
Continuous
 62
     7
100
AcDbCircle
 10
1274.363587826451
 20
1016.636055563481
 30
0.0
 40
0.671820348521767
100
AcDbArc
 50
82.98899535721067
 51
86.34668687951089
  0
ARC
  5
323C
330
1F
100
AcDbEntity
  8
PIC06
  6
Continuous
 62
     7
100
AcDbCircle
 10
1274.318202842833
 20
1015.972434387505
 30
0.0
 40
1.336988235057185
100
AcDbArc
 50
86.21780736788425
 51
88.33681235970779
  0
ARC
  5
323D
330
1F
100
AcDbEntity
  8
PIC06
  6
Continuous
 62
     7
100
AcDbCircle
 10
1274.30276377406
 20
1015.491558121139
 30
0.0
 40
1.818110617824136
100
AcDbArc
 50
88.29031041710679
 51
90.01585776190264
  0
ARC
  5
323E
330
1F
100
AcDbEntity
  8
PIC06
  6
Continuous
 62
     7
100
AcDbCircle
 10
1274.301757376553
 20
1015.491558121139
 30
0.0
 40
1.818110617824136
100
AcDbArc
 50
89.98414223809737
 51
91.7096895828932
  0
ARC
  5
323F
330
1F
100
AcDbEntity
  8
PIC06
  6
Continuous
 62
     7
100
AcDbCircle
 10
1274.286318307804
 20
1015.972434387505
 30
0.0
 40
1.336988235057185
100
AcDbArc
 50
91.6631876402922
 51
93.78219263211574
  0
ARC
  5
3240
330
1F
100
AcDbEntity
  8
PIC06
  6
Continuous
 62
     7
100
AcDbCircle
 10
1274.240933324186
 20
1016.636055563481
 30
0.0
 40
0.671820348521767
100
AcDbArc
 50
93.6533131204891
 51
97.01100464278932
  0
ARC
  5
3241
330
1F
100
AcDbEntity
  8
PIC06
  6
Continuous
 62
     7
100
AcDbCircle
 10
1274.178995347764
 20
1017.122323245063
 30
0.0
 40
0.1816408596471338
100
AcDbArc
 50
96.34194441710764
 51
104.4184366381008
  0
ARC
  5
3242
330
1F
100
AcDbEntity
  8
PIC06
  6
Continuous
 62
     7
100
AcDbCircle
 10
1274.134113562899
 20
1017.287741838928
 30
0.0
 40
0.0105068734240839
100
AcDbArc
 50
91.89297554630586
 51
149.1273087771014
  0
ARC
  5
3243
330
1F
100
AcDbEntity
  8
PIC06
  6
Continuous
 62
     7
100
AcDbCircle
 10
1274.134113562899
 20
1017.298524669409
 30
0.0
 40
0.0105068734240839
100
AcDbArc
 50
210.8726912228986
 51
268.1070244536941
  0
ARC
  5
3244
330
1F
100
AcDbEntity
  8
PIC06
  6
Continuous
 62
     7
100
AcDbCircle
 10
1274.178995347764
 20
1017.463943263251
 30
0.0
 40
0.1816408596471338
100
AcDbArc
 50
255.5815633618991
 51
263.6580555828924
  0
ARC
  5
3245
330
1F
100
AcDbEntity
  8
PIC06
  6
Continuous
 62
     7
100
AcDbCircle
 10
1274.240933324186
 20
1017.950210944833
 30
0.0
 40
0.671820348521767
100
AcDbArc
 50
262.9889953572107
 51
266.3466868795109
  0
ARC
  5
3246
330
1F
100
AcDbEntity
  8
PIC06
  6
Continuous
 62
     7
100
AcDbCircle
 10
1274.286318307804
 20
1018.613832120833
 30
0.0
 40
1.336988235057185
100
AcDbArc
 50
266.2178073678842
 51
268.3368123597078
  0
ARC
  5
3247
330
1F
100
AcDbEntity
  8
PIC06
  6
Continuous
 62
     7
100
AcDbCircle
 10
1274.301757376553
 20
1019.094708387175
 30
0.0
 40
1.818110617824136
100
AcDbArc
 50
268.2903104171068
 51
270.0158577619026
  0
ARC
  5
3248
330
1F
100
AcDbEntity
  8
PIC06
  6
Continuous
 62
     7
100
AcDbCircle
 10
1274.30276377406
 20
1019.094708387175
 30
0.0
 40
1.818110617824136
100
AcDbArc
 50
269.9841422380974
 51
271.7096895828932
  0
ARC
  5
3249
330
1F
100
AcDbEntity
  8
PIC06
  6
Continuous
 62
     7
100
AcDbCircle
 10
1274.318202842833
 20
1018.613832120833
 30
0.0
 40
1.336988235057185
100
AcDbArc
 50
271.6631876402922
 51
273.7821926321157
  0
ARC
  5
324A
330
1F
100
AcDbEntity
  8
PIC06
  6
Continuous
 62
     7
100
AcDbCircle
 10
1274.363587826451
 20
1017.950210944833
 30
0.0
 40
0.671820348521767
100
AcDbArc
 50
273.6533131204891
 51
277.0110046427893
  0
ARC
  5
324B
330
1F
100
AcDbEntity
  8
PIC06
  6
Continuous
 62
     7
100
AcDbCircle
 10
1274.425525802874
 20
1017.463943263251
 30
0.0
 40
0.1816408596471338
100
AcDbArc
 50
276.3419444171077
 51
284.4184366381008
  0
ARC
  5
324C
330
1F
100
AcDbEntity
  8
PIC06
  6
Continuous
 62
     7
100
AcDbCircle
 10
1274.470407587737
 20
1017.298524669409
 30
0.0
 40
0.0105068734240839
100
AcDbArc
 50
271.8929755463058
 51
329.1273087771015
  0
ARC
  5
324D
330
1F
100
AcDbEntity
  8
PIC06
  6
Continuous
 62
     7
100
AcDbCircle
 10
1275.920276435821
 20
1027.600779067334
 30
0.0
 40
2.755902527542433
100
AcDbArc
 50
187.4107118240038
 51
223.0190160161892
  0
ARC
  5
324E
330
1F
100
AcDbEntity
  8
PIC06
  6
Continuous
 62
     7
100
AcDbCircle
 10
1275.920276435821
 20
1027.600779067334
 30
0.0
 40
3.070862816394299
100
AcDbArc
 50
187.4107112353101
 51
223.1564879053997
  0
ARC
  5
324F
330
1F
100
AcDbEntity
  8
PIC06
  6
Continuous
 62
     7
100
AcDbCircle
 10
1304.420338197703
 20
1031.30771077411
 30
0.0
 40
31.81098917503084
100
AcDbArc
 50
184.8760248696015
 51
187.410714759205
  0
ARC
  5
3250
330
1F
100
AcDbEntity
  8
PIC06
  6
Continuous
 62
     7
100
AcDbCircle
 10
1304.420338197703
 20
1031.30771077411
 30
0.0
 40
31.49602888615535
100
AcDbArc
 50
184.8760248696015
 51
187.4107148459114
  0
ARC
  5
3251
330
1F
100
AcDbEntity
  8
PIC06
  6
Continuous
 62
     7
100
AcDbCircle
 10
1304.420338197703
 20
1031.30771077411
 30
0.0
 40
31.49602888615535
100
AcDbArc
 50
184.8760248696015
 51
187.4107148459114
  0
ARC
  5
3252
330
1F
100
AcDbEntity
  8
PIC06
  6
Continuous
 62
     7
100
AcDbCircle
 10
1275.920276435821
 20
1027.600779067334
 30
0.0
 40
2.755902527542433
100
AcDbArc
 50
187.4107118240038
 51
223.0190160161892
  0
ARC
  5
3253
330
1F
100
AcDbEntity
  8
PIC06
  6
Continuous
 62
     7
100
AcDbCircle
 10
1275.920276435821
 20
1027.600779067334
 30
0.0
 40
3.070862816394299
100
AcDbArc
 50
187.4107112353101
 51
223.1564879053997
  0
ARC
  5
3254
330
1F
100
AcDbEntity
  8
PIC06
  6
Continuous
 62
     7
100
AcDbCircle
 10
1304.420338197703
 20
1031.30771077411
 30
0.0
 40
31.81098917503084
100
AcDbArc
 50
184.8760248696015
 51
187.410714759205
  0
ARC
  5
3255
330
1F
100
AcDbEntity
  8
PIC06
  6
Continuous
 62
     7
100
AcDbCircle
 10
1267.950126293682
 20
1030.717160232492
 30
0.0
 40
0.5118104693990504
100
AcDbArc
 50
147.4210296072079
 51
175.9143832200035
  0
ARC
  5
3256
330
1F
100
AcDbEntity
  8
PIC06
  6
Continuous
 62
     7
100
AcDbCircle
 10
1266.993031947029
 20
1028.551808246567
 30
0.0
 40
0.0787400722188726
100
AcDbArc
 50
183.8760633186089
 51
270.0
  0
ARC
  5
3257
330
1F
100
AcDbEntity
  8
PIC06
  6
Continuous
 62
     7
100
AcDbCircle
 10
1267.950126293682
 20
1030.717160232492
 30
0.0
 40
0.5118104693990504
100
AcDbArc
 50
147.4210296072079
 51
175.9143832200035
  0
ARC
  5
3258
330
1F
100
AcDbEntity
  8
PIC06
  6
Continuous
 62
     7
100
AcDbCircle
 10
1266.993031947029
 20
1028.551808246567
 30
0.0
 40
0.0787400722188726
100
AcDbArc
 50
183.8760633186089
 51
270.0
  0
ARC
  5
3259
330
1F
100
AcDbEntity
  8
PIC06
  6
Continuous
 62
     7
100
AcDbCircle
 10
1266.993031947029
 20
1028.551808246567
 30
0.0
 40
0.0787400722188726
100
AcDbArc
 50
183.8760633186089
 51
270.0
  0
ARC
  5
325A
330
1F
100
AcDbEntity
  8
PIC06
  6
Continuous
 62
     7
100
AcDbCircle
 10
1267.950126293682
 20
1030.717160232492
 30
0.0
 40
0.5118104693990504
100
AcDbArc
 50
147.4210296072079
 51
175.9143832200035
  0
ARC
  5
325B
330
1F
100
AcDbEntity
  8
PIC06
  6
Continuous
 62
     7
100
AcDbCircle
 10
1288.396597161993
 20
1046.501293620718
 30
0.0
 40
15.74801444308949
100
AcDbArc
 50
278.5640409726825
 51
285.1348836542992
  0
ARC
  5
325C
330
1F
100
AcDbEntity
  8
PIC06
  6
Continuous
 62
     7
100
AcDbCircle
 10
1292.569957329282
 20
1031.071490557453
 30
0.0
 40
0.2362202166566176
100
AcDbArc
 50
328.5027175272923
 51
105.1348836542992
  0
ARC
  5
325D
330
1F
100
AcDbEntity
  8
PIC06
  6
Continuous
 62
     7
100
AcDbCircle
 10
1266.587231900173
 20
1046.992094358366
 30
0.0
 40
30.70862816401389
100
AcDbArc
 50
314.7320593954865
 51
328.502615286791
  0
ARC
  5
325E
330
1F
100
AcDbEntity
  8
PIC06
  6
Continuous
 62
     7
100
AcDbCircle
 10
1290.693477997657
 20
1022.659324177889
 30
0.0
 40
3.543303249683916
100
AcDbArc
 50
134.7320593954865
 51
166.2813112644062
  0
ARC
  5
325F
330
1F
100
AcDbEntity
  8
PIC06
  6
Continuous
 62
     7
100
AcDbCircle
 10
1134.263736787348
 20
1060.846845278295
 30
0.0
 40
157.4801444308241
100
AcDbArc
 50
343.5861281697947
 51
346.2813112644062
  0
ARC
  5
3260
330
1F
100
AcDbEntity
  8
PIC06
  6
Continuous
 62
     7
100
AcDbCircle
 10
1284.774690179968
 20
1016.386467089271
 30
0.0
 40
0.1574801444377452
100
AcDbArc
 50
0.0
 51
180.0
  0
ARC
  5
3261
330
1F
100
AcDbEntity
  8
PIC06
  6
Continuous
 62
     7
100
AcDbCircle
 10
1283.631063467431
 20
1025.22137742025
 30
0.0
 40
0.1968501805471815
100
AcDbArc
 50
2.551172403683988
 51
33.67715337599905
  0
ARC
  5
3262
330
1F
100
AcDbEntity
  8
PIC06
  6
Continuous
 62
     7
100
AcDbCircle
 10
1283.340884472772
 20
1025.65685854951
 30
0.0
 40
0.1968501805471815
100
AcDbArc
 50
33.67715337599905
 51
97.76076790071547
  0
ARC
  5
3263
330
1F
100
AcDbEntity
  8
PIC06
  6
Continuous
 62
     7
100
AcDbCircle
 10
1275.286512206956
 20
1084.75614152155
 30
0.0
 40
59.44875452262683
100
AcDbArc
 50
271.6505044436025
 51
277.7607679007155
  0
ARC
  5
3264
330
1F
100
AcDbEntity
  8
PIC06
  6
Continuous
 62
     7
100
AcDbCircle
 10
1277.007871718119
 20
1025.017221799958
 30
0.0
 40
0.3149602888518689
100
AcDbArc
 50
91.65050444360245
 51
173.9961412296012
  0
ARC
  5
3265
330
1F
100
AcDbEntity
  8
PIC06
  6
Continuous
 62
     7
100
AcDbCircle
 10
1276.353359145072
 20
1024.063624130281
 30
0.0
 40
0.2362202166566176
100
AcDbArc
 50
270.0
 51
353.9961412296012
  0
ARC
  5
3266
330
1F
100
AcDbEntity
  8
PIC06
  6
Continuous
 62
     7
100
AcDbCircle
 10
1276.921991730765
 20
1025.132963418294
 30
0.0
 40
0.5905505416179225
100
AcDbArc
 50
91.57124436650155
 51
136.1233027140983
  0
ARC
  5
3267
330
1F
100
AcDbEntity
  8
PIC06
  6
Continuous
 62
     7
100
AcDbCircle
 10
1275.286512206956
 20
1084.75614152155
 30
0.0
 40
59.05505416155604
100
AcDbArc
 50
271.5712443665016
 51
277.4799881481936
  0
ARC
  5
3268
330
1F
100
AcDbEntity
  8
PIC06
  6
Continuous
 62
     7
100
AcDbCircle
 10
1281.539240773115
 20
1037.133426320287
 30
0.0
 40
11.02361011014611
100
AcDbArc
 50
277.4799881481936
 51
325.1255688231024
  0
ARC
  5
3269
330
1F
100
AcDbEntity
  8
PIC06
  6
Continuous
 62
     7
100
AcDbCircle
 10
1290.776885744352
 20
1030.695282614711
 30
0.0
 40
0.2362202166566176
100
AcDbArc
 50
98.5640409727139
 51
145.1255688231024
  0
ARC
  5
326A
330
1F
100
AcDbEntity
  8
PIC06
  6
Continuous
 62
     7
100
AcDbCircle
 10
1281.539240773115
 20
1037.133426320287
 30
0.0
 40
11.3385703990216
100
AcDbArc
 50
281.0653759793923
 51
324.9543754753095
  0
ARC
  5
326B
330
1F
100
AcDbEntity
  8
PIC06
  6
Continuous
 62
     7
100
AcDbCircle
 10
1283.340884472772
 20
1025.65685854951
 30
0.0
 40
0.5118104693990504
100
AcDbArc
 50
33.67715337599905
 51
42.96033760409456
  0
ARC
  5
326C
330
1F
100
AcDbEntity
  8
PIC06
  6
Continuous
 62
     7
100
AcDbCircle
 10
1283.631063467431
 20
1025.22137742025
 30
0.0
 40
0.5118104693990504
100
AcDbArc
 50
2.551172403683988
 51
33.67715337599905
  0
ARC
  5
326D
330
1F
100
AcDbEntity
  8
PIC06
  6
Continuous
 62
     7
100
AcDbCircle
 10
1284.774690179968
 20
1016.386467089271
 30
0.0
 40
0.4724404332896137
100
AcDbArc
 50
45.20044535900124
 51
122.7202204465831
  0
ARC
  5
326E
330
1F
100
AcDbEntity
  8
PIC06
  6
Continuous
 62
     7
100
AcDbCircle
 10
1134.263736787348
 20
1060.846845278295
 30
0.0
 40
157.1651841419486
100
AcDbArc
 50
343.6946403330142
 51
346.2813112644062
  0
ARC
  5
326F
330
1F
100
AcDbEntity
  8
PIC06
  6
Continuous
 62
     7
100
AcDbCircle
 10
1290.693477997657
 20
1022.659324177889
 30
0.0
 40
3.858263538559405
100
AcDbArc
 50
134.7320593954865
 51
166.2813112644062
  0
ARC
  5
3270
330
1F
100
AcDbEntity
  8
PIC06
  6
Continuous
 62
     7
100
AcDbCircle
 10
1266.587231900173
 20
1046.992094358366
 30
0.0
 40
30.39366787513836
100
AcDbArc
 50
314.7320593954865
 51
328.1313718836117
  0
ARC
  5
3271
330
1F
100
AcDbEntity
  8
PIC06
  6
Continuous
 62
     7
100
AcDbCircle
 10
1288.396597161993
 20
1046.501293620718
 30
0.0
 40
16.06297473194136
100
AcDbArc
 50
278.6847592323872
 51
284.4297915833077
  0
ARC
  5
3272
330
1F
100
AcDbEntity
  8
PIC06
  6
Continuous
 62
     7
100
AcDbCircle
 10
1275.286512206956
 20
1084.75614152155
 30
0.0
 40
59.44875452262683
100
AcDbArc
 50
271.6505044436025
 51
277.7607679007155
  0
ARC
  5
3273
330
1F
100
AcDbEntity
  8
PIC06
  6
Continuous
 62
     7
100
AcDbCircle
 10
1277.007871718119
 20
1025.017221799958
 30
0.0
 40
0.3149602888518689
100
AcDbArc
 50
91.65050444360245
 51
173.9961412296012
  0
ARC
  5
3274
330
1F
100
AcDbEntity
  8
PIC06
  6
Continuous
 62
     7
100
AcDbCircle
 10
1276.353359145072
 20
1024.063624130281
 30
0.0
 40
0.2362202166566176
100
AcDbArc
 50
270.0
 51
353.9961412296012
  0
ARC
  5
3275
330
1F
100
AcDbEntity
  8
PIC06
  6
Continuous
 62
     7
100
AcDbCircle
 10
1276.921991730765
 20
1025.132963418294
 30
0.0
 40
0.5905505416179225
100
AcDbArc
 50
91.57124436650155
 51
136.1233027140983
  0
ARC
  5
3276
330
1F
100
AcDbEntity
  8
PIC06
  6
Continuous
 62
     7
100
AcDbCircle
 10
1275.286512206956
 20
1084.75614152155
 30
0.0
 40
59.05505416155604
100
AcDbArc
 50
271.5712443665016
 51
277.4799881481936
  0
ARC
  5
3277
330
1F
100
AcDbEntity
  8
PIC06
  6
Continuous
 62
     7
100
AcDbCircle
 10
1281.539240773115
 20
1037.133426320287
 30
0.0
 40
11.02361011014611
100
AcDbArc
 50
277.4799881481936
 51
325.1255688231024
  0
ARC
  5
3278
330
1F
100
AcDbEntity
  8
PIC06
  6
Continuous
 62
     7
100
AcDbCircle
 10
1290.776885744352
 20
1030.695282614711
 30
0.0
 40
0.2362202166566176
100
AcDbArc
 50
98.5640409727139
 51
145.1255688231024
  0
ARC
  5
3279
330
1F
100
AcDbEntity
  8
PIC06
  6
Continuous
 62
     7
100
AcDbCircle
 10
1288.396597161993
 20
1046.501293620718
 30
0.0
 40
15.74801444308949
100
AcDbArc
 50
278.5640409726825
 51
285.1348836542992
  0
ARC
  5
327A
330
1F
100
AcDbEntity
  8
PIC06
  6
Continuous
 62
     7
100
AcDbCircle
 10
1292.569957329282
 20
1031.071490557453
 30
0.0
 40
0.2362202166566176
100
AcDbArc
 50
328.5027175272923
 51
105.1348836542992
  0
ARC
  5
327B
330
1F
100
AcDbEntity
  8
PIC06
  6
Continuous
 62
     7
100
AcDbCircle
 10
1266.587231900173
 20
1046.992094358366
 30
0.0
 40
30.70862816401389
100
AcDbArc
 50
314.7320593954865
 51
328.502615286791
  0
ARC
  5
327C
330
1F
100
AcDbEntity
  8
PIC06
  6
Continuous
 62
     7
100
AcDbCircle
 10
1290.693477997657
 20
1022.659324177889
 30
0.0
 40
3.543303249683916
100
AcDbArc
 50
134.7320593954865
 51
166.2813112644062
  0
ARC
  5
327D
330
1F
100
AcDbEntity
  8
PIC06
  6
Continuous
 62
     7
100
AcDbCircle
 10
1134.263736787348
 20
1060.846845278295
 30
0.0
 40
157.4801444308241
100
AcDbArc
 50
343.5861281697947
 51
346.2813112644062
  0
ARC
  5
327E
330
1F
100
AcDbEntity
  8
PIC06
  6
Continuous
 62
     7
100
AcDbCircle
 10
1284.774690179968
 20
1016.386467089271
 30
0.0
 40
0.1574801444377452
100
AcDbArc
 50
0.0
 51
180.0
  0
ARC
  5
327F
330
1F
100
AcDbEntity
  8
PIC06
  6
Continuous
 62
     7
100
AcDbCircle
 10
1283.631063467431
 20
1025.22137742025
 30
0.0
 40
0.1968501805471815
100
AcDbArc
 50
2.551172403683988
 51
33.67715337599905
  0
ARC
  5
3280
330
1F
100
AcDbEntity
  8
PIC06
  6
Continuous
 62
     7
100
AcDbCircle
 10
1283.340884472772
 20
1025.65685854951
 30
0.0
 40
0.1968501805471815
100
AcDbArc
 50
33.67715337599905
 51
97.76076790071547
  0
ARC
  5
3281
330
1F
100
AcDbEntity
  8
PIC06
  6
Continuous
 62
     7
100
AcDbCircle
 10
1276.921991730765
 20
1025.132963418294
 30
0.0
 40
0.5905505416179225
100
AcDbArc
 50
91.57124436650155
 51
136.1233027140983
  0
ARC
  5
3282
330
1F
100
AcDbEntity
  8
PIC06
  6
Continuous
 62
     7
100
AcDbCircle
 10
1275.286512206956
 20
1084.75614152155
 30
0.0
 40
59.05505416155604
100
AcDbArc
 50
271.5712443665016
 51
277.4799881481936
  0
ARC
  5
3283
330
1F
100
AcDbEntity
  8
PIC06
  6
Continuous
 62
     7
100
AcDbCircle
 10
1281.539240773115
 20
1037.133426320287
 30
0.0
 40
11.02361011014611
100
AcDbArc
 50
277.4799881481936
 51
325.1255688231024
  0
ARC
  5
3284
330
1F
100
AcDbEntity
  8
PIC06
  6
Continuous
 62
     7
100
AcDbCircle
 10
1290.776885744352
 20
1030.695282614711
 30
0.0
 40
0.2362202166566176
100
AcDbArc
 50
98.5640409727139
 51
145.1255688231024
  0
ARC
  5
3285
330
1F
100
AcDbEntity
  8
PIC06
  6
Continuous
 62
     7
100
AcDbCircle
 10
1288.396597161993
 20
1046.501293620718
 30
0.0
 40
15.74801444308949
100
AcDbArc
 50
278.5640409726825
 51
285.1348836542992
  0
ARC
  5
3286
330
1F
100
AcDbEntity
  8
PIC06
  6
Continuous
 62
     7
100
AcDbCircle
 10
1292.569957329282
 20
1031.071490557453
 30
0.0
 40
0.2362202166566176
100
AcDbArc
 50
328.5027175272923
 51
105.1348836542992
  0
ARC
  5
3287
330
1F
100
AcDbEntity
  8
PIC06
  6
Continuous
 62
     7
100
AcDbCircle
 10
1266.587231900173
 20
1046.992094358366
 30
0.0
 40
30.70862816401389
100
AcDbArc
 50
314.7320593954865
 51
328.502615286791
  0
ARC
  5
3288
330
1F
100
AcDbEntity
  8
PIC06
  6
Continuous
 62
     7
100
AcDbCircle
 10
1290.693477997657
 20
1022.659324177889
 30
0.0
 40
3.543303249683916
100
AcDbArc
 50
134.7320593954865
 51
166.2813112644062
  0
ARC
  5
3289
330
1F
100
AcDbEntity
  8
PIC06
  6
Continuous
 62
     7
100
AcDbCircle
 10
1134.263736787348
 20
1060.846845278295
 30
0.0
 40
157.4801444308241
100
AcDbArc
 50
343.5861281697947
 51
346.2813112644062
  0
ARC
  5
328A
330
1F
100
AcDbEntity
  8
PIC06
  6
Continuous
 62
     7
100
AcDbCircle
 10
1284.774690179968
 20
1016.386467089271
 30
0.0
 40
0.1574801444377452
100
AcDbArc
 50
0.0
 51
180.0
  0
ARC
  5
328B
330
1F
100
AcDbEntity
  8
PIC06
  6
Continuous
 62
     7
100
AcDbCircle
 10
1283.631063467431
 20
1025.22137742025
 30
0.0
 40
0.1968501805471815
100
AcDbArc
 50
2.551172403683988
 51
33.67715337599905
  0
ARC
  5
328C
330
1F
100
AcDbEntity
  8
PIC06
  6
Continuous
 62
     7
100
AcDbCircle
 10
1283.340884472772
 20
1025.65685854951
 30
0.0
 40
0.1968501805471815
100
AcDbArc
 50
33.67715337599905
 51
97.76076790071547
  0
ARC
  5
328D
330
1F
100
AcDbEntity
  8
PIC06
  6
Continuous
 62
     7
100
AcDbCircle
 10
1275.286512206956
 20
1084.75614152155
 30
0.0
 40
59.44875452262683
100
AcDbArc
 50
271.6505044436025
 51
277.7607679007155
  0
ARC
  5
328E
330
1F
100
AcDbEntity
  8
PIC06
  6
Continuous
 62
     7
100
AcDbCircle
 10
1277.007871718119
 20
1025.017221799958
 30
0.0
 40
0.3149602888518689
100
AcDbArc
 50
91.65050444360245
 51
173.9961412296012
  0
ARC
  5
328F
330
1F
100
AcDbEntity
  8
PIC06
  6
Continuous
 62
     7
100
AcDbCircle
 10
1276.353359145072
 20
1024.063624130281
 30
0.0
 40
0.2362202166566176
100
AcDbArc
 50
270.0
 51
353.9961412296012
  0
ARC
  5
3290
330
1F
100
AcDbEntity
  8
PIC06
  6
Continuous
 62
     7
100
AcDbCircle
 10
1283.340884472772
 20
1025.65685854951
 30
0.0
 40
0.1968501805471815
100
AcDbArc
 50
33.67715337599905
 51
97.76076790071547
  0
ARC
  5
3291
330
1F
100
AcDbEntity
  8
PIC06
  6
Continuous
 62
     7
100
AcDbCircle
 10
1275.286512206956
 20
1084.75614152155
 30
0.0
 40
59.44875452262683
100
AcDbArc
 50
271.6505044436025
 51
277.7607679007155
  0
ARC
  5
3292
330
1F
100
AcDbEntity
  8
PIC06
  6
Continuous
 62
     7
100
AcDbCircle
 10
1277.007871718119
 20
1025.017221799958
 30
0.0
 40
0.3149602888518689
100
AcDbArc
 50
91.65050444360245
 51
173.9961412296012
  0
ARC
  5
3293
330
1F
100
AcDbEntity
  8
PIC06
  6
Continuous
 62
     7
100
AcDbCircle
 10
1276.353359145072
 20
1024.063624130281
 30
0.0
 40
0.2362202166566176
100
AcDbArc
 50
270.0
 51
353.9961412296012
  0
ARC
  5
3294
330
1F
100
AcDbEntity
  8
PIC06
  6
Continuous
 62
     7
100
AcDbCircle
 10
1276.921991730765
 20
1025.132963418294
 30
0.0
 40
0.5905505416179225
100
AcDbArc
 50
91.57124436650155
 51
136.1233027140983
  0
ARC
  5
3295
330
1F
100
AcDbEntity
  8
PIC06
  6
Continuous
 62
     7
100
AcDbCircle
 10
1275.286512206956
 20
1084.75614152155
 30
0.0
 40
59.05505416155604
100
AcDbArc
 50
271.5712443665016
 51
277.4799881481936
  0
ARC
  5
3296
330
1F
100
AcDbEntity
  8
PIC06
  6
Continuous
 62
     7
100
AcDbCircle
 10
1281.539240773115
 20
1037.133426320287
 30
0.0
 40
11.02361011014611
100
AcDbArc
 50
277.4799881481936
 51
325.1255688231024
  0
ARC
  5
3297
330
1F
100
AcDbEntity
  8
PIC06
  6
Continuous
 62
     7
100
AcDbCircle
 10
1290.776885744352
 20
1030.695282614711
 30
0.0
 40
0.2362202166566176
100
AcDbArc
 50
98.5640409727139
 51
145.1255688231024
  0
ARC
  5
3298
330
1F
100
AcDbEntity
  8
PIC06
  6
Continuous
 62
     7
100
AcDbCircle
 10
1288.396597161993
 20
1046.501293620718
 30
0.0
 40
15.74801444308949
100
AcDbArc
 50
278.5640409726825
 51
285.1348836542992
  0
ARC
  5
3299
330
1F
100
AcDbEntity
  8
PIC06
  6
Continuous
 62
     7
100
AcDbCircle
 10
1292.569957329282
 20
1031.071490557453
 30
0.0
 40
0.2362202166566176
100
AcDbArc
 50
328.5027175272923
 51
105.1348836542992
  0
ARC
  5
329A
330
1F
100
AcDbEntity
  8
PIC06
  6
Continuous
 62
     7
100
AcDbCircle
 10
1266.587231900173
 20
1046.992094358366
 30
0.0
 40
30.70862816401389
100
AcDbArc
 50
314.7320593954865
 51
328.502615286791
  0
ARC
  5
329B
330
1F
100
AcDbEntity
  8
PIC06
  6
Continuous
 62
     7
100
AcDbCircle
 10
1290.693477997657
 20
1022.659324177889
 30
0.0
 40
3.543303249683916
100
AcDbArc
 50
134.7320593954865
 51
166.2813112644062
  0
ARC
  5
329C
330
1F
100
AcDbEntity
  8
PIC06
  6
Continuous
 62
     7
100
AcDbCircle
 10
1134.263736787348
 20
1060.846845278295
 30
0.0
 40
157.4801444308241
100
AcDbArc
 50
343.5861281697947
 51
346.2813112644062
  0
ARC
  5
329D
330
1F
100
AcDbEntity
  8
PIC06
  6
Continuous
 62
     7
100
AcDbCircle
 10
1284.774690179968
 20
1016.386467089271
 30
0.0
 40
0.1574801444377452
100
AcDbArc
 50
0.0
 51
180.0
  0
ARC
  5
329E
330
1F
100
AcDbEntity
  8
PIC06
  6
Continuous
 62
     7
100
AcDbCircle
 10
1283.631063467431
 20
1025.22137742025
 30
0.0
 40
0.1968501805471815
100
AcDbArc
 50
2.551172403683988
 51
33.67715337599905
  0
ARC
  5
329F
330
1F
100
AcDbEntity
  8
PIC06
  6
Continuous
 62
     7
100
AcDbCircle
 10
1283.631063467431
 20
1025.22137742025
 30
0.0
 40
0.1968501805471815
100
AcDbArc
 50
2.551172403683988
 51
33.67715337599905
  0
ARC
  5
32A0
330
1F
100
AcDbEntity
  8
PIC06
  6
Continuous
 62
     7
100
AcDbCircle
 10
1283.340884472772
 20
1025.65685854951
 30
0.0
 40
0.1968501805471815
100
AcDbArc
 50
33.67715337599905
 51
97.76076790071547
  0
ARC
  5
32A1
330
1F
100
AcDbEntity
  8
PIC06
  6
Continuous
 62
     7
100
AcDbCircle
 10
1275.286512206956
 20
1084.75614152155
 30
0.0
 40
59.44875452262683
100
AcDbArc
 50
271.6505044436025
 51
277.7607679007155
  0
ARC
  5
32A2
330
1F
100
AcDbEntity
  8
PIC06
  6
Continuous
 62
     7
100
AcDbCircle
 10
1277.007871718119
 20
1025.017221799958
 30
0.0
 40
0.3149602888518689
100
AcDbArc
 50
91.65050444360245
 51
173.9961412296012
  0
ARC
  5
32A3
330
1F
100
AcDbEntity
  8
PIC06
  6
Continuous
 62
     7
100
AcDbCircle
 10
1276.353359145072
 20
1024.063624130281
 30
0.0
 40
0.2362202166566176
100
AcDbArc
 50
270.0
 51
353.9961412296012
  0
ARC
  5
32A4
330
1F
100
AcDbEntity
  8
PIC06
  6
Continuous
 62
     7
100
AcDbCircle
 10
1276.921991730765
 20
1025.132963418294
 30
0.0
 40
0.5905505416179225
100
AcDbArc
 50
91.57124436650155
 51
136.1233027140983
  0
ARC
  5
32A5
330
1F
100
AcDbEntity
  8
PIC06
  6
Continuous
 62
     7
100
AcDbCircle
 10
1275.286512206956
 20
1084.75614152155
 30
0.0
 40
59.05505416155604
100
AcDbArc
 50
271.5712443665016
 51
277.4799881481936
  0
ARC
  5
32A6
330
1F
100
AcDbEntity
  8
PIC06
  6
Continuous
 62
     7
100
AcDbCircle
 10
1281.539240773115
 20
1037.133426320287
 30
0.0
 40
11.02361011014611
100
AcDbArc
 50
277.4799881481936
 51
325.1255688231024
  0
ARC
  5
32A7
330
1F
100
AcDbEntity
  8
PIC06
  6
Continuous
 62
     7
100
AcDbCircle
 10
1290.776885744352
 20
1030.695282614711
 30
0.0
 40
0.2362202166566176
100
AcDbArc
 50
98.5640409727139
 51
145.1255688231024
  0
ARC
  5
32A8
330
1F
100
AcDbEntity
  8
PIC06
  6
Continuous
 62
     7
100
AcDbCircle
 10
1288.396597161993
 20
1046.501293620718
 30
0.0
 40
15.74801444308949
100
AcDbArc
 50
278.5640409726825
 51
285.1348836542992
  0
ARC
  5
32A9
330
1F
100
AcDbEntity
  8
PIC06
  6
Continuous
 62
     7
100
AcDbCircle
 10
1292.569957329282
 20
1031.071490557453
 30
0.0
 40
0.2362202166566176
100
AcDbArc
 50
328.5027175272923
 51
105.1348836542992
  0
ARC
  5
32AA
330
1F
100
AcDbEntity
  8
PIC06
  6
Continuous
 62
     7
100
AcDbCircle
 10
1266.587231900173
 20
1046.992094358366
 30
0.0
 40
30.70862816401389
100
AcDbArc
 50
314.7320593954865
 51
328.502615286791
  0
ARC
  5
32AB
330
1F
100
AcDbEntity
  8
PIC06
  6
Continuous
 62
     7
100
AcDbCircle
 10
1290.693477997657
 20
1022.659324177889
 30
0.0
 40
3.543303249683916
100
AcDbArc
 50
134.7320593954865
 51
166.2813112644062
  0
ARC
  5
32AC
330
1F
100
AcDbEntity
  8
PIC06
  6
Continuous
 62
     7
100
AcDbCircle
 10
1134.263736787348
 20
1060.846845278295
 30
0.0
 40
157.4801444308241
100
AcDbArc
 50
343.5861281697947
 51
346.2813112644062
  0
ARC
  5
32AD
330
1F
100
AcDbEntity
  8
PIC06
  6
Continuous
 62
     7
100
AcDbCircle
 10
1284.774690179968
 20
1016.386467089271
 30
0.0
 40
0.1574801444377452
100
AcDbArc
 50
0.0
 51
180.0
  0
ARC
  5
32AE
330
1F
100
AcDbEntity
  8
PIC06
  6
Continuous
 62
     7
100
AcDbCircle
 10
1284.774690179968
 20
1016.386467089271
 30
0.0
 40
0.1574801444377452
100
AcDbArc
 50
90.0
 51
180.0
  0
ARC
  5
32AF
330
1F
100
AcDbEntity
  8
PIC06
  6
Continuous
 62
     7
100
AcDbCircle
 10
1283.631063467431
 20
1025.22137742025
 30
0.0
 40
0.1968501805471815
100
AcDbArc
 50
2.551172403683988
 51
33.67715337599905
  0
ARC
  5
32B0
330
1F
100
AcDbEntity
  8
PIC06
  6
Continuous
 62
     7
100
AcDbCircle
 10
1283.340884472772
 20
1025.65685854951
 30
0.0
 40
0.1968501805471815
100
AcDbArc
 50
33.67715337599905
 51
97.76076790071547
  0
ARC
  5
32B1
330
1F
100
AcDbEntity
  8
PIC06
  6
Continuous
 62
     7
100
AcDbCircle
 10
1275.286512206956
 20
1084.75614152155
 30
0.0
 40
59.44875452262683
100
AcDbArc
 50
271.6505044436025
 51
277.7607679007155
  0
ARC
  5
32B2
330
1F
100
AcDbEntity
  8
PIC06
  6
Continuous
 62
     7
100
AcDbCircle
 10
1277.007871718119
 20
1025.017221799958
 30
0.0
 40
0.3149602888518689
100
AcDbArc
 50
91.65050444360245
 51
173.9961412296012
  0
ARC
  5
32B3
330
1F
100
AcDbEntity
  8
PIC06
  6
Continuous
 62
     7
100
AcDbCircle
 10
1276.353359145072
 20
1024.063624130281
 30
0.0
 40
0.2362202166566176
100
AcDbArc
 50
270.0
 51
353.9961412296012
  0
ARC
  5
32B4
330
1F
100
AcDbEntity
  8
PIC06
  6
Continuous
 62
     7
100
AcDbCircle
 10
1276.921991730765
 20
1025.132963418294
 30
0.0
 40
0.5905505416179225
100
AcDbArc
 50
91.57124436650155
 51
136.1233027140983
  0
ARC
  5
32B5
330
1F
100
AcDbEntity
  8
PIC06
  6
Continuous
 62
     7
100
AcDbCircle
 10
1275.286512206956
 20
1084.75614152155
 30
0.0
 40
59.05505416155604
100
AcDbArc
 50
271.5712443665016
 51
277.4799881481936
  0
ARC
  5
32B6
330
1F
100
AcDbEntity
  8
PIC06
  6
Continuous
 62
     7
100
AcDbCircle
 10
1281.539240773115
 20
1037.133426320287
 30
0.0
 40
11.02361011014611
100
AcDbArc
 50
277.4799881481936
 51
325.1255688231024
  0
ARC
  5
32B7
330
1F
100
AcDbEntity
  8
PIC06
  6
Continuous
 62
     7
100
AcDbCircle
 10
1290.776885744352
 20
1030.695282614711
 30
0.0
 40
0.2362202166566176
100
AcDbArc
 50
98.5640409727139
 51
145.1255688231024
  0
ARC
  5
32B8
330
1F
100
AcDbEntity
  8
PIC06
  6
Continuous
 62
     7
100
AcDbCircle
 10
1288.396597161993
 20
1046.501293620718
 30
0.0
 40
15.74801444308949
100
AcDbArc
 50
278.5640409726825
 51
285.1348836542992
  0
ARC
  5
32B9
330
1F
100
AcDbEntity
  8
PIC06
  6
Continuous
 62
     7
100
AcDbCircle
 10
1292.569957329282
 20
1031.071490557453
 30
0.0
 40
0.2362202166566176
100
AcDbArc
 50
328.5027175272923
 51
105.1348836542992
  0
ARC
  5
32BA
330
1F
100
AcDbEntity
  8
PIC06
  6
Continuous
 62
     7
100
AcDbCircle
 10
1266.587231900173
 20
1046.992094358366
 30
0.0
 40
30.70862816401389
100
AcDbArc
 50
314.7320593954865
 51
328.502615286791
  0
ARC
  5
32BB
330
1F
100
AcDbEntity
  8
PIC06
  6
Continuous
 62
     7
100
AcDbCircle
 10
1290.693477997657
 20
1022.659324177889
 30
0.0
 40
3.543303249683916
100
AcDbArc
 50
134.7320593954865
 51
166.2813112644062
  0
ARC
  5
32BC
330
1F
100
AcDbEntity
  8
PIC06
  6
Continuous
 62
     7
100
AcDbCircle
 10
1134.263736787348
 20
1060.846845278295
 30
0.0
 40
157.4801444308241
100
AcDbArc
 50
343.5861281697947
 51
346.2813112644062
  0
ARC
  5
32BD
330
1F
100
AcDbEntity
  8
PIC06
  6
Continuous
 62
     7
100
AcDbCircle
 10
1284.774690179968
 20
1016.386467089271
 30
0.0
 40
0.1574801444377452
100
AcDbArc
 50
0.0
 51
90.0
  0
ARC
  5
32BE
330
1F
100
AcDbEntity
  8
PIC06
  6
Continuous
 62
     7
100
AcDbCircle
 10
1134.263736787348
 20
1060.846845278295
 30
0.0
 40
157.1651841419486
100
AcDbArc
 50
343.6946403330142
 51
346.2813112644062
  0
ARC
  5
32BF
330
1F
100
AcDbEntity
  8
PIC06
  6
Continuous
 62
     7
100
AcDbCircle
 10
1290.693477997657
 20
1022.659324177889
 30
0.0
 40
3.858263538559405
100
AcDbArc
 50
134.7320593954865
 51
166.2813112644062
  0
ARC
  5
32C0
330
1F
100
AcDbEntity
  8
PIC06
  6
Continuous
 62
     7
100
AcDbCircle
 10
1266.587231900173
 20
1046.992094358366
 30
0.0
 40
30.39366787513836
100
AcDbArc
 50
314.7320593954865
 51
328.1313718836117
  0
ARC
  5
32C1
330
1F
100
AcDbEntity
  8
PIC06
  6
Continuous
 62
     7
100
AcDbCircle
 10
1288.396597161993
 20
1046.501293620718
 30
0.0
 40
16.06297473194136
100
AcDbArc
 50
278.6847592323872
 51
284.4297915833077
  0
ARC
  5
32C2
330
1F
100
AcDbEntity
  8
PIC06
  6
Continuous
 62
     7
100
AcDbCircle
 10
1281.539240773115
 20
1037.133426320287
 30
0.0
 40
11.3385703990216
100
AcDbArc
 50
281.0653759793923
 51
324.9543754753095
  0
ARC
  5
32C3
330
1F
100
AcDbEntity
  8
PIC06
  6
Continuous
 62
     7
100
AcDbCircle
 10
1283.340884472772
 20
1025.65685854951
 30
0.0
 40
0.5118104693990504
100
AcDbArc
 50
33.67715337599905
 51
42.96033760409456
  0
ARC
  5
32C4
330
1F
100
AcDbEntity
  8
PIC06
  6
Continuous
 62
     7
100
AcDbCircle
 10
1283.631063467431
 20
1025.22137742025
 30
0.0
 40
0.5118104693990504
100
AcDbArc
 50
2.551172403683988
 51
33.67715337599905
  0
ARC
  5
32C5
330
1F
100
AcDbEntity
  8
PIC06
  6
Continuous
 62
     7
100
AcDbCircle
 10
1284.774690179968
 20
1016.386467089271
 30
0.0
 40
0.4724404332896137
100
AcDbArc
 50
45.20044535900124
 51
122.7202204465831
  0
ARC
  5
32C6
330
1F
100
AcDbEntity
  8
PIC06
  6
Continuous
 62
     7
100
AcDbCircle
 10
1266.587231900173
 20
1046.992094358366
 30
0.0
 40
30.39366787513836
100
AcDbArc
 50
314.7320593954865
 51
328.1313718836117
  0
ARC
  5
32C7
330
1F
100
AcDbEntity
  8
PIC06
  6
Continuous
 62
     7
100
AcDbCircle
 10
1288.396597161993
 20
1046.501293620718
 30
0.0
 40
16.06297473194136
100
AcDbArc
 50
278.6847592323872
 51
284.4297915833077
  0
ARC
  5
32C8
330
1F
100
AcDbEntity
  8
PIC06
  6
Continuous
 62
     7
100
AcDbCircle
 10
1281.539240773115
 20
1037.133426320287
 30
0.0
 40
11.3385703990216
100
AcDbArc
 50
281.0653759793923
 51
324.9543754753095
  0
ARC
  5
32C9
330
1F
100
AcDbEntity
  8
PIC06
  6
Continuous
 62
     7
100
AcDbCircle
 10
1283.340884472772
 20
1025.65685854951
 30
0.0
 40
0.5118104693990504
100
AcDbArc
 50
33.67715337599905
 51
42.96033760409456
  0
ARC
  5
32CA
330
1F
100
AcDbEntity
  8
PIC06
  6
Continuous
 62
     7
100
AcDbCircle
 10
1283.631063467431
 20
1025.22137742025
 30
0.0
 40
0.5118104693990504
100
AcDbArc
 50
2.551172403683988
 51
33.67715337599905
  0
ARC
  5
32CB
330
1F
100
AcDbEntity
  8
PIC06
  6
Continuous
 62
     7
100
AcDbCircle
 10
1284.774690179968
 20
1016.386467089271
 30
0.0
 40
0.4724404332896137
100
AcDbArc
 50
45.20044535900124
 51
122.7202204465831
  0
ARC
  5
32CC
330
1F
100
AcDbEntity
  8
PIC06
  6
Continuous
 62
     7
100
AcDbCircle
 10
1134.263736787348
 20
1060.846845278295
 30
0.0
 40
157.1651841419486
100
AcDbArc
 50
343.6946403330142
 51
346.2813112644062
  0
ARC
  5
32CD
330
1F
100
AcDbEntity
  8
PIC06
  6
Continuous
 62
     7
100
AcDbCircle
 10
1290.693477997657
 20
1022.659324177889
 30
0.0
 40
3.858263538559405
100
AcDbArc
 50
134.7320593954865
 51
166.2813112644062
  0
CIRCLE
  5
32CE
330
1F
100
AcDbEntity
  8
PIC06
  6
Continuous
 62
     7
100
AcDbCircle
 10
1270.365256964552
 20
1050.920370886549
 30
0.0
 40
0.6889756318915138
  0
ARC
  5
32CF
330
1F
100
AcDbEntity
  8
PIC06
  6
Continuous
 62
     7
100
AcDbCircle
 10
1267.950126293682
 20
1030.717160232492
 30
0.0
 40
0.1968501805471815
100
AcDbArc
 50
90.0
 51
175.9143832200035
  0
ARC
  5
32D0
330
1F
100
AcDbEntity
  8
PIC06
  6
Continuous
 62
     7
100
AcDbCircle
 10
1267.350035949905
 20
1028.39432810213
 30
0.0
 40
0.2362202166566176
100
AcDbArc
 50
270.0
 51
355.9143832200035
  0
ARC
  5
32D1
330
1F
100
AcDbEntity
  8
PIC06
  6
Continuous
 62
     7
100
AcDbCircle
 10
1266.993031947029
 20
1028.551808246567
 30
0.0
 40
0.3937003610707415
100
AcDbArc
 50
183.8760633186089
 51
270.0
  0
ARC
  5
32D2
330
1F
100
AcDbEntity
  8
PIC06
  6
Continuous
 62
     7
100
AcDbCircle
 10
1266.66447357043
 20
1031.071490557453
 30
0.0
 40
0.2362202166566176
100
AcDbArc
 50
90.0
 51
183.8760633186089
  0
ARC
  5
32D3
330
1F
100
AcDbEntity
  8
PIC06
  6
Continuous
 62
     7
100
AcDbCircle
 10
1266.993031947029
 20
1028.551808246567
 30
0.0
 40
0.0787400722188726
100
AcDbArc
 50
183.8760633186089
 51
270.0
  0
ARC
  5
32D4
330
1F
100
AcDbEntity
  8
PIC06
  6
Continuous
 62
     7
100
AcDbCircle
 10
1267.950126293682
 20
1030.717160232492
 30
0.0
 40
0.5118104693990504
100
AcDbArc
 50
147.4210296072079
 51
175.9143832200035
  0
ARC
  5
32D5
330
1F
100
AcDbEntity
  8
PIC06
  6
Continuous
 62
     7
100
AcDbCircle
 10
1266.993031947029
 20
1028.551808246567
 30
0.0
 40
0.0787400722188726
100
AcDbArc
 50
183.8760633186089
 51
270.0
  0
ARC
  5
32D6
330
1F
100
AcDbEntity
  8
PIC06
  6
Continuous
 62
     7
100
AcDbCircle
 10
1267.950126293682
 20
1030.717160232492
 30
0.0
 40
0.5118104693990504
100
AcDbArc
 50
147.4210296072079
 51
175.9143832200035
  0
ARC
  5
32D7
330
1F
100
AcDbEntity
  8
PIC06
  6
Continuous
 62
     7
100
AcDbCircle
 10
1266.66447357043
 20
1031.071490557453
 30
0.0
 40
0.2362202166566176
100
AcDbArc
 50
90.0
 51
183.8760633186089
  0
ARC
  5
32D8
330
1F
100
AcDbEntity
  8
PIC06
  6
Continuous
 62
     7
100
AcDbCircle
 10
1267.950126293682
 20
1030.717160232492
 30
0.0
 40
0.1968501805471815
100
AcDbArc
 50
90.0
 51
175.9143832200035
  0
ARC
  5
32D9
330
1F
100
AcDbEntity
  8
PIC06
  6
Continuous
 62
     7
100
AcDbCircle
 10
1267.350035949905
 20
1028.39432810213
 30
0.0
 40
0.2362202166566176
100
AcDbArc
 50
270.0
 51
355.9143832200035
  0
ARC
  5
32DA
330
1F
100
AcDbEntity
  8
PIC06
  6
Continuous
 62
     7
100
AcDbCircle
 10
1266.993031947029
 20
1028.551808246567
 30
0.0
 40
0.3937003610707415
100
AcDbArc
 50
183.8760633186089
 51
270.0
  0
ARC
  5
32DB
330
1F
100
AcDbEntity
  8
PIC06
  6
Continuous
 62
     7
100
AcDbCircle
 10
1275.920276435821
 20
1027.600779067334
 30
0.0
 40
3.070862816394299
100
AcDbArc
 50
187.4107112353101
 51
223.1564879053997
  0
ARC
  5
32DC
330
1F
100
AcDbEntity
  8
PIC06
  6
Continuous
 62
     7
100
AcDbCircle
 10
1304.420338197703
 20
1031.30771077411
 30
0.0
 40
31.81098917503084
100
AcDbArc
 50
184.8760248696015
 51
187.410714759205
  0
ARC
  5
32DD
330
1F
100
AcDbEntity
  8
PIC06
  6
Continuous
 62
     7
100
AcDbCircle
 10
1304.420338197703
 20
1031.30771077411
 30
0.0
 40
31.49602888615535
100
AcDbArc
 50
184.8760248696015
 51
187.4107148459114
  0
ARC
  5
32DE
330
1F
100
AcDbEntity
  8
PIC06
  6
Continuous
 62
     7
100
AcDbCircle
 10
1275.920276435821
 20
1027.600779067334
 30
0.0
 40
2.755902527542433
100
AcDbArc
 50
187.4107118240038
 51
223.0190160161892
  0
ARC
  5
32DF
330
1F
100
AcDbEntity
  8
PIC06
  6
Continuous
 62
     7
100
AcDbCircle
 10
1275.920276435821
 20
1027.600779067334
 30
0.0
 40
3.070862816394299
100
AcDbArc
 50
187.4107112353101
 51
223.1564879053997
  0
ARC
  5
32E0
330
1F
100
AcDbEntity
  8
PIC06
  6
Continuous
 62
     7
100
AcDbCircle
 10
1304.420338197703
 20
1031.30771077411
 30
0.0
 40
31.81098917503084
100
AcDbArc
 50
184.8760248696015
 51
187.410714759205
  0
ARC
  5
32E1
330
1F
100
AcDbEntity
  8
PIC06
  6
Continuous
 62
     7
100
AcDbCircle
 10
1304.420338197703
 20
1031.30771077411
 30
0.0
 40
31.49602888615535
100
AcDbArc
 50
184.8760248696015
 51
187.4107148459114
  0
ARC
  5
32E2
330
1F
100
AcDbEntity
  8
PIC06
  6
Continuous
 62
     7
100
AcDbCircle
 10
1275.920276435821
 20
1027.600779067334
 30
0.0
 40
2.755902527542433
100
AcDbArc
 50
187.4107118240038
 51
223.0190160161892
  0
ARC
  5
32E3
330
1F
100
AcDbEntity
  8
PIC06
  6
Continuous
 62
     7
100
AcDbCircle
 10
1304.420338197703
 20
1031.30771077411
 30
0.0
 40
31.81098917503084
100
AcDbArc
 50
184.8760248696015
 51
187.410714759205
  0
ARC
  5
32E4
330
1F
100
AcDbEntity
  8
PIC06
  6
Continuous
 62
     7
100
AcDbCircle
 10
1304.420338197703
 20
1031.30771077411
 30
0.0
 40
31.49602888615535
100
AcDbArc
 50
184.8760248696015
 51
187.4107148459114
  0
ARC
  5
32E5
330
1F
100
AcDbEntity
  8
PIC06
  6
Continuous
 62
     7
100
AcDbCircle
 10
1275.920276435821
 20
1027.600779067334
 30
0.0
 40
2.755902527542433
100
AcDbArc
 50
187.4107118240038
 51
223.0190160161892
  0
ARC
  5
32E6
330
1F
100
AcDbEntity
  8
PIC06
  6
Continuous
 62
     7
100
AcDbCircle
 10
1275.920276435821
 20
1027.600779067334
 30
0.0
 40
3.070862816394299
100
AcDbArc
 50
187.4107112353101
 51
223.1564879053997
  0
ARC
  5
32E7
330
1F
100
AcDbEntity
  8
PIC06
  6
Continuous
 62
     7
100
AcDbCircle
 10
1304.420060647703
 20
1031.307703926317
 30
0.0
 40
31.81071157081941
100
AcDbArc
 50
180.56728683081
 51
183.9514633047082
  0
ARC
  5
32E8
330
1F
100
AcDbEntity
  8
PIC06
  6
Continuous
 62
     7
100
AcDbCircle
 10
1271.55166282197
 20
1030.717160232492
 30
0.0
 40
0.5118104693990504
100
AcDbArc
 50
1.029320866988256
 51
32.57897039279202
  0
ARC
  5
32E9
330
1F
100
AcDbEntity
  8
PIC06
  6
Continuous
 62
     7
100
AcDbCircle
 10
1304.420338197703
 20
1031.30771077411
 30
0.0
 40
32.36216968053933
100
AcDbArc
 50
181.0293208669882
 51
187.410714823915
  0
ARC
  5
32EA
330
1F
100
AcDbEntity
  8
PIC06
  6
Continuous
 62
     7
100
AcDbCircle
 10
1275.920276435821
 20
1027.600779067334
 30
0.0
 40
3.622043321902789
100
AcDbArc
 50
187.4107123499883
 51
238.098561314201
  0
ARC
  5
32EB
330
1F
100
AcDbEntity
  8
PIC06
  6
Continuous
 62
     7
100
AcDbCircle
 10
1273.673285112519
 20
1023.991038495406
 30
0.0
 40
0.6299205777273594
100
AcDbArc
 50
13.90010492650437
 51
58.09856556639855
  0
ARC
  5
32EC
330
1F
100
AcDbEntity
  8
PIC06
  6
Continuous
 62
     7
100
AcDbCircle
 10
1274.219665268864
 20
1024.063624130281
 30
0.0
 40
0.2362202166566176
100
AcDbArc
 50
187.5673325680932
 51
270.0
  0
ARC
  5
32ED
330
1F
100
AcDbEntity
  8
PIC06
  6
Continuous
 62
     7
100
AcDbCircle
 10
1273.673285112519
 20
1023.991038495406
 30
0.0
 40
0.3149602888518689
100
AcDbArc
 50
7.567332568093254
 51
58.09856194422051
  0
ARC
  5
32EE
330
1F
100
AcDbEntity
  8
PIC06
  6
Continuous
 62
     7
100
AcDbCircle
 10
1275.920276435821
 20
1027.600779067334
 30
0.0
 40
3.937003610778279
100
AcDbArc
 50
187.410712349489
 51
238.0985619442205
  0
ARC
  5
32EF
330
1F
100
AcDbEntity
  8
PIC06
  6
Continuous
 62
     7
100
AcDbCircle
 10
1304.420338197703
 20
1031.30771077411
 30
0.0
 40
32.67712996939122
100
AcDbArc
 50
181.0293208669882
 51
187.4107147999998
  0
ARC
  5
32F0
330
1F
100
AcDbEntity
  8
PIC06
  6
Continuous
 62
     7
100
AcDbCircle
 10
1271.55166282197
 20
1030.717160232492
 30
0.0
 40
0.1968501805471815
100
AcDbArc
 50
1.029320866988256
 51
90.0
  0
ARC
  5
32F1
330
1F
100
AcDbEntity
  8
PIC06
  6
Continuous
 62
     7
100
AcDbCircle
 10
1272.688968338658
 20
1031.071490557453
 30
0.0
 40
0.2362202166566176
100
AcDbArc
 50
0.4265233899018138
 51
90.0
  0
ARC
  5
32F2
330
1F
100
AcDbEntity
  8
PIC06
  6
Continuous
 62
     7
100
AcDbCircle
 10
1304.420338197703
 20
1031.30771077411
 30
0.0
 40
31.49602888615535
100
AcDbArc
 50
180.4265233899018
 51
183.9421945152937
  0
ARC
  5
32F3
330
1F
100
AcDbEntity
  8
PIC06
  6
Continuous
 62
     7
100
AcDbCircle
 10
1271.55166282197
 20
1030.717160232492
 30
0.0
 40
0.5118104693990504
100
AcDbArc
 50
1.029320866988256
 51
32.57897039279202
  0
ARC
  5
32F4
330
1F
100
AcDbEntity
  8
PIC06
  6
Continuous
 62
     7
100
AcDbCircle
 10
1304.420338197703
 20
1031.30771077411
 30
0.0
 40
32.36216968053933
100
AcDbArc
 50
181.0293208669882
 51
187.410714823915
  0
ARC
  5
32F5
330
1F
100
AcDbEntity
  8
PIC06
  6
Continuous
 62
     7
100
AcDbCircle
 10
1275.920276435821
 20
1027.600779067334
 30
0.0
 40
3.622043321902789
100
AcDbArc
 50
187.4107123499883
 51
238.098561314201
  0
ARC
  5
32F6
330
1F
100
AcDbEntity
  8
PIC06
  6
Continuous
 62
     7
100
AcDbCircle
 10
1273.673285112519
 20
1023.991038495406
 30
0.0
 40
0.6299205777273594
100
AcDbArc
 50
13.90010492650437
 51
58.09856556639855
  0
ARC
  5
32F7
330
1F
100
AcDbEntity
  8
PIC06
  6
Continuous
 62
     7
100
AcDbCircle
 10
1274.219665268864
 20
1024.063624130281
 30
0.0
 40
0.2362202166566176
100
AcDbArc
 50
187.5673325680932
 51
270.0
  0
ARC
  5
32F8
330
1F
100
AcDbEntity
  8
PIC06
  6
Continuous
 62
     7
100
AcDbCircle
 10
1273.673285112519
 20
1023.991038495406
 30
0.0
 40
0.3149602888518689
100
AcDbArc
 50
7.567332568093254
 51
58.09856194422051
  0
ARC
  5
32F9
330
1F
100
AcDbEntity
  8
PIC06
  6
Continuous
 62
     7
100
AcDbCircle
 10
1275.920276435821
 20
1027.600779067334
 30
0.0
 40
3.937003610778279
100
AcDbArc
 50
187.410712349489
 51
238.0985619442205
  0
ARC
  5
32FA
330
1F
100
AcDbEntity
  8
PIC06
  6
Continuous
 62
     7
100
AcDbCircle
 10
1304.420338197703
 20
1031.30771077411
 30
0.0
 40
32.67712996939122
100
AcDbArc
 50
181.0293208669882
 51
187.4107147999998
  0
ARC
  5
32FB
330
1F
100
AcDbEntity
  8
PIC06
  6
Continuous
 62
     7
100
AcDbCircle
 10
1271.55166282197
 20
1030.717160232492
 30
0.0
 40
0.1968501805471815
100
AcDbArc
 50
1.029320866988256
 51
90.0
  0
ARC
  5
32FC
330
1F
100
AcDbEntity
  8
PIC06
  6
Continuous
 62
     7
100
AcDbCircle
 10
1272.688968338658
 20
1031.071490557453
 30
0.0
 40
0.2362202166566176
100
AcDbArc
 50
0.4265233899018138
 51
90.0
  0
ARC
  5
32FD
330
1F
100
AcDbEntity
  8
PIC06
  6
Continuous
 62
     7
100
AcDbCircle
 10
1304.420338197703
 20
1031.30771077411
 30
0.0
 40
31.49602888615535
100
AcDbArc
 50
180.4265233899018
 51
183.9421945152937
  0
ARC
  5
32FE
330
1F
100
AcDbEntity
  8
PIC06
  6
Continuous
 62
     7
100
AcDbCircle
 10
1304.420060647703
 20
1031.307703926317
 30
0.0
 40
31.81071157081941
100
AcDbArc
 50
180.56728683081
 51
183.9514633047082
  0
ARC
  5
32FF
330
1F
100
AcDbEntity
  8
PIC06
  6
Continuous
 62
     7
100
AcDbCircle
 10
1272.688968338658
 20
1031.071490557453
 30
0.0
 40
0.2362202166566176
100
AcDbArc
 50
0.4265233899018138
 51
90.0
  0
ARC
  5
3300
330
1F
100
AcDbEntity
  8
PIC06
  6
Continuous
 62
     7
100
AcDbCircle
 10
1304.420338197703
 20
1031.30771077411
 30
0.0
 40
31.49602888615535
100
AcDbArc
 50
180.4265233899018
 51
183.9421945152937
  0
ARC
  5
3301
330
1F
100
AcDbEntity
  8
PIC06
  6
Continuous
 62
     7
100
AcDbCircle
 10
1304.420060647703
 20
1031.307703926317
 30
0.0
 40
31.81071157081941
100
AcDbArc
 50
180.56728683081
 51
183.9514633047082
  0
ARC
  5
3302
330
1F
100
AcDbEntity
  8
PIC06
  6
Continuous
 62
     7
100
AcDbCircle
 10
1271.55166282197
 20
1030.717160232492
 30
0.0
 40
0.5118104693990504
100
AcDbArc
 50
1.029320866988256
 51
32.57897039279202
  0
ARC
  5
3303
330
1F
100
AcDbEntity
  8
PIC06
  6
Continuous
 62
     7
100
AcDbCircle
 10
1304.420338197703
 20
1031.30771077411
 30
0.0
 40
32.36216968053933
100
AcDbArc
 50
181.0293208669882
 51
187.410714823915
  0
ARC
  5
3304
330
1F
100
AcDbEntity
  8
PIC06
  6
Continuous
 62
     7
100
AcDbCircle
 10
1275.920276435821
 20
1027.600779067334
 30
0.0
 40
3.622043321902789
100
AcDbArc
 50
187.4107123499883
 51
238.098561314201
  0
ARC
  5
3305
330
1F
100
AcDbEntity
  8
PIC06
  6
Continuous
 62
     7
100
AcDbCircle
 10
1273.673285112519
 20
1023.991038495406
 30
0.0
 40
0.6299205777273594
100
AcDbArc
 50
13.90010492650437
 51
58.09856556639855
  0
ARC
  5
3306
330
1F
100
AcDbEntity
  8
PIC06
  6
Continuous
 62
     7
100
AcDbCircle
 10
1274.219665268864
 20
1024.063624130281
 30
0.0
 40
0.2362202166566176
100
AcDbArc
 50
187.5673325680932
 51
270.0
  0
ARC
  5
3307
330
1F
100
AcDbEntity
  8
PIC06
  6
Continuous
 62
     7
100
AcDbCircle
 10
1273.673285112519
 20
1023.991038495406
 30
0.0
 40
0.3149602888518689
100
AcDbArc
 50
7.567332568093254
 51
58.09856194422051
  0
ARC
  5
3308
330
1F
100
AcDbEntity
  8
PIC06
  6
Continuous
 62
     7
100
AcDbCircle
 10
1275.920276435821
 20
1027.600779067334
 30
0.0
 40
3.937003610778279
100
AcDbArc
 50
187.410712349489
 51
238.0985619442205
  0
ARC
  5
3309
330
1F
100
AcDbEntity
  8
PIC06
  6
Continuous
 62
     7
100
AcDbCircle
 10
1304.420338197703
 20
1031.30771077411
 30
0.0
 40
32.67712996939122
100
AcDbArc
 50
181.0293208669882
 51
187.4107147999998
  0
ARC
  5
330A
330
1F
100
AcDbEntity
  8
PIC06
  6
Continuous
 62
     7
100
AcDbCircle
 10
1271.55166282197
 20
1030.717160232492
 30
0.0
 40
0.1968501805471815
100
AcDbArc
 50
1.029320866988256
 51
90.0
  0
ARC
  5
330B
330
1F
100
AcDbEntity
  8
PIC06
  6
Continuous
 62
     7
100
AcDbCircle
 10
1271.55166282197
 20
1030.717160232492
 30
0.0
 40
0.1968501805471815
100
AcDbArc
 50
1.029320866988256
 51
90.0
  0
ARC
  5
330C
330
1F
100
AcDbEntity
  8
PIC06
  6
Continuous
 62
     7
100
AcDbCircle
 10
1272.688968338658
 20
1031.071490557453
 30
0.0
 40
0.2362202166566176
100
AcDbArc
 50
0.4265233899018138
 51
90.0
  0
ARC
  5
330D
330
1F
100
AcDbEntity
  8
PIC06
  6
Continuous
 62
     7
100
AcDbCircle
 10
1304.420338197703
 20
1031.30771077411
 30
0.0
 40
31.49602888615535
100
AcDbArc
 50
180.4265233899018
 51
183.9421945152937
  0
ARC
  5
330E
330
1F
100
AcDbEntity
  8
PIC06
  6
Continuous
 62
     7
100
AcDbCircle
 10
1304.420060647703
 20
1031.307703926317
 30
0.0
 40
31.81071157081941
100
AcDbArc
 50
180.56728683081
 51
183.9514633047082
  0
ARC
  5
330F
330
1F
100
AcDbEntity
  8
PIC06
  6
Continuous
 62
     7
100
AcDbCircle
 10
1271.55166282197
 20
1030.717160232492
 30
0.0
 40
0.5118104693990504
100
AcDbArc
 50
1.029320866988256
 51
32.57897039279202
  0
ARC
  5
3310
330
1F
100
AcDbEntity
  8
PIC06
  6
Continuous
 62
     7
100
AcDbCircle
 10
1304.420338197703
 20
1031.30771077411
 30
0.0
 40
32.36216968053933
100
AcDbArc
 50
181.0293208669882
 51
187.410714823915
  0
ARC
  5
3311
330
1F
100
AcDbEntity
  8
PIC06
  6
Continuous
 62
     7
100
AcDbCircle
 10
1275.920276435821
 20
1027.600779067334
 30
0.0
 40
3.622043321902789
100
AcDbArc
 50
187.4107123499883
 51
238.098561314201
  0
ARC
  5
3312
330
1F
100
AcDbEntity
  8
PIC06
  6
Continuous
 62
     7
100
AcDbCircle
 10
1273.673285112519
 20
1023.991038495406
 30
0.0
 40
0.6299205777273594
100
AcDbArc
 50
13.90010492650437
 51
58.09856556639855
  0
ARC
  5
3313
330
1F
100
AcDbEntity
  8
PIC06
  6
Continuous
 62
     7
100
AcDbCircle
 10
1274.219665268864
 20
1024.063624130281
 30
0.0
 40
0.2362202166566176
100
AcDbArc
 50
187.5673325680932
 51
270.0
  0
ARC
  5
3314
330
1F
100
AcDbEntity
  8
PIC06
  6
Continuous
 62
     7
100
AcDbCircle
 10
1273.673285112519
 20
1023.991038495406
 30
0.0
 40
0.3149602888518689
100
AcDbArc
 50
7.567332568093254
 51
58.09856194422051
  0
ARC
  5
3315
330
1F
100
AcDbEntity
  8
PIC06
  6
Continuous
 62
     7
100
AcDbCircle
 10
1275.920276435821
 20
1027.600779067334
 30
0.0
 40
3.937003610778279
100
AcDbArc
 50
187.410712349489
 51
238.0985619442205
  0
ARC
  5
3316
330
1F
100
AcDbEntity
  8
PIC06
  6
Continuous
 62
     7
100
AcDbCircle
 10
1304.420338197703
 20
1031.30771077411
 30
0.0
 40
32.67712996939122
100
AcDbArc
 50
181.0293208669882
 51
187.4107147999998
  0
ARC
  5
3317
330
1F
100
AcDbEntity
  8
PIC06
  6
Continuous
 62
     7
100
AcDbCircle
 10
1304.420338197703
 20
1031.30771077411
 30
0.0
 40
32.36216968053933
100
AcDbArc
 50
181.0293208669882
 51
187.410714823915
  0
ARC
  5
3318
330
1F
100
AcDbEntity
  8
PIC06
  6
Continuous
 62
     7
100
AcDbCircle
 10
1275.920276435821
 20
1027.600779067334
 30
0.0
 40
3.622043321902789
100
AcDbArc
 50
187.4107123499883
 51
238.098561314201
  0
ARC
  5
3319
330
1F
100
AcDbEntity
  8
PIC06
  6
Continuous
 62
     7
100
AcDbCircle
 10
1273.673285112519
 20
1023.991038495406
 30
0.0
 40
0.6299205777273594
100
AcDbArc
 50
13.90010492650437
 51
58.09856556639855
  0
ARC
  5
331A
330
1F
100
AcDbEntity
  8
PIC06
  6
Continuous
 62
     7
100
AcDbCircle
 10
1274.219665268864
 20
1024.063624130281
 30
0.0
 40
0.2362202166566176
100
AcDbArc
 50
187.5673325680932
 51
270.0
  0
ARC
  5
331B
330
1F
100
AcDbEntity
  8
PIC06
  6
Continuous
 62
     7
100
AcDbCircle
 10
1273.673285112519
 20
1023.991038495406
 30
0.0
 40
0.3149602888518689
100
AcDbArc
 50
7.567332568093254
 51
58.09856194422051
  0
ARC
  5
331C
330
1F
100
AcDbEntity
  8
PIC06
  6
Continuous
 62
     7
100
AcDbCircle
 10
1275.920276435821
 20
1027.600779067334
 30
0.0
 40
3.937003610778279
100
AcDbArc
 50
187.410712349489
 51
238.0985619442205
  0
ARC
  5
331D
330
1F
100
AcDbEntity
  8
PIC06
  6
Continuous
 62
     7
100
AcDbCircle
 10
1304.420338197703
 20
1031.30771077411
 30
0.0
 40
32.67712996939122
100
AcDbArc
 50
181.0293208669882
 51
187.4107147999998
  0
ARC
  5
331E
330
1F
100
AcDbEntity
  8
PIC06
  6
Continuous
 62
     7
100
AcDbCircle
 10
1271.55166282197
 20
1030.717160232492
 30
0.0
 40
0.1968501805471815
100
AcDbArc
 50
1.029320866988256
 51
90.0
  0
ARC
  5
331F
330
1F
100
AcDbEntity
  8
PIC06
  6
Continuous
 62
     7
100
AcDbCircle
 10
1272.688968338658
 20
1031.071490557453
 30
0.0
 40
0.2362202166566176
100
AcDbArc
 50
0.4265233899018138
 51
90.0
  0
ARC
  5
3320
330
1F
100
AcDbEntity
  8
PIC06
  6
Continuous
 62
     7
100
AcDbCircle
 10
1304.420338197703
 20
1031.30771077411
 30
0.0
 40
31.49602888615535
100
AcDbArc
 50
180.4265233899018
 51
183.9421945152937
  0
ARC
  5
3321
330
1F
100
AcDbEntity
  8
PIC06
  6
Continuous
 62
     7
100
AcDbCircle
 10
1304.420060647703
 20
1031.307703926317
 30
0.0
 40
31.81071157081941
100
AcDbArc
 50
180.56728683081
 51
183.9514633047082
  0
ARC
  5
3322
330
1F
100
AcDbEntity
  8
PIC06
  6
Continuous
 62
     7
100
AcDbCircle
 10
1271.55166282197
 20
1030.717160232492
 30
0.0
 40
0.5118104693990504
100
AcDbArc
 50
1.029320866988256
 51
32.57897039279202
  0
ARC
  5
3323
330
1F
100
AcDbEntity
  8
PIC06
  6
Continuous
 62
     7
100
AcDbCircle
 10
1275.920276435821
 20
1027.600779067334
 30
0.0
 40
3.622043321902789
100
AcDbArc
 50
187.4107123499883
 51
238.098561314201
  0
ARC
  5
3324
330
1F
100
AcDbEntity
  8
PIC06
  6
Continuous
 62
     7
100
AcDbCircle
 10
1273.673285112519
 20
1023.991038495406
 30
0.0
 40
0.6299205777273594
100
AcDbArc
 50
13.90010492650437
 51
58.09856556639855
  0
ARC
  5
3325
330
1F
100
AcDbEntity
  8
PIC06
  6
Continuous
 62
     7
100
AcDbCircle
 10
1274.219665268864
 20
1024.063624130281
 30
0.0
 40
0.2362202166566176
100
AcDbArc
 50
187.5673325680932
 51
270.0
  0
ARC
  5
3326
330
1F
100
AcDbEntity
  8
PIC06
  6
Continuous
 62
     7
100
AcDbCircle
 10
1273.673285112519
 20
1023.991038495406
 30
0.0
 40
0.3149602888518689
100
AcDbArc
 50
7.567332568093254
 51
58.09856194422051
  0
ARC
  5
3327
330
1F
100
AcDbEntity
  8
PIC06
  6
Continuous
 62
     7
100
AcDbCircle
 10
1275.920276435821
 20
1027.600779067334
 30
0.0
 40
3.937003610778279
100
AcDbArc
 50
187.410712349489
 51
238.0985619442205
  0
ARC
  5
3328
330
1F
100
AcDbEntity
  8
PIC06
  6
Continuous
 62
     7
100
AcDbCircle
 10
1304.420338197703
 20
1031.30771077411
 30
0.0
 40
32.67712996939122
100
AcDbArc
 50
181.0293208669882
 51
187.4107147999998
  0
ARC
  5
3329
330
1F
100
AcDbEntity
  8
PIC06
  6
Continuous
 62
     7
100
AcDbCircle
 10
1271.55166282197
 20
1030.717160232492
 30
0.0
 40
0.1968501805471815
100
AcDbArc
 50
1.029320866988256
 51
90.0
  0
ARC
  5
332A
330
1F
100
AcDbEntity
  8
PIC06
  6
Continuous
 62
     7
100
AcDbCircle
 10
1272.688968338658
 20
1031.071490557453
 30
0.0
 40
0.2362202166566176
100
AcDbArc
 50
0.4265233899018138
 51
90.0
  0
ARC
  5
332B
330
1F
100
AcDbEntity
  8
PIC06
  6
Continuous
 62
     7
100
AcDbCircle
 10
1304.420338197703
 20
1031.30771077411
 30
0.0
 40
31.49602888615535
100
AcDbArc
 50
180.4265233899018
 51
183.9421945152937
  0
ARC
  5
332C
330
1F
100
AcDbEntity
  8
PIC06
  6
Continuous
 62
     7
100
AcDbCircle
 10
1304.420060647703
 20
1031.307703926317
 30
0.0
 40
31.81071157081941
100
AcDbArc
 50
180.56728683081
 51
183.9514633047082
  0
ARC
  5
332D
330
1F
100
AcDbEntity
  8
PIC06
  6
Continuous
 62
     7
100
AcDbCircle
 10
1271.55166282197
 20
1030.717160232492
 30
0.0
 40
0.5118104693990504
100
AcDbArc
 50
1.029320866988256
 51
32.57897039279202
  0
ARC
  5
332E
330
1F
100
AcDbEntity
  8
PIC06
  6
Continuous
 62
     7
100
AcDbCircle
 10
1304.420338197703
 20
1031.30771077411
 30
0.0
 40
32.36216968053933
100
AcDbArc
 50
181.0293208669882
 51
187.410714823915
  0
ARC
  5
332F
330
1F
100
AcDbEntity
  8
PIC06
  6
Continuous
 62
     7
100
AcDbCircle
 10
1275.920276435821
 20
1027.600779067334
 30
0.0
 40
3.937003610778279
100
AcDbArc
 50
187.410712349489
 51
238.0985619442205
  0
ARC
  5
3330
330
1F
100
AcDbEntity
  8
PIC06
  6
Continuous
 62
     7
100
AcDbCircle
 10
1304.420338197703
 20
1031.30771077411
 30
0.0
 40
32.67712996939122
100
AcDbArc
 50
181.0293208669882
 51
187.4107147999998
  0
ARC
  5
3331
330
1F
100
AcDbEntity
  8
PIC06
  6
Continuous
 62
     7
100
AcDbCircle
 10
1271.55166282197
 20
1030.717160232492
 30
0.0
 40
0.1968501805471815
100
AcDbArc
 50
1.029320866988256
 51
90.0
  0
ARC
  5
3332
330
1F
100
AcDbEntity
  8
PIC06
  6
Continuous
 62
     7
100
AcDbCircle
 10
1272.688968338658
 20
1031.071490557453
 30
0.0
 40
0.2362202166566176
100
AcDbArc
 50
0.4265233899018138
 51
90.0
  0
ARC
  5
3333
330
1F
100
AcDbEntity
  8
PIC06
  6
Continuous
 62
     7
100
AcDbCircle
 10
1304.420338197703
 20
1031.30771077411
 30
0.0
 40
31.49602888615535
100
AcDbArc
 50
180.4265233899018
 51
183.9421945152937
  0
ARC
  5
3334
330
1F
100
AcDbEntity
  8
PIC06
  6
Continuous
 62
     7
100
AcDbCircle
 10
1304.420060647703
 20
1031.307703926317
 30
0.0
 40
31.81071157081941
100
AcDbArc
 50
180.56728683081
 51
183.9514633047082
  0
ARC
  5
3335
330
1F
100
AcDbEntity
  8
PIC06
  6
Continuous
 62
     7
100
AcDbCircle
 10
1271.55166282197
 20
1030.717160232492
 30
0.0
 40
0.5118104693990504
100
AcDbArc
 50
1.029320866988256
 51
32.57897039279202
  0
ARC
  5
3336
330
1F
100
AcDbEntity
  8
PIC06
  6
Continuous
 62
     7
100
AcDbCircle
 10
1304.420338197703
 20
1031.30771077411
 30
0.0
 40
32.36216968053933
100
AcDbArc
 50
181.0293208669882
 51
187.410714823915
  0
ARC
  5
3337
330
1F
100
AcDbEntity
  8
PIC06
  6
Continuous
 62
     7
100
AcDbCircle
 10
1275.920276435821
 20
1027.600779067334
 30
0.0
 40
3.622043321902789
100
AcDbArc
 50
187.4107123499883
 51
238.098561314201
  0
ARC
  5
3338
330
1F
100
AcDbEntity
  8
PIC06
  6
Continuous
 62
     7
100
AcDbCircle
 10
1273.673285112519
 20
1023.991038495406
 30
0.0
 40
0.6299205777273594
100
AcDbArc
 50
13.90010492650437
 51
58.09856556639855
  0
ARC
  5
3339
330
1F
100
AcDbEntity
  8
PIC06
  6
Continuous
 62
     7
100
AcDbCircle
 10
1274.219665268864
 20
1024.063624130281
 30
0.0
 40
0.2362202166566176
100
AcDbArc
 50
187.5673325680932
 51
270.0
  0
ARC
  5
333A
330
1F
100
AcDbEntity
  8
PIC06
  6
Continuous
 62
     7
100
AcDbCircle
 10
1273.673285112519
 20
1023.991038495406
 30
0.0
 40
0.3149602888518689
100
AcDbArc
 50
7.567332568093254
 51
58.09856194422051
  0
ARC
  5
333B
330
1F
100
AcDbEntity
  8
PIC06
  6
Continuous
 62
     7
100
AcDbCircle
 10
1274.219665268864
 20
1024.063624130281
 30
0.0
 40
0.2362202166566176
100
AcDbArc
 50
187.5673325680932
 51
270.0
  0
ARC
  5
333C
330
1F
100
AcDbEntity
  8
PIC06
  6
Continuous
 62
     7
100
AcDbCircle
 10
1273.673285112519
 20
1023.991038495406
 30
0.0
 40
0.3149602888518689
100
AcDbArc
 50
7.567332568093254
 51
58.09856194422051
  0
ARC
  5
333D
330
1F
100
AcDbEntity
  8
PIC06
  6
Continuous
 62
     7
100
AcDbCircle
 10
1275.920276435821
 20
1027.600779067334
 30
0.0
 40
3.937003610778279
100
AcDbArc
 50
187.410712349489
 51
238.0985619442205
  0
ARC
  5
333E
330
1F
100
AcDbEntity
  8
PIC06
  6
Continuous
 62
     7
100
AcDbCircle
 10
1304.420338197703
 20
1031.30771077411
 30
0.0
 40
32.67712996939122
100
AcDbArc
 50
181.0293208669882
 51
187.4107147999998
  0
ARC
  5
333F
330
1F
100
AcDbEntity
  8
PIC06
  6
Continuous
 62
     7
100
AcDbCircle
 10
1271.55166282197
 20
1030.717160232492
 30
0.0
 40
0.1968501805471815
100
AcDbArc
 50
1.029320866988256
 51
90.0
  0
ARC
  5
3340
330
1F
100
AcDbEntity
  8
PIC06
  6
Continuous
 62
     7
100
AcDbCircle
 10
1272.688968338658
 20
1031.071490557453
 30
0.0
 40
0.2362202166566176
100
AcDbArc
 50
0.4265233899018138
 51
90.0
  0
ARC
  5
3341
330
1F
100
AcDbEntity
  8
PIC06
  6
Continuous
 62
     7
100
AcDbCircle
 10
1304.420338197703
 20
1031.30771077411
 30
0.0
 40
31.49602888615535
100
AcDbArc
 50
180.4265233899018
 51
183.9421945152937
  0
ARC
  5
3342
330
1F
100
AcDbEntity
  8
PIC06
  6
Continuous
 62
     7
100
AcDbCircle
 10
1304.420060647703
 20
1031.307703926317
 30
0.0
 40
31.81071157081941
100
AcDbArc
 50
180.56728683081
 51
183.9514633047082
  0
ARC
  5
3343
330
1F
100
AcDbEntity
  8
PIC06
  6
Continuous
 62
     7
100
AcDbCircle
 10
1271.55166282197
 20
1030.717160232492
 30
0.0
 40
0.5118104693990504
100
AcDbArc
 50
1.029320866988256
 51
32.57897039279202
  0
ARC
  5
3344
330
1F
100
AcDbEntity
  8
PIC06
  6
Continuous
 62
     7
100
AcDbCircle
 10
1304.420338197703
 20
1031.30771077411
 30
0.0
 40
32.36216968053933
100
AcDbArc
 50
181.0293208669882
 51
187.410714823915
  0
ARC
  5
3345
330
1F
100
AcDbEntity
  8
PIC06
  6
Continuous
 62
     7
100
AcDbCircle
 10
1275.920276435821
 20
1027.600779067334
 30
0.0
 40
3.622043321902789
100
AcDbArc
 50
187.4107123499883
 51
238.098561314201
  0
ARC
  5
3346
330
1F
100
AcDbEntity
  8
PIC06
  6
Continuous
 62
     7
100
AcDbCircle
 10
1273.673285112519
 20
1023.991038495406
 30
0.0
 40
0.6299205777273594
100
AcDbArc
 50
13.90010492650437
 51
58.09856556639855
  0
VIEWPORT
  5
220
102
{ACAD_XDICTIONARY
360
33F9
102
}
330
58
100
AcDbEntity
 67
     1
  8
0
100
AcDbViewport
 10
133.1884465048756
 20
109.1175889154594
 30
0.0
 40
445.141553439829
 41
249.3387543209733
 68
     1
 69
     1
 12
133.1884465048756
 22
109.1175889154594
 13
0.0
 23
0.0
 14
0.5
 24
0.5
 15
0.5
 25
0.5
 16
0.0
 26
0.0
 36
1.0
 17
0.0
 27
0.0
 37
0.0
 42
50.0
 43
0.0
 44
0.0
 45
249.3387543209733
 50
0.0
 51
0.0
 72
  1000
 90
    32800
  1

281
     0
 71
     1
 74
     0
110
0.0
120
0.0
130
0.0
111
1.0
121
0.0
131
0.0
112
0.0
122
1.0
132
0.0
 79
     0
146
0.0
  0
ENDSEC
  0
SECTION
  2
OBJECTS
  0
DICTIONARY
  5
C
330
0
100
AcDbDictionary
281
     1
  3
ACAD_2007HEADERVARS_RT
350
33F3
  3
ACAD_CIP_PREVIOUS_PRODUCT_INFO
350
33E2
  3
ACAD_COLOR
350
73
  3
ACAD_GROUP
350
D
  3
ACAD_LAYOUT
350
1A
  3
ACAD_MATERIAL
350
72
  3
ACAD_MLEADERSTYLE
350
33DE
  3
ACAD_MLINESTYLE
350
17
  3
ACAD_PLOTSETTINGS
350
19
  3
ACAD_PLOTSTYLENAME
350
E
  3
ACAD_SCALELIST
350
33CC
  3
ACAD_TABLESTYLE
350
86
  3
ACAD_VISUALSTYLE
350
33B3
  3
ACDB_RECOMPOSE_DATA
350
33F1
  3
AcDbVariableDictionary
350
66
  3
ASE_INDEX_DICTIONARY
350
3385
  3
DWGPROPS
350
33F2
  0
DICTIONARY
  5
1D0
330
2
100
AcDbDictionary
280
     1
281
     1
  3
ACAD_LAYERSTATES
360
1D1
  0
DICTIONARY
  5
33E3
330
10
100
AcDbDictionary
280
     1
281
     1
  3
ADSK_XREC_LAYER_RECONCILED
360
33E4
  0
DICTIONARY
  5
33E5
330
2AD0
100
AcDbDictionary
280
     1
281
     1
  3
ADSK_XREC_LAYER_RECONCILED
360
33E6
  0
DICTIONARY
  5
33F9
330
220
100
AcDbDictionary
280
     1
281
     1
  3
ACAD_XREC_ROUNDTRIP
360
33FA
  0
DICTIONARY
  5
33F3
102
{ACAD_REACTORS
330
C
102
}
330
C
100
AcDbDictionary
281
     1
  3
DIMFXL
350
33F4
  0
XRECORD
  5
33E2
102
{ACAD_REACTORS
330
C
102
}
330
C
100
AcDbXrecord
280
     1
300
ACD
300
2012
300
85730ACD_2012_0F
  0
DICTIONARY
  5
73
102
{ACAD_REACTORS
330
C
102
}
330
C
100
AcDbDictionary
281
     1
  0
DICTIONARY
  5
D
102
{ACAD_REACTORS
330
C
102
}
330
C
100
AcDbDictionary
281
     1
  0
DICTIONARY
  5
1A
102
{ACAD_REACTORS
330
C
102
}
330
C
100
AcDbDictionary
281
     1
  3
Layout1
350
59
  3
Model
350
22
  0
DICTIONARY
  5
72
102
{ACAD_REACTORS
330
C
102
}
330
C
100
AcDbDictionary
281
     1
  3
ByBlock
350
33A3
  3
ByLayer
350
339B
  3
Global
350
33AB
  0
DICTIONARY
  5
33DE
102
{ACAD_REACTORS
330
C
102
}
330
C
100
AcDbDictionary
281
     1
  3
Standard
350
33DF
  0
DICTIONARY
  5
17
102
{ACAD_REACTORS
330
C
102
}
330
C
100
AcDbDictionary
281
     1
  3
Standard
350
18
  0
DICTIONARY
  5
19
102
{ACAD_REACTORS
330
C
102
}
330
C
100
AcDbDictionary
281
     1
  0
ACDBDICTIONARYWDFLT
  5
E
102
{ACAD_REACTORS
330
C
102
}
330
C
100
AcDbDictionary
281
     1
  3
Normal
350
F
100
AcDbDictionaryWithDefault
340
F
  0
DICTIONARY
  5
33CC
102
{ACAD_REACTORS
330
C
102
}
330
C
100
AcDbDictionary
281
     1
  3
A0
350
33CD
  3
A1
350
33CE
  3
A2
350
33CF
  3
A3
350
33D0
  3
A4
350
33D1
  3
A5
350
33D2
  3
A6
350
33D3
  3
A7
350
33D4
  3
A8
350
33D5
  3
A9
350
33D6
  3
B0
350
33D7
  3
B1
350
33D8
  3
B2
350
33D9
  3
B3
350
33DA
  3
B4
350
33DB
  3
B5
350
33DC
  3
B6
350
33DD
  0
DICTIONARY
  5
86
102
{ACAD_REACTORS
330
C
102
}
330
C
100
AcDbDictionary
281
     1
  3
Standard
350
87
  0
DICTIONARY
  5
33B3
102
{ACAD_REACTORS
330
C
102
}
330
C
100
AcDbDictionary
281
     1
  3
2dWireframe
350
33B9
  3
Basic
350
33B8
  3
Brighten
350
33BF
  3
ColorChange
350
33C3
  3
Conceptual
350
33BC
  3
Dim
350
33BE
  3
EdgeColorOff
350
33CB
  3
Facepattern
350
33C2
  3
Flat
350
33B4
  3
FlatWithEdges
350
33B5
  3
Gouraud
350
33B6
  3
GouraudWithEdges
350
33B7
  3
Hidden
350
33BB
  3
JitterOff
350
33C9
  3
Linepattern
350
33C1
  3
OverhangOff
350
33CA
  3
Realistic
350
33BD
  3
Shaded
350
33C8
  3
Shaded with edges
350
33C7
  3
Shades of Gray
350
33C4
  3
Sketchy
350
33C5
  3
Thicken
350
33C0
  3
Wireframe
350
33BA
  3
X-Ray
350
33C6
  0
XRECORD
  5
33F1
102
{ACAD_REACTORS
330
C
102
}
330
C
100
AcDbXrecord
280
     1
 90
        1
330
87
  0
DICTIONARY
  5
66
102
{ACAD_REACTORS
330
C
102
}
330
C
100
AcDbDictionary
281
     1
  3
CANNOSCALE
350
33E8
  3
CMLEADERSTYLE
350
33E7
  3
CTABLESTYLE
350
1FB
  3
DIMASSOC
350
67
  3
HIDETEXT
350
6B
  3
INDEXCTL
350
33EA
  3
PROJECTNAME
350
3399
  3
SORTENTS
350
33E9
  3
XCLIPFRAME
350
33EB
  0
DICTIONARY
  5
3385
102
{ACAD_REACTORS
330
C
102
}
330
C
100
AcDbDictionary
281
     1
  3
ASEBlockHierarchyIndexRecord
350
3386
1001
DCO15
1040
1691404802.18
  0
XRECORD
  5
33F2
102
{ACAD_REACTORS
330
C
102
}
330
C
100
AcDbXrecord
280
     1
  1
DWGPROPS COOKIE
  2

  3

  4

  6

  7

  8
jgayle
  9

300
=
301
=
302
=
303
=
304
=
305
=
306
=
307
=
308
=
309
=
 40
0.0613633564814815
 41
2454741.57157603
 42
2456134.630724815
  1

 90
        0
  0
DICTIONARY
  5
1D1
102
{ACAD_REACTORS
330
1D0
102
}
330
1D0
100
AcDbDictionary
281
     1
  0
XRECORD
  5
33E4
102
{ACAD_REACTORS
330
33E3
102
}
330
33E3
100
AcDbXrecord
280
     1
290
     1
  0
XRECORD
  5
33E6
102
{ACAD_REACTORS
330
33E5
102
}
330
33E5
100
AcDbXrecord
280
     1
290
     1
  0
XRECORD
  5
33FA
102
{ACAD_REACTORS
330
33F9
102
}
330
33F9
100
AcDbXrecord
280
     1
102
SHADEPLOT
 70
     0
  0
XRECORD
  5
33F4
102
{ACAD_REACTORS
330
33F3
102
}
330
33F3
100
AcDbXrecord
280
     1
 40
0.18
  0
LAYOUT
  5
59
102
{ACAD_XDICTIONARY
360
227
102
}
102
{ACAD_REACTORS
330
1A
102
}
330
1A
100
AcDbPlotSettings
  1

  2
none_device
  4
ISO_A4_(210.00_x_297.00_MM)
  6

 40
7.5
 41
20.0
 42
7.5
 43
20.0
 44
210.0
 45
297.0
 46
0.0
 47
0.0
 48
0.0
 49
0.0
140
0.0
141
0.0
142
1.0
143
1.0
 70
   688
 72
     1
 73
     1
 74
     5
  7

 75
    16
147
1.0
148
0.0
149
0.0
100
AcDbLayout
  1
Layout1
 70
     1
 71
     1
 10
-20.0
 20
-7.5
 11
277.0
 21
202.5
 12
0.0
 22
0.0
 32
0.0
 14
1.000000000000000E+20
 24
1.000000000000000E+20
 34
1.000000000000000E+20
 15
-1.000000000000000E+20
 25
-1.000000000000000E+20
 35
-1.000000000000000E+20
146
0.0
 13
0.0
 23
0.0
 33
0.0
 16
1.0
 26
0.0
 36
0.0
 17
0.0
 27
1.0
 37
0.0
 76
     0
330
58
331
220
1001
ACAD_PSEXT
1000
None
1000
None
1000
Not applicable
1000
The layout will not be plotted unless a new plotter configuration name is selected.
1070
     0
  0
LAYOUT
  5
22
102
{ACAD_XDICTIONARY
360
33F5
102
}
102
{ACAD_REACTORS
330
1A
102
}
330
1A
100
AcDbPlotSettings
  1

  2
none_device
  4
ANSI_A_(8.50_x_11.00_Inches)
  6

 40
6.349999904632568
 41
19.04999923706055
 42
6.350006103515625
 43
19.04998779296875
 44
215.8999938964844
 45
279.3999938964844
 46
0.0
 47
0.0
 48
0.0
 49
0.0
140
0.0
141
0.0
142
1.0
143
2.584895464708373
 70
 11952
 72
     0
 73
     1
 74
     0
  7

 75
     0
147
0.3868628397755418
148
0.0
149
0.0
100
AcDbLayout
  1
Model
 70
     1
 71
     0
 10
0.0
 20
0.0
 11
12.0
 21
9.0
 12
0.0
 22
0.0
 32
0.0
 14
0.0
 24
0.0
 34
0.0
 15
0.0
 25
0.0
 35
0.0
146
0.0
 13
0.0
 23
0.0
 33
0.0
 16
1.0
 26
0.0
 36
0.0
 17
0.0
 27
1.0
 37
0.0
 76
     0
330
1F
331
3391
  0
MATERIAL
  5
33A3
102
{ACAD_XDICTIONARY
360
33A4
102
}
102
{ACAD_REACTORS
330
72
102
}
330
72
100
AcDbMaterial
  1
ByBlock
 72
     0
 43
0.0208333333333333
 43
0.0
 43
0.0
 43
0.0
 43
0.0
 43
0.0208333333333333
 43
0.0
 43
0.0
 43
0.0
 43
0.0
 43
1.0
 43
0.0
 43
0.0
 43
0.0
 43
0.0
 43
1.0
 77
     0
 47
0.0208333333333333
 47
0.0
 47
0.0
 47
0.0
 47
0.0
 47
0.0208333333333333
 47
0.0
 47
0.0
 47
0.0
 47
0.0
 47
1.0
 47
0.0
 47
0.0
 47
0.0
 47
0.0
 47
1.0
171
     0
 49
0.0208333333333333
 49
0.0
 49
0.0
 49
0.0
 49
0.0
 49
0.0208333333333333
 49
0.0
 49
0.0
 49
0.0
 49
0.0
 49
1.0
 49
0.0
 49
0.0
 49
0.0
 49
0.0
 49
1.0
175
     0
142
0.0208333333333333
142
0.0
142
0.0
142
0.0
142
0.0
142
0.0208333333333333
142
0.0
142
0.0
142
0.0
142
0.0
142
1.0
142
0.0
142
0.0
142
0.0
142
0.0
142
1.0
179
     0
144
0.0208333333333333
144
0.0
144
0.0
144
0.0
144
0.0
144
0.0208333333333333
144
0.0
144
0.0
144
0.0
144
0.0
144
1.0
144
0.0
144
0.0
144
0.0
144
0.0
144
1.0
147
0.0208333333333333
147
0.0
147
0.0
147
0.0
147
0.0
147
0.0208333333333333
147
0.0
147
0.0
147
0.0
147
0.0
147
1.0
147
0.0
147
0.0
147
0.0
147
0.0
147
1.0
  0
MATERIAL
  5
339B
102
{ACAD_XDICTIONARY
360
339C
102
}
102
{ACAD_REACTORS
330
72
102
}
330
72
100
AcDbMaterial
  1
ByLayer
 72
     0
 43
0.0208333333333333
 43
0.0
 43
0.0
 43
0.0
 43
0.0
 43
0.0208333333333333
 43
0.0
 43
0.0
 43
0.0
 43
0.0
 43
1.0
 43
0.0
 43
0.0
 43
0.0
 43
0.0
 43
1.0
 77
     0
 47
0.0208333333333333
 47
0.0
 47
0.0
 47
0.0
 47
0.0
 47
0.0208333333333333
 47
0.0
 47
0.0
 47
0.0
 47
0.0
 47
1.0
 47
0.0
 47
0.0
 47
0.0
 47
0.0
 47
1.0
171
     0
 49
0.0208333333333333
 49
0.0
 49
0.0
 49
0.0
 49
0.0
 49
0.0208333333333333
 49
0.0
 49
0.0
 49
0.0
 49
0.0
 49
1.0
 49
0.0
 49
0.0
 49
0.0
 49
0.0
 49
1.0
175
     0
142
0.0208333333333333
142
0.0
142
0.0
142
0.0
142
0.0
142
0.0208333333333333
142
0.0
142
0.0
142
0.0
142
0.0
142
1.0
142
0.0
142
0.0
142
0.0
142
0.0
142
1.0
179
     0
144
0.0208333333333333
144
0.0
144
0.0
144
0.0
144
0.0
144
0.0208333333333333
144
0.0
144
0.0
144
0.0
144
0.0
144
1.0
144
0.0
144
0.0
144
0.0
144
0.0
144
1.0
147
0.0208333333333333
147
0.0
147
0.0
147
0.0
147
0.0
147
0.0208333333333333
147
0.0
147
0.0
147
0.0
147
0.0
147
1.0
147
0.0
147
0.0
147
0.0
147
0.0
147
1.0
  0
MATERIAL
  5
33AB
102
{ACAD_XDICTIONARY
360
33AC
102
}
102
{ACAD_REACTORS
330
72
102
}
330
72
100
AcDbMaterial
  1
Global
 72
     0
 43
0.0208333333333333
 43
0.0
 43
0.0
 43
0.0
 43
0.0
 43
0.0208333333333333
 43
0.0
 43
0.0
 43
0.0
 43
0.0
 43
1.0
 43
0.0
 43
0.0
 43
0.0
 43
0.0
 43
1.0
 77
     0
 47
0.0208333333333333
 47
0.0
 47
0.0
 47
0.0
 47
0.0
 47
0.0208333333333333
 47
0.0
 47
0.0
 47
0.0
 47
0.0
 47
1.0
 47
0.0
 47
0.0
 47
0.0
 47
0.0
 47
1.0
171
     0
 49
0.0208333333333333
 49
0.0
 49
0.0
 49
0.0
 49
0.0
 49
0.0208333333333333
 49
0.0
 49
0.0
 49
0.0
 49
0.0
 49
1.0
 49
0.0
 49
0.0
 49
0.0
 49
0.0
 49
1.0
175
     0
142
0.0208333333333333
142
0.0
142
0.0
142
0.0
142
0.0
142
0.0208333333333333
142
0.0
142
0.0
142
0.0
142
0.0
142
1.0
142
0.0
142
0.0
142
0.0
142
0.0
142
1.0
179
     0
144
0.0208333333333333
144
0.0
144
0.0
144
0.0
144
0.0
144
0.0208333333333333
144
0.0
144
0.0
144
0.0
144
0.0
144
1.0
144
0.0
144
0.0
144
0.0
144
0.0
144
1.0
147
0.0208333333333333
147
0.0
147
0.0
147
0.0
147
0.0
147
0.0208333333333333
147
0.0
147
0.0
147
0.0
147
0.0
147
1.0
147
0.0
147
0.0
147
0.0
147
0.0
147
1.0
  0
MLEADERSTYLE
  5
33DF
102
{ACAD_XDICTIONARY
360
33EF
102
}
102
{ACAD_REACTORS
330
33DE
102
}
330
33DE
100
AcDbMLeaderStyle
170
     2
171
     1
172
     0
 90
        2
 40
0.0
 41
0.0
173
     1
 91
-1056964608
340
14
 92
       -2
290
     1
 42
0.09
291
     1
 43
0.36
  3
Standard
 44
0.18
300

342
11
174
     1
178
     6
175
     1
176
     0
 93
-1056964608
 45
0.18
292
     0
297
     0
 46
0.18
 94
-1056964608
 47
1.0
 49
1.0
140
1.0
293
     1
141
0.0
294
     1
177
     0
142
1.0
295
     0
296
     0
143
0.125
1001
ACAD_MLEADERVER
1070
     2
  0
MLINESTYLE
  5
18
102
{ACAD_REACTORS
330
17
102
}
330
17
100
AcDbMlineStyle
  2
STANDARD
 70
     0
  3

 62
   256
 51
90.0
 52
90.0
 71
     2
 49
0.5
 62
   256
  6
BYLAYER
 49
-0.5
 62
   256
  6
BYLAYER
  0
ACDBPLACEHOLDER
  5
F
102
{ACAD_REACTORS
330
E
102
}
330
E
  0
SCALE
  5
33CD
102
{ACAD_REACTORS
330
33CC
102
}
330
33CC
100
AcDbScale
 70
     0
300
1:1
140
1.0
141
1.0
290
     1
  0
SCALE
  5
33CE
102
{ACAD_REACTORS
330
33CC
102
}
330
33CC
100
AcDbScale
 70
     0
300
1/128" = 1'-0"
140
0.0078125
141
12.0
290
     0
  0
SCALE
  5
33CF
102
{ACAD_REACTORS
330
33CC
102
}
330
33CC
100
AcDbScale
 70
     0
300
1/64" = 1'-0"
140
0.015625
141
12.0
290
     0
  0
SCALE
  5
33D0
102
{ACAD_REACTORS
330
33CC
102
}
330
33CC
100
AcDbScale
 70
     0
300
1/32" = 1'-0"
140
0.03125
141
12.0
290
     0
  0
SCALE
  5
33D1
102
{ACAD_REACTORS
330
33CC
102
}
330
33CC
100
AcDbScale
 70
     0
300
1/16" = 1'-0"
140
0.0625
141
12.0
290
     0
  0
SCALE
  5
33D2
102
{ACAD_REACTORS
330
33CC
102
}
330
33CC
100
AcDbScale
 70
     0
300
3/32" = 1'-0"
140
0.09375
141
12.0
290
     0
  0
SCALE
  5
33D3
102
{ACAD_REACTORS
330
33CC
102
}
330
33CC
100
AcDbScale
 70
     0
300
1/8" = 1'-0"
140
0.125
141
12.0
290
     0
  0
SCALE
  5
33D4
102
{ACAD_REACTORS
330
33CC
102
}
330
33CC
100
AcDbScale
 70
     0
300
3/16" = 1'-0"
140
0.1875
141
12.0
290
     0
  0
SCALE
  5
33D5
102
{ACAD_REACTORS
330
33CC
102
}
330
33CC
100
AcDbScale
 70
     0
300
1/4" = 1'-0"
140
0.25
141
12.0
290
     0
  0
SCALE
  5
33D6
102
{ACAD_REACTORS
330
33CC
102
}
330
33CC
100
AcDbScale
 70
     0
300
3/8" = 1'-0"
140
0.375
141
12.0
290
     0
  0
SCALE
  5
33D7
102
{ACAD_REACTORS
330
33CC
102
}
330
33CC
100
AcDbScale
 70
     0
300
1/2" = 1'-0"
140
0.5
141
12.0
290
     0
  0
SCALE
  5
33D8
102
{ACAD_REACTORS
330
33CC
102
}
330
33CC
100
AcDbScale
 70
     0
300
3/4" = 1'-0"
140
0.75
141
12.0
290
     0
  0
SCALE
  5
33D9
102
{ACAD_REACTORS
330
33CC
102
}
330
33CC
100
AcDbScale
 70
     0
300
1" = 1'-0"
140
1.0
141
12.0
290
     0
  0
SCALE
  5
33DA
102
{ACAD_REACTORS
330
33CC
102
}
330
33CC
100
AcDbScale
 70
     0
300
1-1/2" = 1'-0"
140
1.5
141
12.0
290
     0
  0
SCALE
  5
33DB
102
{ACAD_REACTORS
330
33CC
102
}
330
33CC
100
AcDbScale
 70
     0
300
3" = 1'-0"
140
3.0
141
12.0
290
     0
  0
SCALE
  5
33DC
102
{ACAD_REACTORS
330
33CC
102
}
330
33CC
100
AcDbScale
 70
     0
300
6" = 1'-0"
140
6.0
141
12.0
290
     0
  0
SCALE
  5
33DD
102
{ACAD_REACTORS
330
33CC
102
}
330
33CC
100
AcDbScale
 70
     0
300
1'-0" = 1'-0"
140
12.0
141
12.0
290
     0
  0
TABLESTYLE
  5
87
102
{ACAD_XDICTIONARY
360
33ED
102
}
102
{ACAD_REACTORS
330
86
102
}
330
86
100
AcDbTableStyle
  3
Standard
 70
     0
 71
     0
 40
0.06
 41
0.06
280
     0
281
     0
  7
Standard
140
0.18
170
     2
 62
     0
 63
     7
283
     0
274
    -2
284
     1
 64
     0
275
    -2
285
     1
 65
     0
276
    -2
286
     1
 66
     0
277
    -2
287
     1
 67
     0
278
    -2
288
     1
 68
     0
279
    -2
289
     1
 69
     0
  7
Standard
140
0.25
170
     5
 62
     0
 63
     7
283
     0
274
    -2
284
     1
 64
     0
275
    -2
285
     1
 65
     0
276
    -2
286
     1
 66
     0
277
    -2
287
     1
 67
     0
278
    -2
288
     1
 68
     0
279
    -2
289
     1
 69
     0
  7
Standard
140
0.18
170
     5
 62
     0
 63
     7
283
     0
274
    -2
284
     1
 64
     0
275
    -2
285
     1
 65
     0
276
    -2
286
     1
 66
     0
277
    -2
287
     1
 67
     0
278
    -2
288
     1
 68
     0
279
    -2
289
     1
 69
     0
  0
VISUALSTYLE
  5
33B9
102
{ACAD_XDICTIONARY
360
3408
102
}
102
{ACAD_REACTORS
330
33B3
102
}
330
33B3
100
AcDbVisualStyle
  2
2dWireframe
 70
     4
 71
     0
 72
     2
 73
     0
 90
        0
 40
-0.6
 41
-30.0
 62
     5
 63
     7
 74
     1
 91
        4
 64
     7
 65
   257
 75
     1
175
     1
 42
1.0
 92
        0
 66
   257
 43
1.0
 76
     1
 77
     6
 78
     2
 67
     7
 79
     5
170
     0
171
     0
290
     0
174
     0
 93
        1
 44
0.0
173
     0
291
     0
 45
0.0
1001
ACAD
1000
AcDbSavedByObjectVersion
1070
     0
  0
VISUALSTYLE
  5
33B8
102
{ACAD_XDICTIONARY
360
3406
102
}
102
{ACAD_REACTORS
330
33B3
102
}
330
33B3
100
AcDbVisualStyle
  2
Basic
 70
     7
 71
     1
 72
     0
 73
     1
 90
        0
 40
-0.6
 41
-30.0
 62
     5
 63
     7
 74
     0
 91
        4
 64
     7
 65
   257
 75
     1
175
     1
 42
1.0
 92
        8
 66
     7
 43
1.0
 76
     1
 77
     6
 78
     2
 67
     7
 79
     5
170
     0
171
     0
290
     0
174
     0
 93
        1
 44
0.0
173
     0
291
     1
 45
0.0
1001
ACAD
1000
AcDbSavedByObjectVersion
1070
     0
  0
VISUALSTYLE
  5
33BF
102
{ACAD_XDICTIONARY
360
3414
102
}
102
{ACAD_REACTORS
330
33B3
102
}
330
33B3
100
AcDbVisualStyle
  2
Brighten
 70
    12
 71
     2
 72
     2
 73
     0
 90
        0
 40
-0.6
 41
-30.0
 62
     5
 63
     7
 74
     1
 91
        4
 64
     7
 65
   257
 75
     1
175
     1
 42
1.0
 92
        8
 66
     7
 43
1.0
 76
     1
 77
     6
 78
     2
 67
     7
 79
     5
170
     0
171
     0
290
     0
174
     0
 93
        1
 44
50.0
173
     0
291
     1
 45
0.0
1001
ACAD
1000
AcDbSavedByObjectVersion
1070
     0
  0
VISUALSTYLE
  5
33C3
102
{ACAD_XDICTIONARY
360
341C
102
}
102
{ACAD_REACTORS
330
33B3
102
}
330
33B3
100
AcDbVisualStyle
  2
ColorChange
 70
    16
 71
     2
 72
     2
 73
     3
 90
        0
 40
-0.6
 41
-30.0
 62
     5
 63
     8
 74
     1
 91
        4
 64
     7
 65
   257
 75
     1
175
     1
 42
1.0
 92
        8
 66
     8
 43
1.0
 76
     1
 77
     6
 78
     2
 67
     7
 79
     5
170
     0
171
     0
290
     0
174
     0
 93
        1
 44
0.0
173
     0
291
     1
 45
0.0
1001
ACAD
1000
AcDbSavedByObjectVersion
1070
     0
  0
VISUALSTYLE
  5
33BC
102
{ACAD_XDICTIONARY
360
340E
102
}
102
{ACAD_REACTORS
330
33B3
102
}
330
33B3
100
AcDbVisualStyle
  2
Conceptual
 70
     9
 71
     3
 72
     2
 73
     0
 90
        0
 40
-0.6
 41
-30.0
 62
     5
 63
     7
 74
     2
 91
        2
 64
     7
 65
   257
 75
     1
175
     1
 42
179.0
 92
        8
 66
     7
 43
1.0
 76
     1
 77
     6
 78
     2
 67
     7
 79
     3
170
     0
171
     0
290
     0
174
     0
 93
        1
 44
0.0
173
     0
291
     0
 45
0.0
1001
ACAD
1000
AcDbSavedByObjectVersion
1070
     0
  0
VISUALSTYLE
  5
33BE
102
{ACAD_XDICTIONARY
360
3412
102
}
102
{ACAD_REACTORS
330
33B3
102
}
330
33B3
100
AcDbVisualStyle
  2
Dim
 70
    11
 71
     2
 72
     2
 73
     0
 90
        0
 40
-0.6
 41
-30.0
 62
     5
 63
     7
 74
     1
 91
        4
 64
     7
 65
   257
 75
     1
175
     1
 42
1.0
 92
        8
 66
     7
 43
1.0
 76
     1
 77
     6
 78
     2
 67
     7
 79
     5
170
     0
171
     0
290
     0
174
     0
 93
        1
 44
-50.0
173
     0
291
     1
 45
0.0
1001
ACAD
1000
AcDbSavedByObjectVersion
1070
     0
  0
VISUALSTYLE
  5
33CB
102
{ACAD_XDICTIONARY
360
342C
102
}
102
{ACAD_REACTORS
330
33B3
102
}
330
33B3
100
AcDbVisualStyle
  2
EdgeColorOff
 70
    22
 71
     2
 72
     2
 73
     0
 90
        0
 40
-0.6
 41
-30.0
 62
     5
 63
     7
 74
     1
 91
        4
 64
     7
 65
   257
 75
     1
175
     1
 42
1.0
 92
        8
 66
     7
 43
1.0
 76
     1
 77
     6
 78
     2
 67
     7
 79
     5
170
     0
171
     0
290
     0
174
     0
 93
        1
 44
0.0
173
     0
291
     1
 45
0.0
1001
ACAD
1000
AcDbSavedByObjectVersion
1070
     0
  0
VISUALSTYLE
  5
33C2
102
{ACAD_XDICTIONARY
360
341A
102
}
102
{ACAD_REACTORS
330
33B3
102
}
330
33B3
100
AcDbVisualStyle
  2
Facepattern
 70
    15
 71
     2
 72
     2
 73
     0
 90
        0
 40
-0.6
 41
-30.0
 62
     5
 63
     7
 74
     1
 91
        4
 64
     7
 65
   257
 75
     1
175
     1
 42
1.0
 92
        8
 66
     7
 43
1.0
 76
     1
 77
     6
 78
     2
 67
     7
 79
     5
170
     0
171
     0
290
     0
174
     0
 93
        1
 44
0.0
173
     0
291
     1
 45
0.0
1001
ACAD
1000
AcDbSavedByObjectVersion
1070
     0
  0
VISUALSTYLE
  5
33B4
102
{ACAD_XDICTIONARY
360
33FE
102
}
102
{ACAD_REACTORS
330
33B3
102
}
330
33B3
100
AcDbVisualStyle
  2
Flat
 70
     0
 71
     2
 72
     1
 73
     1
 90
        2
 40
-0.6
 41
30.0
 62
     5
 63
     7
 74
     0
 91
        0
 64
     7
 65
   257
 75
     1
175
     1
 42
1.0
 92
        8
 66
     7
 43
1.0
 76
     1
 77
     6
 78
     2
 67
     7
 79
     5
170
     0
171
     0
290
     0
174
     0
 93
       13
 44
0.0
173
     0
291
     1
 45
0.0
1001
ACAD
1000
AcDbSavedByObjectVersion
1070
     0
  0
VISUALSTYLE
  5
33B5
102
{ACAD_XDICTIONARY
360
3400
102
}
102
{ACAD_REACTORS
330
33B3
102
}
330
33B3
100
AcDbVisualStyle
  2
FlatWithEdges
 70
     1
 71
     2
 72
     1
 73
     1
 90
        2
 40
-0.6
 41
30.0
 62
     5
 63
     7
 74
     1
 91
        0
 64
     7
 65
   257
 75
     1
175
     1
 42
1.0
 92
        0
 66
   257
 43
1.0
 76
     1
 77
     6
 78
     2
 67
     7
 79
     5
170
     0
171
     0
290
     0
174
     0
 93
       13
 44
0.0
173
     0
291
     1
 45
0.0
1001
ACAD
1000
AcDbSavedByObjectVersion
1070
     0
  0
VISUALSTYLE
  5
33B6
102
{ACAD_XDICTIONARY
360
3402
102
}
102
{ACAD_REACTORS
330
33B3
102
}
330
33B3
100
AcDbVisualStyle
  2
Gouraud
 70
     2
 71
     2
 72
     2
 73
     1
 90
        2
 40
-0.6
 41
30.0
 62
     5
 63
     7
 74
     0
 91
        0
 64
     7
 65
   257
 75
     1
175
     1
 42
1.0
 92
        0
 66
     7
 43
1.0
 76
     1
 77
     6
 78
     2
 67
     7
 79
     5
170
     0
171
     0
290
     0
174
     0
 93
       13
 44
0.0
173
     0
291
     1
 45
0.0
1001
ACAD
1000
AcDbSavedByObjectVersion
1070
     0
  0
VISUALSTYLE
  5
33B7
102
{ACAD_XDICTIONARY
360
3404
102
}
102
{ACAD_REACTORS
330
33B3
102
}
330
33B3
100
AcDbVisualStyle
  2
GouraudWithEdges
 70
     3
 71
     2
 72
     2
 73
     1
 90
        2
 40
-0.6
 41
30.0
 62
     5
 63
     7
 74
     1
 91
        0
 64
     7
 65
   257
 75
     1
175
     1
 42
1.0
 92
        0
 66
   257
 43
1.0
 76
     1
 77
     6
 78
     2
 67
     7
 79
     5
170
     0
171
     0
290
     0
174
     0
 93
       13
 44
0.0
173
     0
291
     1
 45
0.0
1001
ACAD
1000
AcDbSavedByObjectVersion
1070
     0
  0
VISUALSTYLE
  5
33BB
102
{ACAD_XDICTIONARY
360
340C
102
}
102
{ACAD_REACTORS
330
33B3
102
}
330
33B3
100
AcDbVisualStyle
  2
Hidden
 70
     6
 71
     1
 72
     2
 73
     2
 90
        0
 40
-0.6
 41
-30.0
 62
     5
 63
     7
 74
     2
 91
        2
 64
     7
 65
   257
 75
     2
175
     1
 42
40.0
 92
        0
 66
   257
 43
1.0
 76
     1
 77
     6
 78
     2
 67
     7
 79
     3
170
     0
171
     0
290
     0
174
     0
 93
        1
 44
0.0
173
     0
291
     0
 45
0.0
1001
ACAD
1000
AcDbSavedByObjectVersion
1070
     0
  0
VISUALSTYLE
  5
33C9
102
{ACAD_XDICTIONARY
360
3428
102
}
102
{ACAD_REACTORS
330
33B3
102
}
330
33B3
100
AcDbVisualStyle
  2
JitterOff
 70
    20
 71
     2
 72
     2
 73
     0
 90
        0
 40
-0.6
 41
-30.0
 62
     5
 63
     7
 74
     1
 91
        4
 64
     7
 65
   257
 75
     1
175
     1
 42
1.0
 92
       10
 66
     7
 43
1.0
 76
     1
 77
     6
 78
     2
 67
     7
 79
     5
170
     0
171
     0
290
     0
174
     0
 93
        1
 44
0.0
173
     0
291
     1
 45
0.0
1001
ACAD
1000
AcDbSavedByObjectVersion
1070
     0
  0
VISUALSTYLE
  5
33C1
102
{ACAD_XDICTIONARY
360
3418
102
}
102
{ACAD_REACTORS
330
33B3
102
}
330
33B3
100
AcDbVisualStyle
  2
Linepattern
 70
    14
 71
     2
 72
     2
 73
     0
 90
        0
 40
-0.6
 41
-30.0
 62
     5
 63
     7
 74
     1
 91
        4
 64
     7
 65
   257
 75
     7
175
     7
 42
1.0
 92
        8
 66
     7
 43
1.0
 76
     1
 77
     6
 78
     2
 67
     7
 79
     5
170
     0
171
     0
290
     0
174
     0
 93
        1
 44
0.0
173
     0
291
     1
 45
0.0
1001
ACAD
1000
AcDbSavedByObjectVersion
1070
     0
  0
VISUALSTYLE
  5
33CA
102
{ACAD_XDICTIONARY
360
342A
102
}
102
{ACAD_REACTORS
330
33B3
102
}
330
33B3
100
AcDbVisualStyle
  2
OverhangOff
 70
    21
 71
     2
 72
     2
 73
     0
 90
        0
 40
-0.6
 41
-30.0
 62
     5
 63
     7
 74
     1
 91
        4
 64
     7
 65
   257
 75
     1
175
     1
 42
1.0
 92
        9
 66
     7
 43
1.0
 76
     1
 77
     6
 78
     2
 67
     7
 79
     5
170
     0
171
     0
290
     0
174
     0
 93
        1
 44
0.0
173
     0
291
     1
 45
0.0
1001
ACAD
1000
AcDbSavedByObjectVersion
1070
     0
  0
VISUALSTYLE
  5
33BD
102
{ACAD_XDICTIONARY
360
3410
102
}
102
{ACAD_REACTORS
330
33B3
102
}
330
33B3
100
AcDbVisualStyle
  2
Realistic
 70
     8
 71
     2
 72
     3
 73
     0
 90
        2
 40
-0.6
 41
30.0
 62
     5
 63
     7
 74
     0
 91
        0
 64
     7
 65
   257
 75
     1
175
     1
 42
1.0
 92
        8
 66
   257
 43
1.0
 76
     1
 77
     6
 78
     2
 67
     7
 79
     3
170
     0
171
     0
290
     0
174
     0
 93
       13
 44
0.0
173
     0
291
     0
 45
0.0
1001
ACAD
1000
AcDbSavedByObjectVersion
1070
     0
  0
VISUALSTYLE
  5
33C8
102
{ACAD_XDICTIONARY
360
3426
102
}
102
{ACAD_REACTORS
330
33B3
102
}
330
33B3
100
AcDbVisualStyle
  2
Shaded
 70
    27
 71
     2
 72
     2
 73
     1
 90
        2
 40
-0.6
 41
30.0
 62
     5
 63
     7
 74
     0
 91
        4
 64
     7
 65
   257
 75
     1
175
     1
 42
1.0
 92
        8
 66
   257
 43
1.0
 76
     1
 77
     6
 78
     2
 67
     8
 79
     3
170
     0
171
     0
290
     0
174
     0
 93
        5
 44
0.0
173
     0
291
     0
 45
0.0
1001
ACAD
1000
AcDbSavedByObjectVersion
1070
     0
  0
VISUALSTYLE
  5
33C7
102
{ACAD_XDICTIONARY
360
3424
102
}
102
{ACAD_REACTORS
330
33B3
102
}
330
33B3
100
AcDbVisualStyle
  2
Shaded with edges
 70
    26
 71
     2
 72
     2
 73
     1
 90
        2
 40
-0.6
 41
30.0
 62
     5
 63
     7
 74
     1
 91
       10
 64
     7
 65
   257
 75
     2
175
     1
 42
1.0
 92
        8
 66
   257
 43
1.0
 76
     1
 77
     6
 78
     2
 67
     7
 79
     3
170
     0
171
     0
290
     0
174
     0
 93
        5
 44
0.0
173
     0
291
     0
 45
0.0
1001
ACAD
1000
AcDbSavedByObjectVersion
1070
     0
  0
VISUALSTYLE
  5
33C4
102
{ACAD_XDICTIONARY
360
341E
102
}
102
{ACAD_REACTORS
330
33B3
102
}
330
33B3
100
AcDbVisualStyle
  2
Shades of Gray
 70
    23
 71
     2
 72
     2
 73
     3
 90
        0
 40
-0.6
 41
-30.0
 62
     5
 63
     7
 74
     2
 91
        2
 64
     7
 65
     7
 75
     1
175
     1
 42
40.0
 92
        8
 66
     7
 43
1.0
 76
     1
 77
     6
 78
     2
 67
     7
 79
     3
170
     0
171
     0
290
     0
174
     0
 93
        1
 44
0.0
173
     0
291
     0
 45
0.0
1001
ACAD
1000
AcDbSavedByObjectVersion
1070
     0
  0
VISUALSTYLE
  5
33C5
102
{ACAD_XDICTIONARY
360
3420
102
}
102
{ACAD_REACTORS
330
33B3
102
}
330
33B3
100
AcDbVisualStyle
  2
Sketchy
 70
    24
 71
     1
 72
     2
 73
     2
 90
        0
 40
-0.6
 41
-30.0
 62
     5
 63
     7
 74
     2
 91
        2
 64
     7
 65
     7
 75
     1
175
     1
 42
40.0
 92
       11
 66
     7
 43
1.0
 76
     1
 77
     6
 78
     2
 67
     7
 79
     6
170
     0
171
     0
290
     0
174
     0
 93
        1
 44
0.0
173
     0
291
     0
 45
0.0
1001
ACAD
1000
AcDbSavedByObjectVersion
1070
     0
  0
VISUALSTYLE
  5
33C0
102
{ACAD_XDICTIONARY
360
3416
102
}
102
{ACAD_REACTORS
330
33B3
102
}
330
33B3
100
AcDbVisualStyle
  2
Thicken
 70
    13
 71
     2
 72
     2
 73
     0
 90
        0
 40
-0.6
 41
-30.0
 62
     5
 63
     7
 74
     1
 91
        4
 64
     7
 65
   257
 75
     1
175
     1
 42
1.0
 92
       12
 66
     7
 43
1.0
 76
     1
 77
     6
 78
     2
 67
     7
 79
     5
170
     0
171
     0
290
     0
174
     0
 93
        1
 44
0.0
173
     0
291
     1
 45
0.0
1001
ACAD
1000
AcDbSavedByObjectVersion
1070
     0
  0
VISUALSTYLE
  5
33BA
102
{ACAD_XDICTIONARY
360
340A
102
}
102
{ACAD_REACTORS
330
33B3
102
}
330
33B3
100
AcDbVisualStyle
  2
Wireframe
 70
     5
 71
     0
 72
     2
 73
     0
 90
        0
 40
-0.6
 41
-30.0
 62
     5
 63
     7
 74
     1
 91
        4
 64
     7
 65
   257
 75
     1
175
     1
 42
1.0
 92
        0
 66
   257
 43
1.0
 76
     1
 77
     6
 78
     2
 67
     7
 79
     3
170
     0
171
     0
290
     0
174
     0
 93
        1
 44
0.0
173
     0
291
     0
 45
0.0
1001
ACAD
1000
AcDbSavedByObjectVersion
1070
     0
  0
VISUALSTYLE
  5
33C6
102
{ACAD_XDICTIONARY
360
3422
102
}
102
{ACAD_REACTORS
330
33B3
102
}
330
33B3
100
AcDbVisualStyle
  2
X-Ray
 70
    25
 71
     2
 72
     2
 73
     1
 90
        1
 40
0.5
 41
-30.0
 62
     5
 63
     7
 74
     1
 91
        0
 64
     7
 65
   257
 75
     1
175
     1
 42
1.0
 92
        8
 66
     7
 43
1.0
 76
     1
 77
     6
 78
     2
 67
     7
 79
     3
170
     0
171
     0
290
     0
174
     0
 93
       13
 44
0.0
173
     0
291
     0
 45
0.0
1001
ACAD
1000
AcDbSavedByObjectVersion
1070
     0
  0
DICTIONARYVAR
  5
33E8
102
{ACAD_REACTORS
330
66
102
}
330
66
100
DictionaryVariables
280
     0
  1
1:1
  0
DICTIONARYVAR
  5
33E7
102
{ACAD_REACTORS
330
66
102
}
330
66
100
DictionaryVariables
280
     0
  1
STANDARD
  0
DICTIONARYVAR
  5
1FB
102
{ACAD_REACTORS
330
66
102
}
330
66
100
DictionaryVariables
280
     0
  1
STANDARD
  0
DICTIONARYVAR
  5
67
102
{ACAD_REACTORS
330
66
102
}
330
66
100
DictionaryVariables
280
     0
  1
2
  0
DICTIONARYVAR
  5
6B
102
{ACAD_REACTORS
330
66
102
}
330
66
100
DictionaryVariables
280
     0
  1
1
  0
DICTIONARYVAR
  5
33EA
102
{ACAD_REACTORS
330
66
102
}
330
66
100
DictionaryVariables
280
     0
  1
0
  0
DICTIONARYVAR
  5
3399
102
{ACAD_REACTORS
330
66
102
}
330
66
100
DictionaryVariables
280
     0
  1

  0
DICTIONARYVAR
  5
33E9
102
{ACAD_REACTORS
330
66
102
}
330
66
100
DictionaryVariables
280
     0
  1
127
  0
DICTIONARYVAR
  5
33EB
102
{ACAD_REACTORS
330
66
102
}
330
66
100
DictionaryVariables
280
     0
  1
2
  0
XRECORD
  5
3386
102
{ACAD_REACTORS
330
3385
102
}
330
3385
100
AcDbXrecord
280
     1
  0
DICTIONARY
  5
227
330
59
100
AcDbDictionary
280
     1
281
     1
  3
ACAD_XREC_ROUNDTRIP
360
33F7
  3
ADSK_XREC_LAYOUTTHUMBNAIL
360
228
  0
DICTIONARY
  5
33F5
330
22
100
AcDbDictionary
280
     1
281
     1
  3
ACAD_XREC_ROUNDTRIP
360
33F6
  0
DICTIONARY
  5
33A4
330
33A3
100
AcDbDictionary
280
     1
281
     1
  3
ACAD_XREC_ROUNDTRIP
360
33FC
  3
BUMPTILE
360
33A6
  3
DIFFUSETILE
360
33A5
  3
OPACITYTILE
360
33A9
  3
REFLECTIONTILE
360
33A8
  3
REFRACTIONTILE
360
33AA
  3
SPECULARTILE
360
33A7
  0
DICTIONARY
  5
339C
330
339B
100
AcDbDictionary
280
     1
281
     1
  3
ACAD_XREC_ROUNDTRIP
360
33FB
  3
BUMPTILE
360
339E
  3
DIFFUSETILE
360
339D
  3
OPACITYTILE
360
33A1
  3
REFLECTIONTILE
360
33A0
  3
REFRACTIONTILE
360
33A2
  3
SPECULARTILE
360
339F
  0
DICTIONARY
  5
33AC
330
33AB
100
AcDbDictionary
280
     1
281
     1
  3
ACAD_XREC_ROUNDTRIP
360
33FD
  3
BUMPTILE
360
33AE
  3
DIFFUSETILE
360
33AD
  3
OPACITYTILE
360
33B1
  3
REFLECTIONTILE
360
33B0
  3
REFRACTIONTILE
360
33B2
  3
SPECULARTILE
360
33AF
  0
DICTIONARY
  5
33EF
330
33DF
100
AcDbDictionary
280
     1
281
     1
  3
ACAD_XREC_ROUNDTRIP
360
33F0
  0
DICTIONARY
  5
33ED
330
87
100
AcDbDictionary
280
     1
281
     1
  3
ACAD_ROUNDTRIP_2008_TABLESTYLE_CELLSTYLEMAP
360
33EE
  3
ACAD_XREC_ROUNDTRIP
360
33F8
  0
DICTIONARY
  5
3408
330
33B9
100
AcDbDictionary
280
     1
281
     1
  3
ACAD_XREC_ROUNDTRIP
360
3409
  0
DICTIONARY
  5
3406
330
33B8
100
AcDbDictionary
280
     1
281
     1
  3
ACAD_XREC_ROUNDTRIP
360
3407
  0
DICTIONARY
  5
3414
330
33BF
100
AcDbDictionary
280
     1
281
     1
  3
ACAD_XREC_ROUNDTRIP
360
3415
  0
DICTIONARY
  5
341C
330
33C3
100
AcDbDictionary
280
     1
281
     1
  3
ACAD_XREC_ROUNDTRIP
360
341D
  0
DICTIONARY
  5
340E
330
33BC
100
AcDbDictionary
280
     1
281
     1
  3
ACAD_XREC_ROUNDTRIP
360
340F
  0
DICTIONARY
  5
3412
330
33BE
100
AcDbDictionary
280
     1
281
     1
  3
ACAD_XREC_ROUNDTRIP
360
3413
  0
DICTIONARY
  5
342C
330
33CB
100
AcDbDictionary
280
     1
281
     1
  3
ACAD_XREC_ROUNDTRIP
360
342D
  0
DICTIONARY
  5
341A
330
33C2
100
AcDbDictionary
280
     1
281
     1
  3
ACAD_XREC_ROUNDTRIP
360
341B
  0
DICTIONARY
  5
33FE
330
33B4
100
AcDbDictionary
280
     1
281
     1
  3
ACAD_XREC_ROUNDTRIP
360
33FF
  0
DICTIONARY
  5
3400
330
33B5
100
AcDbDictionary
280
     1
281
     1
  3
ACAD_XREC_ROUNDTRIP
360
3401
  0
DICTIONARY
  5
3402
330
33B6
100
AcDbDictionary
280
     1
281
     1
  3
ACAD_XREC_ROUNDTRIP
360
3403
  0
DICTIONARY
  5
3404
330
33B7
100
AcDbDictionary
280
     1
281
     1
  3
ACAD_XREC_ROUNDTRIP
360
3405
  0
DICTIONARY
  5
340C
330
33BB
100
AcDbDictionary
280
     1
281
     1
  3
ACAD_XREC_ROUNDTRIP
360
340D
  0
DICTIONARY
  5
3428
330
33C9
100
AcDbDictionary
280
     1
281
     1
  3
ACAD_XREC_ROUNDTRIP
360
3429
  0
DICTIONARY
  5
3418
330
33C1
100
AcDbDictionary
280
     1
281
     1
  3
ACAD_XREC_ROUNDTRIP
360
3419
  0
DICTIONARY
  5
342A
330
33CA
100
AcDbDictionary
280
     1
281
     1
  3
ACAD_XREC_ROUNDTRIP
360
342B
  0
DICTIONARY
  5
3410
330
33BD
100
AcDbDictionary
280
     1
281
     1
  3
ACAD_XREC_ROUNDTRIP
360
3411
  0
DICTIONARY
  5
3426
330
33C8
100
AcDbDictionary
280
     1
281
     1
  3
ACAD_XREC_ROUNDTRIP
360
3427
  0
DICTIONARY
  5
3424
330
33C7
100
AcDbDictionary
280
     1
281
     1
  3
ACAD_XREC_ROUNDTRIP
360
3425
  0
DICTIONARY
  5
341E
330
33C4
100
AcDbDictionary
280
     1
281
     1
  3
ACAD_XREC_ROUNDTRIP
360
341F
  0
DICTIONARY
  5
3420
330
33C5
100
AcDbDictionary
280
     1
281
     1
  3
ACAD_XREC_ROUNDTRIP
360
3421
  0
DICTIONARY
  5
3416
330
33C0
100
AcDbDictionary
280
     1
281
     1
  3
ACAD_XREC_ROUNDTRIP
360
3417
  0
DICTIONARY
  5
340A
330
33BA
100
AcDbDictionary
280
     1
281
     1
  3
ACAD_XREC_ROUNDTRIP
360
340B
  0
DICTIONARY
  5
3422
330
33C6
100
AcDbDictionary
280
     1
281
     1
  3
ACAD_XREC_ROUNDTRIP
360
3423
  0
XRECORD
  5
33F7
102
{ACAD_REACTORS
330
227
102
}
330
227
100
AcDbXrecord
280
     1
102
SHADEPLOT
 70
     0
102
SHADEPLOTRESLEVEL
 70
     2
102
SHADEPLOTCUSTOMDPI
 70
   300
  0
XRECORD
  5
228
102
{ACAD_REACTORS
330
227
102
}
330
227
100
AcDbXrecord
280
     1
310
28000000B40000007F00000001000800000000004C59000000000000000000000001000000000000FFFFFF0000000000FFFFFF000000000000000000000000000000000000000000000000000000000000000000330000006600000099000000CC000000FF00000000330000333300006633000099330000CC330000FF3300
310
0000660000336600006666000099660000CC660000FF66000000990000339900006699000099990000CC990000FF99000000CC000033CC000066CC000099CC0000CCCC0000FFCC000000FF000033FF000066FF000099FF0000CCFF0000FFFF000000003300330033006600330099003300CC003300FF003300003333003333
310
33006633330099333300CC333300FF33330000663300336633006666330099663300CC663300FF66330000993300339933006699330099993300CC993300FF99330000CC330033CC330066CC330099CC3300CCCC3300FFCC330000FF330033FF330066FF330099FF3300CCFF3300FFFF330000006600330066006600660099
310
006600CC006600FF00660000336600333366006633660099336600CC336600FF33660000666600336666006666660099666600CC666600FF66660000996600339966006699660099996600CC996600FF99660000CC660033CC660066CC660099CC6600CCCC6600FFCC660000FF660033FF660066FF660099FF6600CCFF6600
310
FFFF660000009900330099006600990099009900CC009900FF00990000339900333399006633990099339900CC339900FF33990000669900336699006666990099669900CC669900FF66990000999900339999006699990099999900CC999900FF99990000CC990033CC990066CC990099CC9900CCCC9900FFCC990000FF99
310
0033FF990066FF990099FF9900CCFF9900FFFF99000000CC003300CC006600CC009900CC00CC00CC00FF00CC000033CC003333CC006633CC009933CC00CC33CC00FF33CC000066CC003366CC006666CC009966CC00CC66CC00FF66CC000099CC003399CC006699CC009999CC00CC99CC00FF99CC0000CCCC0033CCCC0066CC
310
CC0099CCCC00CCCCCC00FFCCCC0000FFCC0033FFCC0066FFCC0099FFCC00CCFFCC00FFFFCC000000FF003300FF006600FF009900FF00CC00FF00FF00FF000033FF003333FF006633FF009933FF00CC33FF00FF33FF000066FF003366FF006666FF009966FF00CC66FF00FF66FF000099FF003399FF006699FF009999FF00CC
310
99FF00FF99FF0000CCFF0033CCFF0066CCFF0099CCFF00CCCCFF00FFCCFF0000FFFF0033FFFF0066FFFF0099FFFF00CCFFFF00FFFFFF00000000000D0D0D001A1A1A00282828003535350043434300505050005D5D5D006B6B6B00787878008686860093939300A1A1A100AEAEAE00BBBBBB00C9C9C900D6D6D600E4E4E400
310
F1F1F100FFFFFF0000000000000000000000000000000000000000000000000000000000000000000000000000000000E2E2E2E2E2E2E2E2E2E2E2E2E2E2E2E2E2E2E2E2E2E2E2E2E2E2E2E2E2E2E2E2E2E2E2E2E2E2E2E2E2E2E2E2E2E2E2E2E2E2E2E2E2E2E2E2E2E2E2E2E2E2E2E2E2E2E2E2E2E2E2E2E2E2E2E2E2E2E2
310
E2E2E2E2E2E2E2E2E2E2E2E2E2E2E2E2E2E2E2E2E2E2E2E2E2E2E2E2E2E2E2E2E2E2E2E2E2E2E2E2E2E2E2E2E2E2E2E2E2E2E2E2E2E2E2E2E2E2E2E2E2E2E2E2E2E2E2E2E2E2E2E2E2E2E2E2E2E2E2E2E2E2E2E2E2E2E2E2E2E2E2E2E2E2E2E2E2E2E2E2E2E2F5F5F5F5F5F5F5F5F5F5F5F5F5F5F5F5F5F5F5F5F5F5F5F5F5
310
F5F5F5F5F5F5F5F5F5F5F5F5F5F5F5F5F5F5F5F5F5F5F5F5F5F5F5F5F5F5F5F5F5F5F5F5F5F5F5F5F5F5F5F5F5F5F5F5F5F5F5F5F5F5F5F5F5F5F5F5F5F5F5F5F5F5F5F5F5F5F5F5F5F5F5F5F5F5F5F5F5F5F5F5F5F5F5F5F5F5F5F5F5F5F5F5F5F5F5F5F5F5F5F5F5F5F5F5F5F5F5F5F5F5F5F5F5F5F5F5F5F5F5F5F5F5F5
310
F5F5F5F5F5F5F5F5F5F5F5F5F5F5F5F5F5F5F5F5F5F5F5F5F5E2E2E2F5F5F5F5F5F5F5F5F5F5F5F5F5F5F5F5F5F5F5F5F5F5F5F5F5F5F5F5F5F5F5F5F5F5F5F5F5F5F5F5F5F5F5F5F5F5F5F5F5F5F5F5F5F5F5F5F5F5F5F5F5F5F5F5F5F5F5F5F5F5F5F5F5F5F5F5F5F5F5F5F5F5F5F5F5F5F5F5F5F5F5F5F5F5F5F5F5F5F5
310
F5F5F5F5F5F5F5F5F5F5F5F5F5F5F5F5F5F5F5F5F5F5F5F5F5F5F5F5F5F5F5F5F5F5F5F5F5F5F5F5F5F5F5F5F5F5F5F5F5F5F5F5F5F5F5F5F5F5F5F5F5F5F5F5F5F5F5F5F5F5F5F5F5F5F5F5F5F5E2E2E2F5F5F5F5F5F5F5F5F5F5F5F5F5F5F5F5F5F5F5F5F5F5F5F5F5F5F5F5F5F5F5F5F5F5F5F5F5F5F5F5F5F5F5F5F5F5
310
F5F5F5F5F5F5F5F5F5F5F5F5F5F5F5F5F5F5F5F5F5F5F5F5F5F5F5F5F5F5F5F5F5F5F5F5F5F5F5F5F5F5F5F5F5F5F5F5F5F5F5F5F5F5F5F5F5F5F5F5F5F5F5F5F5F5F5F5F5F5F5F5F5F5F5F5F5F5F5F5F5F5F5F5F5F5F5F5F5F5F5F5F5F5F5F5F5F5F5F5F5F5F5F5F5F5F5F5F5F5F5F5F5F5F5F5F5F5F5F5F5F5F5F5F5F5F5
310
F5F5F5F5E2E2E2F5F5F5F5F5F5F5F5F5F5F5F5F5F5F5F5F5F5F5F5F5F5F5F5F5F5F5F5F5F5F5F5F5F5F5F5F5F5F5F5F5F5F5F5F5F5F5F5F5F5F5F5F5F5F5F5F5F5F5F5F5F5F5F5F5F5F5F5F5F5F5F5F5F5F5F5F5F5F5F5F5F5F5F5F5F5F5F5F5F5F5F5F5F5F5F5F5F5F5F5F5F5F5F5F5F5F5F5F5F5F5F5F5F5F5F5F5F5F5F5
310
F5F5F5F5F5F5F5F5F5F5F5F5F5F5F5F5F5F5F5F5F5F5F5F5F5F5F5F5F5F5F5F5F5F5F5F5F5F5F5F5F5F5F5F5F5F5F5F5F5F5F5F5F5F5F5F5F5E2E2E2F5F5F5F5F5F5F5F5F5F5F5E2E2E2E2E2E2E2E2E2F5F5F5F5F5F5F5F5F5E2E2E2E2E2E2E2E2E2E2E2E2E2E2E2E2F5F5F5F5F5F5F5F5F5F5E2E2E2E2E2E2E2E2E2E2E2E2
310
E2E2E2E2F5F5F5F5F5F5F5F5F5E2E2E2E2E2E2E2E2E2E2E2E2E2E2E2E2E2F5F5F5F5F5F5F5F5F5E2E2E2E2E2E2E2E2E2E2E2E2E2E2E2E2F5F5F5F5F5F5F5F5F5F5E2E2E2E2E2E2E2E2E2E2E2E2E2E2E2E2F5F5F5F5F5F5F5F5F5E2E2E2E2E2E2E2E2E2F5F5F5F5F5F5F5F5F5F5F5E2E2E2F5F5F5F5F5F5F5F5F5F5F5E2F5F5
310
F5F5F5F5F5F5F5F5F5F5F5F5F5F5F5F5F5F5F5F5F5F5F5F5F5F5F5F5F5F5F5F5F5F5F5F5F5F5F5F5F5F5F5F5F5F5F5F5F5F5F5F5F5F5F5F5F5F5F5F5F5F5F5F5F5F5F5F5F5F5F5F5F5F5F5F5F5F5F5F5F5F5F5F5F5F5F5F5F5F5F5F5F5F5F5F5F5F5F5F5F5F5F5F5F5F5F5F5F5F5F5F5F5F5F5F5F5F5F5F5F5F5F5F5F5F5F5
310
F5F5F5F5F5F5F5F5F5F5F5F5F5F5F5F5F5F5F5F5F5F5F5F5E2F5F5F5F5F5F5F5F5F5F5F5E2E2E2F5F5F5F5F5F5F5F5F5F5F5E2F5F5F5F5F5F5F5F5F5F5F5F5F5F5F5F5F5F5F5F5F5F5F5F5F5F5F5F5F5F5F5F5F5F5F5F5F5F5F5F5F5F5F5F5F5F5F5F5F5F5F5F5F5F5F5F5F5F5F5F5F5F5F5F5F5F5F5F5F5F5F5F5F5F5F5F5
310
F5F5F5F5F5F5F5F5F5F5F5F5F5F5F5F5F5F5F5F5F5F5F5F5F5F5F5F5F5F5F5F5F5F5F5F5F5F5F5F5F5F5F5F5F5F5F5F5F5F5F5F5F5F5F5F5F5F5F5F5F5F5F5F5F5F5F5F5F5F5F5F5F5F5F5F5F5E2F5F5F5F5F5F5F5F5F5F5F5E2E2E2F5F5F5F5F5F5F5F5F5F5F5E2F5F5F5F5F5F5F5F5F5F5F5F5F5F5F5F5F5F5F5F5F5F5F5
310
F5F5F5F5F5F5F5F5F5F5F5F5F5F5F5F5F5F5F5F5F5F5F5F5F5F5F5F5F5F5F5F5F5F5F5F5F5F5F5F5F5F5F5F5F5F5F5F5F5F5F5F5F5F5F5F5F5F5F5F5F5F5F5F5F5F5F5F5F5F5F5F5F5F5F5F5F5F5F5F5F5F5F5F5F5F5F5F5F5F5F5F5F5F5F5F5F5F5F5F5F5F5F5F5F5F5F5F5F5F5F5F5F5F5F5F5F5F5F5F5F5F5F5F5F5F5F5
310
F5F5F5E2F5F5F5F5F5F5F5F5F5F5F5E2E2E2F5F5F5F5F5F5F5F5F5F5F5E2F5F5F5F5F5F5F5F5F5F5F5F5F5F5F5F5F5F5F5F5F5F5F5F5F5F5F5F5F5F5F5F5F5F5F5F5F5F5F5F5F5F5F5F5F5F5F5F5F5F5F5F5F5F5F5F5F5F5F5F5F5F5F5F5F5F5F5F5F5F5F5F5F5F5F5F5F5F5F5F5F5F5F5F5F5F5F5F5F5F5F5F5F5F5F5F5F5
310
F5F5F5F5F5F5F5F5F5F5F5F5F5F5F5F5F5F5F5F5F5F5F5F5F5F5F5F5F5F5F5F5F5F5F5F5F5F5F5F5F5F5F5F5F5F5F5F5F5F5F5F5F5F5F5F5E2F5F5F5F5F5F5F5F5F5F5F5E2E2E2F5F5F5F5F5F5F5F5F5F5F5E2F5F5F5F5F5F5F5F5F5F5F5F5F5F5F5F5F5F5F5F5F5F5F5F5F5F5F5F5F5F5F5F5F5F5F5F5F5F5F5F5F5F5F5F5
310
F5F5F5F5F5F5F5F5F5F5F5F5F5F5F5F5F5F5F5F5F5F5F5F5F5F5F5F5F5F5F5F5F5F5F5F5F5F5F5F5F5F5F5F5F5F5F5F5F5F5F5F5F5F5F5F5F5F5F5F5F5F5F5F5F5F5F5F5F5F5F5F5F5F5F5F5F5F5F5F5F5F5F5F5F5F5F5F5F5F5F5F5F5F5F5F5F5F5F5F5F5F5F5F5F5F5F5F5F5E2F5F5F5F5F5F5F5F5F5F5F5E2E2E2F5F5F5
310
F5F5F5F5F5F5F5F5E2F5F5F5F5F5F5F5F5F5F5F5F5F5F5F5F5F5F5F5F5F5F5F5F5F5F5F5F5F5F5F5F5F5F5F5F5F5F5F5F5F5F5F5F5F5F5F5F5F5F5F5F5F5F5F5F5F5F5F5F5F5F5F5F5F5F5F5F5F5F5F5F5F5F5F5F5F5F5F5F5F5F5F5F5F5F5F5F5F5F5F5F5F5F5F5F5F5F5F5F5F5F5F5F5F5F5F5F5F5F5F5F5F5F5F5F5F5F5
310
F5F5F5F5F5F5F5F5F5F5F5F5F5F5F5F5F5F5F5F5F5F5F5F5F5F5F5F5F5F5F5F5F5F5F5E2F5F5F5F5F5F5F5F5F5F5F5E2E2E2F5F5F5F5F5F5F5F5F5F5F5E2F5F5F5F5F5F5F5F5F5F5F5F5F5F5F5F5F5F5F5F5F5F5F5F5F5F5F5F5F5F5F5F5F5F5F5F5F5F5F5F5F5F5F5F5F5F5F5F5F5F5F5F5F5F5F5F5F5F5F5F5F5F5F5F5F5
310
F5F5F5F5F5F5F5F5F5F5F5F5F5F5F5F5F5F5F5F5F5F5F5F5F5F5F5F5F5F5F5F5F5F5F5F5F5F5F5F5F5F5F5F5F5F5F5F5F5F5F5F5F5F5F5F5F5F5F5F5F5F5F5F5F5F5F5F5F5F5F5F5F5F5F5F5F5F5F5F5F5F5F5F5F5F5F5F5E2F5F5F5F5F5F5F5F5F5F5F5E2E2E2F5F5F5F5F5F5F5F5F5F5F5F5F5F5F5F5F5F5F5F5F5F5F5F5
310
F5F5F5F5F5F5F5F5F5F5F5F5F5F5F5F5F5F5F5F5F5F5F5F5F5F5F5F5F5F5F5F5F5F5F5F5F5F5F5F5F5F5F5F5F5F5F5F5F5F5F5F5F5F5F5F5F5F5F5F5F5F5F5F5F5F5F5F5F5F5F5F5F5F5F5F5F5F5F5F5F5F5F5F5F5F5F5F5F5F5F5F5F5F5F5F5F5F5F5F5F5F5F5F5F5F5F5F5F5F5F5F5F5F5F5F5F5F5F5F5F5F5F5F5F5F5F5
310
F5F5F5F5F5F5F5F5F5F5F5F5F5F5F5F5F5F5F5F5F5F5F5F5F5F5E2E2E2F5F5F5F5F5F5F5F5F5F5F5F5F5F5F5F5F5F5F5F5F5F5F5F5F5F5F5F5F5F5F5F5F5F5F5F5F5F5F5F5F5F5F5F5F5F5F5F5F5F5F5F5F5F5F5F5F5F5F5F5F5F5F5F5F5F5F5F5F5F5F5F5F5F5F5F5F5F5F5F5F5F5F5F5F5F5F5F5F5F5F5F5F5F5F5F5F5F5
310
F5F5F5F5F5F5F5F5F5F5F5F5F5F5F5F5F5F5F5F5F5F5F5F5F5F5F5F5F5F5F5F5F5F5F5F5F5F5F5F5F5F5F5F5F5F5F5F5F5F5F5F5F5F5F5F5F5F5F5F5F5F5F5F5F5F5F5F5F5F5F5F5F5F5F5F5F5F5F5E2E2E2F5F5F5F5F5F5F5F5F5F5F5F5F5F5F5F5F5F5F5F5F5F5F5F5F5F5F5F5F5F5F5F5F5F5F5F5F5F5F5F5F5F5F5F5F5
310
F5F5F5F5F5F5F5F5F5F5F5F5F5F5F5F5F5F5F5F5F5F5F5F5F5F5F5F5F5F5F5F5F5F5F5F5F5F5F5F5F5F5F5F5F5F5F5F5F5F5F5F5F5F5F5F5F5F5F5F5F5F5F5F5F5F5F5F5F5F5F5F5F5F5F5F5F5F5F5F5F5F5F5F5F5F5F5F5F5F5F5F5F5F5F5F5F5F5F5F5F5F5F5F5F5F5F5F5F5F5F5F5F5F5F5F5F5F5F5F5F5F5F5F5F5F5F5
310
F5F5F5F5F5E2E2E2F5F5F5F5F5F5F5F5F5F5F5F5F5F5F5F5F5F5F5F5F5F5F5F5F5F5F5F5F5F5F5F5F5F5F5F5F5F5F5F5F5F5F5F5F5F5F5F5F5F5F5F5F5F5F5F5F5F5F5F5F5F5F5F5F5F5F5F5F5F5F5F5F5F5F5F5F5F5F5F5F5F5F5F5F5F5F5F5F5F5F5F5F5F5F5F5F5F5F5F5F5F5F5F5F5F5F5F5F5F5F5F5F5F5F5F5F5F5F5
310
F5F5F5F5F5F5F5F5F5F5F5F5F5F5F5F5F5F5F5F5F5F5F5F5F5F5F5F5F5F5F5F5F5F5F5F5F5F5F5F5F5F5F5F5F5F5F5F5F5F5F5F5F5F5F5F5F5F5E2E2E2F5F5F5F5F5F5F5F5F5F5F5F5F5F5F5F5F5F5F5F5F5F5F5F5F5F5F5F5F5F5F5F5F5F5F5F5F5F5F5F5F5F5F5F5F5F5F5F5F5F5F5F5F5F5F5F5F5F5F5F5F5F5F5F5F5F5
310
F5F5F5F5F5F5F5F5F5F5F5F5F5F5F5F5F5F5F5F5F5F5F5F5F5F5F5F5F5F5F5F5F5F5F5F5F5F5F5F5F5F5F5F5F5F5F5F5F5F5F5F5F5F5F5F5F5F5F5F5F5F5F5F5F5F5F5F5F5F5F5F5F5F5F5F5F5F5F5F5F5F5F5F5F5F5F5F5F5F5F5F5F5F5F5F5F5F5F5F5F5F5F5F5F5F5F5F5F5F5F5E2E2E2F5F5F5F5F5F5F5F5F5F5F5F5F5
310
F5F5F5F5F5F5F5F5F5F5F5F5F5F5F5F5F5F5F5F5F5F5F5F5F5F5F5F5F5F5F5F5F5F5F5F5F5F5F5F5F5F5F5F5F5F5F5F5F5F5F5F5F5F5F5F5F5F5F5F5F5F5F5F5F5F5F5F5F5F5F5F5F5F5F5F5F5F5F5F5F5F5F5F5F5F5F5F5F5F5F5F5F5F5F5F5F5F5F5F5F5F5F5F5F5F5F5F5F5F5F5F5F5F5F5F5F5F5F5F5F5F5F5F5F5F5F5
310
F5F5F5F5F5F5F5F5F5F5F5F5F5F5F5F5F5F5F5F5F5F5F5F5F5F5F5F5F5F5F5F5F5F5F5F5F5E2E2E2F5F5F5F5F5F5F5F5F5F5F5F5F5F5F5F5F5F5F5F5F5F5F5F5F5F5F5F5F5F5F5F5F5F5F5F5F5F5F5F5F5F5F5F5F5F5F5F5F5F5F5F5F5F5F5F5F5F5F5F5F5F5F5F5F5F5F5F5F5F5F5F5F5F5F5F5F5F5F5F5F5F5F5F5F5F5F5
310
F5F5F5F5F5F5F5F5F5F5F5F5F5F5F5F5F5F5F5F5F5F5F5F5F5F5F5F5F5F5F5F5F5F5F5F5F5F5F5F5F5F5F5F5F5F5F5F5F5F5F5F5F5F5F5F5F5F5F5F5F5F5F5F5F5F5F5F5F5F5F5F5F5F5F5F5F5F5F5F5F5F5F5F5F5F5F5F5F5F5E2E2E2F5F5F5F5F5F5F5F5F5F5F5F5F5F5F5F5F5F5F5F5F5F5F5F5F5F5F5F5F5F5F5F5F5F5
310
F5F5F5F5F5F5F5F5F5F5F5F5F5F5F5F5F5F5F5F5F5F5F5F5F5F5F5F5F5F5F5F5F5F5F5F5F5F5F5F5F5F5F5F5F5F5F5F5F5F5F5F5F5F5F5F5F5F5F5F5F5F5F5F5F5F5F5F5F5F5F5F5F5F5F5F5F5F5F5F5F5F5F5F5F5F5F5F5F5F5F5F5F5F5F5F5F5F5F5F5F5F5F5F5F5F5F5F5F5F5F5F5F5F5F5F5F5F5F5F5F5F5F5F5F5F5F5
310
F5F5F5F5F5F5F5F5F5F5F5F5F5F5F5F5E2E2E2F5F5F5F5F5F5F5F5F5F5F5E2F5F5F5F5F5F5F5F5F5F5F5F5F5F5F5F5F5F5F5F5F5F5F5F5F5F5F5F5F5F5F5F5F5F5F5F5F5F5F5F5F5F5F5F5F5F5F5F5F5F5F5F5F5F5F5F5F5F5F5F5F5F5F5F5F5F5F5F5F5F5F5F5F5F5F5F5F5F5F5F5F5F5F5F5F5F5F5F5F5F5F5F5F5F5F5F5
310
F5F5F5F5F5F5F5F5F5F5F5F5F5F5F5F5F5F5F5F5F5F5F5F5F5F5F5F5F5F5F5F5F5F5F5F5F5F5F5F5F5F5F5F5F5F5F5F5F5F5F5F5F5F5F5F5F5E2F5F5F5F5F5F5F5F5F5F5F5E2E2E2F5F5F5F5F5F5F5F5F5F5F5E2F5F5F5F5F5F5F5F5F5F5F5F5F5F5F5F5F5F5F5F5F5F5F5F5F5F5F5F5F5F5F5F5F5F5F5F5F5F5F5F5F5F5F5
310
F5F5F5F5F5F5F5F5F5F5F5F5F5F5F5F5F5F5F5F5F5F5F5F5F5F5F5F5F5F5F5F5F5F5F5F5F5F5F5F5F5F5F5F5F5F5F5F5F5F5F5F5F5F5F5F5F5F5F5F5F5F5F5F5F5F5F5F5F5F5F5F5F5F5F5F5F5F5F5F5F5F5F5F5F5F5F5F5F5F5F5F5F5F5F5F5F5F5F5F5F5F5F5F5F5F5F5F5F5F5E2F5F5F5F5F5F5F5F5F5F5F5E2E2E2F5F5
310
F5F5F5F5F5F5F5F5F5E2F5F5F5F5F5F5F5F5F5F5F5F5F5F5F5F5F5F5F5F5F5F5F5F5F5F5F5F5F5F5F5F5F5F5F5F5F5F5F5F5F5F5F5F5F5F5F5F5F5F5F5F5F5F5F5F5F5F5F5F5F5F5F5F5F5F5F5F5F5F5F5F5F5F5F5F5F5F5F5F5F5F5F5F5F5F5F5F5F5F5F5F5F5F5F5F5F5F5F5F5F5F5F5F5F5F5F5F5F5F5F5F5F5F5F5F5F5
310
F5F5F5F5F5F5F5F5F5F5F5F5F5F5F5F5F5F5F5F5F5F5F5F5F5F5F5F5F5F5F5F5F5F5F5F5E2F5F5F5F5F5F5F5F5F5F5F5E2E2E2F5F5F5F5F5F5F5F5F5F5F5E2F5F5F5F5F5F5F5F5F5F5F5F5F5F5F5F5F5F5F5F5F5F5F5F5F5F5F5F5F5F5F5F5F5F5F5F5F5F5F5F5F5F5F5F5F5F5F5F5F5F5F5F5F5F5F5F5F5F5F5F5F5F5F5F5
310
F5F5F5F5F5F5F5F5F5F5F5F5F5F5F5F5F5F5F5F5F5F5F5F5F5F5F5F5F5F5F5F5F5F5F5F5F5F5F5F5F5F5F5F5F5F5F5F5F5F5F5F5F5F5F5F5F5F5F5F5F5F5F5F5F5F5F5F5F5F5F5F5F5F5F5F5F5F5F5F5F5F5F5F5F5F5F5F5F5E2F5F5F5F5F5F5F5F5F5F5F5E2E2E2F5F5F5F5F5F5F5F5F5F5F5E2F5F5F5F5F5F5F5F5F5F5F5
310
F5F5F5F5F5F5F5F5F5F5F5F5F5F5F5F5F5F5F5F5F5F5F5F5F5F5F5F5F5F5F5F5F5F5F5F5F5F5F5F5F5F5F5F5F5F5F5F5F5F5F5F5F5F5F5F5F5F5F5F5F5F5F5F5F5F5F5F5F5F5F5F5F5F5F5F5F5F5F5F5F5F5F5F5F5F5F5F5F5F5F5F5F5F5F5F5F5F5F5F5F5F5F5F5F5F5F5F5F5F5F5F5F5F5F5F5F5F5F5F5F5F5F5F5F5F5F5
310
F5F5F5F5F5F5F5F5F5F5F5F5F5F5F5E2F5F5F5F5F5F5F5F5F5F5F5E2E2E2F5F5F5F5F5F5F5F5F5F5F5E2F5F5F5F5F5F5F5F5F5F5F5F5F5F5F5F5F5F5F5F5F5F5F5F5F5F5F5F5F5F5F5F5F5F5F5F5F5F5F5F5F5F5F5F5F5F5F5F5F5F5F5F5F5F5F5F5F5F5F5F5F5F5F5F5F5F5F5F5F5F5F5F5F5F5F5F5F5F5F5F5F5F5F5F5F5
310
F5F5F5F5F5F5F5F5F5F5F5F5F5F5F5F5F5F5F5F5F5F5F5F5F5F5F5F5F5F5F5F5F5F5F5F5F5F5F5F5F5F5F5F5F5F5F5F5F5F5F5F5F5F5F5F5F5F5F5F5F5F5F5F5F5F5F5F5E2F5F5F5F5F5F5F5F5F5F5F5E2E2E2F5F5F5F5F5F5F5F5F5F5F5E2F5F5F5F5F5F5F5F5F5F5F5F5F5F5F5F5F5F5F5F5F5F5F5F5F5F5F5F5F5F5F5F5
310
F5F5F5F5F5F5F5F5F5F5F5F5F5F5F5F5F5F5F5F5F5F5F5F5F5F5F5F5F5F5F5F5F5F5F5F5F5F5F5F5F5F5F5F5F5F5F5F5F5F5F5F5F5F5F5F5F5F5F5F5F5F5F5F5F5F5F5F5F5F5F5F5F5F5F5F5F5F5F5F5F5F5F5F5F5F5F5F5F5F5F5F5F5F5F5F5F5F5F5F5F5F5F5F5F5F5F5F5F5F5F5F5F5F5F5F5F5F5F5F5F5E2F5F5F5F5F5
310
F5F5F5F5F5F5E2E2E2F5F5F5F5F5F5F5F5F5F5F5E2F5F5F5F5F5F5F5F5F5F5F5F5F5F5F5F5F5F5F5F5F5F5F5F5F5F5F5F5F5F5F5F5F5F5F5F5F5F5F5F5F5F5F5F5F5F5F5F5F5F5F5F5F5F5F5F5F5F5F5F5F5F5F5F5F5F5F5F5F5F5F5F5F5F5F5F5F5F5F5F5F5F5F5F5F5F5F5F5F5F5F5F5F5F5F5F5F5F5F5F5F5F5F5F5F5F5
310
F5F5F5F5F5F5F5F5F5F5F5F5F5F5F5F5F5F5F5F5F5F5F5F5F5F5F5F5F5F5F5F5F5F5F5F5F5F5F5F5F5F5F5F5F5F5F5E2F5F5F5F5F5F5F5F5F5F5F5E2E2E2F5F5F5F5F5F5F5F5F5F5F5E2F5F5F5F5F5F5F5F5F5F5F5F5F5F5F5F5F5F5F5F5F5F5F5F5F5F5F5F5F5F5F5F5F5F5F5F5F5F5F5F5F5F5F5F5F5F5F5F5F5F5F5F5F5
310
F5F5F5F5F5F5F5F5F5F5F5F5F5F5F5F5F5F5F5F5F5F5F5F5F5F5F5F5F5F5F5F5F5F5F5F5F5F5F5F5F5F5F5F5F5F5F5F5F5F5F5F5F5F5F5F5F5F5F5F5F5F5F5F5F5F5F5F5F5F5F5F5F5F5F5F5F5F5F5F5F5F5F5F5F5F5F5F5F5F5F5F5F5F5F5F5F5F5F5F5E2F5F5F5F5F5F5F5F5F5F5F5E2E2E2F5F5F5F5F5F5F5F5F5F5F5E2
310
F5F5F5F5F5F5F5F5F5F5F5F5F5F5F5F5F5F5F5F5F5F5F5F5F5F5F5F5F5F5F5F5F5F5F5F5F5F5F5F5F5F5F5F5F5F5F5F5F5F5F5F5F5F5F5F5F5F5F5F5F5F5F5F5F5F5F5F5F5F5F5F5F5F5F5F5F5F5F5F5F5F5F5F5F5F5F5F5F5F5F5F5F5F5F5F5F5F5F5F5F5F5F5F5F5F5F5F5F5F5F5F5F5F5F5F5F5F5F5F5F5F5F5F5F5F5F5
310
F5F5F5F5F5F5F5F5F5F5F5F5F5F5F5F5F5F5F5F5F5F5F5F5F5F5E2F5F5F5F5F5F5F5F5F5F5F5E2E2E2F5F5F5F5F5F5F5F5F5F5F5E2F5F5F5F5F5F5F5F5F5F5F5F5F5F5F5F5F5F5F5F5F5F5F5F5F5F5F5F5F5F5F5F5F5F5F5F5F5F5F5F5F5F5F5F5F5F5F5F5F5F5F5F5F5F5F5F5F5F5F5F5F5F5F5F5F5F5F5F5F5F5F5F5F5F5
310
F5F5F5F5F5F5F5F5F5F5F5F5F5F5F5F5F5F5F5F5F5F5F5F5F5F5F5F5F5F5F5F5F5F5F5F5F5F5F5F5F5F5F5F5F5F5F5F5F5F5F5F5F5F5F5F5F5F5F5F5F5F5F5F5F5F5F5F5F5F5F5F5F5F5F5F5F5F5F5E2F5F5F5F5F5F5F5F5F5F5F5E2E2E2F5F5F5F5F5F5F5F5F5F5F5E2F5F5F5F5F5F5F5F5F5F5F5F5F5F5F5F5F5F5F5F5F5
310
F5F5F5F5F5F5F5F5F5F5F5F5F5F5F5F5F5F5F5F5F5F5F5F5F5F5F5F5F5F5F5F5F5F5F5F5F5F5F5F5F5F5F5F5F5F5F5F5F5F5F5F5F5F5F5F5F5F5F5F5F5F5F5F5F5F5F5F5F5F5F5F5F5F5F5F5F5F5F5F5F5F5F5F5F5F5F5F5F5F5F5F5F5F5F5F5F5F5F5F5F5F5F5F5F5F5F5F5F5F5F5F5F5F5F5F5F5F5F5F5F5F5F5F5F5F5F5
310
F5F5F5F5F5E2F5F5F5F5F5F5F5F5F5F5F5E2E2E2F5F5F5F5F5F5F5F5F5F5F5E2F5F5F5F5F5F5F5F5F5F5F5F5F5F5F5F5F5F5F5F5F5F5F5F5F5F5F5F5F5F5F5F5F5F5F5F5F5F5F5F5F5F5F5F5F5F5F5F5F5F5F5F5F5F5F5F5F5F5F5F5F5F5F5F5F5F5F5F5F5F5F5F5F5F5F5F5F5F5F5F5F5F5F5F5F5F5F5F5F5F5F5F5F5F5F5
310
F5F5F5F5F5F5F5F5F5F5F5F5F5F5F5F5F5F5F5F5F5F5F5F5F5F5F5F5F5F5F5F5F5F5F5F5F5F5F5F5F5F5F5F5F5F5F5F5F5F5F5F5F5F5F5F5F5F5E2F5F5F5F5F5F5F5F5F5F5F5E2E2E2F5F5F5F5F5F5F5F5F5F5F5E2F5F5F5F5F5F5F5F5F5F5F5F5F5F5F5F5F5F5F5F5F5F5F5F5F5F5F5F5F5F5F5F5F5F5F5F5F5F5F5F5F5F5
310
F5F5F5F5F5F5F5F5F5F5F5F5F5F5F5F5F5F5F5F5F5F5F5F5F5F5F5F5F5F5F5F5F5F5F5F5F5F5F5F5F5F5F5F5F5F5F5F5F5F5F5F5F5F5F5F5F5F5F5F5F5F5F5F5F5F5F5F5F5F5F5F5F5F5F5F5F5F5F5F5F5F5F5F5F5F5F5F5F5F5F5F5F5F5F5F5F5F5F5F5F5F5F5F5F5F5F5F5F5F5F5E2F5F5F5F5F5F5F5F5F5F5F5E2E2E2F5
310
F5F5F5F5F5F5F5F5F5F5E2F5F5F5F5F5F5F5F5F5F5F5F5F5F5F5F5F5F5F5F5F5F5F5F5F5F5F5F5F5F5F5F5F5F5F5F5F5F5F5F5F5F5F5F5F5F5F5F5F5F5F5F5F5F5F5F5F5F5F5F5F5F5F5F5F5F5F5F5F5F5F5F5F5F5F5F5F5F5F5F5F5F5F5F5F5F5F5F5F5F5F5F5F5F5F5F5F5F5F5F5F5F5F5F5F5F5F5F5F5F5F5F5F5F5F5F5
310
F5F5F5F5F5F5F5F5F5F5F5F5F5F5F5F5F5F5F5F5F5F5F5F5F5F5F5F5F5F5F5F5F5F5F5F5F5E2F5F5F5F5F5F5F5F5F5F5F5E2E2E2F5F5F5F5F5F5F5F5F5F5F5F5F5F5F5F5F5F5F5F5F5F5F5F5F5F5F5F5F5F5F5F5F5F5F5F5F5F5F5F5F5F5F5F5F5F5F5F5F5F5F5F5F5F5F5F5F5F5F5F5F5F5F5F5F5F5F5F5F5F5F5F5F5F5F5
310
F5F5F5F5F5F5F5F5F5F5F5F5F5F5F5F5F5F5F5F5F5F5F5F5F5F5F5F5F5F5F5F5F5F5F5F5F5F5F5F5F5F5F5F5F5F5F5F5F5F5F5F5F5F5F5F5F5F5F5F5F5F5F5F5F5F5F5F5F5F5F5F5F5F5F5F5F5F5F5F5F5F5F5F5F5F5F5F5F5F5F5F5F5F5F5F5F5F5F5F5F5F5E2E2E2F5F5F5F5F5F5F5F5F5F5F5F5F5F5F5F5F5F5F5F5F5F5
310
F5F5F5F5F5F5F5F5F5F5F5F5F5F5F5F5F5F5F5F5F5F5F5F5F5F5F5F5F5F5F5F5F5F5F5F5F5F5F5F5F5F5F5F5F5F5F5F5F5F5F5F5F5F5F5F5F5F5F5F5F5F5F5F5F5F5F5F5F5F5F5F5F5F5F5F5F5F5F5F5F5F5F5F5F5F5F5F5F5F5F5F5F5F5F5F5F5F5F5F5F5F5F5F5F5F5F5F5F5F5F5F5F5F5F5F5F5F5F5F5F5F5F5F5F5F5F5
310
F5F5F5F5F5F5F5F5F5F5F5F5F5F5F5F5F5F5F5F5F5F5F5F5F5F5F5F5E2E2E2F5F5F5F5F5F5F5F5F5F5F5F5F5F5F5F5F5F5F5F5F5F5F5F5F5F5F5F5F5F5F5F5F5F5F5F5F5F5F5F5F5F5F5F5F5F5F5F5F5F5F5F5F5F5F5F5F5F5F5F5F5F5F5F5F5F5F5F5F5F5F5F5F5F5F5F5F5F5F5F5F5F5F5F5F5F5F5F5F5F5F5F5F5F5F5F5
310
F5F5F5F5F5F5F5F5F5F5F5F5F5F5F5F5F5F5F5F5F5F5F5F5F5F5F5F5F5F5F5F5F5F5F5F5F5F5F5F5F5F5F5F5F5F5F5F5F5F5F5F5F5F5F5F5F5F5F5F5F5F5F5F5F5F5F5F5F5F5F5F5F5F5F5F5F5F5F5F5F5E2E2E2F5F5F5F5F5F5F5F5F5F5F5F5F5F5F5F5F5F5F5F5F5F5F5F5F5F5F5F5F5F5F5F5F5F5F5F5F5F5F5F5F5F5F5
310
F5F5F5F5F5F5F5F5F5F5F5F5F5F5F5F5F5F5F5F5F5F5F5F5F5F5F5F5F5F5F5F5F5F5F5F5F5F5F5F5F5F5F5F5F5F5F5F5F5F5F5F5F5F5F5F5F5F5F5F5F5F5F5F5F5F5F5F5F5F5F5F5F5F5F5F5F5F5F5F5F5F5F5F5F5F5F5F5F5F5F5F5F5F5F5F5F5F5F5F5F5F5F5F5F5F5F5F5F5F5F5F5F5F5F5F5F5F5F5F5F5F5F5F5F5F5F5
310
F5F5F5F5F5F5F5E2E2E2F5F5F5F5F5F5F5F5F5F5F5F5F5F5F5F5F5F5F5F5F5F5F5F5F5F5F5F5F5F5F5F5F5F5F5F5F5F5F5F5F5F5F5F5F5F5F5F5F5F5F5F5F5F5F5F5F5F5F5F5F5F5F5F5F5F5F5F5F5F5F5F5F5F5F5F5F5F5F5F5F5F5F5F5F5F5F5F5F5F5F5F5F5F5F5F5F5F5F5F5F5F5F5F5F5F5F5F5F5F5F5F5F5F5F5F5F5
310
F5F5F5F5F5F5F5F5F5F5F5F5F5F5F5F5F5F5F5F5F5F5F5F5F5F5F5F5F5F5F5F5F5F5F5F5F5F5F5F5F5F5F5F5F5F5F5F5F5F5F5F5F5F5F5F5F5F5F5F5E2E2E2F5F5F5F5F5F5F5F5F5F5F5F5F5F5F5F5F5F5F5F5F5F5F5F5F5F5F5F5F5F5F5F5F5F5F5F5F5F5F5F5F5F5F5F5F5F5F5F5F5F5F5F5F5F5F5F5F5F5F5F5F5F5F5F5
310
F5F5F5F5F5F5F5F5F5F5F5F5F5F5F5F5F5F5F5F5F5F5F5F5F5F5F5F5F5F5F5F5F5F5F5F5F5F5F5F5F5F5F5F5F5F5F5F5F5F5F5F5F5F5F5F5F5F5F5F5F5F5F5F5F5F5F5F5F5F5F5F5F5F5F5F5F5F5F5F5F5F5F5F5F5F5F5F5F5F5F5F5F5F5F5F5F5F5F5F5F5F5F5F5F5F5F5F5F5F5F5F5F5E2E2E2F5F5F5F5F5F5F5F5F5F5F5
310
F5F5F5F5F5F5F5F5F5F5F5F5F5F5F5F5F5F5F5F5F5F5F5F5F5F5F5F5F5F5F5F5F5F5F5F5F5F5F5F5F5F5F5F5F5F5F5F5F5F5F5F5F5F5F5F5F5F5F5F5F5F5F5F5F5F5F5F5F5F5F5F5F5F5F5F5F5F5F5F5F5F5F5F5F5F5F5F5F5F5F5F5F5F5F5F5F5F5F5F5F5F5F5F5F5F5F5F5F5F5F5F5F5F5F5F5F5F5F5F5F5F5F5F5F5F5F5
310
F5F5F5F5F5F5F5F5F5F5F5F5F5F5F5F5F5F5F5F5F5F5F5F5F5F5F5F5F5F5F5F5F5F5F5F5F5F5F5E2E2E2F5F5F5F5F5F5F5F5F5F5F5F5F5F5F5F5F5F5F5F5F5F5F5F5F5F5F5F5F5F5F5F5F5F5F5F5F5F5F5F5F5F5F5F5F5F5F5F5F5F5F5F5F5F5F5F5F5F5F5F5F5F5F5F5F5F5F5F5F5F5F5F5F5F5F5F5F5F5F5F5F5F5F5F5F5
310
F5F5F5F5F5F5F5F5F5F5F5F5F5F5F5F5F5F5F5F5F5F5F5F5F5F5F5F5F5F5F5F5F5F5F5F5F5F5F5F5F5F5F5F5F5F5F5F5F5F5F5F5F5F5F5F5F5F5F5F5F5F5F5F5F5F5F5F5F5F5F5F5F5F5F5F5F5F5F5F5F5F5F5F5F5F5F5F5F5F5F5F5E2E2E2F5F5F5F5F5F5F5F5F5F5F5E2F5F5F5F5F5F5F5F5F5F5F5F5F5F5F5F5F5F5F5F5
310
F5F5F5F5F5F5F5F5F5F5F5F5F5F5F5F5F5F5F5F5F5F5F5F5F5F5F5F5F5F5F5F5F5F5F5F5F5F5F5F5F5F5F5F5F5F5F5F5F5F5F5F5F5F5F5F5F5F5F5F5F5F5F5F5F5F5F5F5F5F5F5F5F5F5F5F5F5F5F5F5F5F5F5F5F5F5F5F5F5F5F5F5F5F5F5F5F5F5F5F5F5F5F5F5F5F5F5F5F5F5F5F5F5F5F5F5F5F5F5F5F5F5F5F5F5F5F5
310
F5F5F5F5F5F5E2F5F5F5F5F5F5F5F5F5F5F5E2E2E2F5F5F5F5F5F5F5F5F5F5F5E2F5F5F5F5F5F5F5F5F5F5F5F5F5F5F5F5F5F5F5F5F5F5F5F5F5F5F5F5F5F5F5F5F5F5F5F5F5F5F5F5F5F5F5F5F5F5F5F5F5F5F5F5F5F5F5F5F5F5F5F5F5F5F5F5F5F5F5F5F5F5F5F5F5F5F5F5F5F5F5F5F5F5F5F5F5F5F5F5F5F5F5F5F5F5
310
F5F5F5F5F5F5F5F5F5F5F5F5F5F5F5F5F5F5F5F5F5F5F5F5F5F5F5F5F5F5F5F5F5F5F5F5F5F5F5F5F5F5F5F5F5F5F5F5F5F5F5F5F5F5F5F5F5F5F5E2F5F5F5F5F5F5F5F5F5F5F5E2E2E2F5F5F5F5F5F5F5F5F5F5F5E2F5F5F5F5F5F5F5F5F5F5F5F5F5F5F5F5F5F5F5F5F5F5F5F5F5F5F5F5F5F5F5F5F5F5F5F5F5F5F5F5F5
310
F5F5F5F5F5F5F5F5F5F5F5F5F5F5F5F5F5F5F5F5F5F5F5F5F5F5F5F5F5F5F5F5F5F5F5F5F5F5F5F5F5F5F5F5F5F5F5F5F5F5F5F5F5F5F5F5F5F5F5F5F5F5F5F5F5F5F5F5F5F5F5F5F5F5F5F5F5F5F5F5F5F5F5F5F5F5F5F5F5F5F5F5F5F5F5F5F5F5F5F5F5F5F5F5F5F5F5F5F5F5F5F5E2F5F5F5F5F5F5F5F5F5F5F5E2E2E2
310
F5F5F5F5F5F5F5F5F5F5F5E2F5F5F5F5F5F5F5F5F5F5F5F5F5F5F5F5F5F5F5F5F5F5F5F5F5F5F5F5F5F5F5F5F5F5F5F5F5F5F5F5F5F5F5F5F5F5F5F5F5F5F5F5F5F5F5F5F5F5F5F5F5F5F5F5F5F5F5F5F5F5F5F5F5F5F5F5F5F5F5F5F5F5F5F5F5F5F5F5F5F5F5F5F5F5F5F5F5F5F5F5F5F5F5F5F5F5F5F5F5F5F5F5F5F5F5
310
F5F5F5F5F5F5F5F5F5F5F5F5F5F5F5F5F5F5F5F5F5F5F5F5F5F5F5F5F5F5F5F5F5F5F5F5F5F5E2F5F5F5F5F5F5F5F5F5F5F5E2E2E2F5F5F5F5F5F5F5F5F5F5F5E2F5F5F5F5F5F5F5F5F5F5F5F5F5F5F5F5F5F5F5F5F5F5F5F5F5F5F5F5F5F5F5F5F5F5F5F5F5F5F5F5F5F5F5F5F5F5F5F5F5F5F5F5F5F5F5F5F5F5F5F5F5F5
310
F5F5F5F5F5F5F5F5F5F5F5F5F5F5F5F5F5F5F5F5F5F5F5F5F5F5F5F5F5F5F5F5F5F5F5F5F5F5F5F5F5F5F5F5F5F5F5F5F5F5F5F5F5F5F5F5F5F5F5F5F5F5F5F5F5F5F5F5F5F5F5F5F5F5F5F5F5F5F5F5F5F5F5F5F5F5F5F5F5F5F5E2F5F5F5F5F5F5F5F5F5F5F5E2E2E2F5F5F5F5F5F5F5F5F5F5F5E2F5F5F5F5F5F5F5F5F5
310
F5F5F5F5F5F5F5F5F5F5F5F5F5F5F5F5F5F5F5F5F5F5F5F5F5F5F5F5F5F5F5F5F5F5F5F5F5F5F5F5F5F5F5F5F5F5F5F5F5F5F5F5F5F5F5F5F5F5F5F5F5F5F5F5F5F5F5F5F5F5F5F5F5F5F5F5F5F5F5F5F5F5F5F5F5F5F5F5F5F5F5F5F5F5F5F5F5F5F5F5F5F5F5F5F5F5F5F5F5F5F5F5F5F5F5F5F5F5F5F5F5F5F5F5F5F5F5
310
F5F5F5F5F5F5F5F5F5F5F5F5F5F5F5F5F5E2F5F5F5F5F5F5F5F5F5F5F5E2E2E2F5F5F5F5F5F5F5F5F5F5F5E2F5F5F5F5F5F5F5F5F5F5F5F5F5F5F5F5F5F5F5F5F5F5F5F5F5F5F5F5F5F5F5F5F5F5F5F5F5F5F5F5F5F5F5F5F5F5F5F5F5F5F5F5F5F5F5F5F5F5F5F5F5F5F5F5F5F5F5F5F5F5F5F5F5F5F5F5F5F5F5F5F5F5F5
310
F5F5F5F5F5F5F5F5F5F5F5F5F5F5F5F5F5F5F5F5F5F5F5F5F5F5F5F5F5F5F5F5F5F5F5F5F5F5F5F5F5F5F5F5F5F5F5F5F5F5F5F5F5F5F5F5F5F5F5F5F5F5F5F5F5F5F5F5F5F5E2F5F5F5F5F5F5F5F5F5F5F5E2E2E2F5F5F5F5F5F5F5F5F5F5F5E2F5F5F5F5F5F5F5F5F5F5F5F5F5F5F5F5F5F5F5F5F5F5F5F5F5F5F5F5F5F5
310
F5F5F5F5F5F5F5F5F5F5F5F5F5F5F5F5F5F5F5F5F5F5F5F5F5F5F5F5F5F5F5F5F5F5F5F5F5F5F5F5F5F5F5F5F5F5F5F5F5F5F5F5F5F5F5F5F5F5F5F5F5F5F5F5F5F5F5F5F5F5F5F5F5F5F5F5F5F5F5F5F5F5F5F5F5F5F5F5F5F5F5F5F5F5F5F5F5F5F5F5F5F5F5F5F5F5F5F5F5F5F5F5F5F5F5F5F5F5F5F5F5F5F5E2F5F5F5
310
F5F5F5F5F5F5F5F5E2E2E2F5F5F5F5F5F5F5F5F5F5F5E2F5F5F5F5F5F5F5F5F5F5F5F5F5F5F5F5F5F5F5F5F5F5F5F5F5F5F5F5F5F5F5F5F5F5F5F5F5F5F5F5F5F5F5F5F5F5F5F5F5F5F5F5F5F5F5F5F5F5F5F5F5F5F5F5F5F5F5F5F5F5F5F5F5F5F5F5F5F5F5F5F5F5F5F5F5F5F5F5F5F5F5F5F5F5F5F5F5F5F5F5F5F5F5F5
310
F5F5F5F5F5F5F5F5F5F5F5F5F5F5F5F5F5F5F5F5F5F5F5F5F5F5F5F5F5F5F5F5F5F5F5F5F5F5F5F5F5F5F5F5F5F5F5F5F5E2F5F5F5F5F5F5F5F5F5F5F5E2E2E2F5F5F5F5F5F5F5F5F5F5F5E2F5F5F5F5F5F5F5F5F5F5F5F5F5F5F5F5F5F5F5F5F5F5F5F5F5F5F5F5F5F5F5F5F5F5F5F5F5F5F5F5F5F5F5F5F5F5F5F5F5F5F5
310
F5F5F5F5F5F5F5F5F5F5F5F5F5F5F5F5F5F5F5F5F5F5F5F5F5F5F5F5F5F5F5F5F5F5F5F5F5F5F5F5F5F5F5F5F5F5F5F5F5F5F5F5F5F5F5F5F5F5F5F5F5F5F5F5F5F5F5F5F5F5F5F5F5F5F5F5F5F5F5F5F5F5F5F5F5F5F5F5F5F5F5F5F5F5F5F5F5F5F5F5F5F5E2F5F5F5F5F5F5F5F5F5F5F5E2E2E2F5F5F5F5F5F5F5F5F5F5
310
F5E2F5F5F5F5F5F5F5F5F5F5F5F5F5F5F5F5F5F5F5F5F5F5F5F5F5F5F5F5F5F5F5F5F5F5F5F5F5F5F5F5F5F5F5F5F5F5F5F5F5F5F5F5F5F5F5F5F5F5F5F5F5F5F5F5F5F5F5F5F5F5F5F5F5F5F5F5F5F5F5F5F5F5F5F5F5F5F5F5F5F5F5F5F5F5F5F5F5F5F5F5F5F5F5F5F5F5F5F5F5F5F5F5F5F5F5F5F5F5F5F5F5F5F5F5F5
310
F5F5F5F5F5F5F5F5F5F5F5F5F5F5F5F5F5F5F5F5F5F5F5F5F5F5F5F5E2F5F5F5F5F5F5F5F5F5F5F5E2E2E2F5F5F5F5F5F5F5F5F5F5F5E2F5F5F5F5F5F5F5F5F5F5F5F5F5F5F5F5F5F5F5F5F5F5F5F5F5F5F5F5F5F5F5F5F5F5F5F5F5F5F5F5F5F5F5F5F5F5F5F5F5F5F5F5F5F5F5F5F5F5F5F5F5F5F5F5F5F5F5F5F5F5F5F5
310
F5F5F5F5F5F5F5F5F5F5F5F5F5F5F5F5F5F5F5F5F5F5F5F5F5F5F5F5F5F5F5F5F5F5F5F5F5F5F5F5F5F5F5F5F5F5F5F5F5F5F5F5F5F5F5F5F5F5F5F5F5F5F5F5F5F5F5F5F5F5F5F5F5F5F5F5F5F5F5F5F5E2F5F5F5F5F5F5F5F5F5F5F5E2E2E2F5F5F5F5F5F5F5F5F5F5F5E2F5F5F5F5F5F5F5F5F5F5F5F5F5F5F5F5F5F5F5
310
F5F5F5F5F5F5F5F5F5F5F5F5F5F5F5F5F5F5F5F5F5F5F5F5F5F5F5F5F5F5F5F5F5F5F5F5F5F5F5F5F5F5F5F5F5F5F5F5F5F5F5F5F5F5F5F5F5F5F5F5F5F5F5F5F5F5F5F5F5F5F5F5F5F5F5F5F5F5F5F5F5F5F5F5F5F5F5F5F5F5F5F5F5F5F5F5F5F5F5F5F5F5F5F5F5F5F5F5F5F5F5F5F5F5F5F5F5F5F5F5F5F5F5F5F5F5F5
310
F5F5F5F5F5F5F5E2F5F5F5F5F5F5F5F5F5F5F5E2E2E2F5F5F5F5F5F5F5F5F5F5F5E2F5F5F5F5F5F5F5F5F5F5F5F5F5F5F5F5F5F5F5F5F5F5F5F5F5F5F5F5F5F5F5F5F5F5F5F5F5F5F5F5F5F5F5F5F5F5F5F5F5F5F5F5F5F5F5F5F5F5F5F5F5F5F5F5F5F5F5F5F5F5F5F5F5F5F5F5F5F5F5F5F5F5F5F5F5F5F5F5F5F5F5F5F5
310
F5F5F5F5F5F5F5F5F5F5F5F5F5F5F5F5F5F5F5F5F5F5F5F5F5F5F5F5F5F5F5F5F5F5F5F5F5F5F5F5F5F5F5F5F5F5F5F5F5F5F5F5F5F5F5F5F5F5F5F5E2F5F5F5F5F5F5F5F5F5F5F5E2E2E2F5F5F5F5F5F5F5F5F5F5F5E2F5F5F5F5F5F5F5F5F5F5F5F5F5F5F5F5F5F5F5F5F5F5F5F5F5F5F5F5F5F5F5F5F5F5F5F5F5F5F5F5
310
F5F5F5F5F5F5F5F5F5F5F5F5F5F5F5F5F5F5F5F5F5F5F5F5F5F5F5F5F5F5F5F5F5F5F5F5F5F5F5F5F5F5F5F5F5F5F5F5F5F5F5F5F5F5F5F5F5F5F5F5F5F5F5F5F5F5F5F5F5F5F5F5F5F5F5F5F5F5F5F5F5F5F5F5F5F5F5F5F5F5F5F5F5F5F5F5F5F5F5F5F5F5F5F5F5F5F5F5F5F5F5F5F5E2F5F5F5F5F5F5F5F5F5F5F5E2E2
310
E2F5F5F5F5F5F5F5F5F5F5F5F5F5F5F5F5F5F5F5F5F5F5F5F5F5F5F5F5F5F5F5F5F5F5F5F5F5F5F5F5F5F5F5F5F5F5F5F5F5F5F5F5F5F5F5F5F5F5F5F5F5F5F5F5F5F5F5F5F5F5F5F5F5F5F5F5F5F5F5F5F5F5F5F5F5F5F5F5F5F5F5F5F5F5F5F5F5F5F5F5F5F5F5F5F5F5F5F5F5F5F5F5F5F5F5F5F5F5F5F5F5F5F5F5F5F5
310
F5F5F5F5F5F5F5F5F5F5F5F5F5F5F5F5F5F5F5F5F5F5F5F5F5F5F5F5F5F5F5F5F5F5F5F5F5F5F5F5F5F5F5F5F5F5F5F5F5F5F5E2E2E2F5F5F5F5F5F5F5F5F5F5F5F5F5F5F5F5F5F5F5F5F5F5F5F5F5F5F5F5F5F5F5F5F5F5F5F5F5F5F5F5F5F5F5F5F5F5F5F5F5F5F5F5F5F5F5F5F5F5F5F5F5F5F5F5F5F5F5F5F5F5F5F5F5
310
F5F5F5F5F5F5F5F5F5F5F5F5F5F5F5F5F5F5F5F5F5F5F5F5F5F5F5F5F5F5F5F5F5F5F5F5F5F5F5F5F5F5F5F5F5F5F5F5F5F5F5F5F5F5F5F5F5F5F5F5F5F5F5F5F5F5F5F5F5F5F5F5F5F5F5F5F5F5F5F5F5F5F5F5F5F5F5F5F5F5F5F5F5F5F5F5F5F5F5F5F5F5F5F5E2E2E2F5F5F5F5F5F5F5F5F5F5F5F5F5F5F5F5F5F5F5F5
310
F5F5F5F5F5F5F5F5F5F5F5F5F5F5F5F5F5F5F5F5F5F5F5F5F5F5F5F5F5F5F5F5F5F5F5F5F5F5F5F5F5F5F5F5F5F5F5F5F5F5F5F5F5F5F5F5F5F5F5F5F5F5F5F5F5F5F5F5F5F5F5F5F5F5F5F5F5F5F5F5F5F5F5F5F5F5F5F5F5F5F5F5F5F5F5F5F5F5F5F5F5F5F5F5F5F5F5F5F5F5F5F5F5F5F5F5F5F5F5F5F5F5F5F5F5F5F5
310
F5F5F5F5F5F5F5F5F5F5F5F5F5F5F5F5F5F5F5F5F5F5F5F5F5F5F5F5F5F5E2E2E2F5F5F5F5F5F5F5F5F5F5F5F5F5F5F5F5F5F5F5F5F5F5F5F5F5F5F5F5F5F5F5F5F5F5F5F5F5F5F5F5F5F5F5F5F5F5F5F5F5F5F5F5F5F5F5F5F5F5F5F5F5F5F5F5F5F5F5F5F5F5F5F5F5F5F5F5F5F5F5F5F5F5F5F5F5F5F5F5F5F5F5F5F5F5
310
F5F5F5F5F5F5F5F5F5F5F5F5F5F5F5F5F5F5F5F5F5F5F5F5F5F5F5F5F5F5F5F5F5F5F5F5F5F5F5F5F5F5F5F5F5F5F5F5F5F5F5F5F5F5F5F5F5F5F5F5F5F5F5F5F5F5F5F5F5F5F5F5F5F5F5F5F5F5F5F5F5F5F5E2E2E2F5F5F5F5F5F5F5F5F5F5F5F5F5F5F5F5F5F5F5F5F5F5F5F5F5F5F5F5F5F5F5F5F5F5F5F5F5F5F5F5F5
310
F5F5F5F5F5F5F5F5F5F5F5F5F5F5F5F5F5F5F5F5F5F5F5F5F5F5F5F5F5F5F5F5F5F5F5F5F5F5F5F5F5F5F5F5F5F5F5F5F5F5F5F5F5F5F5F5F5F5F5F5F5F5F5F5F5F5F5F5F5F5F5F5F5F5F5F5F5F5F5F5F5F5F5F5F5F5F5F5F5F5F5F5F5F5F5F5F5F5F5F5F5F5F5F5F5F5F5F5F5F5F5F5F5F5F5F5F5F5F5F5F5F5F5F5F5F5F5
310
F5F5F5F5F5F5F5F5F5E2E2E2F5F5F5F5F5F5F5F5F5F5F5F5F5F5F5F5F5F5F5F5F5F5F5F5F5F5F5F5F5F5F5F5F5F5F5F5F5F5F5F5F5F5F5F5F5F5F5F5F5F5F5F5F5F5F5F5F5F5F5F5F5F5F5F5F5F5F5F5F5F5F5F5F5F5F5F5F5F5F5F5F5F5F5F5F5F5F5F5F5F5F5F5F5F5F5F5F5F5F5F5F5F5F5F5F5F5F5F5F5F5F5F5F5F5F5
310
F5F5F5F5F5F5F5F5F5F5F5F5F5F5F5F5F5F5F5F5F5F5F5F5F5F5F5F5F5F5F5F5F5F5F5F5F5F5F5F5F5F5F5F5F5F5F5F5F5F5F5F5F5F5F5F5F5F5F5F5F5F5E2E2E2F5F5F5F5F5F5F5F5F5F5F5F5F5F5F5F5F5F5F5F5F5F5F5F5F5F5F5F5F5F5F5F5F5F5F5F5F5F5F5F5F5F5F5F5F5F5F5F5F5F5F5F5F5F5F5F5F5F5F5F5F5F5
310
F5F5F5F5F5F5F5F5F5F5F5F5F5F5F5F5F5F5F5F5F5F5F5F5F5F5F5F5F5F5F5F5F5F5F5F5F5F5F5F5F5F5F5F5F5F5F5F5F5F5F5F5F5F5F5F5F5F5F5F5F5F5F5F5F5F5F5F5F5F5F5F5F5F5F5F5F5F5F5F5F5F5F5F5F5F5F5F5F5F5F5F5F5F5F5F5F5F5F5F5F5F5F5F5F5F5F5F5F5F5F5F5F5F5F5E2E2E2F5F5F5F5F5F5F5F5F5
310
F5F5F5F5F5F5F5F5F5F5F5F5F5F5F5F5F5F5F5F5F5F5F5F5F5F5F5F5F5F5F5F5F5F5F5F5F5F5F5F5F5F5F5F5F5F5F5F5F5F5F5F5F5F5F5F5F5F5F5F5F5F5F5F5F5F5F5F5F5F5F5F5F5F5F5F5F5F5F5F5F5F5F5F5F5F5F5F5F5F5F5F5F5F5F5F5F5F5F5F5F5F5F5F5F5F5F5F5F5F5F5F5F5F5F5F5F5F5F5F5F5F5F5F5F5F5F5
310
F5F5F5F5F5F5F5F5F5F5F5F5F5F5F5F5F5F5F5F5F5F5F5F5F5F5F5F5F5F5F5F5F5F5F5F5F5F5F5F5F5E2E2E2F5F5F5F5F5F5F5F5F5F5F5F5F5F5F5F5F5F5F5F5F5F5F5F5F5F5F5F5F5F5F5F5F5F5F5F5F5F5F5F5F5F5F5F5F5F5F5F5F5F5F5F5F5F5F5F5F5F5F5F5F5F5F5F5F5F5F5F5F5F5F5F5F5F5F5F5F5F5F5F5F5F5F5
310
F5F5F5F5F5F5F5F5F5F5F5F5F5F5F5F5F5F5F5F5F5F5F5F5F5F5F5F5F5F5F5F5F5F5F5F5F5F5F5F5F5F5F5F5F5F5F5F5F5F5F5F5F5F5F5F5F5F5F5F5F5F5F5F5F5F5F5F5F5F5F5F5F5F5F5F5F5F5F5F5F5F5F5F5F5F5F5F5F5F5F5F5F5F5E2E2E2F5F5F5F5F5F5F5F5F5F5F5E2F5F5F5F5F5F5F5F5F5F5F5F5F5F5F5F5F5F5
310
F5F5F5F5F5F5F5F5F5F5F5F5F5F5F5F5F5F5F5F5F5F5F5F5F5F5F5F5F5F5F5F5F5F5F5F5F5F5F5F5F5F5F5F5F5F5F5F5F5F5F5F5F5F5F5F5F5F5F5F5F5F5F5F5F5F5F5F5F5F5F5F5F5F5F5F5F5F5F5F5F5F5F5F5F5F5F5F5F5F5F5F5F5F5F5F5F5F5F5F5F5F5F5F5F5F5F5F5F5F5F5F5F5F5F5F5F5F5F5F5F5F5F5F5F5F5F5
310
F5F5F5F5F5F5F5F5E2F5F5F5F5F5F5F5F5F5F5F5E2E2E2F5F5F5F5F5F5F5F5F5F5F5E2F5F5F5F5F5F5F5F5F5F5F5F5F5F5F5F5F5F5F5F5F5F5F5F5F5F5F5F5F5F5F5F5F5F5F5F5F5F5F5F5F5F5F5F5F5F5F5F5F5F5F5F5F5F5F5F5F5F5F5F5F5F5F5F5F5F5F5F5F5F5F5F5F5F5F5F5F5F5F5F5F5F5F5F5F5F5F5F5F5F5F5F5
310
F5F5F5F5F5F5F5F5F5F5F5F5F5F5F5F5F5F5F5F5F5F5F5F5F5F5F5F5F5F5F5F5F5F5F5F5F5F5F5F5F5F5F5F5F5F5F5F5F5F5F5F5F5F5F5F5F5F5F5F5F5E2F5F5F5F5F5F5F5F5F5F5F5E2E2E2F5F5F5F5F5F5F5F5F5F5F5E2F5F5F5F5F5F5F5F5F5F5F5F5F5F5F5F5F5F5F5F5F5F5F5F5F5F5F5F5F5F5F5F5F5F5F5F5F5F5F5
310
F5F5F5F5F5F5F5F5F5F5F5F5F5F5F5F5F5F5F5F5F5F5F5F5F5F5F5F5F5F5F5F5F5F5F5F5F5F5F5F5F5F5F5F5F5F5F5F5F5F5F5F5F5F5F5F5F5F5F5F5F5F5F5F5F5F5F5F5F5F5F5F5F5F5F5F5F5F5F5F5F5F5F5F5F5F5F5F5F5F5F5F5F5F5F5F5F5F5F5F5F5F5F5F5F5F5F5F5F5F5F5F5F5F5E2F5F5F5F5F5F5F5F5F5F5F5E2
310
E2E2F5F5F5F5F5F5F5F5F5F5F5E2F5F5F5F5F5F5F5F5F5F5F5F5F5F5F5F5F5F5F5F5F5F5F5F5F5F5F5F5F5F5F5F5F5F5F5F5F5F5F5F5F5F5F5F5F5F5F5F5F5F5F5F5F5F5F5F5F5F5F5F5F5F5F5F5F5F5F5F5F5F5F5F5F5F5F5F5F5F5F5F5F5F5F5F5F5F5F5F5F5F5F5F5F5F5F5F5F5F5F5F5F5F5F5F5F5F5F5F5F5F5F5F5F5
310
F5F5F5F5F5F5F5F5F5F5F5F5F5F5F5F5F5F5F5F5F5F5F5F5F5F5F5F5F5F5F5F5F5F5F5F5F5F5F5F5E2F5F5F5F5F5F5F5F5F5F5F5E2E2E2F5F5F5F5F5F5F5F5F5F5F5E2F5F5F5F5F5F5F5F5F5F5F5F5F5F5F5F5F5F5F5F5F5F5F5F5F5F5F5F5F5F5F5F5F5F5F5F5F5F5F5F5F5F5F5F5F5F5F5F5F5F5F5F5F5F5F5F5F5F5F5F5
310
F5F5F5F5F5F5F5F5F5F5F5F5F5F5F5F5F5F5F5F5F5F5F5F5F5F5F5F5F5F5F5F5F5F5F5F5F5F5F5F5F5F5F5F5F5F5F5F5F5F5F5F5F5F5F5F5F5F5F5F5F5F5F5F5F5F5F5F5F5F5F5F5F5F5F5F5F5F5F5F5F5F5F5F5F5F5F5F5F5F5F5F5F5E2F5F5F5F5F5F5F5F5F5F5F5E2E2E2F5F5F5F5F5F5F5F5F5F5F5E2F5F5F5F5F5F5F5
310
F5F5F5F5F5F5F5F5F5F5F5F5F5F5F5F5F5F5F5F5F5F5F5F5F5F5F5F5F5F5F5F5F5F5F5F5F5F5F5F5F5F5F5F5F5F5F5F5F5F5F5F5F5F5F5F5F5F5F5F5F5F5F5F5F5F5F5F5F5F5F5F5F5F5F5F5F5F5F5F5F5F5F5F5F5F5F5F5F5F5F5F5F5F5F5F5F5F5F5F5F5F5F5F5F5F5F5F5F5F5F5F5F5F5F5F5F5F5F5F5F5F5F5F5F5F5F5
310
F5F5F5F5F5F5F5F5F5F5F5F5F5F5F5F5F5F5F5E2F5F5F5F5F5F5F5F5F5F5F5E2E2E2F5F5F5F5F5F5F5F5F5F5F5E2F5F5F5F5F5F5F5F5F5F5F5F5F5F5F5F5F5F5F5F5F5F5F5F5F5F5F5F5F5F5F5F5F5F5F5F5F5F5F5F5F5F5F5F5F5F5F5F5F5F5F5F5F5F5F5F5F5F5F5F5F5F5F5F5F5F5F5F5F5F5F5F5F5F5F5F5F5F5F5F5F5
310
F5F5F5F5F5F5F5F5F5F5F5F5F5F5F5F5F5F5F5F5F5F5F5F5F5F5F5F5F5F5F5F5F5F5F5F5F5F5F5F5F5F5F5F5F5F5F5F5F5F5F5F5F5F5F5F5F5F5F5F5F5F5F5F5F5F5F5F5F5F5F5F5E2F5F5F5F5F5F5F5F5F5F5F5E2E2E2F5F5F5F5F5F5F5F5F5F5F5E2F5F5F5F5F5F5F5F5F5F5F5F5F5F5F5F5F5F5F5F5F5F5F5F5F5F5F5F5
310
F5F5F5F5F5F5F5F5F5F5F5F5F5F5F5F5F5F5F5F5F5F5F5F5F5F5F5F5F5F5F5F5F5F5F5F5F5F5F5F5F5F5F5F5F5F5F5F5F5F5F5F5F5F5F5F5F5F5F5F5F5F5F5F5F5F5F5F5F5F5F5F5F5F5F5F5F5F5F5F5F5F5F5F5F5F5F5F5F5F5F5F5F5F5F5F5F5F5F5F5F5F5F5F5F5F5F5F5F5F5F5F5F5F5F5F5F5F5F5F5F5F5F5F5F5E2F5
310
F5F5F5F5F5F5F5F5F5F5E2E2E2F5F5F5F5F5F5F5F5F5F5F5E2F5F5F5F5F5F5F5F5F5F5F5F5F5F5F5F5F5F5F5F5F5F5F5F5F5F5F5F5F5F5F5F5F5F5F5F5F5F5F5F5F5F5F5F5F5F5F5F5F5F5F5F5F5F5F5F5F5F5F5F5F5F5F5F5F5F5F5F5F5F5F5F5F5F5F5F5F5F5F5F5F5F5F5F5F5F5F5F5F5F5F5F5F5F5F5F5F5F5F5F5F5F5
310
F5F5F5F5F5F5F5F5F5F5F5F5F5F5F5F5F5F5F5F5F5F5F5F5F5F5F5F5F5F5F5F5F5F5F5F5F5F5F5F5F5F5F5F5F5F5F5F5F5F5F5E2F5F5F5F5F5F5F5F5F5F5F5E2E2E2F5F5F5F5F5F5F5F5F5F5F5E2F5F5F5F5F5F5F5F5F5F5F5F5F5F5F5F5F5F5F5F5F5F5F5F5F5F5F5F5F5F5F5F5F5F5F5F5F5F5F5F5F5F5F5F5F5F5F5F5F5
310
F5F5F5F5F5F5F5F5F5F5F5F5F5F5F5F5F5F5F5F5F5F5F5F5F5F5F5F5F5F5F5F5F5F5F5F5F5F5F5F5F5F5F5F5F5F5F5F5F5F5F5F5F5F5F5F5F5F5F5F5F5F5F5F5F5F5F5F5F5F5F5F5F5F5F5F5F5F5F5F5F5F5F5F5F5F5F5F5F5F5F5F5F5F5F5F5F5F5F5F5F5F5F5F5E2F5F5F5F5F5F5F5F5F5F5F5E2E2E2F5F5F5F5F5F5F5F5
310
F5F5F5E2F5F5F5F5F5F5F5F5F5F5F5F5F5F5F5F5F5F5F5F5F5F5F5F5F5F5F5F5F5F5F5F5F5F5F5F5F5F5F5F5F5F5F5F5F5F5F5F5F5F5F5F5F5F5F5F5F5F5F5F5F5F5F5F5F5F5F5F5F5F5F5F5F5F5F5F5F5F5F5F5F5F5F5F5F5F5F5F5F5F5F5F5F5F5F5F5F5F5F5F5F5F5F5F5F5F5F5F5F5F5F5F5F5F5F5F5F5F5F5F5F5F5F5
310
F5F5F5F5F5F5F5F5F5F5F5F5F5F5F5F5F5F5F5F5F5F5F5F5F5F5F5F5F5F5E2F5F5F5F5F5F5F5F5F5F5F5E2E2E2F5F5F5F5F5F5F5F5F5F5F5E2F5F5F5F5F5F5F5F5F5F5F5F5F5F5F5F5F5F5F5F5F5F5F5F5F5F5F5F5F5F5F5F5F5F5F5F5F5F5F5F5F5F5F5F5F5F5F5F5F5F5F5F5F5F5F5F5F5F5F5F5F5F5F5F5F5F5F5F5F5F5
310
F5F5F5F5F5F5F5F5F5F5F5F5F5F5F5F5F5F5F5F5F5F5F5F5F5F5F5F5F5F5F5F5F5F5F5F5F5F5F5F5F5F5F5F5F5F5F5F5F5F5F5F5F5F5F5F5F5F5F5F5F5F5F5F5F5F5F5F5F5F5F5F5F5F5F5F5F5F5F5F5F5F5F5E2F5F5F5F5F5F5F5F5F5F5F5E2E2E2F5F5F5F5F5F5F5F5F5F5F5E2F5F5F5F5F5F5F5F5F5F5F5F5F5F5F5F5F5
310
F5F5F5F5F5F5F5F5F5F5F5F5F5F5F5F5F5F5F5F5F5F5F5F5F5F5F5F5F5F5F5F5F5F5F5F5F5F5F5F5F5F5F5F5F5F5F5F5F5F5F5F5F5F5F5F5F5F5F5F5F5F5F5F5F5F5F5F5F5F5F5F5F5F5F5F5F5F5F5F5F5F5F5F5F5F5F5F5F5F5F5F5F5F5F5F5F5F5F5F5F5F5F5F5F5F5F5F5F5F5F5F5F5F5F5F5F5F5F5F5F5F5F5F5F5F5F5
310
F5F5F5F5F5F5F5F5F5E2F5F5F5F5F5F5F5F5F5F5F5E2E2E2F5F5F5F5F5F5F5F5F5F5F5E2F5F5F5F5F5F5F5F5F5F5F5F5F5F5F5F5F5F5F5F5F5F5F5F5F5F5F5F5F5F5F5F5F5F5F5F5F5F5F5F5F5F5F5F5F5F5F5F5F5F5F5F5F5F5F5F5F5F5F5F5F5F5F5F5F5F5F5F5F5F5F5F5F5F5F5F5F5F5F5F5F5F5F5F5F5F5F5F5F5F5F5
310
F5F5F5F5F5F5F5F5F5F5F5F5F5F5F5F5F5F5F5F5F5F5F5F5F5F5F5F5F5F5F5F5F5F5F5F5F5F5F5F5F5F5F5F5F5F5F5F5F5F5F5F5F5F5F5F5F5F5F5F5F5F5E2F5F5F5F5F5F5F5F5F5F5F5E2E2E2F5F5F5F5F5F5F5F5F5F5F5E2F5F5F5F5F5F5F5F5F5F5F5F5F5F5F5F5F5F5F5F5F5F5F5F5F5F5F5F5F5F5F5F5F5F5F5F5F5F5
310
F5F5F5F5F5F5F5F5F5F5F5F5F5F5F5F5F5F5F5F5F5F5F5F5F5F5F5F5F5F5F5F5F5F5F5F5F5F5F5F5F5F5F5F5F5F5F5F5F5F5F5F5F5F5F5F5F5F5F5F5F5F5F5F5F5F5F5F5F5F5F5F5F5F5F5F5F5F5F5F5F5F5F5F5F5F5F5F5F5F5F5F5F5F5F5F5F5F5F5F5F5F5F5F5F5F5F5F5F5F5F5F5F5F5F5E2F5F5F5F5F5F5F5F5F5F5F5
310
E2E2E2F5F5F5F5F5F5F5F5F5F5F5F5F5F5F5F5F5F5F5F5F5F5F5F5F5F5F5F5F5F5F5F5F5F5F5F5F5F5F5F5F5F5F5F5F5F5F5F5F5F5F5F5F5F5F5F5F5F5F5F5F5F5F5F5F5F5F5F5F5F5F5F5F5F5F5F5F5F5F5F5F5F5F5F5F5F5F5F5F5F5F5F5F5F5F5F5F5F5F5F5F5F5F5F5F5F5F5F5F5F5F5F5F5F5F5F5F5F5F5F5F5F5F5F5
310
F5F5F5F5F5F5F5F5F5F5F5F5F5F5F5F5F5F5F5F5F5F5F5F5F5F5F5F5F5F5F5F5F5F5F5F5F5F5F5F5F5F5F5F5F5F5F5F5F5F5F5F5F5E2E2E2F5F5F5F5F5F5F5F5F5F5F5F5F5F5F5F5F5F5F5F5F5F5F5F5F5F5F5F5F5F5F5F5F5F5F5F5F5F5F5F5F5F5F5F5F5F5F5F5F5F5F5F5F5F5F5F5F5F5F5F5F5F5F5F5F5F5F5F5F5F5F5
310
F5F5F5F5F5F5F5F5F5F5F5F5F5F5F5F5F5F5F5F5F5F5F5F5F5F5F5F5F5F5F5F5F5F5F5F5F5F5F5F5F5F5F5F5F5F5F5F5F5F5F5F5F5F5F5F5F5F5F5F5F5F5F5F5F5F5F5F5F5F5F5F5F5F5F5F5F5F5F5F5F5F5F5F5F5F5F5F5F5F5F5F5F5F5F5F5F5F5F5F5F5F5F5F5F5F5E2E2E2F5F5F5F5F5F5F5F5F5F5F5F5F5F5F5F5F5F5
310
F5F5F5F5F5F5F5F5F5F5F5F5F5F5F5F5F5F5F5F5F5F5F5F5F5F5F5F5F5F5F5F5F5F5F5F5F5F5F5F5F5F5F5F5F5F5F5F5F5F5F5F5F5F5F5F5F5F5F5F5F5F5F5F5F5F5F5F5F5F5F5F5F5F5F5F5F5F5F5F5F5F5F5F5F5F5F5F5F5F5F5F5F5F5F5F5F5F5F5F5F5F5F5F5F5F5F5F5F5F5F5F5F5F5F5F5F5F5F5F5F5F5F5F5F5F5F5
310
F5F5F5F5F5F5F5F5F5F5F5F5F5F5F5F5F5F5F5F5F5F5F5F5F5F5F5F5F5F5F5F5E2E2E2F5F5F5F5F5F5F5F5F5F5F5F5F5F5F5F5F5F5F5F5F5F5F5F5F5F5F5F5F5F5F5F5F5F5F5F5F5F5F5F5F5F5F5F5F5F5F5F5F5F5F5F5F5F5F5F5F5F5F5F5F5F5F5F5F5F5F5F5F5F5F5F5F5F5F5F5F5F5F5F5F5F5F5F5F5F5F5F5F5F5F5F5
310
F5F5F5F5F5F5F5F5F5F5F5F5F5F5F5F5F5F5F5F5F5F5F5F5F5F5F5F5F5F5F5F5F5F5F5F5F5F5F5F5F5F5F5F5F5F5F5F5F5F5F5F5F5F5F5F5F5F5F5F5F5F5F5F5F5F5F5F5F5F5F5F5F5F5F5F5F5F5F5F5F5F5F5F5F5E2E2E2F5F5F5F5F5F5F5F5F5F5F5F5F5F5F5F5F5F5F5F5F5F5F5F5F5F5F5F5F5F5F5F5F5F5F5F5F5F5F5
310
F5F5F5F5F5F5F5F5F5F5F5F5F5F5F5F5F5F5F5F5F5F5F5F5F5F5F5F5F5F5F5F5F5F5F5F5F5F5F5F5F5F5F5F5F5F5F5F5F5F5F5F5F5F5F5F5F5F5F5F5F5F5F5F5F5F5F5F5F5F5F5F5F5F5F5F5F5F5F5F5F5F5F5F5F5F5F5F5F5F5F5F5F5F5F5F5F5F5F5F5F5F5F5F5F5F5F5F5F5F5F5F5F5F5F5F5F5F5F5F5F5F5F5F5F5F5F5
310
F5F5F5F5F5F5F5F5F5F5F5E2E2E2F5F5F5F5F5F5F5F5F5F5F5F5F5F5F5F5F5F5F5F5F5F5F5F5F5F5F5F5F5F5F5F5F5F5F5F5F5F5F5F5F5F5F5F5F5F5F5F5F5F5F5F5F5F5F5F5F5F5F5F5F5F5F5F5F5F5F5F5F5F5F5F5F5F5F5F5F5F5F5F5F5F5F5F5F5F5F5F5F5F5F5F5F5F5F5F5F5F5F5F5F5F5F5F5F5F5F5F5F5F5F5F5F5
310
F5F5F5F5F5F5F5F5F5F5F5F5F5F5F5F5F5F5F5F5F5F5F5F5F5F5F5F5F5F5F5F5F5F5F5F5F5F5F5F5F5F5F5F5F5F5F5F5F5F5F5F5F5F5F5F5F5F5F5F5F5F5F5F5E2E2E2F5F5F5F5F5F5F5F5F5F5F5F5F5F5F5F5F5F5F5F5F5F5F5F5F5F5F5F5F5F5F5F5F5F5F5F5F5F5F5F5F5F5F5F5F5F5F5F5F5F5F5F5F5F5F5F5F5F5F5F5
310
F5F5F5F5F5F5F5F5F5F5F5F5F5F5F5F5F5F5F5F5F5F5F5F5F5F5F5F5F5F5F5F5F5F5F5F5F5F5F5F5F5F5F5F5F5F5F5F5F5F5F5F5F5F5F5F5F5F5F5F5F5F5F5F5F5F5F5F5F5F5F5F5F5F5F5F5F5F5F5F5F5F5F5F5F5F5F5F5F5F5F5F5F5F5F5F5F5F5F5F5F5F5F5F5F5F5F5F5F5F5F5F5F5F5F5F5F5E2E2E2F5F5F5F5F5F5F5
310
F5F5F5F5F5F5F5F5F5F5F5F5F5F5F5F5F5F5F5F5F5F5F5F5F5F5F5F5F5F5F5F5F5F5F5F5F5F5F5F5F5F5F5F5F5F5F5F5F5F5F5F5F5F5F5F5F5F5F5F5F5F5F5F5F5F5F5F5F5F5F5F5F5F5F5F5F5F5F5F5F5F5F5F5F5F5F5F5F5F5F5F5F5F5F5F5F5F5F5F5F5F5F5F5F5F5F5F5F5F5F5F5F5F5F5F5F5F5F5F5F5F5F5F5F5F5F5
310
F5F5F5F5F5F5F5F5F5F5F5F5F5F5F5F5F5F5F5F5F5F5F5F5F5F5F5F5F5F5F5F5F5F5F5F5F5F5F5F5F5F5F5E2E2E2F5F5F5F5F5F5F5F5F5F5F5E2F5F5F5F5F5F5F5F5F5F5F5F5F5F5F5F5F5F5F5F5F5F5F5F5F5F5F5F5F5F5F5F5F5F5F5F5F5F5F5F5F5F5F5F5F5F5F5F5F5F5F5F5F5F5F5F5F5F5F5F5F5F5F5F5F5F5F5F5F5
310
F5F5F5F5F5F5F5F5F5F5F5F5F5F5F5F5F5F5F5F5F5F5F5F5F5F5F5F5F5F5F5F5F5F5F5F5F5F5F5F5F5F5F5F5F5F5F5F5F5F5F5F5F5F5F5F5F5F5F5F5F5F5F5F5F5F5F5F5F5F5F5F5F5F5F5F5F5F5F5F5F5F5F5F5E2F5F5F5F5F5F5F5F5F5F5F5E2E2E2F5F5F5F5F5F5F5F5F5F5F5E2F5F5F5F5F5F5F5F5F5F5F5F5F5F5F5F5
310
F5F5F5F5F5F5F5F5F5F5F5F5F5F5F5F5F5F5F5F5F5F5F5F5F5F5F5F5F5F5F5F5F5F5F5F5F5F5F5F5F5F5F5F5F5F5F5F5F5F5F5F5F5F5F5F5F5F5F5F5F5F5F5F5F5F5F5F5F5F5F5F5F5F5F5F5F5F5F5F5F5F5F5F5F5F5F5F5F5F5F5F5F5F5F5F5F5F5F5F5F5F5F5F5F5F5F5F5F5F5F5F5F5F5F5F5F5F5F5F5F5F5F5F5F5F5F5
310
F5F5F5F5F5F5F5F5F5F5E2F5F5F5F5F5F5F5F5F5F5F5E2E2E2F5F5F5F5F5F5F5F5F5F5F5E2F5F5F5F5F5F5F5F5F5F5F5F5F5F5F5F5F5F5F5F5F5F5F5F5F5F5F5F5F5F5F5F5F5F5F5F5F5F5F5F5F5F5F5F5F5F5F5F5F5F5F5F5F5F5F5F5F5F5F5F5F5F5F5F5F5F5F5F5F5F5F5F5F5F5F5F5F5F5F5F5F5F5F5F5F5F5F5F5F5F5
310
F5F5F5F5F5F5F5F5F5F5F5F5F5F5F5F5F5F5F5F5F5F5F5F5F5F5F5F5F5F5F5F5F5F5F5F5F5F5F5F5F5F5F5F5F5F5F5F5F5F5F5F5F5F5F5F5F5F5F5F5F5F5F5E2F5F5F5F5F5F5F5F5F5F5F5E2E2E2F5F5F5F5F5F5F5F5F5F5F5E2F5F5F5F5F5F5F5F5F5F5F5F5F5F5F5F5F5F5F5F5F5F5F5F5F5F5F5F5F5F5F5F5F5F5F5F5F5
310
F5F5F5F5F5F5F5F5F5F5F5F5F5F5F5F5F5F5F5F5F5F5F5F5F5F5F5F5F5F5F5F5F5F5F5F5F5F5F5F5F5F5F5F5F5F5F5F5F5F5F5F5F5F5F5F5F5F5F5F5F5F5F5F5F5F5F5F5F5F5F5F5F5F5F5F5F5F5F5F5F5F5F5F5F5F5F5F5F5F5F5F5F5F5F5F5F5F5F5F5F5F5F5F5F5F5F5F5F5F5F5F5F5F5F5F5E2F5F5F5F5F5F5F5F5F5F5
310
F5E2E2E2F5F5F5F5F5F5F5F5F5F5F5E2F5F5F5F5F5F5F5F5F5F5F5F5F5F5F5F5F5F5F5F5F5F5F5F5F5F5F5F5F5F5F5F5F5F5F5F5F5F5F5F5F5F5F5F5F5F5F5F5F5F5F5F5F5F5F5F5F5F5F5F5F5F5F5F5F5F5F5F5F5F5F5F5F5F5F5F5F5F5F5F5F5F5F5F5F5F5F5F5F5F5F5F5F5F5F5F5F5F5F5F5F5F5F5F5F5F5F5F5F5F5F5
310
F5F5F5F5F5F5F5F5F5F5F5F5F5F5F5F5F5F5F5F5F5F5F5F5F5F5F5F5F5F5F5F5F5F5F5F5F5F5F5F5F5F5E2F5F5F5F5F5F5F5F5F5F5F5E2E2E2F5F5F5F5F5F5F5F5F5F5F5E2F5F5F5F5F5F5F5F5F5F5F5F5F5F5F5F5F5F5F5F5F5F5F5F5F5F5F5F5F5F5F5F5F5F5F5F5F5F5F5F5F5F5F5F5F5F5F5F5F5F5F5F5F5F5F5F5F5F5
310
F5F5F5F5F5F5F5F5F5F5F5F5F5F5F5F5F5F5F5F5F5F5F5F5F5F5F5F5F5F5F5F5F5F5F5F5F5F5F5F5F5F5F5F5F5F5F5F5F5F5F5F5F5F5F5F5F5F5F5F5F5F5F5F5F5F5F5F5F5F5F5F5F5F5F5F5F5F5F5F5F5F5F5F5F5F5F5F5F5F5F5F5F5F5F5E2F5F5F5F5F5F5F5F5F5F5F5E2E2E2F5F5F5F5F5F5F5F5F5F5F5E2F5F5F5F5F5
310
F5F5F5F5F5F5F5F5F5F5F5F5F5F5F5F5F5F5F5F5F5F5F5F5F5F5F5F5F5F5F5F5F5F5F5F5F5F5F5F5F5F5F5F5F5F5F5F5F5F5F5F5F5F5F5F5F5F5F5F5F5F5F5F5F5F5F5F5F5F5F5F5F5F5F5F5F5F5F5F5F5F5F5F5F5F5F5F5F5F5F5F5F5F5F5F5F5F5F5F5F5F5F5F5F5F5F5F5F5F5F5F5F5F5F5F5F5F5F5F5F5F5F5F5F5F5F5
310
F5F5F5F5F5F5F5F5F5F5F5F5F5F5F5F5F5F5F5F5F5E2F5F5F5F5F5F5F5F5F5F5F5E2E2E2F5F5F5F5F5F5F5F5F5F5F5E2F5F5F5F5F5F5F5F5F5F5F5F5F5F5F5F5F5F5F5F5F5F5F5F5F5F5F5F5F5F5F5F5F5F5F5F5F5F5F5F5F5F5F5F5F5F5F5F5F5F5F5F5F5F5F5F5F5F5F5F5F5F5F5F5F5F5F5F5F5F5F5F5F5F5F5F5F5F5F5
310
F5F5F5F5F5F5F5F5F5F5F5F5F5F5F5F5F5F5F5F5F5F5F5F5F5F5F5F5F5F5F5F5F5F5F5F5F5F5F5F5F5F5F5F5F5F5F5F5F5F5F5F5F5F5F5F5F5F5F5F5F5F5F5F5F5F5F5F5F5F5F5F5F5F5E2F5F5F5F5F5F5F5F5F5F5F5E2E2E2F5F5F5F5F5F5F5F5F5F5F5E2F5F5F5F5F5F5F5F5F5F5F5F5F5F5F5F5F5F5F5F5F5F5F5F5F5F5
310
F5F5F5F5F5F5F5F5F5F5F5F5F5F5F5F5F5F5F5F5F5F5F5F5F5F5F5F5F5F5F5F5F5F5F5F5F5F5F5F5F5F5F5F5F5F5F5F5F5F5F5F5F5F5F5F5F5F5F5F5F5F5F5F5F5F5F5F5F5F5F5F5F5F5F5F5F5F5F5F5F5F5F5F5F5F5F5F5F5F5F5F5F5F5F5F5F5F5F5F5F5F5F5F5F5F5F5F5F5F5F5F5F5F5F5F5F5F5F5F5F5F5F5F5F5F5F5
310
E2F5F5F5F5F5F5F5F5F5F5F5E2E2E2F5F5F5F5F5F5F5F5F5F5F5E2F5F5F5F5F5F5F5F5F5F5F5F5F5F5F5F5F5F5F5F5F5F5F5F5F5F5F5F5F5F5F5F5F5F5F5F5F5F5F5F5F5F5F5F5F5F5F5F5F5F5F5F5F5F5F5F5F5F5F5F5F5F5F5F5F5F5F5F5F5F5F5F5F5F5F5F5F5F5F5F5F5F5F5F5F5F5F5F5F5F5F5F5F5F5F5F5F5F5F5F5
310
F5F5F5F5F5F5F5F5F5F5F5F5F5F5F5F5F5F5F5F5F5F5F5F5F5F5F5F5F5F5F5F5F5F5F5F5F5F5F5F5F5F5F5F5F5F5F5F5F5F5F5F5F5E2F5F5F5F5F5F5F5F5F5F5F5E2E2E2F5F5F5F5F5F5F5F5F5F5F5E2F5F5F5F5F5F5F5F5F5F5F5F5F5F5F5F5F5F5F5F5F5F5F5F5F5F5F5F5F5F5F5F5F5F5F5F5F5F5F5F5F5F5F5F5F5F5F5
310
F5F5F5F5F5F5F5F5F5F5F5F5F5F5F5F5F5F5F5F5F5F5F5F5F5F5F5F5F5F5F5F5F5F5F5F5F5F5F5F5F5F5F5F5F5F5F5F5F5F5F5F5F5F5F5F5F5F5F5F5F5F5F5F5F5F5F5F5F5F5F5F5F5F5F5F5F5F5F5F5F5F5F5F5F5F5F5F5F5F5F5F5F5F5F5F5F5F5F5F5F5F5F5F5F5F5E2F5F5F5F5F5F5F5F5F5F5F5E2E2E2F5F5F5F5F5F5
310
F5F5F5F5F5E2F5F5F5F5F5F5F5F5F5F5F5F5F5F5F5F5F5F5F5F5F5F5F5F5F5F5F5F5F5F5F5F5F5F5F5F5F5F5F5F5F5F5F5F5F5F5F5F5F5F5F5F5F5F5F5F5F5F5F5F5F5F5F5F5F5F5F5F5F5F5F5F5F5F5F5F5F5F5F5F5F5F5F5F5F5F5F5F5F5F5F5F5F5F5F5F5F5F5F5F5F5F5F5F5F5F5F5F5F5F5F5F5F5F5F5F5F5F5F5F5F5
310
F5F5F5F5F5F5F5F5F5F5F5F5F5F5F5F5F5F5F5F5F5F5F5F5F5F5F5F5F5F5F5F5E2F5F5F5F5F5F5F5F5F5F5F5E2E2E2F5F5F5F5F5F5F5F5F5F5F5E2F5F5F5F5F5F5F5F5F5F5F5F5F5F5F5F5F5F5F5F5F5F5F5F5F5F5F5F5F5F5F5F5F5F5F5F5F5F5F5F5F5F5F5F5F5F5F5F5F5F5F5F5F5F5F5F5F5F5F5F5F5F5F5F5F5F5F5F5
310
F5F5F5F5F5F5F5F5F5F5F5F5F5F5F5F5F5F5F5F5F5F5F5F5F5F5F5F5F5F5F5F5F5F5F5F5F5F5F5F5F5F5F5F5F5F5F5F5F5F5F5F5F5F5F5F5F5F5F5F5F5F5F5F5F5F5F5F5F5F5F5F5F5F5F5F5F5F5F5F5F5F5F5F5F5E2F5F5F5F5F5F5F5F5F5F5F5E2E2E2F5F5F5F5F5F5F5F5F5F5F5E2F5F5F5F5F5F5F5F5F5F5F5F5F5F5F5
310
F5F5F5F5F5F5F5F5F5F5F5F5F5F5F5F5F5F5F5F5F5F5F5F5F5F5F5F5F5F5F5F5F5F5F5F5F5F5F5F5F5F5F5F5F5F5F5F5F5F5F5F5F5F5F5F5F5F5F5F5F5F5F5F5F5F5F5F5F5F5F5F5F5F5F5F5F5F5F5F5F5F5F5F5F5F5F5F5F5F5F5F5F5F5F5F5F5F5F5F5F5F5F5F5F5F5F5F5F5F5F5F5F5F5F5F5F5F5F5F5F5F5F5F5F5F5F5
310
F5F5F5F5F5F5F5F5F5F5F5E2F5F5F5F5F5F5F5F5F5F5F5E2E2E2F5F5F5F5F5F5F5F5F5F5F5E2F5F5F5F5F5F5F5F5F5F5F5F5F5F5F5F5F5F5F5F5F5F5F5F5F5F5F5F5F5F5F5F5F5F5F5F5F5F5F5F5F5F5F5F5F5F5F5F5F5F5F5F5F5F5F5F5F5F5F5F5F5F5F5F5F5F5F5F5F5F5F5F5F5F5F5F5F5F5F5F5F5F5F5F5F5F5F5F5F5
310
F5F5F5F5F5F5F5F5F5F5F5F5F5F5F5F5F5F5F5F5F5F5F5F5F5F5F5F5F5F5F5F5F5F5F5F5F5F5F5F5F5F5F5F5F5F5F5F5F5F5F5F5F5F5F5F5F5F5F5F5F5F5F5F5E2F5F5F5F5F5F5F5F5F5F5F5E2E2E2F5F5F5F5F5F5F5F5F5F5F5F5F5F5F5F5F5F5F5F5F5F5F5F5F5F5F5F5F5F5F5F5F5F5F5F5F5F5F5F5F5F5F5F5F5F5F5F5
310
F5F5F5F5F5F5F5F5F5F5F5F5F5F5F5F5F5F5F5F5F5F5F5F5F5F5F5F5F5F5F5F5F5F5F5F5F5F5F5F5F5F5F5F5F5F5F5F5F5F5F5F5F5F5F5F5F5F5F5F5F5F5F5F5F5F5F5F5F5F5F5F5F5F5F5F5F5F5F5F5F5F5F5F5F5F5F5F5F5F5F5F5F5F5F5F5F5F5F5F5F5F5F5F5F5F5F5F5F5F5F5F5F5F5F5F5F5F5F5F5F5F5F5F5F5F5F5
310
F5F5E2E2E2F5F5F5F5F5F5F5F5F5F5F5F5F5F5F5F5F5F5F5F5F5F5F5F5F5F5F5F5F5F5F5F5F5F5F5F5F5F5F5F5F5F5F5F5F5F5F5F5F5F5F5F5F5F5F5F5F5F5F5F5F5F5F5F5F5F5F5F5F5F5F5F5F5F5F5F5F5F5F5F5F5F5F5F5F5F5F5F5F5F5F5F5F5F5F5F5F5F5F5F5F5F5F5F5F5F5F5F5F5F5F5F5F5F5F5F5F5F5F5F5F5F5
310
F5F5F5F5F5F5F5F5F5F5F5F5F5F5F5F5F5F5F5F5F5F5F5F5F5F5F5F5F5F5F5F5F5F5F5F5F5F5F5F5F5F5F5F5F5F5F5F5F5F5F5F5F5F5F5E2E2E2F5F5F5F5F5F5F5F5F5F5F5F5F5F5F5F5F5F5F5F5F5F5F5F5F5F5F5F5F5F5F5F5F5F5F5F5F5F5F5F5F5F5F5F5F5F5F5F5F5F5F5F5F5F5F5F5F5F5F5F5F5F5F5F5F5F5F5F5F5
310
F5F5F5F5F5F5F5F5F5F5F5F5F5F5F5F5F5F5F5F5F5F5F5F5F5F5F5F5F5F5F5F5F5F5F5F5F5F5F5F5F5F5F5F5F5F5F5F5F5F5F5F5F5F5F5F5F5F5F5F5F5F5F5F5F5F5F5F5F5F5F5F5F5F5F5F5F5F5F5F5F5F5F5F5F5F5F5F5F5F5F5F5F5F5F5F5F5F5F5F5F5F5F5F5F5F5F5F5E2E2E2F5F5F5F5F5F5F5F5F5F5F5F5F5F5F5F5
310
F5F5F5F5F5F5F5F5F5F5F5F5F5F5F5F5F5F5F5F5F5F5F5F5F5F5F5F5F5F5F5F5F5F5F5F5F5F5F5F5F5F5F5F5F5F5F5F5F5F5F5F5F5F5F5F5F5F5F5F5F5F5F5F5F5F5F5F5F5F5F5F5F5F5F5F5F5F5F5F5F5F5F5F5F5F5F5F5F5F5F5F5F5F5F5F5F5F5F5F5F5F5F5F5F5F5F5F5F5F5F5F5F5F5F5F5F5F5F5F5F5F5F5F5F5F5F5
310
F5F5F5F5F5F5F5F5F5F5F5F5F5F5F5F5F5F5F5F5F5F5F5F5F5F5F5F5F5F5F5F5F5F5E2E2E2F5F5F5F5F5F5F5F5F5F5F5F5F5F5F5F5F5F5F5F5F5F5F5F5F5F5F5F5F5F5F5F5F5F5F5F5F5F5F5F5F5F5F5F5F5F5F5F5F5F5F5F5F5F5F5F5F5F5F5F5F5F5F5F5F5F5F5F5F5F5F5F5F5F5F5F5F5F5F5F5F5F5F5F5F5F5F5F5F5F5
310
F5F5F5F5F5F5F5F5F5F5F5F5F5F5F5F5F5F5F5F5F5F5F5F5F5F5F5F5F5F5F5F5F5F5F5F5F5F5F5F5F5F5F5F5F5F5F5F5F5F5F5F5F5F5F5F5F5F5F5F5F5F5F5F5F5F5F5F5F5F5F5F5F5F5F5F5F5F5F5F5F5F5F5F5F5F5F5E2E2E2F5F5F5F5F5F5F5F5F5F5F5F5F5F5F5F5F5F5F5F5F5F5F5F5F5F5F5F5F5F5F5F5F5F5F5F5F5
310
F5F5F5F5F5F5F5F5F5F5F5F5F5F5F5F5F5F5F5F5F5F5F5F5F5F5F5F5F5F5F5F5F5F5F5F5F5F5F5F5F5F5F5F5F5F5F5F5F5F5F5F5F5F5F5F5F5F5F5F5F5F5F5F5F5F5F5F5F5F5F5F5F5F5F5F5F5F5F5F5F5F5F5F5F5F5F5F5F5F5F5F5F5F5F5F5F5F5F5F5F5F5F5F5F5F5F5F5F5F5F5F5F5F5F5F5F5F5F5F5F5F5F5F5F5F5F5
310
F5F5F5F5F5F5F5F5F5F5F5F5F5E2E2E2F5F5F5F5F5F5F5F5F5F5F5F5F5F5F5F5F5F5F5F5F5F5F5F5F5F5F5F5F5F5F5F5F5F5F5F5F5F5F5F5F5F5F5F5F5F5F5F5F5F5F5F5F5F5F5F5F5F5F5F5F5F5F5F5F5F5F5F5F5F5F5F5F5F5F5F5F5F5F5F5F5F5F5F5F5F5F5F5F5F5F5F5F5F5F5F5F5F5F5F5F5F5F5F5F5F5F5F5F5F5F5
310
F5F5F5F5F5F5F5F5F5F5F5F5F5F5F5F5F5F5F5F5F5F5F5F5F5F5F5F5F5F5F5F5F5F5F5F5F5F5F5F5F5F5F5F5F5F5F5F5F5F5F5F5F5F5F5F5F5F5F5F5F5F5F5F5F5F5E2E2E2F5F5F5F5F5F5F5F5F5F5F5F5F5F5F5F5F5F5F5F5F5F5F5F5F5F5F5F5F5F5F5F5F5F5F5F5F5F5F5F5F5F5F5F5F5F5F5F5F5F5F5F5F5F5F5F5F5F5
310
F5F5F5F5F5F5F5F5F5F5F5F5F5F5F5F5F5F5F5F5F5F5F5F5F5F5F5F5F5F5F5F5F5F5F5F5F5F5F5F5F5F5F5F5F5F5F5F5F5F5F5F5F5F5F5F5F5F5F5F5F5F5F5F5F5F5F5F5F5F5F5F5F5F5F5F5F5F5F5F5F5F5F5F5F5F5F5F5F5F5F5F5F5F5F5F5F5F5F5F5F5F5F5F5F5F5F5F5F5F5F5F5F5F5F5F5F5F5F5E2E2E2F5F5F5F5F5
310
F5F5F5F5F5F5E2F5F5F5F5F5F5F5F5F5F5F5F5F5F5F5F5F5F5F5F5F5F5F5F5F5F5F5F5F5F5F5F5F5F5F5F5F5F5F5F5F5F5F5F5F5F5F5F5F5F5F5F5F5F5F5F5F5F5F5F5F5F5F5F5F5F5F5F5F5F5F5F5F5F5F5F5F5F5F5F5F5F5F5F5F5F5F5F5F5F5F5F5F5F5F5F5F5F5F5F5F5F5F5F5F5F5F5F5F5F5F5F5F5F5F5F5F5F5F5F5
310
F5F5F5F5F5F5F5F5F5F5F5F5F5F5F5F5F5F5F5F5F5F5F5F5F5F5F5F5F5F5F5F5F5E2F5F5F5F5F5F5F5F5F5F5F5E2E2E2F5F5F5F5F5F5F5F5F5F5F5E2F5F5F5F5F5F5F5F5F5F5F5F5F5F5F5F5F5F5F5F5F5F5F5F5F5F5F5F5F5F5F5F5F5F5F5F5F5F5F5F5F5F5F5F5F5F5F5F5F5F5F5F5F5F5F5F5F5F5F5F5F5F5F5F5F5F5F5
310
F5F5F5F5F5F5F5F5F5F5F5F5F5F5F5F5F5F5F5F5F5F5F5F5F5F5F5F5F5F5F5F5F5F5F5F5F5F5F5F5F5F5F5F5F5F5F5F5F5F5F5F5F5F5F5F5F5F5F5F5F5F5F5F5F5F5F5F5F5F5F5F5F5F5F5F5F5F5F5F5F5F5F5F5F5F5E2F5F5F5F5F5F5F5F5F5F5F5E2E2E2F5F5F5F5F5F5F5F5F5F5F5E2F5F5F5F5F5F5F5F5F5F5F5F5F5F5
310
F5F5F5F5F5F5F5F5F5F5F5F5F5F5F5F5F5F5F5F5F5F5F5F5F5F5F5F5F5F5F5F5F5F5F5F5F5F5F5F5F5F5F5F5F5F5F5F5F5F5F5F5F5F5F5F5F5F5F5F5F5F5F5F5F5F5F5F5F5F5F5F5F5F5F5F5F5F5F5F5F5F5F5F5F5F5F5F5F5F5F5F5F5F5F5F5F5F5F5F5F5F5F5F5F5F5F5F5F5F5F5F5F5F5F5F5F5F5F5F5F5F5F5F5F5F5F5
310
F5F5F5F5F5F5F5F5F5F5F5F5E2F5F5F5F5F5F5F5F5F5F5F5E2E2E2F5F5F5F5F5F5F5F5F5F5F5E2F5F5F5F5F5F5F5F5F5F5F5F5F5F5F5F5F5F5F5F5F5F5F5F5F5F5F5F5F5F5F5F5F5F5F5F5F5F5F5F5F5F5F5F5F5F5F5F5F5F5F5F5F5F5F5F5F5F5F5F5F5F5F5F5F5F5F5F5F5F5F5F5F5F5F5F5F5F5F5F5F5F5F5F5F5F5F5F5
310
F5F5F5F5F5F5F5F5F5F5F5F5F5F5F5F5F5F5F5F5F5F5F5F5F5F5F5F5F5F5F5F5F5F5F5F5F5F5F5F5F5F5F5F5F5F5F5F5F5F5F5F5F5F5F5F5F5F5F5F5F5F5F5F5F5E2F5F5F5F5F5F5F5F5F5F5F5E2E2E2F5F5F5F5F5F5F5F5F5F5F5E2F5F5F5F5F5F5F5F5F5F5F5F5F5F5F5F5F5F5F5F5F5F5F5F5F5F5F5F5F5F5F5F5F5F5F5
310
F5F5F5F5F5F5F5F5F5F5F5F5F5F5F5F5F5F5F5F5F5F5F5F5F5F5F5F5F5F5F5F5F5F5F5F5F5F5F5F5F5F5F5F5F5F5F5F5F5F5F5F5F5F5F5F5F5F5F5F5F5F5F5F5F5F5F5F5F5F5F5F5F5F5F5F5F5F5F5F5F5F5F5F5F5F5F5F5F5F5F5F5F5F5F5F5F5F5F5F5F5F5F5F5F5F5F5F5F5F5F5F5F5F5F5F5F5F5E2F5F5F5F5F5F5F5F5
310
F5F5F5E2E2E2F5F5F5F5F5F5F5F5F5F5F5E2F5F5F5F5F5F5F5F5F5F5F5F5F5F5F5F5F5F5F5F5F5F5F5F5F5F5F5F5F5F5F5F5F5F5F5F5F5F5F5F5F5F5F5F5F5F5F5F5F5F5F5F5F5F5F5F5F5F5F5F5F5F5F5F5F5F5F5F5F5F5F5F5F5F5F5F5F5F5F5F5F5F5F5F5F5F5F5F5F5F5F5F5F5F5F5F5F5F5F5F5F5F5F5F5F5F5F5F5F5
310
F5F5F5F5F5F5F5F5F5F5F5F5F5F5F5F5F5F5F5F5F5F5F5F5F5F5F5F5F5F5F5F5F5F5F5F5F5F5F5F5F5F5F5F5E2F5F5F5F5F5F5F5F5F5F5F5E2E2E2F5F5F5F5F5F5F5F5F5F5F5E2F5F5F5F5F5F5F5F5F5F5F5F5F5F5F5F5F5F5F5F5F5F5F5F5F5F5F5F5F5F5F5F5F5F5F5F5F5F5F5F5F5F5F5F5F5F5F5F5F5F5F5F5F5F5F5F5
310
F5F5F5F5F5F5F5F5F5F5F5F5F5F5F5F5F5F5F5F5F5F5F5F5F5F5F5F5F5F5F5F5F5F5F5F5F5F5F5F5F5F5F5F5F5F5F5F5F5F5F5F5F5F5F5F5F5F5F5F5F5F5F5F5F5F5F5F5F5F5F5F5F5F5F5F5F5F5F5F5F5F5F5F5F5F5F5F5F5F5F5F5F5F5F5F5F5E2F5F5F5F5F5F5F5F5F5F5F5E2E2E2F5F5F5F5F5F5F5F5F5F5F5E2E2E2E2
310
E2E2E2E2E2F5F5F5F5F5F5F5F5F5E2E2E2E2E2E2E2E2E2E2E2E2E2E2E2E2F5F5F5F5F5F5F5F5F5F5E2E2E2E2E2E2E2E2E2E2E2E2E2E2E2E2F5F5F5F5F5F5F5F5F5E2E2E2E2E2E2E2E2E2E2E2E2E2E2E2E2E2F5F5F5F5F5F5F5F5F5E2E2E2E2E2E2E2E2E2E2E2E2E2E2E2E2F5F5F5F5F5F5F5F5F5F5E2E2E2E2E2E2E2E2E2E2
310
E2E2E2E2E2E2F5F5F5F5F5F5F5F5F5E2E2E2E2E2E2E2E2E2F5F5F5F5F5F5F5F5F5F5F5E2E2E2F5F5F5F5F5F5F5F5F5F5F5F5F5F5F5F5F5F5F5F5F5F5F5F5F5F5F5F5F5F5F5F5F5F5F5F5F5F5F5F5F5F5F5F5F5F5F5F5F5F5F5F5F5F5F5F5F5F5F5F5F5F5F5F5F5F5F5F5F5F5F5F5F5F5F5F5F5F5F5F5F5F5F5F5F5F5F5F5F5
310
F5F5F5F5F5F5F5F5F5F5F5F5F5F5F5F5F5F5F5F5F5F5F5F5F5F5F5F5F5F5F5F5F5F5F5F5F5F5F5F5F5F5F5F5F5F5F5F5F5F5F5F5F5F5F5F5F5F5F5F5F5F5F5F5F5F5F5F5F5F5F5F5F5F5F5F5F5F5F5F5F5F5F5F5F5F5F5F5E2E2E2F5F5F5F5F5F5F5F5F5F5F5F5F5F5F5F5F5F5F5F5F5F5F5F5F5F5F5F5F5F5F5F5F5F5F5F5
310
F5F5F5F5F5F5F5F5F5F5F5F5F5F5F5F5F5F5F5F5F5F5F5F5F5F5F5F5F5F5F5F5F5F5F5F5F5F5F5F5F5F5F5F5F5F5F5F5F5F5F5F5F5F5F5F5F5F5F5F5F5F5F5F5F5F5F5F5F5F5F5F5F5F5F5F5F5F5F5F5F5F5F5F5F5F5F5F5F5F5F5F5F5F5F5F5F5F5F5F5F5F5F5F5F5F5F5F5F5F5F5F5F5F5F5F5F5F5F5F5F5F5F5F5F5F5F5
310
F5F5F5F5F5F5F5F5F5F5F5F5F5F5E2E2E2F5F5F5F5F5F5F5F5F5F5F5F5F5F5F5F5F5F5F5F5F5F5F5F5F5F5F5F5F5F5F5F5F5F5F5F5F5F5F5F5F5F5F5F5F5F5F5F5F5F5F5F5F5F5F5F5F5F5F5F5F5F5F5F5F5F5F5F5F5F5F5F5F5F5F5F5F5F5F5F5F5F5F5F5F5F5F5F5F5F5F5F5F5F5F5F5F5F5F5F5F5F5F5F5F5F5F5F5F5F5
310
F5F5F5F5F5F5F5F5F5F5F5F5F5F5F5F5F5F5F5F5F5F5F5F5F5F5F5F5F5F5F5F5F5F5F5F5F5F5F5F5F5F5F5F5F5F5F5F5F5F5F5F5F5F5F5F5F5F5F5F5F5F5F5F5F5F5F5E2E2E2F5F5F5F5F5F5F5F5F5F5F5F5F5F5F5F5F5F5F5F5F5F5F5F5F5F5F5F5F5F5F5F5F5F5F5F5F5F5F5F5F5F5F5F5F5F5F5F5F5F5F5F5F5F5F5F5F5
310
F5F5F5F5F5F5F5F5F5F5F5F5F5F5F5F5F5F5F5F5F5F5F5F5F5F5F5F5F5F5F5F5F5F5F5F5F5F5F5F5F5F5F5F5F5F5F5F5F5F5F5F5F5F5F5F5F5F5F5F5F5F5F5F5F5F5F5F5F5F5F5F5F5F5F5F5F5F5F5F5F5F5F5F5F5F5F5F5F5F5F5F5F5F5F5F5F5F5F5F5F5F5F5F5F5F5F5F5F5F5F5F5F5F5F5F5F5F5F5F5E2EFE2E2E2E2E2
310
E2E2E2E2E2E2E2E2E2E2E2E2E2E2E2E2E2E2E2E2E2E2E2E2E2E2E2E2E2E2E2E2E2E2E2E2E2E2E2E2E2E2E2E2E2E2E2E2E2E2E2E2E2E2E2E2E2E2E2E2E2E2E2E2E2E2E2E2E2E2E2E2E2E2E2E2E2E2E2E2E2E2E2E2E2E2E2E2E2E2E2E2E2E2E2E2E2E2E2E2E2E2E2E2E2E2E2E2E2E2E2E2E2E2E2E2E2E2E2E2E2E2E2E2E2E2E2
310
E2E2E2E2E2E2E2E2E2E2E2E2E2E2E2E2E2E2E2E2E2E2E2E2E2E2E2E2E2E2E2E2E2E2E2E2E2E2E2E2E2E2E2E2E2E2E2EF
  0
XRECORD
  5
33F6
102
{ACAD_REACTORS
330
33F5
102
}
330
33F5
100
AcDbXrecord
280
     1
102
SHADEPLOT
 70
     0
102
SHADEPLOTRESLEVEL
 70
     2
102
SHADEPLOTCUSTOMDPI
 70
   300
  0
XRECORD
  5
33FC
102
{ACAD_REACTORS
330
33A4
102
}
330
33A4
100
AcDbXrecord
280
     1
102
MATERIAL
148
0.0
149
0.0
149
0.0
 93
        0
 94
      127
282
     0
 72
     0
 77
     0
171
     0
175
     0
179
     0
273
     0
  0
XRECORD
  5
33A6
102
{ACAD_REACTORS
330
33A4
102
}
330
33A4
100
AcDbXrecord
280
     1
270
     1
271
     1
  0
XRECORD
  5
33A5
102
{ACAD_REACTORS
330
33A4
102
}
330
33A4
100
AcDbXrecord
280
     1
270
     1
271
     1
  0
XRECORD
  5
33A9
102
{ACAD_REACTORS
330
33A4
102
}
330
33A4
100
AcDbXrecord
280
     1
270
     1
271
     1
  0
XRECORD
  5
33A8
102
{ACAD_REACTORS
330
33A4
102
}
330
33A4
100
AcDbXrecord
280
     1
270
     1
271
     1
  0
XRECORD
  5
33AA
102
{ACAD_REACTORS
330
33A4
102
}
330
33A4
100
AcDbXrecord
280
     1
270
     1
271
     1
  0
XRECORD
  5
33A7
102
{ACAD_REACTORS
330
33A4
102
}
330
33A4
100
AcDbXrecord
280
     1
270
     1
271
     1
  0
XRECORD
  5
33FB
102
{ACAD_REACTORS
330
339C
102
}
330
339C
100
AcDbXrecord
280
     1
102
MATERIAL
148
0.0
149
0.0
149
0.0
 93
        0
 94
      127
282
     0
 72
     0
 77
     0
171
     0
175
     0
179
     0
273
     0
  0
XRECORD
  5
339E
102
{ACAD_REACTORS
330
339C
102
}
330
339C
100
AcDbXrecord
280
     1
270
     1
271
     1
  0
XRECORD
  5
339D
102
{ACAD_REACTORS
330
339C
102
}
330
339C
100
AcDbXrecord
280
     1
270
     1
271
     1
  0
XRECORD
  5
33A1
102
{ACAD_REACTORS
330
339C
102
}
330
339C
100
AcDbXrecord
280
     1
270
     1
271
     1
  0
XRECORD
  5
33A0
102
{ACAD_REACTORS
330
339C
102
}
330
339C
100
AcDbXrecord
280
     1
270
     1
271
     1
  0
XRECORD
  5
33A2
102
{ACAD_REACTORS
330
339C
102
}
330
339C
100
AcDbXrecord
280
     1
270
     1
271
     1
  0
XRECORD
  5
339F
102
{ACAD_REACTORS
330
339C
102
}
330
339C
100
AcDbXrecord
280
     1
270
     1
271
     1
  0
XRECORD
  5
33FD
102
{ACAD_REACTORS
330
33AC
102
}
330
33AC
100
AcDbXrecord
280
     1
102
MATERIAL
148
0.0
149
0.0
149
0.0
 93
        0
 94
      127
282
     0
 72
     0
 77
     0
171
     0
175
     0
179
     0
273
     0
  0
XRECORD
  5
33AE
102
{ACAD_REACTORS
330
33AC
102
}
330
33AC
100
AcDbXrecord
280
     1
270
     1
271
     1
  0
XRECORD
  5
33AD
102
{ACAD_REACTORS
330
33AC
102
}
330
33AC
100
AcDbXrecord
280
     1
270
     1
271
     1
  0
XRECORD
  5
33B1
102
{ACAD_REACTORS
330
33AC
102
}
330
33AC
100
AcDbXrecord
280
     1
270
     1
271
     1
  0
XRECORD
  5
33B0
102
{ACAD_REACTORS
330
33AC
102
}
330
33AC
100
AcDbXrecord
280
     1
270
     1
271
     1
  0
XRECORD
  5
33B2
102
{ACAD_REACTORS
330
33AC
102
}
330
33AC
100
AcDbXrecord
280
     1
270
     1
271
     1
  0
XRECORD
  5
33AF
102
{ACAD_REACTORS
330
33AC
102
}
330
33AC
100
AcDbXrecord
280
     1
270
     1
271
     1
  0
XRECORD
  5
33F0
102
{ACAD_REACTORS
330
33EF
102
}
330
33EF
100
AcDbXrecord
280
     1
102
ACAD_ROUNDTRIP_2012_MLEADER_STYLE
298
     1
  0
CELLSTYLEMAP
  5
33EE
102
{ACAD_REACTORS
330
33ED
102
}
330
33ED
100
AcDbCellStyleMap
 90
        3
300
CELLSTYLE
  1
TABLEFORMAT_BEGIN
 90
        5
170
     1
 91
        0
 92
    32768
 62
   257
 93
        1
300
CONTENTFORMAT
  1
CONTENTFORMAT_BEGIN
 90
        0
 91
        0
 92
        4
 93
        0
300

 40
0.0
140
1.0
 94
        5
 62
     0
340
11
144
0.25
309
CONTENTFORMAT_END
171
     0
 94
        6
 95
        1
302
GRIDFORMAT
  1
GRIDFORMAT_BEGIN
 90
        0
 91
        1
 62
     0
 92
       -2
340
0
 93
        0
 40
0.045
309
GRIDFORMAT_END
 95
        2
302
GRIDFORMAT
  1
GRIDFORMAT_BEGIN
 90
        0
 91
        1
 62
     0
 92
       -2
340
0
 93
        0
 40
0.045
309
GRIDFORMAT_END
 95
        4
302
GRIDFORMAT
  1
GRIDFORMAT_BEGIN
 90
        0
 91
        1
 62
     0
 92
       -2
340
0
 93
        0
 40
0.045
309
GRIDFORMAT_END
 95
        8
302
GRIDFORMAT
  1
GRIDFORMAT_BEGIN
 90
        0
 91
        1
 62
     0
 92
       -2
340
0
 93
        0
 40
0.045
309
GRIDFORMAT_END
 95
       16
302
GRIDFORMAT
  1
GRIDFORMAT_BEGIN
 90
        0
 91
        1
 62
     0
 92
       -2
340
0
 93
        0
 40
0.045
309
GRIDFORMAT_END
 95
       32
302
GRIDFORMAT
  1
GRIDFORMAT_BEGIN
 90
        0
 91
        1
 62
     0
 92
       -2
340
0
 93
        0
 40
0.045
309
GRIDFORMAT_END
309
TABLEFORMAT_END
  1
CELLSTYLE_BEGIN
 90
        1
 91
        1
300
_TITLE
309
CELLSTYLE_END
300
CELLSTYLE
  1
TABLEFORMAT_BEGIN
 90
        5
170
     1
 91
        0
 92
        0
 62
   257
 93
        1
300
CONTENTFORMAT
  1
CONTENTFORMAT_BEGIN
 90
        0
 91
        0
 92
        4
 93
        0
300

 40
0.0
140
1.0
 94
        5
 62
     0
340
11
144
0.18
309
CONTENTFORMAT_END
171
     0
 94
        6
 95
        1
302
GRIDFORMAT
  1
GRIDFORMAT_BEGIN
 90
        0
 91
        1
 62
     0
 92
       -2
340
0
 93
        0
 40
0.045
309
GRIDFORMAT_END
 95
        2
302
GRIDFORMAT
  1
GRIDFORMAT_BEGIN
 90
        0
 91
        1
 62
     0
 92
       -2
340
0
 93
        0
 40
0.045
309
GRIDFORMAT_END
 95
        4
302
GRIDFORMAT
  1
GRIDFORMAT_BEGIN
 90
        0
 91
        1
 62
     0
 92
       -2
340
0
 93
        0
 40
0.045
309
GRIDFORMAT_END
 95
        8
302
GRIDFORMAT
  1
GRIDFORMAT_BEGIN
 90
        0
 91
        1
 62
     0
 92
       -2
340
0
 93
        0
 40
0.045
309
GRIDFORMAT_END
 95
       16
302
GRIDFORMAT
  1
GRIDFORMAT_BEGIN
 90
        0
 91
        1
 62
     0
 92
       -2
340
0
 93
        0
 40
0.045
309
GRIDFORMAT_END
 95
       32
302
GRIDFORMAT
  1
GRIDFORMAT_BEGIN
 90
        0
 91
        1
 62
     0
 92
       -2
340
0
 93
        0
 40
0.045
309
GRIDFORMAT_END
309
TABLEFORMAT_END
  1
CELLSTYLE_BEGIN
 90
        2
 91
        1
300
_HEADER
309
CELLSTYLE_END
300
CELLSTYLE
  1
TABLEFORMAT_BEGIN
 90
        5
170
     1
 91
        0
 92
        0
 62
   257
 93
        1
300
CONTENTFORMAT
  1
CONTENTFORMAT_BEGIN
 90
        0
 91
        0
 92
        4
 93
        0
300

 40
0.0
140
1.0
 94
        2
 62
     0
340
11
144
0.18
309
CONTENTFORMAT_END
171
     0
 94
        6
 95
        1
302
GRIDFORMAT
  1
GRIDFORMAT_BEGIN
 90
        0
 91
        1
 62
     0
 92
       -2
340
0
 93
        0
 40
0.045
309
GRIDFORMAT_END
 95
        2
302
GRIDFORMAT
  1
GRIDFORMAT_BEGIN
 90
        0
 91
        1
 62
     0
 92
       -2
340
0
 93
        0
 40
0.045
309
GRIDFORMAT_END
 95
        4
302
GRIDFORMAT
  1
GRIDFORMAT_BEGIN
 90
        0
 91
        1
 62
     0
 92
       -2
340
0
 93
        0
 40
0.045
309
GRIDFORMAT_END
 95
        8
302
GRIDFORMAT
  1
GRIDFORMAT_BEGIN
 90
        0
 91
        1
 62
     0
 92
       -2
340
0
 93
        0
 40
0.045
309
GRIDFORMAT_END
 95
       16
302
GRIDFORMAT
  1
GRIDFORMAT_BEGIN
 90
        0
 91
        1
 62
     0
 92
       -2
340
0
 93
        0
 40
0.045
309
GRIDFORMAT_END
 95
       32
302
GRIDFORMAT
  1
GRIDFORMAT_BEGIN
 90
        0
 91
        1
 62
     0
 92
       -2
340
0
 93
        0
 40
0.045
309
GRIDFORMAT_END
309
TABLEFORMAT_END
  1
CELLSTYLE_BEGIN
 90
        3
 91
        2
300
_DATA
309
CELLSTYLE_END
  0
XRECORD
  5
33F8
102
{ACAD_REACTORS
330
33ED
102
}
330
33ED
100
AcDbXrecord
280
     1
102
ACAD_ROUNDTRIP_PRE2007_TABLESTYLE
 90
        4
 91
        0
  1

 92
        4
 93
        0
  2

 94
        4
 95
        0
  3

  0
XRECORD
  5
3409
102
{ACAD_REACTORS
330
3408
102
}
330
3408
100
AcDbXrecord
280
     1
102
RTVSPropertyOp0
 70
     1
102
RTVSPropertyOp1
 70
     1
102
RTVSPropertyOp2
 70
     1
102
RTVSPropertyOp3
 70
     1
102
RTVSPropertyOp4
 70
     1
102
RTVSPropertyOp5
 70
     1
102
RTVSPropertyOp6
 70
     1
102
RTVSPropertyOp7
 70
     1
102
RTVSPropertyOp8
 70
     1
102
RTVSPropertyOp9
 70
     1
102
RTVSPropertyOp10
 70
     1
102
RTVSPropertyOp11
 70
     1
102
RTVSPropertyOp12
 70
     1
102
RTVSPropertyOp13
 70
     1
102
RTVSPropertyOp14
 70
     1
102
RTVSPropertyOp15
 70
     1
102
RTVSPropertyOp16
 70
     1
102
RTVSPropertyOp17
 70
     1
102
RTVSPropertyOp18
 70
     1
102
RTVSPropertyOp19
 70
     1
102
RTVSPropertyOp20
 70
     1
102
RTVSPropertyOp21
 70
     1
102
RTVSPropertyOp22
 70
     1
102
RTVSPropertyOp23
 70
     1
102
RTVSPropertyOp24
 70
     1
102
RTVSPropertyOp25
 70
     1
102
RTVSPropertyOp26
 70
     1
102
RTVSPropertyOp27
 70
     1
102
RTVSPropertyOp28
 70
     1
102
RTVSPropertyOp29
 70
     1
102
RTVSPropertyOp30
 70
     1
102
RTVSPropertyOp31
 70
     1
102
RTVSPropertyOp32
 70
     1
  0
XRECORD
  5
3407
102
{ACAD_REACTORS
330
3406
102
}
330
3406
100
AcDbXrecord
280
     1
102
RTVSPropertyOp0
 70
     1
102
RTVSPropertyOp1
 70
     1
102
RTVSPropertyOp2
 70
     1
102
RTVSPropertyOp3
 70
     1
102
RTVSPropertyOp4
 70
     1
102
RTVSPropertyOp5
 70
     1
102
RTVSPropertyOp6
 70
     1
102
RTVSPropertyOp7
 70
     1
102
RTVSPropertyOp8
 70
     1
102
RTVSPropertyOp9
 70
     1
102
RTVSPropertyOp10
 70
     1
102
RTVSPropertyOp11
 70
     1
102
RTVSPropertyOp12
 70
     1
102
RTVSPropertyOp13
 70
     1
102
RTVSPropertyOp14
 70
     1
102
RTVSPropertyOp15
 70
     1
102
RTVSPropertyOp16
 70
     1
102
RTVSPropertyOp17
 70
     1
102
RTVSPropertyOp18
 70
     1
102
RTVSPropertyOp19
 70
     1
102
RTVSPropertyOp20
 70
     1
102
RTVSPropertyOp21
 70
     1
102
RTVSPropertyOp22
 70
     1
102
RTVSPropertyOp23
 70
     1
102
RTVSPropertyOp24
 70
     1
102
RTVSPropertyOp25
 70
     1
102
RTVSPropertyOp26
 70
     1
102
RTVSPropertyOp27
 70
     1
102
RTVSPropertyOp28
 70
     1
102
RTVSPropertyOp29
 70
     1
102
RTVSPropertyOp30
 70
     1
102
RTVSPropertyOp31
 70
     1
102
RTVSPropertyOp32
 70
     1
  0
XRECORD
  5
3415
102
{ACAD_REACTORS
330
3414
102
}
330
3414
100
AcDbXrecord
280
     1
102
RTVSPropertyOp0
 70
     1
102
RTVSPropertyOp1
 70
     1
102
RTVSPropertyOp2
 70
     1
102
RTVSPropertyOp3
 70
     1
102
RTVSPropertyOp4
 70
     1
102
RTVSPropertyOp5
 70
     1
102
RTVSPropertyOp6
 70
     1
102
RTVSPropertyOp7
 70
     1
102
RTVSPropertyOp8
 70
     1
102
RTVSPropertyOp9
 70
     1
102
RTVSPropertyOp10
 70
     1
102
RTVSPropertyOp11
 70
     1
102
RTVSPropertyOp12
 70
     1
102
RTVSPropertyOp13
 70
     1
102
RTVSPropertyOp14
 70
     1
102
RTVSPropertyOp15
 70
     1
102
RTVSPropertyOp16
 70
     1
102
RTVSPropertyOp17
 70
     1
102
RTVSPropertyOp18
 70
     1
102
RTVSPropertyOp19
 70
     1
102
RTVSPropertyOp20
 70
     1
102
RTVSPropertyOp21
 70
     1
102
RTVSPropertyOp22
 70
     1
102
RTVSPropertyOp23
 70
     1
102
RTVSPropertyOp24
 70
     1
102
RTVSPropertyOp25
 70
     1
102
RTVSPropertyOp26
 70
     1
102
RTVSPropertyOp27
 70
     1
102
RTVSPropertyOp28
 70
     1
102
RTVSPropertyOp29
 70
     1
102
RTVSPropertyOp30
 70
     1
102
RTVSPropertyOp31
 70
     1
102
RTVSPropertyOp32
 70
     1
  0
XRECORD
  5
341D
102
{ACAD_REACTORS
330
341C
102
}
330
341C
100
AcDbXrecord
280
     1
102
RTVSPropertyOp0
 70
     1
102
RTVSPropertyOp1
 70
     1
102
RTVSPropertyOp2
 70
     1
102
RTVSPropertyOp3
 70
     1
102
RTVSPropertyOp4
 70
     1
102
RTVSPropertyOp5
 70
     1
102
RTVSPropertyOp6
 70
     1
102
RTVSPropertyOp7
 70
     1
102
RTVSPropertyOp8
 70
     1
102
RTVSPropertyOp9
 70
     1
102
RTVSPropertyOp10
 70
     1
102
RTVSPropertyOp11
 70
     1
102
RTVSPropertyOp12
 70
     1
102
RTVSPropertyOp13
 70
     1
102
RTVSPropertyOp14
 70
     1
102
RTVSPropertyOp15
 70
     1
102
RTVSPropertyOp16
 70
     1
102
RTVSPropertyOp17
 70
     1
102
RTVSPropertyOp18
 70
     1
102
RTVSPropertyOp19
 70
     1
102
RTVSPropertyOp20
 70
     1
102
RTVSPropertyOp21
 70
     1
102
RTVSPropertyOp22
 70
     1
102
RTVSPropertyOp23
 70
     1
102
RTVSPropertyOp24
 70
     1
102
RTVSPropertyOp25
 70
     1
102
RTVSPropertyOp26
 70
     1
102
RTVSPropertyOp27
 70
     1
102
RTVSPropertyOp28
 70
     1
102
RTVSPropertyOp29
 70
     1
102
RTVSPropertyOp30
 70
     1
102
RTVSPropertyOp31
 70
     1
102
RTVSPropertyOp32
 70
     1
  0
XRECORD
  5
340F
102
{ACAD_REACTORS
330
340E
102
}
330
340E
100
AcDbXrecord
280
     1
102
RTVSPropertyOp0
 70
     1
102
RTVSPropertyOp1
 70
     1
102
RTVSPropertyOp2
 70
     1
102
RTVSPropertyOp3
 70
     1
102
RTVSPropertyOp4
 70
     1
102
RTVSPropertyOp5
 70
     1
102
RTVSPropertyOp6
 70
     1
102
RTVSPropertyOp7
 70
     1
102
RTVSPropertyOp8
 70
     1
102
RTVSPropertyOp9
 70
     1
102
RTVSPropertyOp10
 70
     1
102
RTVSPropertyOp11
 70
     1
102
RTVSPropertyOp12
 70
     1
102
RTVSPropertyOp13
 70
     1
102
RTVSPropertyOp14
 70
     1
102
RTVSPropertyOp15
 70
     1
102
RTVSPropertyOp16
 70
     1
102
RTVSPropertyOp17
 70
     1
102
RTVSPropertyOp18
 70
     1
102
RTVSPropertyOp19
 70
     1
102
RTVSPropertyOp20
 70
     1
102
RTVSPropertyOp21
 70
     1
102
RTVSPropertyOp22
 70
     1
102
RTVSPropertyOp23
 70
     1
102
RTVSPropertyOp24
 70
     1
102
RTVSPropertyOp25
 70
     1
102
RTVSPropertyOp26
 70
     1
102
RTVSPropertyOp27
 70
     1
102
RTVSPropertyOp28
 70
     1
102
RTVSPropertyOp29
 70
     1
102
RTVSPropertyOp30
 70
     1
102
RTVSPropertyOp31
 70
     1
102
RTVSPropertyOp32
 70
     1
  0
XRECORD
  5
3413
102
{ACAD_REACTORS
330
3412
102
}
330
3412
100
AcDbXrecord
280
     1
102
RTVSPropertyOp0
 70
     1
102
RTVSPropertyOp1
 70
     1
102
RTVSPropertyOp2
 70
     1
102
RTVSPropertyOp3
 70
     1
102
RTVSPropertyOp4
 70
     1
102
RTVSPropertyOp5
 70
     1
102
RTVSPropertyOp6
 70
     1
102
RTVSPropertyOp7
 70
     1
102
RTVSPropertyOp8
 70
     1
102
RTVSPropertyOp9
 70
     1
102
RTVSPropertyOp10
 70
     1
102
RTVSPropertyOp11
 70
     1
102
RTVSPropertyOp12
 70
     1
102
RTVSPropertyOp13
 70
     1
102
RTVSPropertyOp14
 70
     1
102
RTVSPropertyOp15
 70
     1
102
RTVSPropertyOp16
 70
     1
102
RTVSPropertyOp17
 70
     1
102
RTVSPropertyOp18
 70
     1
102
RTVSPropertyOp19
 70
     1
102
RTVSPropertyOp20
 70
     1
102
RTVSPropertyOp21
 70
     1
102
RTVSPropertyOp22
 70
     1
102
RTVSPropertyOp23
 70
     1
102
RTVSPropertyOp24
 70
     1
102
RTVSPropertyOp25
 70
     1
102
RTVSPropertyOp26
 70
     1
102
RTVSPropertyOp27
 70
     1
102
RTVSPropertyOp28
 70
     1
102
RTVSPropertyOp29
 70
     1
102
RTVSPropertyOp30
 70
     1
102
RTVSPropertyOp31
 70
     1
102
RTVSPropertyOp32
 70
     1
  0
XRECORD
  5
342D
102
{ACAD_REACTORS
330
342C
102
}
330
342C
100
AcDbXrecord
280
     1
102
RTVSPropertyOp0
 70
     0
102
RTVSPropertyOp1
 70
     0
102
RTVSPropertyOp2
 70
     0
102
RTVSPropertyOp3
 70
     0
102
RTVSPropertyOp4
 70
     0
102
RTVSPropertyOp5
 70
     0
102
RTVSPropertyOp6
 70
     0
102
RTVSPropertyOp7
 70
     0
102
RTVSPropertyOp8
 70
     0
102
RTVSPropertyOp9
 70
     0
102
RTVSPropertyOp10
 70
     0
102
RTVSPropertyOp11
 70
     0
102
RTVSPropertyOp12
 70
     0
102
RTVSPropertyOp13
 70
     0
102
RTVSPropertyOp14
 70
     2
102
RTVSPropertyOp15
 70
     0
102
RTVSPropertyOp16
 70
     0
102
RTVSPropertyOp17
 70
     0
102
RTVSPropertyOp18
 70
     0
102
RTVSPropertyOp19
 70
     0
102
RTVSPropertyOp20
 70
     0
102
RTVSPropertyOp21
 70
     0
102
RTVSPropertyOp22
 70
     0
102
RTVSPropertyOp23
 70
     0
102
RTVSPropertyOp24
 70
     0
102
RTVSPropertyOp25
 70
     0
102
RTVSPropertyOp26
 70
     0
102
RTVSPropertyOp27
 70
     0
102
RTVSPropertyOp28
 70
     0
102
RTVSPropertyOp29
 70
     0
102
RTVSPropertyOp30
 70
     0
102
RTVSPropertyOp31
 70
     0
102
RTVSPropertyOp32
 70
     0
  0
XRECORD
  5
341B
102
{ACAD_REACTORS
330
341A
102
}
330
341A
100
AcDbXrecord
280
     1
102
RTVSPropertyOp0
 70
     1
102
RTVSPropertyOp1
 70
     1
102
RTVSPropertyOp2
 70
     1
102
RTVSPropertyOp3
 70
     1
102
RTVSPropertyOp4
 70
     1
102
RTVSPropertyOp5
 70
     1
102
RTVSPropertyOp6
 70
     1
102
RTVSPropertyOp7
 70
     1
102
RTVSPropertyOp8
 70
     1
102
RTVSPropertyOp9
 70
     1
102
RTVSPropertyOp10
 70
     1
102
RTVSPropertyOp11
 70
     1
102
RTVSPropertyOp12
 70
     1
102
RTVSPropertyOp13
 70
     1
102
RTVSPropertyOp14
 70
     1
102
RTVSPropertyOp15
 70
     1
102
RTVSPropertyOp16
 70
     1
102
RTVSPropertyOp17
 70
     1
102
RTVSPropertyOp18
 70
     1
102
RTVSPropertyOp19
 70
     1
102
RTVSPropertyOp20
 70
     1
102
RTVSPropertyOp21
 70
     1
102
RTVSPropertyOp22
 70
     1
102
RTVSPropertyOp23
 70
     1
102
RTVSPropertyOp24
 70
     1
102
RTVSPropertyOp25
 70
     1
102
RTVSPropertyOp26
 70
     1
102
RTVSPropertyOp27
 70
     1
102
RTVSPropertyOp28
 70
     1
102
RTVSPropertyOp29
 70
     1
102
RTVSPropertyOp30
 70
     1
102
RTVSPropertyOp31
 70
     1
102
RTVSPropertyOp32
 70
     1
  0
XRECORD
  5
33FF
102
{ACAD_REACTORS
330
33FE
102
}
330
33FE
100
AcDbXrecord
280
     1
102
RTVSPropertyOp0
 70
     1
102
RTVSPropertyOp1
 70
     1
102
RTVSPropertyOp2
 70
     1
102
RTVSPropertyOp3
 70
     1
102
RTVSPropertyOp4
 70
     1
102
RTVSPropertyOp5
 70
     1
102
RTVSPropertyOp6
 70
     1
102
RTVSPropertyOp7
 70
     1
102
RTVSPropertyOp8
 70
     1
102
RTVSPropertyOp9
 70
     1
102
RTVSPropertyOp10
 70
     1
102
RTVSPropertyOp11
 70
     1
102
RTVSPropertyOp12
 70
     1
102
RTVSPropertyOp13
 70
     1
102
RTVSPropertyOp14
 70
     1
102
RTVSPropertyOp15
 70
     1
102
RTVSPropertyOp16
 70
     1
102
RTVSPropertyOp17
 70
     1
102
RTVSPropertyOp18
 70
     1
102
RTVSPropertyOp19
 70
     1
102
RTVSPropertyOp20
 70
     1
102
RTVSPropertyOp21
 70
     1
102
RTVSPropertyOp22
 70
     1
102
RTVSPropertyOp23
 70
     1
102
RTVSPropertyOp24
 70
     1
102
RTVSPropertyOp25
 70
     1
102
RTVSPropertyOp26
 70
     1
102
RTVSPropertyOp27
 70
     1
102
RTVSPropertyOp28
 70
     1
102
RTVSPropertyOp29
 70
     1
102
RTVSPropertyOp30
 70
     1
102
RTVSPropertyOp31
 70
     1
102
RTVSPropertyOp32
 70
     1
  0
XRECORD
  5
3401
102
{ACAD_REACTORS
330
3400
102
}
330
3400
100
AcDbXrecord
280
     1
102
RTVSPropertyOp0
 70
     1
102
RTVSPropertyOp1
 70
     1
102
RTVSPropertyOp2
 70
     1
102
RTVSPropertyOp3
 70
     1
102
RTVSPropertyOp4
 70
     1
102
RTVSPropertyOp5
 70
     1
102
RTVSPropertyOp6
 70
     1
102
RTVSPropertyOp7
 70
     1
102
RTVSPropertyOp8
 70
     1
102
RTVSPropertyOp9
 70
     1
102
RTVSPropertyOp10
 70
     1
102
RTVSPropertyOp11
 70
     1
102
RTVSPropertyOp12
 70
     1
102
RTVSPropertyOp13
 70
     1
102
RTVSPropertyOp14
 70
     1
102
RTVSPropertyOp15
 70
     1
102
RTVSPropertyOp16
 70
     1
102
RTVSPropertyOp17
 70
     1
102
RTVSPropertyOp18
 70
     1
102
RTVSPropertyOp19
 70
     1
102
RTVSPropertyOp20
 70
     1
102
RTVSPropertyOp21
 70
     1
102
RTVSPropertyOp22
 70
     1
102
RTVSPropertyOp23
 70
     1
102
RTVSPropertyOp24
 70
     1
102
RTVSPropertyOp25
 70
     1
102
RTVSPropertyOp26
 70
     1
102
RTVSPropertyOp27
 70
     1
102
RTVSPropertyOp28
 70
     1
102
RTVSPropertyOp29
 70
     1
102
RTVSPropertyOp30
 70
     1
102
RTVSPropertyOp31
 70
     1
102
RTVSPropertyOp32
 70
     1
  0
XRECORD
  5
3403
102
{ACAD_REACTORS
330
3402
102
}
330
3402
100
AcDbXrecord
280
     1
102
RTVSPropertyOp0
 70
     1
102
RTVSPropertyOp1
 70
     1
102
RTVSPropertyOp2
 70
     1
102
RTVSPropertyOp3
 70
     1
102
RTVSPropertyOp4
 70
     1
102
RTVSPropertyOp5
 70
     1
102
RTVSPropertyOp6
 70
     1
102
RTVSPropertyOp7
 70
     1
102
RTVSPropertyOp8
 70
     1
102
RTVSPropertyOp9
 70
     1
102
RTVSPropertyOp10
 70
     1
102
RTVSPropertyOp11
 70
     1
102
RTVSPropertyOp12
 70
     1
102
RTVSPropertyOp13
 70
     1
102
RTVSPropertyOp14
 70
     1
102
RTVSPropertyOp15
 70
     1
102
RTVSPropertyOp16
 70
     1
102
RTVSPropertyOp17
 70
     1
102
RTVSPropertyOp18
 70
     1
102
RTVSPropertyOp19
 70
     1
102
RTVSPropertyOp20
 70
     1
102
RTVSPropertyOp21
 70
     1
102
RTVSPropertyOp22
 70
     1
102
RTVSPropertyOp23
 70
     1
102
RTVSPropertyOp24
 70
     1
102
RTVSPropertyOp25
 70
     1
102
RTVSPropertyOp26
 70
     1
102
RTVSPropertyOp27
 70
     1
102
RTVSPropertyOp28
 70
     1
102
RTVSPropertyOp29
 70
     1
102
RTVSPropertyOp30
 70
     1
102
RTVSPropertyOp31
 70
     1
102
RTVSPropertyOp32
 70
     1
  0
XRECORD
  5
3405
102
{ACAD_REACTORS
330
3404
102
}
330
3404
100
AcDbXrecord
280
     1
102
RTVSPropertyOp0
 70
     1
102
RTVSPropertyOp1
 70
     1
102
RTVSPropertyOp2
 70
     1
102
RTVSPropertyOp3
 70
     1
102
RTVSPropertyOp4
 70
     1
102
RTVSPropertyOp5
 70
     1
102
RTVSPropertyOp6
 70
     1
102
RTVSPropertyOp7
 70
     1
102
RTVSPropertyOp8
 70
     1
102
RTVSPropertyOp9
 70
     1
102
RTVSPropertyOp10
 70
     1
102
RTVSPropertyOp11
 70
     1
102
RTVSPropertyOp12
 70
     1
102
RTVSPropertyOp13
 70
     1
102
RTVSPropertyOp14
 70
     1
102
RTVSPropertyOp15
 70
     1
102
RTVSPropertyOp16
 70
     1
102
RTVSPropertyOp17
 70
     1
102
RTVSPropertyOp18
 70
     1
102
RTVSPropertyOp19
 70
     1
102
RTVSPropertyOp20
 70
     1
102
RTVSPropertyOp21
 70
     1
102
RTVSPropertyOp22
 70
     1
102
RTVSPropertyOp23
 70
     1
102
RTVSPropertyOp24
 70
     1
102
RTVSPropertyOp25
 70
     1
102
RTVSPropertyOp26
 70
     1
102
RTVSPropertyOp27
 70
     1
102
RTVSPropertyOp28
 70
     1
102
RTVSPropertyOp29
 70
     1
102
RTVSPropertyOp30
 70
     1
102
RTVSPropertyOp31
 70
     1
102
RTVSPropertyOp32
 70
     1
  0
XRECORD
  5
340D
102
{ACAD_REACTORS
330
340C
102
}
330
340C
100
AcDbXrecord
280
     1
102
RTVSPropertyOp0
 70
     1
102
RTVSPropertyOp1
 70
     1
102
RTVSPropertyOp2
 70
     1
102
RTVSPropertyOp3
 70
     1
102
RTVSPropertyOp4
 70
     1
102
RTVSPropertyOp5
 70
     1
102
RTVSPropertyOp6
 70
     1
102
RTVSPropertyOp7
 70
     1
102
RTVSPropertyOp8
 70
     1
102
RTVSPropertyOp9
 70
     1
102
RTVSPropertyOp10
 70
     1
102
RTVSPropertyOp11
 70
     1
102
RTVSPropertyOp12
 70
     1
102
RTVSPropertyOp13
 70
     1
102
RTVSPropertyOp14
 70
     1
102
RTVSPropertyOp15
 70
     1
102
RTVSPropertyOp16
 70
     1
102
RTVSPropertyOp17
 70
     1
102
RTVSPropertyOp18
 70
     1
102
RTVSPropertyOp19
 70
     1
102
RTVSPropertyOp20
 70
     1
102
RTVSPropertyOp21
 70
     1
102
RTVSPropertyOp22
 70
     1
102
RTVSPropertyOp23
 70
     1
102
RTVSPropertyOp24
 70
     1
102
RTVSPropertyOp25
 70
     1
102
RTVSPropertyOp26
 70
     1
102
RTVSPropertyOp27
 70
     1
102
RTVSPropertyOp28
 70
     1
102
RTVSPropertyOp29
 70
     1
102
RTVSPropertyOp30
 70
     1
102
RTVSPropertyOp31
 70
     1
102
RTVSPropertyOp32
 70
     1
  0
XRECORD
  5
3429
102
{ACAD_REACTORS
330
3428
102
}
330
3428
100
AcDbXrecord
280
     1
102
RTVSPropertyOp0
 70
     0
102
RTVSPropertyOp1
 70
     0
102
RTVSPropertyOp2
 70
     0
102
RTVSPropertyOp3
 70
     0
102
RTVSPropertyOp4
 70
     0
102
RTVSPropertyOp5
 70
     0
102
RTVSPropertyOp6
 70
     0
102
RTVSPropertyOp7
 70
     0
102
RTVSPropertyOp8
 70
     0
102
RTVSPropertyOp9
 70
     0
102
RTVSPropertyOp10
 70
     0
102
RTVSPropertyOp11
 70
     0
102
RTVSPropertyOp12
 70
     0
102
RTVSPropertyOp13
 70
     0
102
RTVSPropertyOp14
 70
     2
102
RTVSPropertyOp15
 70
     0
102
RTVSPropertyOp16
 70
     0
102
RTVSPropertyOp17
 70
     0
102
RTVSPropertyOp18
 70
     0
102
RTVSPropertyOp19
 70
     0
102
RTVSPropertyOp20
 70
     0
102
RTVSPropertyOp21
 70
     0
102
RTVSPropertyOp22
 70
     0
102
RTVSPropertyOp23
 70
     0
102
RTVSPropertyOp24
 70
     0
102
RTVSPropertyOp25
 70
     0
102
RTVSPropertyOp26
 70
     0
102
RTVSPropertyOp27
 70
     0
102
RTVSPropertyOp28
 70
     0
102
RTVSPropertyOp29
 70
     0
102
RTVSPropertyOp30
 70
     0
102
RTVSPropertyOp31
 70
     0
102
RTVSPropertyOp32
 70
     0
  0
XRECORD
  5
3419
102
{ACAD_REACTORS
330
3418
102
}
330
3418
100
AcDbXrecord
280
     1
102
RTVSPropertyOp0
 70
     1
102
RTVSPropertyOp1
 70
     1
102
RTVSPropertyOp2
 70
     1
102
RTVSPropertyOp3
 70
     1
102
RTVSPropertyOp4
 70
     1
102
RTVSPropertyOp5
 70
     1
102
RTVSPropertyOp6
 70
     1
102
RTVSPropertyOp7
 70
     1
102
RTVSPropertyOp8
 70
     1
102
RTVSPropertyOp9
 70
     1
102
RTVSPropertyOp10
 70
     1
102
RTVSPropertyOp11
 70
     1
102
RTVSPropertyOp12
 70
     1
102
RTVSPropertyOp13
 70
     1
102
RTVSPropertyOp14
 70
     1
102
RTVSPropertyOp15
 70
     1
102
RTVSPropertyOp16
 70
     1
102
RTVSPropertyOp17
 70
     1
102
RTVSPropertyOp18
 70
     1
102
RTVSPropertyOp19
 70
     1
102
RTVSPropertyOp20
 70
     1
102
RTVSPropertyOp21
 70
     1
102
RTVSPropertyOp22
 70
     1
102
RTVSPropertyOp23
 70
     1
102
RTVSPropertyOp24
 70
     1
102
RTVSPropertyOp25
 70
     1
102
RTVSPropertyOp26
 70
     1
102
RTVSPropertyOp27
 70
     1
102
RTVSPropertyOp28
 70
     1
102
RTVSPropertyOp29
 70
     1
102
RTVSPropertyOp30
 70
     1
102
RTVSPropertyOp31
 70
     1
102
RTVSPropertyOp32
 70
     1
  0
XRECORD
  5
342B
102
{ACAD_REACTORS
330
342A
102
}
330
342A
100
AcDbXrecord
280
     1
102
RTVSPropertyOp0
 70
     0
102
RTVSPropertyOp1
 70
     0
102
RTVSPropertyOp2
 70
     0
102
RTVSPropertyOp3
 70
     0
102
RTVSPropertyOp4
 70
     0
102
RTVSPropertyOp5
 70
     0
102
RTVSPropertyOp6
 70
     0
102
RTVSPropertyOp7
 70
     0
102
RTVSPropertyOp8
 70
     0
102
RTVSPropertyOp9
 70
     0
102
RTVSPropertyOp10
 70
     0
102
RTVSPropertyOp11
 70
     0
102
RTVSPropertyOp12
 70
     0
102
RTVSPropertyOp13
 70
     0
102
RTVSPropertyOp14
 70
     2
102
RTVSPropertyOp15
 70
     0
102
RTVSPropertyOp16
 70
     0
102
RTVSPropertyOp17
 70
     0
102
RTVSPropertyOp18
 70
     0
102
RTVSPropertyOp19
 70
     0
102
RTVSPropertyOp20
 70
     0
102
RTVSPropertyOp21
 70
     0
102
RTVSPropertyOp22
 70
     0
102
RTVSPropertyOp23
 70
     0
102
RTVSPropertyOp24
 70
     0
102
RTVSPropertyOp25
 70
     0
102
RTVSPropertyOp26
 70
     0
102
RTVSPropertyOp27
 70
     0
102
RTVSPropertyOp28
 70
     0
102
RTVSPropertyOp29
 70
     0
102
RTVSPropertyOp30
 70
     0
102
RTVSPropertyOp31
 70
     0
102
RTVSPropertyOp32
 70
     0
  0
XRECORD
  5
3411
102
{ACAD_REACTORS
330
3410
102
}
330
3410
100
AcDbXrecord
280
     1
102
RTVSPropertyOp0
 70
     1
102
RTVSPropertyOp1
 70
     1
102
RTVSPropertyOp2
 70
     1
102
RTVSPropertyOp3
 70
     1
102
RTVSPropertyOp4
 70
     1
102
RTVSPropertyOp5
 70
     1
102
RTVSPropertyOp6
 70
     1
102
RTVSPropertyOp7
 70
     1
102
RTVSPropertyOp8
 70
     1
102
RTVSPropertyOp9
 70
     1
102
RTVSPropertyOp10
 70
     1
102
RTVSPropertyOp11
 70
     1
102
RTVSPropertyOp12
 70
     1
102
RTVSPropertyOp13
 70
     1
102
RTVSPropertyOp14
 70
     1
102
RTVSPropertyOp15
 70
     1
102
RTVSPropertyOp16
 70
     1
102
RTVSPropertyOp17
 70
     1
102
RTVSPropertyOp18
 70
     1
102
RTVSPropertyOp19
 70
     1
102
RTVSPropertyOp20
 70
     1
102
RTVSPropertyOp21
 70
     1
102
RTVSPropertyOp22
 70
     1
102
RTVSPropertyOp23
 70
     1
102
RTVSPropertyOp24
 70
     1
102
RTVSPropertyOp25
 70
     1
102
RTVSPropertyOp26
 70
     1
102
RTVSPropertyOp27
 70
     1
102
RTVSPropertyOp28
 70
     1
102
RTVSPropertyOp29
 70
     1
102
RTVSPropertyOp30
 70
     1
102
RTVSPropertyOp31
 70
     1
102
RTVSPropertyOp32
 70
     1
  0
XRECORD
  5
3427
102
{ACAD_REACTORS
330
3426
102
}
330
3426
100
AcDbXrecord
280
     1
102
RTVSPropertyOp0
 70
     1
102
RTVSPropertyOp1
 70
     1
102
RTVSPropertyOp2
 70
     1
102
RTVSPropertyOp3
 70
     1
102
RTVSPropertyOp4
 70
     1
102
RTVSPropertyOp5
 70
     1
102
RTVSPropertyOp6
 70
     1
102
RTVSPropertyOp7
 70
     1
102
RTVSPropertyOp8
 70
     1
102
RTVSPropertyOp9
 70
     1
102
RTVSPropertyOp10
 70
     1
102
RTVSPropertyOp11
 70
     1
102
RTVSPropertyOp12
 70
     1
102
RTVSPropertyOp13
 70
     1
102
RTVSPropertyOp14
 70
     1
102
RTVSPropertyOp15
 70
     1
102
RTVSPropertyOp16
 70
     1
102
RTVSPropertyOp17
 70
     1
102
RTVSPropertyOp18
 70
     1
102
RTVSPropertyOp19
 70
     1
102
RTVSPropertyOp20
 70
     1
102
RTVSPropertyOp21
 70
     1
102
RTVSPropertyOp22
 70
     1
102
RTVSPropertyOp23
 70
     1
102
RTVSPropertyOp24
 70
     1
102
RTVSPropertyOp25
 70
     1
102
RTVSPropertyOp26
 70
     1
102
RTVSPropertyOp27
 70
     1
102
RTVSPropertyOp28
 70
     1
102
RTVSPropertyOp29
 70
     1
102
RTVSPropertyOp30
 70
     1
102
RTVSPropertyOp31
 70
     1
102
RTVSPropertyOp32
 70
     1
  0
XRECORD
  5
3425
102
{ACAD_REACTORS
330
3424
102
}
330
3424
100
AcDbXrecord
280
     1
102
RTVSPropertyOp0
 70
     1
102
RTVSPropertyOp1
 70
     1
102
RTVSPropertyOp2
 70
     1
102
RTVSPropertyOp3
 70
     1
102
RTVSPropertyOp4
 70
     1
102
RTVSPropertyOp5
 70
     1
102
RTVSPropertyOp6
 70
     1
102
RTVSPropertyOp7
 70
     1
102
RTVSPropertyOp8
 70
     1
102
RTVSPropertyOp9
 70
     1
102
RTVSPropertyOp10
 70
     1
102
RTVSPropertyOp11
 70
     1
102
RTVSPropertyOp12
 70
     1
102
RTVSPropertyOp13
 70
     1
102
RTVSPropertyOp14
 70
     1
102
RTVSPropertyOp15
 70
     1
102
RTVSPropertyOp16
 70
     1
102
RTVSPropertyOp17
 70
     1
102
RTVSPropertyOp18
 70
     1
102
RTVSPropertyOp19
 70
     1
102
RTVSPropertyOp20
 70
     1
102
RTVSPropertyOp21
 70
     1
102
RTVSPropertyOp22
 70
     1
102
RTVSPropertyOp23
 70
     1
102
RTVSPropertyOp24
 70
     1
102
RTVSPropertyOp25
 70
     1
102
RTVSPropertyOp26
 70
     1
102
RTVSPropertyOp27
 70
     1
102
RTVSPropertyOp28
 70
     1
102
RTVSPropertyOp29
 70
     1
102
RTVSPropertyOp30
 70
     1
102
RTVSPropertyOp31
 70
     1
102
RTVSPropertyOp32
 70
     1
  0
XRECORD
  5
341F
102
{ACAD_REACTORS
330
341E
102
}
330
341E
100
AcDbXrecord
280
     1
102
RTVSPropertyOp0
 70
     1
102
RTVSPropertyOp1
 70
     1
102
RTVSPropertyOp2
 70
     1
102
RTVSPropertyOp3
 70
     1
102
RTVSPropertyOp4
 70
     1
102
RTVSPropertyOp5
 70
     1
102
RTVSPropertyOp6
 70
     1
102
RTVSPropertyOp7
 70
     1
102
RTVSPropertyOp8
 70
     1
102
RTVSPropertyOp9
 70
     1
102
RTVSPropertyOp10
 70
     1
102
RTVSPropertyOp11
 70
     1
102
RTVSPropertyOp12
 70
     1
102
RTVSPropertyOp13
 70
     1
102
RTVSPropertyOp14
 70
     1
102
RTVSPropertyOp15
 70
     1
102
RTVSPropertyOp16
 70
     1
102
RTVSPropertyOp17
 70
     1
102
RTVSPropertyOp18
 70
     1
102
RTVSPropertyOp19
 70
     1
102
RTVSPropertyOp20
 70
     1
102
RTVSPropertyOp21
 70
     1
102
RTVSPropertyOp22
 70
     1
102
RTVSPropertyOp23
 70
     1
102
RTVSPropertyOp24
 70
     1
102
RTVSPropertyOp25
 70
     1
102
RTVSPropertyOp26
 70
     1
102
RTVSPropertyOp27
 70
     1
102
RTVSPropertyOp28
 70
     1
102
RTVSPropertyOp29
 70
     1
102
RTVSPropertyOp30
 70
     1
102
RTVSPropertyOp31
 70
     1
102
RTVSPropertyOp32
 70
     1
  0
XRECORD
  5
3421
102
{ACAD_REACTORS
330
3420
102
}
330
3420
100
AcDbXrecord
280
     1
102
RTVSPropertyOp0
 70
     1
102
RTVSPropertyOp1
 70
     1
102
RTVSPropertyOp2
 70
     1
102
RTVSPropertyOp3
 70
     1
102
RTVSPropertyOp4
 70
     1
102
RTVSPropertyOp5
 70
     1
102
RTVSPropertyOp6
 70
     1
102
RTVSPropertyOp7
 70
     1
102
RTVSPropertyOp8
 70
     1
102
RTVSPropertyOp9
 70
     1
102
RTVSPropertyOp10
 70
     1
102
RTVSPropertyOp11
 70
     1
102
RTVSPropertyOp12
 70
     1
102
RTVSPropertyOp13
 70
     1
102
RTVSPropertyOp14
 70
     1
102
RTVSPropertyOp15
 70
     1
102
RTVSPropertyOp16
 70
     1
102
RTVSPropertyOp17
 70
     1
102
RTVSPropertyOp18
 70
     1
102
RTVSPropertyOp19
 70
     1
102
RTVSPropertyOp20
 70
     1
102
RTVSPropertyOp21
 70
     1
102
RTVSPropertyOp22
 70
     1
102
RTVSPropertyOp23
 70
     1
102
RTVSPropertyOp24
 70
     1
102
RTVSPropertyOp25
 70
     1
102
RTVSPropertyOp26
 70
     1
102
RTVSPropertyOp27
 70
     1
102
RTVSPropertyOp28
 70
     1
102
RTVSPropertyOp29
 70
     1
102
RTVSPropertyOp30
 70
     1
102
RTVSPropertyOp31
 70
     1
102
RTVSPropertyOp32
 70
     1
  0
XRECORD
  5
3417
102
{ACAD_REACTORS
330
3416
102
}
330
3416
100
AcDbXrecord
280
     1
102
RTVSPropertyOp0
 70
     1
102
RTVSPropertyOp1
 70
     1
102
RTVSPropertyOp2
 70
     1
102
RTVSPropertyOp3
 70
     1
102
RTVSPropertyOp4
 70
     1
102
RTVSPropertyOp5
 70
     1
102
RTVSPropertyOp6
 70
     1
102
RTVSPropertyOp7
 70
     1
102
RTVSPropertyOp8
 70
     1
102
RTVSPropertyOp9
 70
     1
102
RTVSPropertyOp10
 70
     1
102
RTVSPropertyOp11
 70
     1
102
RTVSPropertyOp12
 70
     1
102
RTVSPropertyOp13
 70
     1
102
RTVSPropertyOp14
 70
     1
102
RTVSPropertyOp15
 70
     1
102
RTVSPropertyOp16
 70
     1
102
RTVSPropertyOp17
 70
     1
102
RTVSPropertyOp18
 70
     1
102
RTVSPropertyOp19
 70
     1
102
RTVSPropertyOp20
 70
     1
102
RTVSPropertyOp21
 70
     1
102
RTVSPropertyOp22
 70
     1
102
RTVSPropertyOp23
 70
     1
102
RTVSPropertyOp24
 70
     1
102
RTVSPropertyOp25
 70
     1
102
RTVSPropertyOp26
 70
     1
102
RTVSPropertyOp27
 70
     1
102
RTVSPropertyOp28
 70
     1
102
RTVSPropertyOp29
 70
     1
102
RTVSPropertyOp30
 70
     1
102
RTVSPropertyOp31
 70
     1
102
RTVSPropertyOp32
 70
     1
  0
XRECORD
  5
340B
102
{ACAD_REACTORS
330
340A
102
}
330
340A
100
AcDbXrecord
280
     1
102
RTVSPropertyOp0
 70
     1
102
RTVSPropertyOp1
 70
     1
102
RTVSPropertyOp2
 70
     1
102
RTVSPropertyOp3
 70
     1
102
RTVSPropertyOp4
 70
     1
102
RTVSPropertyOp5
 70
     1
102
RTVSPropertyOp6
 70
     1
102
RTVSPropertyOp7
 70
     1
102
RTVSPropertyOp8
 70
     1
102
RTVSPropertyOp9
 70
     1
102
RTVSPropertyOp10
 70
     1
102
RTVSPropertyOp11
 70
     1
102
RTVSPropertyOp12
 70
     1
102
RTVSPropertyOp13
 70
     1
102
RTVSPropertyOp14
 70
     1
102
RTVSPropertyOp15
 70
     1
102
RTVSPropertyOp16
 70
     1
102
RTVSPropertyOp17
 70
     1
102
RTVSPropertyOp18
 70
     1
102
RTVSPropertyOp19
 70
     1
102
RTVSPropertyOp20
 70
     1
102
RTVSPropertyOp21
 70
     1
102
RTVSPropertyOp22
 70
     1
102
RTVSPropertyOp23
 70
     1
102
RTVSPropertyOp24
 70
     1
102
RTVSPropertyOp25
 70
     1
102
RTVSPropertyOp26
 70
     1
102
RTVSPropertyOp27
 70
     1
102
RTVSPropertyOp28
 70
     1
102
RTVSPropertyOp29
 70
     1
102
RTVSPropertyOp30
 70
     1
102
RTVSPropertyOp31
 70
     1
102
RTVSPropertyOp32
 70
     1
  0
XRECORD
  5
3423
102
{ACAD_REACTORS
330
3422
102
}
330
3422
100
AcDbXrecord
280
     1
102
RTVSPropertyOp0
 70
     1
102
RTVSPropertyOp1
 70
     1
102
RTVSPropertyOp2
 70
     1
102
RTVSPropertyOp3
 70
     1
102
RTVSPropertyOp4
 70
     1
102
RTVSPropertyOp5
 70
     1
102
RTVSPropertyOp6
 70
     1
102
RTVSPropertyOp7
 70
     1
102
RTVSPropertyOp8
 70
     1
102
RTVSPropertyOp9
 70
     1
102
RTVSPropertyOp10
 70
     1
102
RTVSPropertyOp11
 70
     1
102
RTVSPropertyOp12
 70
     1
102
RTVSPropertyOp13
 70
     1
102
RTVSPropertyOp14
 70
     1
102
RTVSPropertyOp15
 70
     1
102
RTVSPropertyOp16
 70
     1
102
RTVSPropertyOp17
 70
     1
102
RTVSPropertyOp18
 70
     1
102
RTVSPropertyOp19
 70
     1
102
RTVSPropertyOp20
 70
     1
102
RTVSPropertyOp21
 70
     1
102
RTVSPropertyOp22
 70
     1
102
RTVSPropertyOp23
 70
     1
102
RTVSPropertyOp24
 70
     1
102
RTVSPropertyOp25
 70
     1
102
RTVSPropertyOp26
 70
     1
102
RTVSPropertyOp27
 70
     1
102
RTVSPropertyOp28
 70
     1
102
RTVSPropertyOp29
 70
     1
102
RTVSPropertyOp30
 70
     1
102
RTVSPropertyOp31
 70
     1
102
RTVSPropertyOp32
 70
     1
  0
ENDSEC
  0
EOF
