  0
SECTION
  2
HEADER
  9
$ACADVER
  1
AC1018
  9
$ACADMAINTVER
 70
    76
  9
$DWGCODEPAGE
  3
ANSI_1252
  9
$INSBASE
 10
0.0
 20
0.0
 30
0.0
  9
$EXTMIN
 10
5.797370831491335
 20
6.342884646098472
 30
0.0
  9
$EXTMAX
 10
1030.5425499559
 20
735.6048063099332
 30
0.0
  9
$LIMMIN
 10
0.0
 20
0.0
  9
$LIMMAX
 10
1066.8
 20
762.0
  9
$ORTHOMODE
 70
     0
  9
$REGENMODE
 70
     1
  9
$FILLMODE
 70
     1
  9
$QTEXTMODE
 70
     0
  9
$MIRRTEXT
 70
     1
  9
$LTSCALE
 40
1.0
  9
$ATTMODE
 70
     1
  9
$TEXTSIZE
 40
2.5
  9
$TRACEWID
 40
1.0
  9
$TEXTSTYLE
  7
Standard
  9
$CLAYER
  8
0
  9
$CELTYPE
  6
ByLayer
  9
$CECOLOR
 62
   256
  9
$CELTSCALE
 40
1.0
  9
$DISPSILH
 70
     0
  9
$DIMSCALE
 40
1.0
  9
$DIMASZ
 40
6.0
  9
$DIMEXO
 40
1.0
  9
$DIMDLI
 40
3.75
  9
$DIMRND
 40
0.0
  9
$DIMDLE
 40
0.0
  9
$DIMEXE
 40
1.0
  9
$DIMTP
 40
0.0
  9
$DIMTM
 40
0.0
  9
$DIMTXT
 40
3.5
  9
$DIMCEN
 40
2.5
  9
$DIMTSZ
 40
0.0
  9
$DIMTOL
 70
     0
  9
$DIMLIM
 70
     0
  9
$DIMTIH
 70
     1
  9
$DIMTOH
 70
     1
  9
$DIMSE1
 70
     0
  9
$DIMSE2
 70
     0
  9
$DIMTAD
 70
     1
  9
$DIMZIN
 70
     0
  9
$DIMBLK
  1

  9
$DIMASO
 70
     1
  9
$DIMSHO
 70
     1
  9
$DIMPOST
  1

  9
$DIMAPOST
  1

  9
$DIMALT
 70
     0
  9
$DIMALTD
 70
     3
  9
$DIMALTF
 40
0.0393700787
  9
$DIMLFAC
 40
1.0
  9
$DIMTOFL
 70
     1
  9
$DIMTVP
 40
0.0
  9
$DIMTIX
 70
     0
  9
$DIMSOXD
 70
     0
  9
$DIMSAH
 70
     0
  9
$DIMBLK1
  1

  9
$DIMBLK2
  1

  9
$DIMSTYLE
  2
ISO-25
  9
$DIMCLRD
 70
     0
  9
$DIMCLRE
 70
     0
  9
$DIMCLRT
 70
     0
  9
$DIMTFAC
 40
1.0
  9
$DIMGAP
 40
1.524
  9
$DIMJUST
 70
     0
  9
$DIMSD1
 70
     0
  9
$DIMSD2
 70
     0
  9
$DIMTOLJ
 70
     0
  9
$DIMTZIN
 70
     0
  9
$DIMALTZ
 70
     0
  9
$DIMALTTZ
 70
     0
  9
$DIMUPT
 70
     0
  9
$DIMDEC
 70
     2
  9
$DIMTDEC
 70
     2
  9
$DIMALTU
 70
     2
  9
$DIMALTTD
 70
     3
  9
$DIMTXSTY
  7
Standard
  9
$DIMAUNIT
 70
     0
  9
$DIMADEC
 70
     0
  9
$DIMALTRND
 40
0.0
  9
$DIMAZIN
 70
     0
  9
$DIMDSEP
 70
    44
  9
$DIMATFIT
 70
     3
  9
$DIMFRAC
 70
     0
  9
$DIMLDRBLK
  1

  9
$DIMLUNIT
 70
     2
  9
$DIMLWD
 70
    -2
  9
$DIMLWE
 70
    -2
  9
$DIMTMOVE
 70
     0
  9
$LUNITS
 70
     2
  9
$LUPREC
 70
     1
  9
$SKETCHINC
 40
1.0
  9
$FILLETRAD
 40
10.0
  9
$AUNITS
 70
     0
  9
$AUPREC
 70
     0
  9
$MENU
  1
.
  9
$ELEVATION
 40
0.0
  9
$PELEVATION
 40
0.0
  9
$THICKNESS
 40
0.0
  9
$LIMCHECK
 70
     0
  9
$CHAMFERA
 40
10.0
  9
$CHAMFERB
 40
10.0
  9
$CHAMFERC
 40
20.0
  9
$CHAMFERD
 40
0.0
  9
$SKPOLY
 70
     0
  9
$TDCREATE
 40
2454965.664901505
  9
$TDUCREATE
 40
2454965.831568171
  9
$TDUPDATE
 40
2454965.698524202
  9
$TDUUPDATE
 40
2454965.865190868
  9
$TDINDWG
 40
0.0082939120
  9
$TDUSRTIMER
 40
0.0082937384
  9
$USRTIMER
 70
     1
  9
$ANGBASE
 50
0.0
  9
$ANGDIR
 70
     0
  9
$PDMODE
 70
     0
  9
$PDSIZE
 40
-1.0
  9
$PLINEWID
 40
0.0
  9
$SPLFRAME
 70
     0
  9
$SPLINETYPE
 70
     6
  9
$SPLINESEGS
 70
     8
  9
$HANDSEED
  5
1A0
  9
$SURFTAB1
 70
     6
  9
$SURFTAB2
 70
     6
  9
$SURFTYPE
 70
     6
  9
$SURFU
 70
     6
  9
$SURFV
 70
     6
  9
$UCSBASE
  2

  9
$UCSNAME
  2

  9
$UCSORG
 10
0.0
 20
0.0
 30
0.0
  9
$UCSXDIR
 10
1.0
 20
0.0
 30
0.0
  9
$UCSYDIR
 10
0.0
 20
1.0
 30
0.0
  9
$UCSORTHOREF
  2

  9
$UCSORTHOVIEW
 70
     0
  9
$UCSORGTOP
 10
0.0
 20
0.0
 30
0.0
  9
$UCSORGBOTTOM
 10
0.0
 20
0.0
 30
0.0
  9
$UCSORGLEFT
 10
0.0
 20
0.0
 30
0.0
  9
$UCSORGRIGHT
 10
0.0
 20
0.0
 30
0.0
  9
$UCSORGFRONT
 10
0.0
 20
0.0
 30
0.0
  9
$UCSORGBACK
 10
0.0
 20
0.0
 30
0.0
  9
$PUCSBASE
  2

  9
$PUCSNAME
  2

  9
$PUCSORG
 10
0.0
 20
0.0
 30
0.0
  9
$PUCSXDIR
 10
1.0
 20
0.0
 30
0.0
  9
$PUCSYDIR
 10
0.0
 20
1.0
 30
0.0
  9
$PUCSORTHOREF
  2

  9
$PUCSORTHOVIEW
 70
     0
  9
$PUCSORGTOP
 10
0.0
 20
0.0
 30
0.0
  9
$PUCSORGBOTTOM
 10
0.0
 20
0.0
 30
0.0
  9
$PUCSORGLEFT
 10
0.0
 20
0.0
 30
0.0
  9
$PUCSORGRIGHT
 10
0.0
 20
0.0
 30
0.0
  9
$PUCSORGFRONT
 10
0.0
 20
0.0
 30
0.0
  9
$PUCSORGBACK
 10
0.0
 20
0.0
 30
0.0
  9
$USERI1
 70
     0
  9
$USERI2
 70
     0
  9
$USERI3
 70
     0
  9
$USERI4
 70
     0
  9
$USERI5
 70
     0
  9
$USERR1
 40
0.0
  9
$USERR2
 40
0.0
  9
$USERR3
 40
0.0
  9
$USERR4
 40
0.0
  9
$USERR5
 40
0.0
  9
$WORLDVIEW
 70
     1
  9
$SHADEDGE
 70
     3
  9
$SHADEDIF
 70
    70
  9
$TILEMODE
 70
     1
  9
$MAXACTVP
 70
    64
  9
$PINSBASE
 10
0.0
 20
0.0
 30
0.0
  9
$PLIMCHECK
 70
     0
  9
$PEXTMIN
 10
1.000000000000000E+20
 20
1.000000000000000E+20
 30
1.000000000000000E+20
  9
$PEXTMAX
 10
-1.000000000000000E+20
 20
-1.000000000000000E+20
 30
-1.000000000000000E+20
  9
$PLIMMIN
 10
0.0
 20
0.0
  9
$PLIMMAX
 10
420.0
 20
297.0
  9
$UNITMODE
 70
     0
  9
$VISRETAIN
 70
     1
  9
$PLINEGEN
 70
     0
  9
$PSLTSCALE
 70
     1
  9
$TREEDEPTH
 70
  3020
  9
$CMLSTYLE
  2
Standard
  9
$CMLJUST
 70
     0
  9
$CMLSCALE
 40
20.0
  9
$PROXYGRAPHICS
 70
     1
  9
$MEASUREMENT
 70
     1
  9
$CELWEIGHT
370
    -1
  9
$ENDCAPS
280
     0
  9
$JOINSTYLE
280
     0
  9
$LWDISPLAY
290
     1
  9
$INSUNITS
 70
     4
  9
$HYPERLINKBASE
  1

  9
$STYLESHEET
  1

  9
$XEDIT
290
     1
  9
$CEPSNTYPE
380
     0
  9
$PSTYLEMODE
290
     1
  9
$FINGERPRINTGUID
  2
{BB8B2174-9968-4302-917C-CE5F50FEA6E0}
  9
$VERSIONGUID
  2
{EB78B6FC-8C2A-4530-A313-EBB8248164BA}
  9
$EXTNAMES
290
     1
  9
$PSVPSCALE
 40
0.0
  9
$OLESTARTUP
290
     0
  9
$SORTENTS
280
   127
  9
$INDEXCTL
280
     0
  9
$HIDETEXT
280
     0
  9
$XCLIPFRAME
290
     0
  9
$HALOGAP
280
     0
  9
$OBSCOLOR
 70
   257
  9
$OBSLTYPE
280
     0
  9
$INTERSECTIONDISPLAY
280
     0
  9
$INTERSECTIONCOLOR
 70
   257
  9
$DIMASSOC
280
     1
  9
$PROJECTNAME
  1

  0
ENDSEC
  0
SECTION
  2
CLASSES
  0
CLASS
  1
ACDBDICTIONARYWDFLT
  2
AcDbDictionaryWithDefault
  3
ObjectDBX Classes
 90
        0
 91
        1
280
     0
281
     0
  0
CLASS
  1
VISUALSTYLE
  2
AcDbVisualStyle
  3
ObjectDBX Classes
 90
     4095
 91
       16
280
     0
281
     0
  0
CLASS
  1
SCALE
  2
AcDbScale
  3
ObjectDBX Classes
 90
     1153
 91
       33
280
     0
281
     0
  0
CLASS
  1
DICTIONARYVAR
  2
AcDbDictionaryVar
  3
ObjectDBX Classes
 90
        0
 91
        4
280
     0
281
     0
  0
CLASS
  1
ACDBPLACEHOLDER
  2
AcDbPlaceHolder
  3
ObjectDBX Classes
 90
        0
 91
        1
280
     0
281
     0
  0
CLASS
  1
LAYOUT
  2
AcDbLayout
  3
ObjectDBX Classes
 90
        0
 91
        3
280
     0
281
     0
  0
CLASS
  1
TABLESTYLE
  2
AcDbTableStyle
  3
ObjectDBX Classes
 90
     2047
 91
        1
280
     0
281
     0
  0
ENDSEC
  0
SECTION
  2
TABLES
  0
TABLE
  2
VPORT
  5
8
330
0
100
AcDbSymbolTable
 70
     3
  0
VPORT
  5
19F
330
8
100
AcDbSymbolTableRecord
100
AcDbViewportTableRecord
  2
*Active
 70
     0
 10
0.0
 20
0.0
 11
1.0
 21
1.0
 12
26.72337356435218
 22
24.61719021444742
 13
0.0
 23
0.0
 14
10.0
 24
10.0
 15
10.0
 25
10.0
 16
0.0
 26
0.0
 36
1.0
 17
0.0
 27
0.0
 37
0.0
 40
38.11847361095124
 41
1.17615894039735
 42
50.0
 43
0.0
 44
0.0
 50
0.0
 51
0.0
 71
     0
 72
  2000
 73
     1
 74
     3
 75
     0
 76
     0
 77
     0
 78
     0
281
     0
 65
     1
110
0.0
120
0.0
130
0.0
111
1.0
121
0.0
131
0.0
112
0.0
122
1.0
132
0.0
 79
     0
146
0.0
  0
ENDTAB
  0
TABLE
  2
LTYPE
  5
5
330
0
100
AcDbSymbolTable
 70
     6
  0
LTYPE
  5
14
330
5
100
AcDbSymbolTableRecord
100
AcDbLinetypeTableRecord
  2
ByBlock
 70
     0
  3

 72
    65
 73
     0
 40
0.0
  0
LTYPE
  5
15
330
5
100
AcDbSymbolTableRecord
100
AcDbLinetypeTableRecord
  2
ByLayer
 70
     0
  3

 72
    65
 73
     0
 40
0.0
  0
LTYPE
  5
16
330
5
100
AcDbSymbolTableRecord
100
AcDbLinetypeTableRecord
  2
Continuous
 70
     0
  3
Solid line
 72
    65
 73
     0
 40
0.0
  0
LTYPE
  5
5D
330
5
100
AcDbSymbolTableRecord
100
AcDbLinetypeTableRecord
  2
HIDDEN
 70
     0
  3
Hidden __ __ __ __ __ __ __ __ __ __ __ __ __ __
 72
    65
 73
     2
 40
1.905
 49
1.27
 74
     0
 49
-0.635
 74
     0
  0
LTYPE
  5
5E
330
5
100
AcDbSymbolTableRecord
100
AcDbLinetypeTableRecord
  2
PHANTOM
 70
     0
  3
Phantom ______  __  __  ______  __  __  ______
 72
    65
 73
     6
 40
12.7
 49
6.349999999999999
 74
     0
 49
-1.27
 74
     0
 49
1.27
 74
     0
 49
-1.27
 74
     0
 49
1.27
 74
     0
 49
-1.27
 74
     0
  0
LTYPE
  5
5F
330
5
100
AcDbSymbolTableRecord
100
AcDbLinetypeTableRecord
  2
CENTER
 70
     0
  3
Center ____ _ ____ _ ____ _ ____ _ ____ _ ____
 72
    65
 73
     4
 40
10.16
 49
6.349999999999999
 74
     0
 49
-1.27
 74
     0
 49
1.27
 74
     0
 49
-1.27
 74
     0
  0
LTYPE
  5
60
330
5
100
AcDbSymbolTableRecord
100
AcDbLinetypeTableRecord
  2
CENTERX2
 70
     0
  3
Center (2x) ________  __  ________  __  _____
 72
    65
 73
     4
 40
20.32
 49
12.7
 74
     0
 49
-2.54
 74
     0
 49
2.54
 74
     0
 49
-2.54
 74
     0
  0
LTYPE
  5
61
330
5
100
AcDbSymbolTableRecord
100
AcDbLinetypeTableRecord
  2
DOT2
 70
     0
  3
Dot (.5x) ........................................
 72
    65
 73
     2
 40
0.635
 49
0.0
 74
     0
 49
-0.635
 74
     0
  0
ENDTAB
  0
TABLE
  2
LAYER
  5
2
330
0
100
AcDbSymbolTable
 70
     2
  0
LAYER
  5
10
330
2
100
AcDbSymbolTableRecord
100
AcDbLayerTableRecord
  2
0
 70
     0
 62
     7
  6
Continuous
370
    -3
390
F
  0
LAYER
  5
62
330
2
100
AcDbSymbolTableRecord
100
AcDbLayerTableRecord
  2
FORMAT
 70
     0
 62
     7
  6
Continuous
370
    -3
390
F
  0
ENDTAB
  0
TABLE
  2
STYLE
  5
3
330
0
100
AcDbSymbolTable
 70
     1
  0
STYLE
  5
11
330
3
100
AcDbSymbolTableRecord
100
AcDbTextStyleTableRecord
  2
Standard
 70
     0
 40
0.0
 41
1.0
 50
0.0
 71
     0
 42
2.5
  3
txt
  4

  0
ENDTAB
  0
TABLE
  2
VIEW
  5
6
330
0
100
AcDbSymbolTable
 70
     0
  0
ENDTAB
  0
TABLE
  2
UCS
  5
7
330
0
100
AcDbSymbolTable
 70
     0
  0
ENDTAB
  0
TABLE
  2
APPID
  5
9
330
0
100
AcDbSymbolTable
 70
     1
  0
APPID
  5
12
330
9
100
AcDbSymbolTableRecord
100
AcDbRegAppTableRecord
  2
ACAD
 70
     0
  0
ENDTAB
  0
TABLE
  2
DIMSTYLE
  5
A
330
0
100
AcDbSymbolTable
 70
     1
100
AcDbDimStyleTable
 71
     0
  0
DIMSTYLE
105
27
330
A
100
AcDbSymbolTableRecord
100
AcDbDimStyleTableRecord
  2
ISO-25
 70
     0
 41
2.5
 42
0.625
 43
3.75
 44
1.25
 73
     0
 74
     0
 77
     1
 78
     8
140
2.5
141
2.5
143
0.0393700787
147
0.625
171
     3
172
     1
271
     2
272
     2
274
     3
278
    44
283
     0
284
     8
340
11
  0
ENDTAB
  0
TABLE
  2
BLOCK_RECORD
  5
1
330
0
100
AcDbSymbolTable
 70
     2
  0
BLOCK_RECORD
  5
1F
330
1
100
AcDbSymbolTableRecord
100
AcDbBlockTableRecord
  2
*Model_Space
340
22
  0
BLOCK_RECORD
  5
1B
330
1
100
AcDbSymbolTableRecord
100
AcDbBlockTableRecord
  2
*Paper_Space
340
1E
  0
BLOCK_RECORD
  5
23
330
1
100
AcDbSymbolTableRecord
100
AcDbBlockTableRecord
  2
*Paper_Space0
340
26
  0
BLOCK_RECORD
  5
105
330
1
100
AcDbSymbolTableRecord
100
AcDbBlockTableRecord
  2
SW_CENTERMARKSYMBOL_0
340
0
  0
ENDTAB
  0
ENDSEC
  0
SECTION
  2
BLOCKS
  0
BLOCK
  5
20
330
1F
100
AcDbEntity
  8
0
100
AcDbBlockBegin
  2
*Model_Space
 70
     0
 10
0.0
 20
0.0
 30
0.0
  3
*Model_Space
  1

  0
ENDBLK
  5
21
330
1F
100
AcDbEntity
  8
0
100
AcDbBlockEnd
  0
BLOCK
  5
1C
330
1B
100
AcDbEntity
 67
     1
  8
0
100
AcDbBlockBegin
  2
*Paper_Space
 70
     0
 10
0.0
 20
0.0
 30
0.0
  3
*Paper_Space
  1

  0
ENDBLK
  5
1D
330
1B
100
AcDbEntity
 67
     1
  8
0
100
AcDbBlockEnd
  0
BLOCK
  5
24
330
23
100
AcDbEntity
 67
     1
  8
0
100
AcDbBlockBegin
  2
*Paper_Space0
 70
     0
 10
0.0
 20
0.0
 30
0.0
  3
*Paper_Space0
  1

  0
ENDBLK
  5
25
330
23
100
AcDbEntity
 67
     1
  8
0
100
AcDbBlockEnd
  0
BLOCK
  5
106
330
105
100
AcDbEntity
  8
0
100
AcDbBlockBegin
  2
SW_CENTERMARKSYMBOL_0
 70
     0
 10
0.0
 20
0.0
 30
0.0
  3
SW_CENTERMARKSYMBOL_0
  1

  0
LINE
  5
108
330
105
100
AcDbEntity
  8
0
  6
Continuous
 62
     0
370
     0
100
AcDbLine
 10
0.0
 20
0.0
 30
0.0
 11
0.0
 21
2.5
 31
0.0
  0
LINE
  5
109
330
105
100
AcDbEntity
  8
0
  6
Continuous
 62
     0
370
     0
100
AcDbLine
 10
0.0
 20
0.0
 30
0.0
 11
-2.5
 21
0.0
 31
0.0
  0
LINE
  5
10A
330
105
100
AcDbEntity
  8
0
  6
Continuous
 62
     0
370
     0
100
AcDbLine
 10
0.0
 20
0.0
 30
0.0
 11
0.0
 21
-2.5
 31
0.0
  0
LINE
  5
10B
330
105
100
AcDbEntity
  8
0
  6
Continuous
 62
     0
370
     0
100
AcDbLine
 10
0.0
 20
0.0
 30
0.0
 11
2.5
 21
0.0
 31
0.0
  0
LINE
  5
10C
330
105
100
AcDbEntity
  8
0
  6
Continuous
 62
     0
370
     0
100
AcDbLine
 10
0.0
 20
5.0
 30
0.0
 11
0.0
 21
24.725
 31
0.0
  0
LINE
  5
10D
330
105
100
AcDbEntity
  8
0
  6
Continuous
 62
     0
370
     0
100
AcDbLine
 10
-5.0
 20
0.0
 30
0.0
 11
-24.725
 21
0.0
 31
0.0
  0
LINE
  5
10E
330
105
100
AcDbEntity
  8
0
  6
Continuous
 62
     0
370
     0
100
AcDbLine
 10
0.0
 20
-5.0
 30
0.0
 11
0.0
 21
-24.725
 31
0.0
  0
LINE
  5
10F
330
105
100
AcDbEntity
  8
0
  6
Continuous
 62
     0
370
     0
100
AcDbLine
 10
5.0
 20
0.0
 30
0.0
 11
24.725
 21
0.0
 31
0.0
  0
ENDBLK
  5
107
330
105
100
AcDbEntity
  8
0
100
AcDbBlockEnd
  0
ENDSEC
  0
SECTION
  2
ENTITIES
  0
SPLINE
  5
66
330
1F
100
AcDbEntity
  8
0
  6
Continuous
 62
     7
370
    15
100
AcDbSpline
210
0.0
220
0.0
230
1.0
 70
    24
 71
     1
 72
     4
 73
     2
 74
     0
 42
0.0000000001
 43
0.0000000001
 40
0.0
 40
0.0
 40
1.0
 40
1.0
 10
13.64966340300648
 20
7.754134750997891
 30
0.0
 10
13.74066472974627
 20
6.452755587434641
 30
0.0
  0
SPLINE
  5
67
330
1F
100
AcDbEntity
  8
0
  6
Continuous
 62
     7
370
    15
100
AcDbSpline
210
0.0
220
0.0
230
1.0
 70
    24
 71
     1
 72
     4
 73
     2
 74
     0
 42
0.0000000001
 43
0.0000000001
 40
0.0
 40
0.0
 40
1.0
 40
1.0
 10
16.85403907028048
 20
6.452755587434641
 30
0.0
 10
16.85932339866667
 20
6.528325443303457
 30
0.0
  0
ARC
  5
68
330
1F
100
AcDbEntity
  8
0
  6
Continuous
 62
     7
370
    15
100
AcDbCircle
 10
16.73621675903525
 20
6.460994646098471
 30
0.0
 40
0.1181100000000001
100
AcDbArc
 50
270.0
 51
356.0000000000006
  0
ARC
  5
69
330
1F
100
AcDbEntity
  8
0
  6
Continuous
 62
     7
370
    15
100
AcDbCircle
 10
13.85848704099045
 20
6.460994646098471
 30
0.0
 40
0.11811
100
AcDbArc
 50
183.9999999999994
 51
270.0
  0
SPLINE
  5
6A
330
1F
100
AcDbEntity
  8
0
  6
Continuous
 62
     7
370
    15
100
AcDbSpline
210
0.0
220
0.0
230
1.0
 70
    24
 71
     1
 72
     4
 73
     2
 74
     0
 42
0.0000000001
 43
0.0000000001
 40
0.0
 40
0.0
 40
1.0
 40
1.0
 10
24.39176465150922
 20
9.94490671474325
 30
0.0
 10
24.54733363655418
 20
12.16964467817756
 30
0.0
  0
SPLINE
  5
6B
330
1F
100
AcDbEntity
  8
0
  6
Continuous
 62
     7
370
    15
100
AcDbSpline
210
0.0
220
0.0
230
1.0
 70
    24
 71
     1
 72
     4
 73
     2
 74
     0
 42
0.0000000001
 43
0.0000000001
 40
0.0
 40
0.0
 40
1.0
 40
1.0
 10
24.3881285407862
 20
9.91435514211493
 30
0.0
 10
24.39033965748757
 20
9.945009233353903
 30
0.0
  0
ARC
  5
6C
330
1F
100
AcDbEntity
  8
0
  6
Continuous
 62
     7
370
    15
100
AcDbCircle
 10
17.0557132136828
 20
6.514931697295019
 30
0.0
 40
0.1968499534875461
100
AcDbArc
 50
90.05974764210014
 51
176.2698643839994
  0
SPLINE
  5
6F
330
1F
100
AcDbEntity
  8
0
  6
Continuous
 62
     7
370
    15
100
AcDbSpline
210
0.0
220
0.0
230
1.0
 70
    24
 71
     3
 72
    48
 73
    44
 74
     0
 42
0.0000000001
 43
0.0000000001
 40
0.0
 40
0.0
 40
0.0
 40
0.0
 40
0.0625000000000001
 40
0.0625000000000001
 40
0.1250000000000001
 40
0.1250000000000001
 40
0.1562500000000001
 40
0.1562500000000001
 40
0.1875000000000001
 40
0.1875000000000001
 40
0.2500000000000001
 40
0.2500000000000001
 40
0.3125000000000001
 40
0.3125000000000001
 40
0.3750000000000001
 40
0.3750000000000001
 40
0.4062500000000001
 40
0.4062500000000001
 40
0.4375000000000001
 40
0.4375000000000001
 40
0.5
 40
0.5
 40
0.5625
 40
0.5625
 40
0.59375
 40
0.59375
 40
0.6249999999999999
 40
0.6249999999999999
 40
0.6874999999999999
 40
0.6874999999999999
 40
0.7499999999999997
 40
0.7499999999999997
 40
0.7812499999999999
 40
0.7812499999999999
 40
0.7968749999999999
 40
0.7968749999999999
 40
0.8124999999999998
 40
0.8124999999999998
 40
0.8749999999999998
 40
0.8749999999999998
 40
0.9375
 40
0.9375
 40
1.0
 40
1.0
 40
1.0
 40
1.0
 10
15.29735190001338
 20
9.846814646099087
 30
0.0
 10
15.00102667130654
 20
9.846814646099087
 30
0.0
 10
14.70662602603168
 20
9.846814646099097
 30
0.0
 10
14.12154883004292
 20
9.846814646099097
 30
0.0
 10
13.8308723644953
 20
9.846814646099094
 30
0.0
 10
13.39764094773216
 20
9.846814646099094
 30
0.0
 10
13.25369521615194
 20
9.846814646099083
 30
0.0
 10
12.96674232929952
 20
9.846814646099083
 30
0.0
 10
12.824708106363
 20
9.846814646099094
 30
0.0
 10
12.40326457917254
 20
9.846814646099094
 30
0.0
 10
12.12831291080756
 20
9.84681464609909
 30
0.0
 10
11.59012773764673
 20
9.84681464609909
 30
0.0
 10
11.32689491256823
 20
9.846814646099087
 30
0.0
 10
10.81214955286847
 20
9.846814646099087
 30
0.0
 10
10.56064352050565
 20
9.846814646099105
 30
0.0
 10
10.19234481580961
 20
9.846814646099105
 30
0.0
 10
10.07193176863192
 20
9.846814646099094
 30
0.0
 10
9.836159758285377
 20
9.846814646099094
 30
0.0
 10
9.720724703190237
 20
9.84681464609909
 30
0.0
 10
9.381684674511618
 20
9.84681464609909
 30
0.0
 10
9.165317394659822
 20
9.846814646099087
 30
0.0
 10
8.752111864668028
 20
9.846814646099087
 30
0.0
 10
8.555273364886385
 20
9.846814646099094
 30
0.0
 10
8.27470635548496
 20
9.846814646099094
 30
0.0
 10
8.183595096118924
 20
9.846814646099094
 30
0.0
 10
8.006559629278884
 20
9.846814646099094
 30
0.0
 10
7.921254131098125
 20
9.846814646099087
 30
0.0
 10
7.674812800653951
 20
9.84681464609909
 30
0.0
 10
7.523131006537759
 20
9.846814646099087
 30
0.0
 10
7.244942161190262
 20
9.846814646099087
 30
0.0
 10
7.118419706213492
 20
9.846814646099094
 30
0.0
 10
6.947796305996204
 20
9.846814646099094
 30
0.0
 10
6.894120236278459
 20
9.84681464609909
 30
0.0
 10
6.818489387870114
 20
9.846814646099087
 30
0.0
 10
6.794093328662749
 20
9.846814646099101
 30
0.0
 10
6.746948287885026
 20
9.846814646099101
 30
0.0
 10
6.724184155865622
 20
9.846814646099087
 30
0.0
 10
6.615082834078751
 20
9.846814646099083
 30
0.0
 10
6.542385239389158
 20
9.84681464609909
 30
0.0
 10
6.425580301705167
 20
9.84681464609909
 30
0.0
 10
6.381483795831623
 20
9.846814646099087
 30
0.0
 10
6.322272499533374
 20
9.846814646099083
 30
0.0
 10
6.307155671773642
 20
9.846814646099087
 30
0.0
 10
6.307155671773641
 20
9.846814646099087
 30
0.0
  0
ARC
  5
70
330
1F
100
AcDbEntity
  8
0
  6
Continuous
 62
     7
370
    15
100
AcDbCircle
 10
6.307156051312556
 20
10.24051515727461
 30
0.0
 40
0.3937005665111732
100
AcDbArc
 50
183.0000739031003
 51
269.9999269705997
  0
ARC
  5
72
330
1F
100
AcDbEntity
  8
0
  6
Continuous
 62
     7
370
    15
100
AcDbCircle
 10
23.41131297871768
 20
10.2196054577437
 30
0.0
 40
0.3732330425090252
100
AcDbArc
 50
272.7892524719994
 51
359.1671176735996
  0
SPLINE
  5
73
330
1F
100
AcDbEntity
  8
0
  6
Continuous
 62
     7
370
    15
100
AcDbSpline
210
0.0
220
0.0
230
1.0
 70
    24
 71
     3
 72
    38
 73
    34
 74
     0
 42
0.0000000001
 43
0.0000000001
 40
0.0
 40
0.0
 40
0.0
 40
0.0
 40
0.1250000000000015
 40
0.1250000000000015
 40
0.1406250000000016
 40
0.1406250000000016
 40
0.1562500000000017
 40
0.1562500000000017
 40
0.1875000000000019
 40
0.1875000000000019
 40
0.2500000000000021
 40
0.2500000000000021
 40
0.3750000000000023
 40
0.3750000000000023
 40
0.4062500000000024
 40
0.4062500000000024
 40
0.4375000000000024
 40
0.4375000000000024
 40
0.5000000000000023
 40
0.5000000000000023
 40
0.6250000000000022
 40
0.6250000000000022
 40
0.6875000000000019
 40
0.6875000000000019
 40
0.7187500000000018
 40
0.7187500000000018
 40
0.7343750000000016
 40
0.7343750000000016
 40
0.7500000000000015
 40
0.7500000000000015
 40
0.8750000000000007
 40
0.8750000000000007
 40
1.0
 40
1.0
 40
1.0
 40
1.0
 10
23.42947525583475
 20
9.846814646099065
 30
0.0
 10
23.24713992417123
 20
9.846814646099065
 30
0.0
 10
23.03823054938602
 20
9.846814646099065
 30
0.0
 10
22.77366342978833
 20
9.846814646099065
 30
0.0
 10
22.74383188825786
 20
9.846814646099065
 30
0.0
 10
22.68348138858575
 20
9.846814646099069
 30
0.0
 10
22.65296468529458
 20
9.846814646099069
 30
0.0
 10
22.56039983845707
 20
9.846814646099069
 30
0.0
 10
22.49733750230325
 20
9.846814646099069
 30
0.0
 10
22.30414980029271
 20
9.846814646099069
 30
0.0
 10
22.17003171470272
 20
9.846814646099073
 30
0.0
 10
21.75184984262449
 20
9.846814646099073
 30
0.0
 10
21.45186277091852
 20
9.846814646099058
 30
0.0
 10
21.05013954461769
 20
9.846814646099058
 30
0.0
 10
20.96845969059115
 20
9.846814646099073
 30
0.0
 10
20.80240578772659
 20
9.846814646099073
 30
0.0
 10
20.71797638263997
 20
9.84681464609909
 30
0.0
 10
20.46093453048206
 20
9.84681464609909
 30
0.0
 10
20.28610649643745
 20
9.846814646099073
 30
0.0
 10
19.75143110040848
 20
9.846814646099073
 30
0.0
 10
19.38139668292486
 20
9.846814646099058
 30
0.0
 10
18.80582590099532
 20
9.846814646099058
 30
0.0
 10
18.61054221316694
 20
9.846814646099083
 30
0.0
 10
18.31236545220858
 20
9.846814646099083
 30
0.0
 10
18.21209724102692
 20
9.84681464609909
 30
0.0
 10
18.06035992750051
 20
9.84681464609909
 30
0.0
 10
18.00951013006815
 20
9.846814646099078
 30
0.0
 10
17.90768812999896
 20
9.846814646099078
 30
0.0
 10
17.85670130253204
 20
9.846814646099073
 30
0.0
 10
17.3971423369906
 20
9.846814646099073
 30
0.0
 10
16.98385941180305
 20
9.846814646099078
 30
0.0
 10
16.14783033269167
 20
9.846814646099078
 30
0.0
 10
15.72508331510037
 20
9.846814646099087
 30
0.0
 10
15.29735190001338
 20
9.846814646099087
 30
0.0
  0
LINE
  5
75
330
1F
100
AcDbEntity
  8
0
  6
Continuous
 62
     7
370
    15
100
AcDbLine
 10
24.78289001760143
 20
12.16964467817715
 30
0.0
 11
24.79733296853437
 21
12.44523457668522
 31
0.0
  0
SPLINE
  5
76
330
1F
100
AcDbEntity
  8
0
  6
Continuous
 62
     7
370
    15
100
AcDbSpline
210
0.0
220
0.0
230
1.0
 70
    24
 71
     3
 72
     9
 73
     5
 74
     0
 42
0.0000000001
 43
0.0000000001
 40
0.0
 40
0.0
 40
0.0
 40
0.0
 40
0.1666666666666667
 40
0.2434364679254399
 40
0.2434364679254399
 40
0.2434364679254399
 40
0.2434364679254399
 10
24.78288984012077
 20
12.16964464609903
 30
0.0
 10
24.78288984012077
 20
12.16964464609903
 30
0.0
 10
24.62021714695428
 20
12.16964464609903
 30
0.0
 10
24.23933448245286
 20
12.16964464609903
 30
0.0
 10
24.09804276881288
 20
12.16964464609903
 30
0.0
  0
SPLINE
  5
77
330
1F
100
AcDbEntity
  8
0
  6
Continuous
 62
     7
370
    15
100
AcDbSpline
210
0.0
220
0.0
230
1.0
 70
     8
 71
     3
 72
    22
 73
    18
 74
     0
 42
0.0000000001
 43
0.0000000001
 40
0.0
 40
0.0
 40
0.0
 40
0.0
 40
0.2499999999999936
 40
0.2499999999999936
 40
0.3124999999999943
 40
0.3124999999999943
 40
0.3749999999999951
 40
0.3749999999999951
 40
0.499999999999997
 40
0.499999999999997
 40
0.7499999999999984
 40
0.7499999999999984
 40
0.8749999999999992
 40
0.8749999999999992
 40
0.9374999999999996
 40
0.9374999999999996
 40
1.0
 40
1.0
 40
1.0
 40
1.0
 10
24.09804276881327
 20
12.16964464609906
 30
0.0
 10
24.08003866596782
 20
12.16964464609906
 30
0.0
 10
24.06181215693814
 20
12.16183413888488
 30
0.0
 10
24.0387611001058
 20
12.14509772468832
 30
0.0
 10
24.03412361262968
 20
12.14137984059639
 30
0.0
 10
24.02490999044192
 20
12.13335206506675
 30
0.0
 10
24.0203313112295
 20
12.12904290636312
 30
0.0
 10
24.00666861574611
 20
12.11532458465517
 30
0.0
 10
23.99765779305955
 20
12.10512666202798
 30
0.0
 10
23.97084176842106
 20
12.07201072059597
 30
0.0
 10
23.95325567147866
 20
12.04656765543753
 30
0.0
 10
23.92701100982197
 20
12.00557526087136
 30
0.0
 10
23.91831200666976
 20
11.99148221879726
 30
0.0
 10
23.90528262073427
 20
11.96997350776843
 30
0.0
 10
23.90094221474475
 20
11.96274169993032
 30
0.0
 10
23.89225593117904
 20
11.94819717773174
 30
0.0
 10
23.88789016213883
 20
11.9408503339009
 30
0.0
 10
23.88355724208978
 20
11.93355562545558
 30
0.0
  0
SPLINE
  5
78
330
1F
100
AcDbEntity
  8
0
  6
Continuous
 62
     7
370
    15
100
AcDbSpline
210
0.0
220
0.0
230
1.0
 70
     8
 71
     3
 72
     8
 73
     4
 74
     0
 42
0.0000000001
 43
0.0000000001
 40
0.0
 40
0.0
 40
0.0
 40
0.0
 40
1.0
 40
1.0
 40
1.0
 40
1.0
 10
23.78450631630044
 20
10.21418012855776
 30
0.0
 10
23.82053053433851
 20
10.78710938218941
 30
0.0
 10
23.85388256323472
 20
11.36022543693942
 30
0.0
 10
23.88355724208979
 20
11.93355562545558
 30
0.0
  0
SPLINE
  5
79
330
1F
100
AcDbEntity
  8
0
  6
Continuous
 62
     7
370
    15
100
AcDbSpline
210
0.0
220
0.0
230
1.0
 70
    24
 71
     3
 72
    13
 73
     9
 74
     0
 42
0.0000000001
 43
0.0000000001
 40
0.0
 40
0.0
 40
0.0
 40
0.0
 40
0.1666666666666667
 40
0.3333333333333333
 40
0.5
 40
0.6666666666666666
 40
0.8333333333333332
 40
1.0
 40
1.0
 40
1.0
 40
1.0
 10
24.79733290001338
 20
12.44523464609906
 30
0.0
 10
24.79733290001338
 20
12.44523464609906
 30
0.0
 10
24.57427385261023
 20
12.44523464609906
 30
0.0
 10
23.62508451984208
 20
12.44523464609906
 30
0.0
 10
22.09346318168297
 20
12.44523464609906
 30
0.0
 10
20.09000527936264
 20
12.44523464609905
 30
0.0
 10
17.79454322496244
 20
12.44523464609906
 30
0.0
 10
16.13716957205842
 20
12.44523464609906
 30
0.0
 10
15.29735190001338
 20
12.44523464609906
 30
0.0
  0
LINE
  5
7A
330
1F
100
AcDbEntity
  8
0
  6
Continuous
 62
     7
370
    15
100
AcDbLine
 10
5.913995064321142
 20
10.21990995453628
 30
0.0
 11
5.797370831491335
 21
12.44523457668522
 31
0.0
  0
SPLINE
  5
7B
330
1F
100
AcDbEntity
  8
0
  6
Continuous
 62
     7
370
    15
100
AcDbSpline
210
0.0
220
0.0
230
1.0
 70
    24
 71
     3
 72
    13
 73
     9
 74
     0
 42
0.0000000001
 43
0.0000000001
 40
0.0
 40
0.0
 40
0.0
 40
0.0
 40
0.1666666666666667
 40
0.3333333333333333
 40
0.5
 40
0.6666666666666666
 40
0.8333333333333332
 40
1.0
 40
1.0
 40
1.0
 40
1.0
 10
5.797370900013378
 20
12.44523464609906
 30
0.0
 10
5.797370900013377
 20
12.44523464609906
 30
0.0
 10
6.020429947416525
 20
12.44523464609906
 30
0.0
 10
6.969619280184678
 20
12.44523464609906
 30
0.0
 10
8.501240618343791
 20
12.44523464609906
 30
0.0
 10
10.50469852066411
 20
12.44523464609906
 30
0.0
 10
12.80016057506431
 20
12.44523464609906
 30
0.0
 10
14.45753422796833
 20
12.44523464609906
 30
0.0
 10
15.29735190001338
 20
12.44523464609906
 30
0.0
  0
SPLINE
  5
7C
330
1F
100
AcDbEntity
  8
0
  6
Continuous
 62
     7
370
    15
100
AcDbSpline
210
0.0
220
0.0
230
1.0
 70
     8
 71
     3
 72
    10
 73
     6
 74
     0
 42
0.0000000001
 43
0.0000000001
 40
0.0
 40
0.0
 40
0.0
 40
0.0
 40
0.5
 40
0.5
 40
1.0
 40
1.0
 40
1.0
 40
1.0
 10
23.17905028521288
 20
9.846814646099062
 30
0.0
 10
23.14888535598725
 20
9.846814646099062
 30
0.0
 10
23.11950471442026
 20
9.841767659582107
 30
0.0
 10
23.06278197334678
 20
9.821459145172092
 30
0.0
 10
23.03699609349076
 20
9.806784954928506
 30
0.0
 10
23.01387774435186
 20
9.787429303280289
 30
0.0
  0
LWPOLYLINE
  5
80
330
1F
100
AcDbEntity
  8
0
  6
Continuous
 62
     7
370
    15
100
AcDbPolyline
 90
        3
 70
   128
 43
0.0
 10
7.209416708622279
 20
9.846814590763937
 10
7.29561858040323
 20
9.831483145206416
 10
7.371247102141946
 20
9.787369049710374
  0
LWPOLYLINE
  5
81
330
1F
100
AcDbEntity
  8
0
  6
Continuous
 62
     7
370
    15
100
AcDbPolyline
 90
        2
 70
   128
 43
0.0
 10
15.29735190001482
 20
12.64208468228344
 10
15.29735190001482
 20
12.64208468228344
  0
SPLINE
  5
82
330
1F
100
AcDbEntity
  8
0
  6
Continuous
 62
     7
370
    15
100
AcDbSpline
210
0.0
220
0.0
230
1.0
 70
    24
 71
     3
 72
    15
 73
    11
 74
     0
 42
0.0000000001
 43
0.0000000001
 40
0.0
 40
0.0
 40
0.0
 40
0.0
 40
0.1309745846325935
 40
0.2704332056759977
 40
0.4156256366326613
 40
0.5630153709624051
 40
0.6779687209821415
 40
0.7900776745739378
 40
0.9205401927246363
 40
1.0
 40
1.0
 40
1.0
 40
1.0
 10
23.36032790001338
 20
12.64208464609906
 30
0.0
 10
23.3272525633671
 20
12.64208464609905
 30
0.0
 10
23.25895939532113
 20
12.64208464609904
 30
0.0
 10
22.6898422489808
 20
12.64208464609905
 30
0.0
 10
21.75499693411168
 20
12.64208464609903
 30
0.0
 10
20.54149402920102
 20
12.64208464609906
 30
0.0
 10
19.24685659112935
 20
12.64208464609904
 30
0.0
 10
17.79688617655501
 20
12.6420846460991
 30
0.0
 10
16.70943229982487
 20
12.64208464609905
 30
0.0
 10
15.6850870907762
 20
12.64208464609906
 30
0.0
 10
15.29735190001338
 20
12.64208464609906
 30
0.0
  0
SPLINE
  5
83
330
1F
100
AcDbEntity
  8
0
  6
Continuous
 62
     7
370
    15
100
AcDbSpline
210
0.0
220
0.0
230
1.0
 70
    24
 71
     3
 72
    15
 73
    11
 74
     0
 42
0.0000000001
 43
0.0000000001
 40
0.0
 40
0.0
 40
0.0
 40
0.0
 40
0.1309745846325935
 40
0.2704332056759977
 40
0.4156256366326613
 40
0.5630153709624051
 40
0.6779687209821415
 40
0.7900776745739378
 40
0.9205401927246363
 40
1.0
 40
1.0
 40
1.0
 40
1.0
 10
7.234375900013378
 20
12.64208464609906
 30
0.0
 10
7.267451236659655
 20
12.64208464609905
 30
0.0
 10
7.33574440470563
 20
12.64208464609904
 30
0.0
 10
7.904861551045952
 20
12.64208464609905
 30
0.0
 10
8.839706865915081
 20
12.64208464609903
 30
0.0
 10
10.05320977082574
 20
12.64208464609906
 30
0.0
 10
11.3478472088974
 20
12.64208464609904
 30
0.0
 10
12.79781762347174
 20
12.6420846460991
 30
0.0
 10
13.88527150020188
 20
12.64208464609905
 30
0.0
 10
14.90961670925055
 20
12.64208464609906
 30
0.0
 10
15.29735190001338
 20
12.64208464609906
 30
0.0
  0
LINE
  5
85
330
1F
100
AcDbEntity
  8
0
  6
Continuous
 62
     7
370
    15
100
AcDbLine
 10
7.234376103699451
 20
12.64208468228344
 30
0.0
 11
7.234376103699451
 21
12.44523457668522
 31
0.0
  0
LINE
  5
86
330
1F
100
AcDbEntity
  8
0
  6
Continuous
 62
     7
370
    15
100
AcDbLine
 10
23.36032769632625
 20
12.64208468228344
 30
0.0
 11
23.36032769632625
 21
12.44523457668522
 31
0.0
  0
SPLINE
  5
87
330
1F
100
AcDbEntity
  8
0
  6
Continuous
 62
     7
370
    15
100
AcDbSpline
210
0.0
220
0.0
230
1.0
 70
     8
 71
     3
 72
    37
 73
    33
 74
     0
 42
0.0000000001
 43
0.0000000001
 40
0.0
 40
0.0
 40
0.0
 40
0.0
 40
0.125
 40
0.125
 40
0.1874999999999999
 40
0.1874999999999999
 40
0.2187499999999999
 40
0.2187499999999999
 40
0.2499999999999999
 40
0.2499999999999999
 40
0.3750000000000001
 40
0.3750000000000001
 40
0.4062500000000002
 40
0.4062500000000002
 40
0.4375000000000003
 40
0.4375000000000003
 40
0.5000000000000002
 40
0.5000000000000002
 40
0.6250000000000005
 40
0.6250000000000005
 40
0.6562500000000005
 40
0.6562500000000005
 40
0.6875000000000005
 40
0.6875000000000005
 40
0.7500000000000006
 40
0.8125000000000003
 40
0.8125000000000003
 40
0.8437500000000003
 40
0.8437500000000003
 40
0.8750000000000001
 40
0.8750000000000001
 40
1.0
 40
1.0
 40
1.0
 40
1.0
 10
13.64966346515909
 20
7.754134726924312
 30
0.0
 10
13.64966346515909
 20
7.754134726924311
 30
0.0
 10
13.66032960750918
 20
7.754184699234678
 30
0.0
 10
13.69167451523521
 20
7.754318707524751
 30
0.0
 10
13.70469946472183
 20
7.754372649172932
 30
0.0
 10
13.72819008944334
 20
7.754462954185417
 30
0.0
 10
13.73669577078932
 20
7.754494707060173
 30
0.0
 10
13.75498869751212
 20
7.754560406241511
 30
0.0
 10
13.76473043222663
 20
7.754594189128654
 30
0.0
 10
13.81635505314666
 20
7.754765331171547
 30
0.0
 10
13.8669027755474
 20
7.754910651462786
 30
0.0
 10
13.9415444083379
 20
7.755055004207957
 30
0.0
 10
13.95705074220487
 20
7.755081920061882
 30
0.0
 10
13.98923787665771
 20
7.755130877623057
 30
0.0
 10
14.00596399280853
 20
7.755152965755701
 30
0.0
 10
14.05759716106324
 20
7.755210709652717
 30
0.0
 10
14.09382123271845
 20
7.75523757192945
 30
0.0
 10
14.20772953036794
 20
7.755287693383445
 30
0.0
 10
14.29060057864864
 20
7.755275421464094
 30
0.0
 10
14.40305864598037
 20
7.755192783648872
 30
0.0
 10
14.42606356280726
 20
7.755173119798103
 30
0.0
 10
14.47257047729743
 20
7.755129072147361
 30
0.0
 10
14.49608123397747
 20
7.755104754040816
 30
0.0
 10
14.56737104803444
 20
7.755026631083278
 30
0.0
 10
14.66444067891012
 20
7.754908553235967
 30
0.0
 10
14.76548117413707
 20
7.754780306194453
 30
0.0
 10
14.84277040079029
 20
7.7546871812248
 30
0.0
 10
14.86878539618423
 20
7.754656634477754
 30
0.0
 10
14.92132814180311
 20
7.754597774356368
 30
0.0
 10
14.94790522103261
 20
7.754569440859374
 30
0.0
 10
15.08094697710712
 20
7.754438328091392
 30
0.0
 10
15.18855702152806
 20
7.754367635640019
 30
0.0
 10
15.29735190001338
 20
7.754367635640019
 30
0.0
  0
SPLINE
  5
88
330
1F
100
AcDbEntity
  8
0
  6
Continuous
 62
     7
370
    15
100
AcDbSpline
210
0.0
220
0.0
230
1.0
 70
     8
 71
     3
 72
    14
 73
    10
 74
     0
 42
0.0000000001
 43
0.0000000001
 40
0.0132890330803587
 40
0.0132890330803587
 40
0.0132890330803587
 40
0.0132890330803587
 40
0.1277882824201535
 40
0.3359477361131236
 40
0.3931565067388396
 40
0.6657960462397047
 40
0.713538752477734
 40
0.8365036266815238
 40
0.9840265244090666
 40
0.9840265244090666
 40
0.9840265244090666
 40
0.9840265244090666
 10
13.64966320000708
 20
7.754132606760914
 30
0.0
 10
13.34016558211959
 20
7.792839018383798
 30
0.0
 10
12.45739617483196
 20
7.906745886199544
 30
0.0
 10
11.07976059353204
 20
8.195010997102992
 30
0.0
 10
9.909168776340255
 20
8.521187321460804
 30
0.0
 10
9.267189747104261
 20
8.754971935671626
 30
0.0
 10
8.356962647881678
 20
9.136052491260656
 30
0.0
 10
7.907542195552643
 20
9.399052281750396
 30
0.0
 10
7.578707850971635
 20
9.611160765489632
 30
0.0
 10
7.371245096765202
 20
9.787367007944675
 30
0.0
  0
SPLINE
  5
8A
330
1F
100
AcDbEntity
  8
0
  6
Continuous
 62
     7
370
    15
100
AcDbSpline
210
0.0
220
0.0
230
1.0
 70
     8
 71
     3
 72
    48
 73
    44
 74
     0
 42
0.0000000001
 43
0.0000000001
 40
0.0
 40
0.0
 40
0.0
 40
0.0
 40
0.0312499999999996
 40
0.0312499999999996
 40
0.0624999999999992
 40
0.0624999999999992
 40
0.0937499999999988
 40
0.0937499999999988
 40
0.1249999999999984
 40
0.1249999999999984
 40
0.1562499999999981
 40
0.1562499999999981
 40
0.171874999999998
 40
0.171874999999998
 40
0.187499999999998
 40
0.187499999999998
 40
0.218749999999998
 40
0.218749999999998
 40
0.2499999999999979
 40
0.2499999999999979
 40
0.3124999999999982
 40
0.3124999999999982
 40
0.3749999999999985
 40
0.3749999999999985
 40
0.4374999999999986
 40
0.4374999999999986
 40
0.4999999999999988
 40
0.4999999999999988
 40
0.5624999999999988
 40
0.5624999999999988
 40
0.624999999999999
 40
0.624999999999999
 40
0.6874999999999991
 40
0.6874999999999991
 40
0.7499999999999992
 40
0.7499999999999992
 40
0.8124999999999994
 40
0.8124999999999994
 40
0.8749999999999996
 40
0.8749999999999996
 40
0.9375
 40
0.9375
 40
1.0
 40
1.0
 40
1.0
 40
1.0
 10
23.01387774435186
 20
9.787429303280292
 30
0.0
 10
22.94902727343378
 20
9.73313376873448
 30
0.0
 10
22.88262260945865
 20
9.681329248655409
 30
0.0
 10
22.74688954650962
 20
9.582406284107804
 30
0.0
 10
22.67751789398104
 20
9.535357165151923
 30
0.0
 10
22.53622698233754
 20
9.4453421554037
 30
0.0
 10
22.46443957869987
 20
9.402164930568968
 30
0.0
 10
22.31998069430323
 20
9.317227453449278
 30
0.0
 10
22.24719231144333
 20
9.275654568379252
 30
0.0
 10
22.09958502556143
 20
9.195763255641258
 30
0.0
 10
22.0247792705084
 20
9.15742375479917
 30
0.0
 10
21.91089841216813
 20
9.102594697314188
 30
0.0
 10
21.87264830671529
 20
9.084782858647741
 30
0.0
 10
21.79553884657875
 20
9.050135667885154
 30
0.0
 10
21.75672998943991
 20
9.033307362519533
 30
0.0
 10
21.64006162046977
 20
8.983865129910478
 30
0.0
 10
21.56184152036913
 20
8.95221343385538
 30
0.0
 10
21.40504340347481
 20
8.889972620797978
 30
0.0
 10
21.32649068668789
 20
8.85930839342013
 30
0.0
 10
21.09023002440897
 20
8.769104441892622
 30
0.0
 10
20.93188557233633
 20
8.711454371320677
 30
0.0
 10
20.61316023131607
 20
8.602199981066982
 30
0.0
 10
20.4527095849917
 20
8.550802756300758
 30
0.0
 10
20.12984736239696
 20
8.453829893537029
 30
0.0
 10
19.96751864441734
 20
8.408008266777885
 30
0.0
 10
19.64122185004934
 20
8.321231922065267
 30
0.0
 10
19.47717546554762
 20
8.280125411047897
 30
0.0
 10
19.14804551646729
 20
8.20431268071349
 30
0.0
 10
18.98292008351077
 20
8.16941495573249
 30
0.0
 10
18.65192285777348
 20
8.103626097687135
 30
0.0
 10
18.48604166531096
 20
8.072785423781606
 30
0.0
 10
18.15360915896846
 20
8.014701406597271
 30
0.0
 10
17.9870512280025
 20
7.987493585009682
 30
0.0
 10
17.65320156095632
 20
7.937017137841126
 30
0.0
 10
17.48585153024028
 20
7.913748722401185
 30
0.0
 10
17.15062585981707
 20
7.871692725341515
 30
0.0
 10
16.98277093900935
 20
7.852989059702269
 30
0.0
 10
16.64659414328909
 20
7.820065088035523
 30
0.0
 10
16.47825204790018
 20
7.805741680150363
 30
0.0
 10
16.14124452386446
 20
7.781540580527364
 30
0.0
 10
15.9726480902703
 20
7.771688316164698
 30
0.0
 10
15.63520490968532
 20
7.758056587642845
 30
0.0
 10
15.46635443189413
 20
7.754367635640019
 30
0.0
 10
15.29735190001338
 20
7.754367635640019
 30
0.0
  0
SPLINE
  5
90
330
1F
100
AcDbEntity
  8
0
  6
Continuous
 62
     7
370
    15
100
AcDbSpline
210
0.0
220
0.0
230
1.0
 70
     8
 71
     3
 72
    16
 73
    12
 74
     0
 42
0.0000000001
 43
0.0000000001
 40
0.0
 40
0.0
 40
0.0
 40
0.0
 40
0.1250000000000009
 40
0.1250000000000009
 40
0.2500000000000018
 40
0.2500000000000018
 40
0.5000000000000013
 40
0.5000000000000013
 40
0.7500000000000006
 40
0.7500000000000006
 40
1.0
 40
1.0
 40
1.0
 40
1.0
 10
16.76999410262925
 20
6.711780743204712
 30
0.0
 10
16.76243663424572
 20
6.711780991058413
 30
0.0
 10
16.75360589832772
 20
6.711781236947112
 30
0.0
 10
16.73483704003625
 20
6.711781707477411
 30
0.0
 10
16.72485153629125
 20
6.711781932635048
 30
0.0
 10
16.69381968053274
 20
6.71178256875525
 30
0.0
 10
16.67223560809241
 20
6.711782929875838
 30
0.0
 10
16.6285076703227
 20
6.711783532885435
 30
0.0
 10
16.60627614792533
 20
6.711783775835943
 30
0.0
 10
16.56137086937693
 20
6.711784157375817
 30
0.0
 10
16.53869179053705
 20
6.711784295825133
 30
0.0
 10
16.51585540375705
 20
6.711784389080079
 30
0.0
  0
SPLINE
  5
91
330
1F
100
AcDbEntity
  8
0
  6
Continuous
 62
     7
370
    15
100
AcDbSpline
210
0.0
220
0.0
230
1.0
 70
     8
 71
     3
 72
    12
 73
     8
 74
     0
 42
0.0000000001
 43
0.0000000001
 40
0.0
 40
0.0
 40
0.0
 40
0.0
 40
0.2500000000000003
 40
0.2500000000000003
 40
0.5000000000000006
 40
0.5000000000000006
 40
1.0
 40
1.0
 40
1.0
 40
1.0
 10
16.43505614376499
 20
6.70315749742547
 30
0.0
 10
16.43976533011711
 20
6.705264822048509
 30
0.0
 10
16.4464646606403
 20
6.706814074036662
 30
0.0
 10
16.46009597038828
 20
6.709076079924518
 30
0.0
 10
16.46721687290743
 20
6.709832373537977
 30
0.0
 10
16.48821300161251
 20
6.711473190522207
 30
0.0
 10
16.50220564874652
 20
6.711784444820371
 30
0.0
 10
16.51585540375704
 20
6.711784389080082
 30
0.0
  0
SPLINE
  5
92
330
1F
100
AcDbEntity
  8
0
  6
Continuous
 62
     7
370
    15
100
AcDbSpline
210
0.0
220
0.0
230
1.0
 70
     8
 71
     3
 72
    20
 73
    16
 74
     0
 42
0.0000000001
 43
0.0000000001
 40
0.0
 40
0.0
 40
0.0
 40
0.0
 40
0.1249999999999994
 40
0.1249999999999994
 40
0.1874999999999993
 40
0.1874999999999993
 40
0.2499999999999993
 40
0.2499999999999993
 40
0.4999999999999993
 40
0.4999999999999993
 40
0.6249999999999996
 40
0.6249999999999996
 40
0.75
 40
0.75
 40
1.0
 40
1.0
 40
1.0
 40
1.0
 10
16.43505614376499
 20
6.703157497425475
 30
0.0
 10
16.39088427776826
 20
6.7087175877765
 30
0.0
 10
16.34572976030956
 20
6.71651816475547
 30
0.0
 10
16.27696893660322
 20
6.730763882163103
 30
0.0
 10
16.25383538399956
 20
6.735949331673669
 30
0.0
 10
16.20745684675191
 20
6.747028009586607
 30
0.0
 10
16.18418815635705
 20
6.752925403635495
 30
0.0
 10
16.06744355766519
 20
6.783998935295166
 30
0.0
 10
15.9727604796296
 20
6.813820120836982
 30
0.0
 10
15.82880633607227
 20
6.863847079369699
 30
0.0
 10
15.78041674493921
 20
6.881461117560274
 30
0.0
 10
15.68362258043032
 20
6.918074555344896
 30
0.0
 10
15.63527889354424
 20
6.937048303380743
 30
0.0
 10
15.49034233027582
 20
6.995693292691145
 30
0.0
 10
15.39386429897404
 20
7.037096583341835
 30
0.0
 10
15.29735190001372
 20
7.080056844678887
 30
0.0
  0
SPLINE
  5
98
330
1F
100
AcDbEntity
  8
0
  6
Continuous
 62
     7
370
    15
100
AcDbSpline
210
0.0
220
0.0
230
1.0
 70
     8
 71
     3
 72
    86
 73
    82
 74
     0
 42
0.0000000001
 43
0.0000000001
 40
0.0
 40
0.0
 40
0.0
 40
0.0
 40
0.0625000000000004
 40
0.0625000000000004
 40
0.0937500000000006
 40
0.0937500000000006
 40
0.1250000000000009
 40
0.1250000000000009
 40
0.1875000000000011
 40
0.1875000000000011
 40
0.2500000000000014
 40
0.2500000000000014
 40
0.2812500000000015
 40
0.2812500000000015
 40
0.3125000000000015
 40
0.3125000000000015
 40
0.3281250000000016
 40
0.3281250000000016
 40
0.3437500000000016
 40
0.3437500000000016
 40
0.3593750000000017
 40
0.3593750000000017
 40
0.3750000000000017
 40
0.3750000000000017
 40
0.3906250000000022
 40
0.3906250000000022
 40
0.4062500000000028
 40
0.4062500000000028
 40
0.4375000000000038
 40
0.4375000000000038
 40
0.4687500000000047
 40
0.4687500000000047
 40
0.5000000000000055
 40
0.5000000000000055
 40
0.5625000000000077
 40
0.5625000000000077
 40
0.5937500000000084
 40
0.5937500000000084
 40
0.6250000000000091
 40
0.6250000000000091
 40
0.6406250000000093
 40
0.6406250000000093
 40
0.6562500000000094
 40
0.6562500000000094
 40
0.6640625000000095
 40
0.6640625000000095
 40
0.6718750000000095
 40
0.6718750000000095
 40
0.6875000000000093
 40
0.6875000000000093
 40
0.7187500000000085
 40
0.7187500000000085
 40
0.7265625000000082
 40
0.7265625000000082
 40
0.7343750000000081
 40
0.7343750000000081
 40
0.7500000000000072
 40
0.7500000000000072
 40
0.7656250000000063
 40
0.7656250000000063
 40
0.7812500000000054
 40
0.7812500000000054
 40
0.7968750000000045
 40
0.7968750000000045
 40
0.8125000000000035
 40
0.8125000000000035
 40
0.8203125000000031
 40
0.8203125000000031
 40
0.8281250000000028
 40
0.8281250000000028
 40
0.8437500000000019
 40
0.8437500000000019
 40
0.8515625000000015
 40
0.8515625000000015
 40
0.8593750000000015
 40
0.8593750000000015
 40
0.8750000000000014
 40
0.8750000000000014
 40
0.9375000000000007
 40
0.9375000000000007
 40
1.0
 40
1.0
 40
1.0
 40
1.0
 10
17.1757988192619
 20
6.711781546099059
 30
0.0
 10
17.34048134147984
 20
6.732585137524832
 30
0.0
 10
17.51007347613551
 20
6.75463992498437
 30
0.0
 10
17.77771725763148
 20
6.792803762127166
 30
0.0
 10
17.86916370553302
 20
6.806381283829605
 30
0.0
 10
18.05750022268785
 20
6.83580385066747
 30
0.0
 10
18.15460358821163
 20
6.851722985695749
 30
0.0
 10
18.44971612482272
 20
6.902282301241469
 30
0.0
 10
18.65229224236187
 20
6.939760879876606
 30
0.0
 10
19.05425464404389
 20
7.018836954944594
 30
0.0
 10
19.25386323488261
 20
7.060459095638027
 30
0.0
 10
19.54154633853251
 20
7.12378938144146
 30
0.0
 10
19.63534446986599
 20
7.14502982122635
 30
0.0
 10
19.81642551764351
 20
7.18729407625044
 30
0.0
 10
19.90379736492885
 20
7.208332535124069
 30
0.0
 10
20.02931359388729
 20
7.239598461299614
 30
0.0
 10
20.07023394147307
 20
7.249973210200879
 30
0.0
 10
20.15016016899235
 20
7.270621022264459
 30
0.0
 10
20.18914442358726
 20
7.280895302233282
 30
0.0
 10
20.26458159076548
 20
7.301146850802847
 30
0.0
 10
20.30115658296588
 20
7.311152514127952
 30
0.0
 10
20.37242740466254
 20
7.330950382686651
 30
0.0
 10
20.40709548287845
 20
7.340730646141022
 30
0.0
 10
20.4754708151653
 20
7.360268947766653
 30
0.0
 10
20.50909635754863
 20
7.370007198017661
 30
0.0
 10
20.57540768817982
 20
7.3894376703943
 30
0.0
 10
20.60804455205951
 20
7.399112665767138
 30
0.0
 10
20.70547929755028
 20
7.428308166014142
 30
0.0
 10
20.76964483942754
 20
7.447967339894903
 30
0.0
 10
20.89631583785188
 20
7.487698403516956
 30
0.0
 10
20.95874153249987
 20
7.507739634608132
 30
0.0
 10
21.08236830273899
 20
7.54832169403128
 30
0.0
 10
21.14363058742774
 20
7.568885195180412
 30
0.0
 10
21.32612312227004
 20
7.631498472604842
 30
0.0
 10
21.4458249502022
 20
7.674361102597738
 30
0.0
 10
21.62559608783374
 20
7.741216867429244
 30
0.0
 10
21.68531601348487
 20
7.763846520342161
 30
0.0
 10
21.80497138892635
 20
7.809910004908115
 30
0.0
 10
21.86521510825702
 20
7.833458240950063
 30
0.0
 10
21.95637535793053
 20
7.86965202958947
 30
0.0
 10
21.98681778516008
 20
7.881834401183505
 30
0.0
 10
22.04759467223954
 20
7.906313050356114
 30
0.0
 10
22.07798663933264
 20
7.918631426649308
 30
0.0
 10
22.12372372595321
 20
7.937256275566585
 30
0.0
 10
22.13894100280194
 20
7.943466412437763
 30
0.0
 10
22.16981965135474
 20
7.956096984836223
 30
0.0
 10
22.18545606975418
 20
7.962508710531956
 30
0.0
 10
22.23285976684751
 20
7.982018210875223
 30
0.0
 10
22.2651183787666
 20
7.995388505180391
 30
0.0
 10
22.36319816786394
 20
8.036532555462731
 30
0.0
 10
22.43034071481892
 20
8.065311464918742
 30
0.0
 10
22.51537853265471
 20
8.10356390808532
 30
0.0
 10
22.53244837804561
 20
8.111333612839288
 30
0.0
 10
22.56668721394016
 20
8.127138151448008
 30
0.0
 10
22.58354287976088
 20
8.135028545284317
 30
0.0
 10
22.63332665749827
 20
8.158642655324783
 30
0.0
 10
22.66547174602131
 20
8.174310024237
 30
0.0
 10
22.72770718168858
 20
8.205359603638369
 30
0.0
 10
22.75769790498412
 20
8.220685474060202
 30
0.0
 10
22.81636673849231
 20
8.251290213249436
 30
0.0
 10
22.84500366621394
 20
8.266555193634822
 30
0.0
 10
22.90091505310092
 20
8.296951511765726
 30
0.0
 10
22.92827871368795
 20
8.312135448508023
 30
0.0
 10
22.98115855281835
 20
8.34200006956761
 30
0.0
 10
23.00666199728055
 20
8.356667138625583
 30
0.0
 10
23.04353464676344
 20
8.3781537741086
 30
0.0
 10
23.05559523966213
 20
8.38523040482309
 30
0.0
 10
23.07926135081492
 20
8.399194641206003
 30
0.0
 10
23.09083625552838
 20
8.40606339154857
 30
0.0
 10
23.12524416039528
 20
8.426578094603332
 30
0.0
 10
23.14769182697602
 20
8.440095431305014
 30
0.0
 10
23.18070370603218
 20
8.460131362581236
 30
0.0
 10
23.19159784918401
 20
8.466770059032164
 30
0.0
 10
23.21318099437454
 20
8.479968366089657
 30
0.0
 10
23.22381212770901
 20
8.486491930519344
 30
0.0
 10
23.25586948555474
 20
8.506225202735398
 30
0.0
 10
23.27760890966152
 20
8.519694660885123
 30
0.0
 10
23.388184022788
 20
8.58891764414319
 30
0.0
 10
23.48265083203619
 20
8.650356081541239
 30
0.0
 10
23.68011242082938
 20
8.790482669677452
 30
0.0
 10
23.78303480581944
 20
8.869178749837399
 30
0.0
 10
23.88896976567503
 20
8.958074877662749
 30
0.0
  0
SPLINE
  5
99
330
1F
100
AcDbEntity
  8
0
  6
Continuous
 62
     7
370
    15
100
AcDbSpline
210
0.0
220
0.0
230
1.0
 70
     8
 71
     3
 72
    14
 73
    10
 74
     0
 42
0.0000000001
 43
0.0000000001
 40
0.0
 40
0.0
 40
0.0
 40
0.0
 40
0.25
 40
0.25
 40
0.5
 40
0.5
 40
0.75
 40
0.75
 40
1.0
 40
1.0
 40
1.0
 40
1.0
 10
17.17579881926192
 20
6.711781546099061
 30
0.0
 10
17.17579881926193
 20
6.711781546099061
 30
0.0
 10
17.16678233207044
 20
6.71178104543924
 30
0.0
 10
17.13157805374322
 20
6.711780862008149
 30
0.0
 10
17.10538957530295
 20
6.711780502079778
 30
0.0
 10
17.03541185745989
 20
6.711780741653985
 30
0.0
 10
16.99262704728241
 20
6.711783069621558
 30
0.0
 10
16.89236018263493
 20
6.711782114205917
 30
0.0
 10
16.83485645673842
 20
6.71177861598781
 30
0.0
 10
16.76999410262927
 20
6.711780743204714
 30
0.0
  0
LINE
  5
9B
330
1F
100
AcDbEntity
  8
0
  6
Continuous
 62
     7
370
    15
100
AcDbLine
 10
16.73621673368885
 20
6.342884676417308
 30
0.0
 11
13.85848706633686
 21
6.342884676417308
 31
0.0
  0
ARC
  5
9D
330
1F
100
AcDbEntity
  8
0
  6
Continuous
 62
     7
370
    15
100
AcDbCircle
 10
22.97789709151183
 20
10.0437739910412
 30
0.0
 40
1.417320000000002
100
AcDbArc
 50
310.0019493707999
 51
354.7536300503003
  0
SPLINE
  5
9E
330
1F
100
AcDbEntity
  8
0
  6
Continuous
 62
     7
370
    15
100
AcDbSpline
210
0.0
220
0.0
230
1.0
 70
     8
 71
     3
 72
    13
 73
     9
 74
     0
 42
0.0000000001
 43
0.0000000001
 40
0.0
 40
0.0
 40
0.0
 40
0.0
 40
0.1166385669490713
 40
0.233276836214006
 40
0.4433362788786663
 40
0.6533959617251285
 40
0.8634544315425859
 40
1.0
 40
1.0
 40
1.0
 40
1.0
 10
16.51585540005028
 20
6.711784477046004
 30
0.0
 10
16.55436503445941
 20
6.711783378462659
 30
0.0
 10
16.63138420499367
 20
6.711781181298771
 30
0.0
 10
16.75944466894011
 20
6.711779760996082
 30
0.0
 10
16.88883627103642
 20
6.711782039115292
 30
0.0
 10
16.9938344740486
 20
6.711779981586404
 30
0.0
 10
17.04995027266014
 20
6.711781779669983
 30
0.0
 10
17.04996065733654
 20
6.711781610426383
 30
0.0
 10
17.049964748407
 20
6.711781543752422
 30
0.0
  0
LWPOLYLINE
  5
9F
330
1F
100
AcDbEntity
  8
0
  6
Continuous
 62
     7
370
    15
100
AcDbPolyline
 90
        2
 70
   128
 43
0.0
 10
15.29735190001482
 20
12.64208468228344
 10
15.29735190001482
 20
12.64208468228344
  0
LWPOLYLINE
  5
A0
330
1F
100
AcDbEntity
  8
0
  6
Continuous
 62
     7
370
    15
100
AcDbPolyline
 90
        2
 70
   128
 43
0.0
 10
15.29735190001482
 20
12.64208468228344
 10
15.29735190001482
 20
12.64208468228344
  0
ARC
  5
A7
330
1F
100
AcDbEntity
  8
0
  6
Continuous
 62
     7
100
AcDbCircle
 10
15.29735190001482
 20
24.52683544584461
 30
0.0
 40
0.8661400000000021
100
AcDbArc
 50
0.0
 51
90.0
  0
SPLINE
  5
A8
330
1F
100
AcDbEntity
  8
0
  6
Continuous
 62
     7
370
    15
100
AcDbSpline
210
0.0
220
0.0
230
1.0
 70
     8
 71
     3
 72
    35
 73
    31
 74
     0
 42
0.0000000001
 43
0.0000000001
 40
0.0
 40
0.0
 40
0.0
 40
0.0
 40
0.0427113779432582
 40
0.0832740216910458
 40
0.1217574411646049
 40
0.1582147666341535
 40
0.203740676493681
 40
0.2458347344299484
 40
0.2845688410387993
 40
0.3151296983295305
 40
0.3432667572556161
 40
0.368971538869209
 40
0.3922199850760407
 40
0.412993242161075
 40
0.4315994094084771
 40
0.4517261608607786
 40
0.478453928248401
 40
0.5086731591937614
 40
0.5423724796312973
 40
0.5795295399535111
 40
0.6201044287433011
 40
0.6640350964770789
 40
0.699146008336069
 40
0.7361182520014776
 40
0.7749897972322757
 40
0.8158126444627646
 40
0.8586536376838211
 40
0.9035799243336713
 40
0.9506637024465439
 40
1.0
 40
1.0
 40
1.0
 40
1.0
 10
15.29735190001338
 20
31.52682143458207
 30
0.0
 10
15.4539027563584
 20
31.5237954804169
 30
0.0
 10
15.75912867120353
 20
31.51789580251092
 30
0.0
 10
16.20343531896512
 20
31.47208479497522
 30
0.0
 10
16.62148967686764
 20
31.40457200913827
 30
0.0
 10
17.05255356344165
 20
31.30816337790675
 30
0.0
 10
17.4894293637361
 20
31.18069440909949
 30
0.0
 10
17.9242521491352
 20
31.0205519111982
 30
0.0
 10
18.29777342076024
 20
30.85526341888221
 30
0.0
 10
18.61601575658197
 20
30.69308196424517
 30
0.0
 10
18.88488870372536
 20
30.53998289272156
 30
0.0
 10
19.12431778943412
 20
30.38989463957004
 30
0.0
 10
19.33552165343227
 20
30.24597662274987
 30
0.0
 10
19.52067031269566
 20
30.11028621893655
 30
0.0
 10
19.69254655079475
 20
29.97602882990835
 30
0.0
 10
19.87707321769724
 20
29.82268418469427
 30
0.0
 10
20.0875940110532
 20
29.6342576472544
 30
0.0
 10
20.32497845105879
 20
29.40170776244112
 30
0.0
 10
20.57618094101254
 20
29.12926364719014
 30
0.0
 10
20.83603517546219
 20
28.81396079695371
 30
0.0
 10
21.09840464321284
 20
28.45312569944147
 30
0.0
 10
21.33249669789397
 20
28.0820884096003
 30
0.0
 10
21.5366538042196
 20
27.7089340720546
 30
0.0
 10
21.71131129215179
 20
27.34149275107579
 30
0.0
 10
21.87153984003812
 20
26.94482259865985
 30
0.0
 10
22.01331838907538
 20
26.51843330066068
 30
0.0
 10
22.13262637228133
 20
26.06215157815965
 30
0.0
 10
22.22389557833915
 20
25.57616510410626
 30
0.0
 10
22.2854019458375
 20
25.06111276515822
 30
0.0
 10
22.29329775507935
 20
24.70768012672933
 30
0.0
 10
22.29733788874954
 20
24.52683544584591
 30
0.0
  0
SPLINE
  5
A9
330
1F
100
AcDbEntity
  8
0
  6
Continuous
 62
     7
370
    15
100
AcDbSpline
210
0.0
220
0.0
230
1.0
 70
     8
 71
     3
 72
    35
 73
    31
 74
     0
 42
0.0000000001
 43
0.0000000001
 40
0.0
 40
0.0
 40
0.0
 40
0.0
 40
0.0427113779437541
 40
0.0832740150561202
 40
0.1217574411140266
 40
0.1582147665855616
 40
0.2037406764475698
 40
0.2458347343861307
 40
0.2845688409943812
 40
0.3151296982879861
 40
0.3432667572145578
 40
0.3689715388286895
 40
0.392219985036788
 40
0.4129932421229541
 40
0.4315994093713748
 40
0.451726160824773
 40
0.4784539282143078
 40
0.5086731591613149
 40
0.542372479600687
 40
0.5795295399249251
 40
0.6201044287178626
 40
0.6640350964550449
 40
0.6991460083159481
 40
0.7361182519833712
 40
0.7749897972162873
 40
0.8158126444490005
 40
0.8586536376736065
 40
0.9035799243271423
 40
0.9506637024425806
 40
1.0
 40
1.0
 40
1.0
 40
1.0
 10
8.297365911277225
 20
24.52683544584591
 30
0.0
 10
8.300391863906057
 20
24.68338630236813
 30
0.0
 10
8.306291538346542
 20
24.98861219323607
 30
0.0
 10
8.352102564136654
 20
25.43291883851577
 30
0.0
 10
8.419615327463448
 20
25.85097319976215
 30
0.0
 10
8.516023969293367
 20
26.28203710906661
 30
0.0
 10
8.643492936400544
 20
26.71891290962835
 30
0.0
 10
8.803635434737337
 20
27.15373569493185
 30
0.0
 10
8.968923926973086
 20
27.52725696662273
 30
0.0
 10
9.131105381609639
 20
27.84549930239808
 30
0.0
 10
9.284204453137675
 20
28.11437224955991
 30
0.0
 10
9.434292706292279
 20
28.3538013352708
 30
0.0
 10
9.578210723109126
 20
28.56500519926444
 30
0.0
 10
9.71390112692288
 20
28.75015385852836
 30
0.0
 10
9.848158515950711
 20
28.92203009662703
 30
0.0
 10
10.001503161167
 20
29.10655676353206
 30
0.0
 10
10.18992969860226
 20
29.31707755688289
 30
0.0
 10
10.42247958341873
 20
29.55446199689193
 30
0.0
 10
10.69492369866853
 20
29.80566448684457
 30
0.0
 10
11.0102265489103
 20
30.06551872129844
 30
0.0
 10
11.37106164641785
 20
30.32788818904518
 30
0.0
 10
11.74209893625378
 20
30.56198024372351
 30
0.0
 10
12.11525327380514
 20
30.76613735005244
 30
0.0
 10
12.48269459478355
 20
30.9407948379843
 30
0.0
 10
12.87936474719867
 20
31.10102338587046
 30
0.0
 10
13.3057540452061
 20
31.2428019349102
 30
0.0
 10
13.76203576769954
 20
31.36210991811358
 30
0.0
 10
14.24802224174392
 20
31.45337912417047
 30
0.0
 10
14.76307458071029
 20
31.51488549167079
 30
0.0
 10
15.11650721913158
 20
31.52278130091211
 30
0.0
 10
15.29735190001338
 20
31.52682143458207
 30
0.0
  0
SPLINE
  5
AA
330
1F
100
AcDbEntity
  8
0
  6
Continuous
 62
     7
370
    15
100
AcDbSpline
210
0.0
220
0.0
230
1.0
 70
     8
 71
     3
 72
    35
 73
    31
 74
     0
 42
0.0000000001
 43
0.0000000001
 40
0.0
 40
0.0
 40
0.0
 40
0.0
 40
0.0427113779432582
 40
0.0832740216910458
 40
0.1217574411646049
 40
0.1582147666341535
 40
0.203740676493681
 40
0.2458347344299484
 40
0.2845688410387993
 40
0.3151296983295305
 40
0.3432667572556161
 40
0.368971538869209
 40
0.3922199850760407
 40
0.412993242161075
 40
0.4315994094084771
 40
0.4517261608607786
 40
0.478453928248401
 40
0.5086731591937614
 40
0.5423724796312973
 40
0.5795295399535111
 40
0.6201044287433011
 40
0.6640350964770789
 40
0.699146008336069
 40
0.7361182520014776
 40
0.7749897972322757
 40
0.8158126444627646
 40
0.8586536376838211
 40
0.9035799243336713
 40
0.9506637024465439
 40
1.0
 40
1.0
 40
1.0
 40
1.0
 10
15.29735190001338
 20
17.52684945710976
 30
0.0
 10
15.14080104366836
 20
17.52987541127492
 30
0.0
 10
14.83557512882322
 20
17.53577508918091
 30
0.0
 10
14.39126848106164
 20
17.58158609671661
 30
0.0
 10
13.97321412315911
 20
17.64909888255355
 30
0.0
 10
13.5421502365851
 20
17.74550751378508
 30
0.0
 10
13.10527443629066
 20
17.87297648259234
 30
0.0
 10
12.67045165089156
 20
18.03311898049363
 30
0.0
 10
12.29693037926652
 20
18.19840747280961
 30
0.0
 10
11.97868804344478
 20
18.36058892744667
 30
0.0
 10
11.70981509630139
 20
18.51368799897026
 30
0.0
 10
11.47038601059263
 20
18.66377625212178
 30
0.0
 10
11.25918214659449
 20
18.80769426894197
 30
0.0
 10
11.0740334873311
 20
18.94338467275527
 30
0.0
 10
10.902157249232
 20
19.07764206178348
 30
0.0
 10
10.71763058232951
 20
19.23098670699755
 30
0.0
 10
10.50710978897355
 20
19.41941324443742
 30
0.0
 10
10.26972534896796
 20
19.65196312925071
 30
0.0
 10
10.01852285901421
 20
19.92440724450169
 30
0.0
 10
9.758668624564569
 20
20.23971009473813
 30
0.0
 10
9.49629915681392
 20
20.60054519225036
 30
0.0
 10
9.26220710213278
 20
20.97158248209153
 30
0.0
 10
9.058049995807156
 20
21.34473681963722
 30
0.0
 10
8.883392507874969
 20
21.71217814061604
 30
0.0
 10
8.723163959988637
 20
22.10884829303198
 30
0.0
 10
8.581385410951373
 20
22.53523759103114
 30
0.0
 10
8.462077427745418
 20
22.99151931353218
 30
0.0
 10
8.37080822168761
 20
23.47750578758557
 30
0.0
 10
8.309301854189259
 20
23.99255812653361
 30
0.0
 10
8.301406044947411
 20
24.34599076496251
 30
0.0
 10
8.297365911277225
 20
24.52683544584591
 30
0.0
  0
SPLINE
  5
AB
330
1F
100
AcDbEntity
  8
0
  6
Continuous
 62
     7
370
    15
100
AcDbSpline
210
0.0
220
0.0
230
1.0
 70
     8
 71
     3
 72
    35
 73
    31
 74
     0
 42
0.0000000001
 43
0.0000000001
 40
0.0
 40
0.0
 40
0.0
 40
0.0
 40
0.0427113779437541
 40
0.0832740150561202
 40
0.1217574411140266
 40
0.1582147665855616
 40
0.2037406764475698
 40
0.2458347343861307
 40
0.2845688409943812
 40
0.3151296982879861
 40
0.3432667572145578
 40
0.3689715388286895
 40
0.392219985036788
 40
0.4129932421229541
 40
0.4315994093713748
 40
0.451726160824773
 40
0.4784539282143078
 40
0.5086731591613149
 40
0.542372479600687
 40
0.5795295399249251
 40
0.6201044287178626
 40
0.6640350964550449
 40
0.6991460083159481
 40
0.7361182519833712
 40
0.7749897972162873
 40
0.8158126444490005
 40
0.8586536376736065
 40
0.9035799243271423
 40
0.9506637024425806
 40
1.0
 40
1.0
 40
1.0
 40
1.0
 10
22.29733788874954
 20
24.52683544584591
 30
0.0
 10
22.2943119361207
 20
24.3702845893237
 30
0.0
 10
22.28841226168022
 20
24.06505869845576
 30
0.0
 10
22.2426012358901
 20
23.62075205317606
 30
0.0
 10
22.17508847256331
 20
23.20269769192967
 30
0.0
 10
22.07867983073339
 20
22.77163378262522
 30
0.0
 10
21.95121086362621
 20
22.33475798206348
 30
0.0
 10
21.79106836528942
 20
21.89993519675999
 30
0.0
 10
21.62577987305366
 20
21.52641392506911
 30
0.0
 10
21.46359841841711
 20
21.20817158929375
 30
0.0
 10
21.31049934688908
 20
20.93929864213192
 30
0.0
 10
21.16041109373448
 20
20.69986955642102
 30
0.0
 10
21.01649307691763
 20
20.4886656924274
 30
0.0
 10
20.88080267310387
 20
20.30351703316347
 30
0.0
 10
20.74654528407605
 20
20.13164079506481
 30
0.0
 10
20.59320063885976
 20
19.94711412815976
 30
0.0
 10
20.40477410142448
 20
19.73659333480893
 30
0.0
 10
20.17222421660802
 20
19.4992088947999
 30
0.0
 10
19.89978010135821
 20
19.24800640484725
 30
0.0
 10
19.58447725111645
 20
18.98815217039339
 30
0.0
 10
19.2236421536089
 20
18.72578270264665
 30
0.0
 10
18.85260486377297
 20
18.49169064796832
 30
0.0
 10
18.47945052622161
 20
18.28753354163939
 30
0.0
 10
18.1120092052432
 20
18.11287605370754
 30
0.0
 10
17.71533905282808
 20
17.95264750582137
 30
0.0
 10
17.28894975482065
 20
17.81086895678163
 30
0.0
 10
16.83266803232722
 20
17.69156097357825
 30
0.0
 10
16.34668155828283
 20
17.60029176752136
 30
0.0
 10
15.83162921931647
 20
17.53878540002103
 30
0.0
 10
15.47819658089517
 20
17.53088959077972
 30
0.0
 10
15.29735190001338
 20
17.52684945710976
 30
0.0
  0
SPLINE
  5
AE
330
1F
100
AcDbEntity
  8
0
  6
Continuous
 62
     7
370
    15
100
AcDbSpline
210
0.0
220
0.0
230
1.0
 70
     8
 71
     3
 72
    15
 73
    11
 74
     0
 42
0.0000000001
 43
0.0000000001
 40
0.0
 40
0.0
 40
0.0
 40
0.0
 40
0.1309679030699895
 40
0.2704256503999238
 40
0.4156270048033776
 40
0.5630325722703653
 40
0.6779803458382342
 40
0.7900920357822166
 40
0.9055255250014457
 40
1.0
 40
1.0
 40
1.0
 40
1.0
 10
7.824925900013379
 20
24.52683544584591
 30
0.0
 10
7.855598138423383
 20
25.03925416004832
 30
0.0
 10
7.918930907955582
 20
26.0973085444972
 30
0.0
 10
8.446005015566278
 20
27.65313807684694
 30
0.0
 10
9.313775500122986
 20
29.11415170857213
 30
0.0
 10
10.4334059842167
 20
30.26853985089858
 30
0.0
 10
11.64774395756152
 20
31.09415341728826
 30
0.0
 10
12.88493438975703
 20
31.63727055979281
 30
0.0
 10
14.08498443771586
 20
31.94478102827399
 30
0.0
 10
14.9210562773067
 20
31.98235176846419
 30
0.0
 10
15.29735190001338
 20
31.99926144584591
 30
0.0
  0
SPLINE
  5
B0
330
1F
100
AcDbEntity
  8
0
  6
Continuous
 62
     7
370
    15
100
AcDbSpline
210
0.0
220
0.0
230
1.0
 70
     8
 71
     3
 72
    15
 73
    11
 74
     0
 42
0.0000000001
 43
0.0000000001
 40
0.0
 40
0.0
 40
0.0
 40
0.0
 40
0.1309679030699895
 40
0.2704256503999238
 40
0.4156270048033776
 40
0.5630325722703653
 40
0.6779803458382342
 40
0.7900920357822166
 40
0.9055255250014457
 40
1.0
 40
1.0
 40
1.0
 40
1.0
 10
22.76977790001338
 20
24.52683544584591
 30
0.0
 10
22.73910566160338
 20
25.03925416004832
 30
0.0
 10
22.67577289207117
 20
26.0973085444972
 30
0.0
 10
22.14869878446048
 20
27.65313807684694
 30
0.0
 10
21.28092829990377
 20
29.11415170857213
 30
0.0
 10
20.16129781581005
 20
30.26853985089858
 30
0.0
 10
18.94695984246523
 20
31.09415341728826
 30
0.0
 10
17.70976941026973
 20
31.63727055979281
 30
0.0
 10
16.50971936231089
 20
31.94478102827399
 30
0.0
 10
15.67364752272005
 20
31.98235176846419
 30
0.0
 10
15.29735190001338
 20
31.99926144584591
 30
0.0
  0
SPLINE
  5
B5
330
1F
100
AcDbEntity
  8
0
  6
Continuous
 62
     7
370
    15
100
AcDbSpline
210
0.0
220
0.0
230
1.0
 70
     8
 71
     3
 72
    15
 73
    11
 74
     0
 42
0.0000000001
 43
0.0000000001
 40
0.0
 40
0.0
 40
0.0
 40
0.0
 40
0.1309679030699895
 40
0.2704256503999238
 40
0.4156270048033776
 40
0.5630325722703653
 40
0.6779803458382342
 40
0.7900920357822166
 40
0.9055255250014457
 40
1.0
 40
1.0
 40
1.0
 40
1.0
 10
22.76977790001338
 20
24.52683544584591
 30
0.0
 10
22.73910566160338
 20
24.01441673164351
 30
0.0
 10
22.67577289207117
 20
22.95636234719463
 30
0.0
 10
22.14869878446048
 20
21.40053281484489
 30
0.0
 10
21.28092829990377
 20
19.93951918311969
 30
0.0
 10
20.16129781581005
 20
18.78513104079325
 30
0.0
 10
18.94695984246523
 20
17.95951747440357
 30
0.0
 10
17.70976941026973
 20
17.41640033189901
 30
0.0
 10
16.50971936231089
 20
17.10888986341783
 30
0.0
 10
15.67364752272005
 20
17.07131912322763
 30
0.0
 10
15.29735190001338
 20
17.05440944584591
 30
0.0
  0
SPLINE
  5
B6
330
1F
100
AcDbEntity
  8
0
  6
Continuous
 62
     7
370
    15
100
AcDbSpline
210
0.0
220
0.0
230
1.0
 70
     8
 71
     3
 72
    15
 73
    11
 74
     0
 42
0.0000000001
 43
0.0000000001
 40
0.0
 40
0.0
 40
0.0
 40
0.0
 40
0.1309679030699895
 40
0.2704256503999238
 40
0.4156270048033776
 40
0.5630325722703653
 40
0.6779803458382342
 40
0.7900920357822166
 40
0.9055255250014457
 40
1.0
 40
1.0
 40
1.0
 40
1.0
 10
7.824925900013379
 20
24.52683544584591
 30
0.0
 10
7.855598138423383
 20
24.01441673164351
 30
0.0
 10
7.918930907955582
 20
22.95636234719463
 30
0.0
 10
8.446005015566278
 20
21.40053281484489
 30
0.0
 10
9.313775500122986
 20
19.93951918311969
 30
0.0
 10
10.4334059842167
 20
18.78513104079325
 30
0.0
 10
11.64774395756152
 20
17.95951747440357
 30
0.0
 10
12.88493438975703
 20
17.41640033189901
 30
0.0
 10
14.08498443771586
 20
17.10888986341783
 30
0.0
 10
14.9210562773067
 20
17.07131912322763
 30
0.0
 10
15.29735190001338
 20
17.05440944584591
 30
0.0
  0
SPLINE
  5
B8
330
1F
100
AcDbEntity
  8
0
  6
Continuous
 62
     7
370
    15
100
AcDbSpline
210
0.0
220
0.0
230
1.0
 70
     8
 71
     3
 72
    15
 73
    11
 74
     0
 42
0.0000000001
 43
0.0000000001
 40
0.0
 40
0.0
 40
0.0
 40
0.0
 40
0.1309679030699895
 40
0.2704256503999238
 40
0.4156270048033776
 40
0.5630325722703653
 40
0.6779803458382342
 40
0.7900920357822166
 40
0.9055255250014457
 40
1.0
 40
1.0
 40
1.0
 40
1.0
 10
7.588705900013378
 20
24.52683544584591
 30
0.0
 10
7.620357503420212
 20
25.0554640582718
 30
0.0
 10
7.685712489159881
 20
26.14698902724748
 30
0.0
 10
8.229321664181034
 20
27.75199031336848
 30
0.0
 10
9.1250924771315
 20
29.2592698023578
 30
0.0
 10
10.27809925657427
 20
30.4497953047541
 30
0.0
 10
11.5366989965043
 20
31.30247687507389
 30
0.0
 10
12.792776629174
 20
31.85948193433015
 30
0.0
 10
14.10343771555285
 20
32.18846014729019
 30
0.0
 10
14.92678382105114
 20
32.220886936037
 30
0.0
 10
15.29735190001338
 20
32.23548144584591
 30
0.0
  0
SPLINE
  5
BD
330
1F
100
AcDbEntity
  8
0
  6
Continuous
 62
     7
370
    15
100
AcDbSpline
210
0.0
220
0.0
230
1.0
 70
     8
 71
     3
 72
    15
 73
    11
 74
     0
 42
0.0000000001
 43
0.0000000001
 40
0.0
 40
0.0
 40
0.0
 40
0.0
 40
0.1309679030699895
 40
0.2704256503999238
 40
0.4156270048033776
 40
0.5630325722703653
 40
0.6779803458382342
 40
0.7900920357822166
 40
0.9055255250014457
 40
1.0
 40
1.0
 40
1.0
 40
1.0
 10
23.00599790001338
 20
24.52683544584591
 30
0.0
 10
22.97434629660655
 20
25.0554640582718
 30
0.0
 10
22.90899131086688
 20
26.14698902724748
 30
0.0
 10
22.36538213584572
 20
27.75199031336848
 30
0.0
 10
21.46961132289526
 20
29.2592698023578
 30
0.0
 10
20.31660454345248
 20
30.4497953047541
 30
0.0
 10
19.05800480352245
 20
31.30247687507389
 30
0.0
 10
17.80192717085276
 20
31.85948193433015
 30
0.0
 10
16.49126608447391
 20
32.18846014729019
 30
0.0
 10
15.66791997897561
 20
32.220886936037
 30
0.0
 10
15.29735190001338
 20
32.23548144584591
 30
0.0
  0
SPLINE
  5
BF
330
1F
100
AcDbEntity
  8
0
  6
Continuous
 62
     7
370
    15
100
AcDbSpline
210
0.0
220
0.0
230
1.0
 70
     8
 71
     3
 72
    15
 73
    11
 74
     0
 42
0.0000000001
 43
0.0000000001
 40
0.0
 40
0.0
 40
0.0
 40
0.0
 40
0.1309679030699895
 40
0.2704256503999238
 40
0.4156270048033776
 40
0.5630325722703653
 40
0.6779803458382342
 40
0.7900920357822166
 40
0.9055255250014457
 40
1.0
 40
1.0
 40
1.0
 40
1.0
 10
23.00599790001338
 20
24.52683544584591
 30
0.0
 10
22.97434629660655
 20
23.99820683342003
 30
0.0
 10
22.90899131086688
 20
22.90668186444436
 30
0.0
 10
22.36538213584572
 20
21.30168057832335
 30
0.0
 10
21.46961132289526
 20
19.79440108933403
 30
0.0
 10
20.31660454345248
 20
18.60387558693772
 30
0.0
 10
19.05800480352245
 20
17.75119401661794
 30
0.0
 10
17.80192717085276
 20
17.19418895736167
 30
0.0
 10
16.49126608447391
 20
16.86521074440165
 30
0.0
 10
15.66791997897561
 20
16.83278395565482
 30
0.0
 10
15.29735190001338
 20
16.81818944584591
 30
0.0
  0
SPLINE
  5
C3
330
1F
100
AcDbEntity
  8
0
  6
Continuous
 62
     7
370
    15
100
AcDbSpline
210
0.0
220
0.0
230
1.0
 70
     8
 71
     3
 72
    15
 73
    11
 74
     0
 42
0.0000000001
 43
0.0000000001
 40
0.0
 40
0.0
 40
0.0
 40
0.0
 40
0.1309679030699895
 40
0.2704256503999238
 40
0.4156270048033776
 40
0.5630325722703653
 40
0.6779803458382342
 40
0.7900920357822166
 40
0.9055255250014457
 40
1.0
 40
1.0
 40
1.0
 40
1.0
 10
7.588705900013378
 20
24.52683544584591
 30
0.0
 10
7.620357503420212
 20
23.99820683342003
 30
0.0
 10
7.685712489159881
 20
22.90668186444436
 30
0.0
 10
8.229321664181034
 20
21.30168057832335
 30
0.0
 10
9.1250924771315
 20
19.79440108933403
 30
0.0
 10
10.27809925657427
 20
18.60387558693772
 30
0.0
 10
11.5366989965043
 20
17.75119401661794
 30
0.0
 10
12.792776629174
 20
17.19418895736167
 30
0.0
 10
14.10343771555285
 20
16.86521074440165
 30
0.0
 10
14.92678382105114
 20
16.83278395565482
 30
0.0
 10
15.29735190001338
 20
16.81818944584591
 30
0.0
  0
SPLINE
  5
C6
330
1F
100
AcDbEntity
  8
0
  6
Continuous
 62
     7
370
    15
100
AcDbSpline
210
0.0
220
0.0
230
1.0
 70
     8
 71
     3
 72
    15
 73
    11
 74
     0
 42
0.0000000001
 43
0.0000000001
 40
0.0
 40
0.0
 40
0.0
 40
0.0
 40
0.1309745846325935
 40
0.2704332056759977
 40
0.4156256366326613
 40
0.5630153709624051
 40
0.6779687209821415
 40
0.7900776745739378
 40
0.9205401927246363
 40
1.0
 40
1.0
 40
1.0
 40
1.0
 10
23.36032790001338
 20
24.52683544584591
 30
0.0
 10
23.3272525633671
 20
25.07976816722657
 30
0.0
 10
23.25895939532113
 20
26.22145049273717
 30
0.0
 10
22.68984224898081
 20
27.90029700123183
 30
0.0
 10
21.75499693411168
 20
29.47657053149253
 30
0.0
 10
20.54149402920102
 20
30.72291193462633
 30
0.0
 10
19.24685659112935
 20
31.61177103136266
 30
0.0
 10
17.79688617655501
 20
32.2304821478154
 30
0.0
 10
16.70943229982487
 20
32.52197553590317
 30
0.0
 10
15.6850870907762
 20
32.57118476602958
 30
0.0
 10
15.29735190001338
 20
32.58981144584592
 30
0.0
  0
SPLINE
  5
C8
330
1F
100
AcDbEntity
  8
0
  6
Continuous
 62
     7
370
    15
100
AcDbSpline
210
0.0
220
0.0
230
1.0
 70
     8
 71
     3
 72
    15
 73
    11
 74
     0
 42
0.0000000001
 43
0.0000000001
 40
0.0
 40
0.0
 40
0.0
 40
0.0
 40
0.1309745846325935
 40
0.2704332056759977
 40
0.4156256366326613
 40
0.5630153709624051
 40
0.6779687209821415
 40
0.7900776745739378
 40
0.9205401927246363
 40
1.0
 40
1.0
 40
1.0
 40
1.0
 10
7.234375900013378
 20
24.52683544584591
 30
0.0
 10
7.267451236659655
 20
25.07976816722657
 30
0.0
 10
7.33574440470563
 20
26.22145049273717
 30
0.0
 10
7.904861551045954
 20
27.90029700123183
 30
0.0
 10
8.839706865915081
 20
29.47657053149253
 30
0.0
 10
10.05320977082574
 20
30.72291193462633
 30
0.0
 10
11.3478472088974
 20
31.61177103136266
 30
0.0
 10
12.79781762347174
 20
32.2304821478154
 30
0.0
 10
13.88527150020188
 20
32.52197553590317
 30
0.0
 10
14.90961670925055
 20
32.57118476602958
 30
0.0
 10
15.29735190001338
 20
32.58981144584592
 30
0.0
  0
SPLINE
  5
CA
330
1F
100
AcDbEntity
  8
0
  6
Continuous
 62
     7
370
    15
100
AcDbSpline
210
0.0
220
0.0
230
1.0
 70
     8
 71
     3
 72
    15
 73
    11
 74
     0
 42
0.0000000001
 43
0.0000000001
 40
0.0
 40
0.0
 40
0.0
 40
0.0
 40
0.1309745846325935
 40
0.2704332056759977
 40
0.4156256366326613
 40
0.5630153709624051
 40
0.6779687209821415
 40
0.7900776745739378
 40
0.9205401927246363
 40
1.0
 40
1.0
 40
1.0
 40
1.0
 10
7.234375900013378
 20
24.52683544584591
 30
0.0
 10
7.267451236659655
 20
23.97390272446525
 30
0.0
 10
7.33574440470563
 20
22.83222039895465
 30
0.0
 10
7.904861551045952
 20
21.15337389045999
 30
0.0
 10
8.839706865915081
 20
19.5771003601993
 30
0.0
 10
10.05320977082574
 20
18.3307589570655
 30
0.0
 10
11.3478472088974
 20
17.44189986032915
 30
0.0
 10
12.79781762347174
 20
16.82318874387641
 30
0.0
 10
13.88527150020188
 20
16.53169535578866
 30
0.0
 10
14.90961670925055
 20
16.48248612566225
 30
0.0
 10
15.29735190001338
 20
16.46385944584591
 30
0.0
  0
SPLINE
  5
CB
330
1F
100
AcDbEntity
  8
0
  6
Continuous
 62
     7
370
    15
100
AcDbSpline
210
0.0
220
0.0
230
1.0
 70
     8
 71
     3
 72
    15
 73
    11
 74
     0
 42
0.0000000001
 43
0.0000000001
 40
0.0
 40
0.0
 40
0.0
 40
0.0
 40
0.1309745846325935
 40
0.2704332056759977
 40
0.4156256366326613
 40
0.5630153709624051
 40
0.6779687209821415
 40
0.7900776745739378
 40
0.9205401927246363
 40
1.0
 40
1.0
 40
1.0
 40
1.0
 10
23.36032790001338
 20
24.52683544584591
 30
0.0
 10
23.3272525633671
 20
23.97390272446525
 30
0.0
 10
23.25895939532113
 20
22.83222039895465
 30
0.0
 10
22.6898422489808
 20
21.15337389045999
 30
0.0
 10
21.75499693411168
 20
19.5771003601993
 30
0.0
 10
20.54149402920102
 20
18.3307589570655
 30
0.0
 10
19.24685659112935
 20
17.44189986032915
 30
0.0
 10
17.79688617655501
 20
16.82318874387641
 30
0.0
 10
16.70943229982487
 20
16.53169535578866
 30
0.0
 10
15.6850870907762
 20
16.48248612566225
 30
0.0
 10
15.29735190001338
 20
16.46385944584591
 30
0.0
  0
SPLINE
  5
D4
330
1F
100
AcDbEntity
  8
0
  6
Continuous
 62
     7
370
    15
100
AcDbSpline
210
0.0
220
0.0
230
1.0
 70
     8
 71
     3
 72
    13
 73
     9
 74
     0
 42
0.0000000001
 43
0.0000000001
 40
0.0
 40
0.0
 40
0.0
 40
0.0
 40
0.1666666666666667
 40
0.3333333333333333
 40
0.5
 40
0.6666666666666666
 40
0.8333333333333332
 40
1.0
 40
1.0
 40
1.0
 40
1.0
 10
5.797370900013378
 20
24.52683544584591
 30
0.0
 10
5.797370900013377
 20
23.68701777380087
 30
0.0
 10
6.020429947416525
 20
22.02964412089685
 30
0.0
 10
6.969619280184678
 20
19.73418206649664
 30
0.0
 10
8.501240618343791
 20
17.73072416417632
 30
0.0
 10
10.50469852066411
 20
16.19910282601722
 30
0.0
 10
12.80016057506431
 20
15.24991349324905
 30
0.0
 10
14.45753422796833
 20
15.02685444584591
 30
0.0
 10
15.29735190001338
 20
15.02685444584591
 30
0.0
  0
SPLINE
  5
D5
330
1F
100
AcDbEntity
  8
0
  6
Continuous
 62
     7
370
    15
100
AcDbSpline
210
0.0
220
0.0
230
1.0
 70
     8
 71
     3
 72
    13
 73
     9
 74
     0
 42
0.0000000001
 43
0.0000000001
 40
0.0
 40
0.0
 40
0.0
 40
0.0
 40
0.1666666666666667
 40
0.3333333333333333
 40
0.5
 40
0.6666666666666666
 40
0.8333333333333332
 40
1.0
 40
1.0
 40
1.0
 40
1.0
 10
5.797370900013378
 20
24.52683544584591
 30
0.0
 10
5.797370900013377
 20
25.36665311789096
 30
0.0
 10
6.020429947416525
 20
27.02402677079497
 30
0.0
 10
6.969619280184678
 20
29.31948882519519
 30
0.0
 10
8.501240618343791
 20
31.3229467275155
 30
0.0
 10
10.50469852066411
 20
32.85456806567462
 30
0.0
 10
12.80016057506431
 20
33.80375739844277
 30
0.0
 10
14.45753422796833
 20
34.02681644584593
 30
0.0
 10
15.29735190001338
 20
34.02681644584593
 30
0.0
  0
SPLINE
  5
D6
330
1F
100
AcDbEntity
  8
0
  6
Continuous
 62
     7
370
    15
100
AcDbSpline
210
0.0
220
0.0
230
1.0
 70
     8
 71
     3
 72
    13
 73
     9
 74
     0
 42
0.0000000001
 43
0.0000000001
 40
0.0
 40
0.0
 40
0.0
 40
0.0
 40
0.1666666666666667
 40
0.3333333333333333
 40
0.5
 40
0.6666666666666666
 40
0.8333333333333332
 40
1.0
 40
1.0
 40
1.0
 40
1.0
 10
24.79733290001338
 20
24.52683544584591
 30
0.0
 10
24.79733290001338
 20
25.36665311789096
 30
0.0
 10
24.57427385261023
 20
27.02402677079497
 30
0.0
 10
23.62508451984208
 20
29.31948882519519
 30
0.0
 10
22.09346318168297
 20
31.3229467275155
 30
0.0
 10
20.09000527936264
 20
32.85456806567462
 30
0.0
 10
17.79454322496244
 20
33.80375739844277
 30
0.0
 10
16.13716957205842
 20
34.02681644584593
 30
0.0
 10
15.29735190001338
 20
34.02681644584593
 30
0.0
  0
SPLINE
  5
D7
330
1F
100
AcDbEntity
  8
0
  6
Continuous
 62
     7
370
    15
100
AcDbSpline
210
0.0
220
0.0
230
1.0
 70
     8
 71
     3
 72
    13
 73
     9
 74
     0
 42
0.0000000001
 43
0.0000000001
 40
0.0
 40
0.0
 40
0.0
 40
0.0
 40
0.1666666666666667
 40
0.3333333333333333
 40
0.5
 40
0.6666666666666666
 40
0.8333333333333332
 40
1.0
 40
1.0
 40
1.0
 40
1.0
 10
24.79733290001338
 20
24.52683544584591
 30
0.0
 10
24.79733290001338
 20
23.68701777380087
 30
0.0
 10
24.57427385261023
 20
22.02964412089685
 30
0.0
 10
23.62508451984208
 20
19.73418206649664
 30
0.0
 10
22.09346318168297
 20
17.73072416417632
 30
0.0
 10
20.09000527936264
 20
16.19910282601722
 30
0.0
 10
17.79454322496244
 20
15.24991349324905
 30
0.0
 10
16.13716957205842
 20
15.02685444584591
 30
0.0
 10
15.29735190001338
 20
15.02685444584591
 30
0.0
  0
SPLINE
  5
E9
330
1F
100
AcDbEntity
  8
0
  6
Continuous
 62
     7
370
    15
100
AcDbSpline
210
0.0
220
0.0
230
1.0
 70
     8
 71
     3
 72
    14
 73
    10
 74
     0
 42
0.0000000001
 43
0.0000000001
 40
0.0
 40
0.0
 40
0.0
 40
0.0
 40
0.5
 40
0.5
 40
0.7499999999999999
 40
0.7499999999999999
 40
0.8749999999999998
 40
0.8749999999999998
 40
1.0
 40
1.0
 40
1.0
 40
1.0
 10
15.29735190001338
 20
25.40183369584593
 30
0.0
 10
15.23352859972482
 20
25.40183369584593
 30
0.0
 10
15.1709520560433
 20
25.39493490489083
 30
0.0
 10
15.07885615896555
 20
25.37469714571725
 30
0.0
 10
15.04845509814233
 20
25.36628798578926
 30
0.0
 10
15.0033117239777
 20
25.35110140668863
 30
0.0
 10
14.98830568639713
 20
25.34559338171016
 30
0.0
 10
14.95879990156741
 20
25.33384019430745
 30
0.0
 10
14.94426376246399
 20
25.32758496031267
 30
0.0
 10
14.92994023378424
 20
25.32095798363326
 30
0.0
  0
SPLINE
  5
EA
330
1F
100
AcDbEntity
  8
0
  6
Continuous
 62
     7
370
    15
100
AcDbSpline
210
0.0
220
0.0
230
1.0
 70
     8
 71
     3
 72
    38
 73
    34
 74
     0
 42
0.0000000001
 43
0.0000000001
 40
0.0
 40
0.0
 40
0.0
 40
0.0
 40
0.0078125000000004
 40
0.0078125000000004
 40
0.0156250000000008
 40
0.0156250000000008
 40
0.0312500000000016
 40
0.0312500000000016
 40
0.062500000000002
 40
0.062500000000002
 40
0.1250000000000021
 40
0.1250000000000021
 40
0.250000000000002
 40
0.250000000000002
 40
0.3750000000000019
 40
0.3750000000000019
 40
0.5000000000000018
 40
0.5000000000000018
 40
0.6250000000000018
 40
0.6250000000000018
 40
0.7500000000000019
 40
0.7500000000000019
 40
0.8750000000000019
 40
0.8750000000000019
 40
0.9375000000000021
 40
0.9375000000000021
 40
0.9687500000000024
 40
0.9687500000000024
 40
0.9843750000000021
 40
0.9843750000000021
 40
0.9921875000000012
 40
0.9921875000000012
 40
1.0
 40
1.0
 40
1.0
 40
1.0
 10
14.92994023378424
 20
25.32095798363326
 30
0.0
 10
14.93032318667228
 20
25.32113516203079
 30
0.0
 10
14.93000032443535
 20
25.32101319725577
 30
0.0
 10
14.9284444947164
 20
25.32037438224909
 30
0.0
 10
14.92730919064991
 20
25.31989884626005
 30
0.0
 10
14.92368635302277
 20
25.31836377392505
 30
0.0
 10
14.92089833560096
 20
25.31716079857571
 30
0.0
 10
14.9125196513704
 20
25.31348244189838
 30
0.0
 10
14.90665110069511
 20
25.31082448558459
 30
0.0
 10
14.88907483626972
 20
25.30260345323021
 30
0.0
 10
14.87732922881643
 20
25.29676886003006
 30
0.0
 10
14.8423801574816
 20
25.27833211151465
 30
0.0
 10
14.81936135628924
 20
25.26472528307977
 30
0.0
 10
14.77518521020786
 20
25.2355386627059
 30
0.0
 10
14.75391123800832
 20
25.21990932864734
 30
0.0
 10
14.7130130872258
 20
25.18657911654815
 30
0.0
 10
14.69338840696774
 20
25.16887821574718
 30
0.0
 10
14.655830929644
 20
25.13135735714731
 30
0.0
 10
14.63782301207885
 20
25.11143188342523
 30
0.0
 10
14.60420292404849
 20
25.07018986592924
 30
0.0
 10
14.58852298451399
 20
25.04882369036137
 30
0.0
 10
14.55937011532619
 20
25.00467492264481
 30
0.0
 10
14.54587084989054
 20
24.98184038508854
 30
0.0
 10
14.52737435983737
 20
24.94677266784159
 30
0.0
 10
14.52152854207152
 20
24.93499887084743
 30
0.0
 10
14.51331044812423
 20
24.9174218060564
 30
0.0
 10
14.51067313292502
 20
24.91159684571557
 30
0.0
 10
14.50699625600316
 20
24.90321923717786
 30
0.0
 10
14.50580031138793
 20
24.9004468316531
 30
0.0
 10
14.50426623860074
 20
24.89682523863068
 30
0.0
 10
14.50379934653616
 20
24.89571010736001
 30
0.0
 10
14.50317019082082
 20
24.89417694991329
 30
0.0
 10
14.50305553762877
 20
24.89387140808141
 30
0.0
 10
14.50322936222602
 20
24.89424711207501
 30
0.0
  0
SPLINE
  5
EB
330
1F
100
AcDbEntity
  8
0
  6
Continuous
 62
     7
370
    15
100
AcDbSpline
210
0.0
220
0.0
230
1.0
 70
     8
 71
     3
 72
    12
 73
     8
 74
     0
 42
0.0000000001
 43
0.0000000001
 40
0.0
 40
0.0
 40
0.0
 40
0.0
 40
0.5000000000000002
 40
0.5000000000000002
 40
0.7500000000000001
 40
0.7500000000000001
 40
1.0
 40
1.0
 40
1.0
 40
1.0
 10
14.50322936222602
 20
24.89424711207502
 30
0.0
 10
14.4768394372619
 20
24.83720800278484
 30
0.0
 10
14.45668228652391
 20
24.77770659179606
 30
0.0
 10
14.4361098056198
 20
24.68461358343344
 30
0.0
 10
14.43095652730769
 20
24.65325980201127
 30
0.0
 10
14.4240858275113
 20
24.59032108433563
 30
0.0
 10
14.42235365001338
 20
24.55867083889371
 30
0.0
 10
14.42235365001338
 20
24.52683544584593
 30
0.0
  0
SPLINE
  5
ED
330
1F
100
AcDbEntity
  8
0
  6
Continuous
 62
     7
370
    15
100
AcDbSpline
210
0.0
220
0.0
230
1.0
 70
     8
 71
     3
 72
    14
 73
    10
 74
     0
 42
0.0000000001
 43
0.0000000001
 40
0.0
 40
0.0
 40
0.0
 40
0.0
 40
0.5000000000000001
 40
0.5000000000000001
 40
0.7500000000000002
 40
0.7500000000000002
 40
0.8750000000000001
 40
0.8750000000000001
 40
1.0
 40
1.0
 40
1.0
 40
1.0
 10
15.29735190001338
 20
23.65183719584593
 30
0.0
 10
15.36117520030193
 20
23.65183719584593
 30
0.0
 10
15.42375174398343
 20
23.65873598680103
 30
0.0
 10
15.51584764106116
 20
23.6789737459746
 30
0.0
 10
15.54624870188437
 20
23.68738290590258
 30
0.0
 10
15.59139207604899
 20
23.70256948500321
 30
0.0
 10
15.60639811362956
 20
23.70807750998167
 30
0.0
 10
15.63590389845927
 20
23.71983069738439
 30
0.0
 10
15.65044003756269
 20
23.72608593137916
 30
0.0
 10
15.66476356624244
 20
23.73271290805856
 30
0.0
  0
SPLINE
  5
EE
330
1F
100
AcDbEntity
  8
0
  6
Continuous
 62
     7
370
    15
100
AcDbSpline
210
0.0
220
0.0
230
1.0
 70
     8
 71
     3
 72
    38
 73
    34
 74
     0
 42
0.0000000001
 43
0.0000000001
 40
0.0
 40
0.0
 40
0.0
 40
0.0
 40
0.0078125000000006
 40
0.0078125000000006
 40
0.0156250000000012
 40
0.0156250000000012
 40
0.0312500000000011
 40
0.0312500000000011
 40
0.0625000000000017
 40
0.0625000000000017
 40
0.1250000000000016
 40
0.1250000000000016
 40
0.2500000000000018
 40
0.2500000000000018
 40
0.3750000000000019
 40
0.3750000000000019
 40
0.5000000000000022
 40
0.5000000000000022
 40
0.6250000000000022
 40
0.6250000000000022
 40
0.7500000000000022
 40
0.7500000000000022
 40
0.8750000000000019
 40
0.8750000000000019
 40
0.9375000000000019
 40
0.9375000000000019
 40
0.9687500000000014
 40
0.9687500000000014
 40
0.9843750000000007
 40
0.9843750000000007
 40
0.9921875000000003
 40
0.9921875000000003
 40
1.0
 40
1.0
 40
1.0
 40
1.0
 10
15.66476356624234
 20
23.73271290805853
 30
0.0
 10
15.66438061335429
 20
23.73253572966099
 30
0.0
 10
15.66470347559144
 20
23.73265769443611
 30
0.0
 10
15.66625930531037
 20
23.73329650944278
 30
0.0
 10
15.66739460937675
 20
23.73377204543178
 30
0.0
 10
15.67101744700392
 20
23.73530711776677
 30
0.0
 10
15.67380546442574
 20
23.73651009311613
 30
0.0
 10
15.6821841486563
 20
23.74018844979346
 30
0.0
 10
15.6880526993316
 20
23.74284640610726
 30
0.0
 10
15.70562896375698
 20
23.75106743846163
 30
0.0
 10
15.71737457121028
 20
23.75690203166178
 30
0.0
 10
15.75232364254512
 20
23.77533878017718
 30
0.0
 10
15.77534244373748
 20
23.78894560861207
 30
0.0
 10
15.81951858981883
 20
23.81813222898592
 30
0.0
 10
15.84079256201835
 20
23.83376156304447
 30
0.0
 10
15.88169071280088
 20
23.86709177514365
 30
0.0
 10
15.90131539305896
 20
23.88479267594463
 30
0.0
 10
15.93887287038274
 20
23.92231353454453
 30
0.0
 10
15.95688078794789
 20
23.94223900826662
 30
0.0
 10
15.99050087597822
 20
23.98348102576256
 30
0.0
 10
16.00618081551269
 20
24.0048472013304
 30
0.0
 10
16.03533368470046
 20
24.04899596904689
 30
0.0
 10
16.04883295013608
 20
24.07183050660306
 30
0.0
 10
16.06732944018927
 20
24.10689822385005
 30
0.0
 10
16.07317525795512
 20
24.1186720208442
 30
0.0
 10
16.0813933519024
 20
24.1362490856352
 30
0.0
 10
16.08403066710165
 20
24.14207404597612
 30
0.0
 10
16.08770754402349
 20
24.15045165451374
 30
0.0
 10
16.08890348863877
 20
24.15322406003865
 30
0.0
 10
16.090437561426
 20
24.15684565306114
 30
0.0
 10
16.09090445349049
 20
24.15796078433159
 30
0.0
 10
16.09153360920591
 20
24.1594939417785
 30
0.0
 10
16.09164826239799
 20
24.15979948361047
 30
0.0
 10
16.09147443780073
 20
24.15942377961685
 30
0.0
  0
SPLINE
  5
EF
330
1F
100
AcDbEntity
  8
0
  6
Continuous
 62
     7
370
    15
100
AcDbSpline
210
0.0
220
0.0
230
1.0
 70
     8
 71
     3
 72
    12
 73
     8
 74
     0
 42
0.0000000001
 43
0.0000000001
 40
0.0
 40
0.0
 40
0.0
 40
0.0
 40
0.5
 40
0.5
 40
0.75
 40
0.75
 40
1.0
 40
1.0
 40
1.0
 40
1.0
 10
16.09147443780075
 20
24.15942377961687
 30
0.0
 10
16.11786436276486
 20
24.21646288890705
 30
0.0
 10
16.13802151350285
 20
24.27596429989582
 30
0.0
 10
16.15859399440696
 20
24.36905730825845
 30
0.0
 10
16.16374727271907
 20
24.40041108968061
 30
0.0
 10
16.17061797251546
 20
24.46334980735624
 30
0.0
 10
16.17235015001338
 20
24.49500005279815
 30
0.0
 10
16.17235015001338
 20
24.52683544584593
 30
0.0
  0
SPLINE
  5
F2
330
1F
100
AcDbEntity
  8
0
  6
Continuous
 62
     7
370
    15
100
AcDbSpline
210
0.0
220
0.0
230
1.0
 70
     8
 71
     3
 72
    14
 73
    10
 74
     0
 42
0.0000000001
 43
0.0000000001
 40
0.0
 40
0.0
 40
0.0
 40
0.0
 40
0.5000000000000001
 40
0.5000000000000001
 40
0.7500000000000004
 40
0.7500000000000004
 40
0.8750000000000001
 40
0.8750000000000001
 40
1.0
 40
1.0
 40
1.0
 40
1.0
 10
16.17235015001338
 20
24.52683544584593
 30
0.0
 10
16.17235015001338
 20
24.59065874613448
 30
0.0
 10
16.16545135905827
 20
24.653235289816
 30
0.0
 10
16.1452135998847
 20
24.74533118689373
 30
0.0
 10
16.13680443995672
 20
24.77573224771695
 30
0.0
 10
16.12161786085609
 20
24.82087562188157
 30
0.0
 10
16.11610983587763
 20
24.83588165946214
 30
0.0
 10
16.10435664847491
 20
24.86538744429186
 30
0.0
 10
16.09810141448013
 20
24.87992358339528
 30
0.0
 10
16.09147443780073
 20
24.89424711207503
 30
0.0
  0
SPLINE
  5
F3
330
1F
100
AcDbEntity
  8
0
  6
Continuous
 62
     7
370
    15
100
AcDbSpline
210
0.0
220
0.0
230
1.0
 70
     8
 71
     3
 72
    38
 73
    34
 74
     0
 42
0.0000000001
 43
0.0000000001
 40
0.0
 40
0.0
 40
0.0
 40
0.0
 40
0.0078125000000009
 40
0.0078125000000009
 40
0.0156250000000018
 40
0.0156250000000018
 40
0.031250000000002
 40
0.031250000000002
 40
0.0625000000000024
 40
0.0625000000000024
 40
0.1250000000000026
 40
0.1250000000000026
 40
0.2500000000000024
 40
0.2500000000000024
 40
0.3750000000000023
 40
0.3750000000000023
 40
0.5000000000000022
 40
0.5000000000000022
 40
0.6250000000000017
 40
0.6250000000000017
 40
0.7500000000000014
 40
0.7500000000000014
 40
0.8750000000000008
 40
0.8750000000000008
 40
0.9375000000000007
 40
0.9375000000000007
 40
0.9687500000000005
 40
0.9687500000000005
 40
0.984375000000001
 40
0.984375000000001
 40
0.9921875000000005
 40
0.9921875000000005
 40
1.0
 40
1.0
 40
1.0
 40
1.0
 10
16.09147443780072
 20
24.89424711207505
 30
0.0
 10
16.09165161619825
 20
24.893864159187
 30
0.0
 10
16.09152965142327
 20
24.89418702142382
 30
0.0
 10
16.09089083641658
 20
24.8957428511428
 30
0.0
 10
16.0904153004275
 20
24.89687815520938
 30
0.0
 10
16.08888022809251
 20
24.90050099283653
 30
0.0
 10
16.08767725274315
 20
24.90328901025835
 30
0.0
 10
16.08399889606584
 20
24.9116676944889
 30
0.0
 10
16.08134093975204
 20
24.91753624516418
 30
0.0
 10
16.07311990739767
 20
24.93511250958957
 30
0.0
 10
16.06728531419752
 20
24.94685811704286
 30
0.0
 10
16.04884856568211
 20
24.9818071883777
 30
0.0
 10
16.03524173724722
 20
25.00482598957006
 30
0.0
 10
16.00605511687336
 20
25.04900213565143
 30
0.0
 10
15.99042578281481
 20
25.07027610785095
 30
0.0
 10
15.95709557071562
 20
25.11117425863348
 30
0.0
 10
15.93939466991464
 20
25.13079893889154
 30
0.0
 10
15.90187381131476
 20
25.1683564162153
 30
0.0
 10
15.88194833759268
 20
25.18636433378045
 30
0.0
 10
15.84070632009671
 20
25.21998442181081
 30
0.0
 10
15.81934014452885
 20
25.23566436134529
 30
0.0
 10
15.77519137681232
 20
25.26481723053308
 30
0.0
 10
15.7523568392561
 20
25.27831649596871
 30
0.0
 10
15.71728912200914
 20
25.29681298602189
 30
0.0
 10
15.70551532501496
 20
25.30265880378774
 30
0.0
 10
15.68793826022394
 20
25.31087689773502
 30
0.0
 10
15.6821132998831
 20
25.31351421293425
 30
0.0
 10
15.67373569134543
 20
25.31719108985609
 30
0.0
 10
15.67096328582061
 20
25.31838703447135
 30
0.0
 10
15.66734169279819
 20
25.31992110725854
 30
0.0
 10
15.66622656152766
 20
25.32038799932307
 30
0.0
 10
15.66469340408089
 20
25.32101715503842
 30
0.0
 10
15.66438786224888
 20
25.32113180823052
 30
0.0
 10
15.66476356624248
 20
25.32095798363328
 30
0.0
  0
SPLINE
  5
F4
330
1F
100
AcDbEntity
  8
0
  6
Continuous
 62
     7
370
    15
100
AcDbSpline
210
0.0
220
0.0
230
1.0
 70
     8
 71
     3
 72
    12
 73
     8
 74
     0
 42
0.0000000001
 43
0.0000000001
 40
0.0
 40
0.0
 40
0.0
 40
0.0
 40
0.5
 40
0.5
 40
0.75
 40
0.75
 40
1.0
 40
1.0
 40
1.0
 40
1.0
 10
15.66476356624252
 20
25.32095798363326
 30
0.0
 10
15.60772445695233
 20
25.34734790859739
 30
0.0
 10
15.54822304596354
 20
25.3675050593354
 30
0.0
 10
15.4551300376009
 20
25.38807754023951
 30
0.0
 10
15.42377625617872
 20
25.39323081855162
 30
0.0
 10
15.36083753850308
 20
25.40010151834801
 30
0.0
 10
15.32918729306116
 20
25.40183369584593
 30
0.0
 10
15.29735190001338
 20
25.40183369584593
 30
0.0
  0
SPLINE
  5
F5
330
1F
100
AcDbEntity
  8
0
  6
Continuous
 62
     7
370
    15
100
AcDbSpline
210
0.0
220
0.0
230
1.0
 70
     8
 71
     3
 72
    12
 73
     8
 74
     0
 42
0.0000000001
 43
0.0000000001
 40
0.0
 40
0.0
 40
0.0
 40
0.0
 40
0.2500000000000002
 40
0.2500000000000002
 40
0.5000000000000002
 40
0.5000000000000002
 40
1.0
 40
1.0
 40
1.0
 40
1.0
 10
14.42235365001338
 20
24.52683544584593
 30
0.0
 10
14.42235365001338
 20
24.49509874196091
 30
0.0
 10
14.42407515829565
 20
24.46352797641873
 30
0.0
 10
14.43091499320962
 20
24.40071173737389
 30
0.0
 10
14.43606188835177
 20
24.36934955877224
 30
0.0
 10
14.45648905069456
 20
24.27668946569041
 30
0.0
 10
14.47658722633001
 20
24.21700801690296
 30
0.0
 10
14.50322936222601
 20
24.15942377961687
 30
0.0
  0
SPLINE
  5
F6
330
1F
100
AcDbEntity
  8
0
  6
Continuous
 62
     7
370
    15
100
AcDbSpline
210
0.0
220
0.0
230
1.0
 70
     8
 71
     3
 72
    38
 73
    34
 74
     0
 42
0.0000000001
 43
0.0000000001
 40
0.0
 40
0.0
 40
0.0
 40
0.0
 40
0.0078125000000009
 40
0.0078125000000009
 40
0.0156250000000019
 40
0.0156250000000019
 40
0.0312500000000024
 40
0.0312500000000024
 40
0.0625000000000024
 40
0.0625000000000024
 40
0.1250000000000027
 40
0.1250000000000027
 40
0.2500000000000023
 40
0.2500000000000023
 40
0.3750000000000018
 40
0.3750000000000018
 40
0.5000000000000015
 40
0.5000000000000015
 40
0.6250000000000008
 40
0.6250000000000008
 40
0.7500000000000001
 40
0.7500000000000001
 40
0.8749999999999996
 40
0.8749999999999996
 40
0.9374999999999992
 40
0.9374999999999992
 40
0.9687499999999992
 40
0.9687499999999992
 40
0.9843749999999994
 40
0.9843749999999994
 40
0.9921874999999996
 40
0.9921874999999996
 40
1.0
 40
1.0
 40
1.0
 40
1.0
 10
14.503229362226
 20
24.1594237796169
 30
0.0
 10
14.50305218382846
 20
24.15980673250496
 30
0.0
 10
14.50317414860356
 20
24.15948387026784
 30
0.0
 10
14.50381296361027
 20
24.15792804054882
 30
0.0
 10
14.50428849959934
 20
24.15679273648227
 30
0.0
 10
14.50582357193436
 20
24.15316989885505
 30
0.0
 10
14.50702654728397
 20
24.15038188143255
 30
0.0
 10
14.51070490396122
 20
24.14200319720218
 30
0.0
 10
14.51336286027482
 20
24.13613464652745
 30
0.0
 10
14.52158389262919
 20
24.11855838210208
 30
0.0
 10
14.52741848582935
 20
24.10681277464879
 30
0.0
 10
14.54585523434475
 20
24.07186370331399
 30
0.0
 10
14.55946206277963
 20
24.04884490212165
 30
0.0
 10
14.58864868315349
 20
24.0046687560403
 30
0.0
 10
14.60427801721204
 20
23.98339478384079
 30
0.0
 10
14.63760822931121
 20
23.9424966330583
 30
0.0
 10
14.65530913011217
 20
23.92287195280026
 30
0.0
 10
14.692829988712
 20
23.88531447547655
 30
0.0
 10
14.71275546243407
 20
23.86730655791143
 30
0.0
 10
14.75399747993003
 20
23.83368646988107
 30
0.0
 10
14.77536365549789
 20
23.81800653034658
 30
0.0
 10
14.81951242321444
 20
23.78885366115879
 30
0.0
 10
14.84234696077069
 20
23.77535439572314
 30
0.0
 10
14.8774146780176
 20
23.75685790566998
 30
0.0
 10
14.88918847501175
 20
23.75101208790414
 30
0.0
 10
14.90676553980278
 20
23.74279399395685
 30
0.0
 10
14.9125905001436
 20
23.74015667875764
 30
0.0
 10
14.92096810868134
 20
23.73647980183576
 30
0.0
 10
14.92374051420579
 20
23.73528385722066
 30
0.0
 10
14.92736210722823
 20
23.73374978443345
 30
0.0
 10
14.92847723849927
 20
23.73328289236873
 30
0.0
 10
14.93001039594603
 20
23.73265373665337
 30
0.0
 10
14.93031593777782
 20
23.73253908346135
 30
0.0
 10
14.92994023378423
 20
23.7327129080586
 30
0.0
  0
SPLINE
  5
F7
330
1F
100
AcDbEntity
  8
0
  6
Continuous
 62
     7
370
    15
100
AcDbSpline
210
0.0
220
0.0
230
1.0
 70
     8
 71
     3
 72
    12
 73
     8
 74
     0
 42
0.0000000001
 43
0.0000000001
 40
0.0
 40
0.0
 40
0.0
 40
0.0
 40
0.5
 40
0.5
 40
0.75
 40
0.75
 40
1.0
 40
1.0
 40
1.0
 40
1.0
 10
14.92994023378431
 20
23.73271290805856
 30
0.0
 10
14.9875801561605
 20
23.70604500869312
 30
0.0
 10
15.04712990510307
 20
23.68602201595132
 30
0.0
 10
15.13925637952327
 20
23.66566367019065
 30
0.0
 10
15.17045771047592
 20
23.66050208520037
 30
0.0
 10
15.23375632809742
 20
23.65357074923986
 30
0.0
 10
15.26550435842559
 20
23.65183719584593
 30
0.0
 10
15.29735190001338
 20
23.65183719584593
 30
0.0
  0
SPLINE
  5
F8
330
1F
100
AcDbEntity
  8
0
  6
Continuous
 62
     7
370
    15
100
AcDbSpline
210
0.0
220
0.0
230
1.0
 70
     8
 71
     3
 72
    42
 73
    38
 74
     0
 42
0.0000000001
 43
0.0000000001
 40
0.0
 40
0.0
 40
0.0
 40
0.0
 40
0.1249999999999999
 40
0.1249999999999999
 40
0.2499999999999999
 40
0.2499999999999999
 40
0.3124999999999998
 40
0.3124999999999998
 40
0.3749999999999997
 40
0.3749999999999997
 40
0.4062499999999999
 40
0.4062499999999999
 40
0.4374999999999999
 40
0.4374999999999999
 40
0.4687499999999999
 40
0.4687499999999999
 40
0.5
 40
0.5
 40
0.5312500000000001
 40
0.5312500000000001
 40
0.5625000000000004
 40
0.5625000000000004
 40
0.5937500000000006
 40
0.5937500000000006
 40
0.6250000000000007
 40
0.6250000000000007
 40
0.6562500000000009
 40
0.6562500000000009
 40
0.6875000000000011
 40
0.6875000000000011
 40
0.7500000000000013
 40
0.7500000000000013
 40
0.8125000000000014
 40
0.8125000000000014
 40
0.8750000000000014
 40
0.8750000000000014
 40
1.0
 40
1.0
 40
1.0
 40
1.0
 10
14.50322936222601
 20
24.15942377961688
 30
0.0
 10
14.50775273430822
 20
24.14964697597274
 30
0.0
 10
14.51319310587544
 20
24.13830018899416
 30
0.0
 10
14.52752169599431
 20
24.1106310282568
 30
0.0
 10
14.53641999422544
 20
24.09421707372421
 30
0.0
 10
14.55469009105428
 20
24.06400297515408
 30
0.0
 10
14.56169083123305
 20
24.05287825857511
 30
0.0
 10
14.57781588142358
 20
24.02873852612386
 30
0.0
 10
14.58694496918457
 20
24.01569590913864
 30
0.0
 10
14.60305042815389
 20
23.99424993380135
 30
0.0
 10
14.60884054074488
 20
23.98677197570458
 30
0.0
 10
14.62100946561688
 20
23.97160814549273
 30
0.0
 10
14.62742781277088
 20
23.96386793570118
 30
0.0
 10
14.64103601489872
 20
23.94806074089379
 30
0.0
 10
14.64827329186039
 20
23.93994807883832
 30
0.0
 10
14.6630356895929
 20
23.92402306515625
 30
0.0
 10
14.6706193382229
 20
23.91613926866974
 30
0.0
 10
14.68620782108231
 20
23.9005396374506
 30
0.0
 10
14.69428850096616
 20
23.89275713145538
 30
0.0
 10
14.71027249850869
 20
23.87792979139403
 30
0.0
 10
14.71822521728903
 20
23.87082997460023
 30
0.0
 10
14.73403925338819
 20
23.85720140019135
 30
0.0
 10
14.7419335947802
 20
23.85064936065201
 30
0.0
 10
14.75714827605426
 20
23.83843355722315
 30
0.0
 10
14.76452777749312
 20
23.83271675907852
 30
0.0
 10
14.77886058478572
 20
23.82194605530816
 30
0.0
 10
14.78582930025681
 20
23.81688322309734
 30
0.0
 10
14.79905820730878
 20
23.80753653408658
 30
0.0
 10
14.80536348223675
 20
23.80321811913888
 30
0.0
 10
14.82347465019834
 20
23.79112280184248
 30
0.0
 10
14.83452297982735
 20
23.78417077511698
 30
0.0
 10
14.85473632092408
 20
23.77194944673286
 30
0.0
 10
14.86379642512386
 20
23.76674229776871
 30
0.0
 10
14.88037900434619
 20
23.75752045974496
 30
0.0
 10
14.88789663632629
 20
23.75351207980846
 30
0.0
 10
14.90865016029372
 20
23.74275910344548
 30
0.0
 10
14.92012476446333
 20
23.73725416934564
 30
0.0
 10
14.92994023378431
 20
23.73271290805856
 30
0.0
  0
SPLINE
  5
F9
330
1F
100
AcDbEntity
  8
0
  6
Continuous
 62
     7
370
    15
100
AcDbSpline
210
0.0
220
0.0
230
1.0
 70
     8
 71
     3
 72
    42
 73
    38
 74
     0
 42
0.0000000001
 43
0.0000000001
 40
0.0
 40
0.0
 40
0.0
 40
0.0
 40
0.1250000000000009
 40
0.1250000000000009
 40
0.2500000000000018
 40
0.2500000000000018
 40
0.3125000000000016
 40
0.3125000000000016
 40
0.3750000000000014
 40
0.3750000000000014
 40
0.4062500000000015
 40
0.4062500000000015
 40
0.4375000000000015
 40
0.4375000000000015
 40
0.4687500000000015
 40
0.4687500000000015
 40
0.5000000000000015
 40
0.5000000000000015
 40
0.5312500000000015
 40
0.5312500000000015
 40
0.5625000000000015
 40
0.5625000000000015
 40
0.5937500000000015
 40
0.5937500000000015
 40
0.6250000000000015
 40
0.6250000000000015
 40
0.6562500000000015
 40
0.6562500000000015
 40
0.6875000000000015
 40
0.6875000000000015
 40
0.7500000000000015
 40
0.7500000000000015
 40
0.8125000000000014
 40
0.8125000000000014
 40
0.8750000000000014
 40
0.8750000000000014
 40
1.0
 40
1.0
 40
1.0
 40
1.0
 10
14.92994023378424
 20
25.32095798363326
 30
0.0
 10
14.9201634301401
 20
25.31643461155105
 30
0.0
 10
14.90881664316153
 20
25.31099423998383
 30
0.0
 10
14.88114748242417
 20
25.29666564986496
 30
0.0
 10
14.8647335278916
 20
25.28776735163383
 30
0.0
 10
14.83451942932147
 20
25.269497254805
 30
0.0
 10
14.8233947127425
 20
25.26249651462622
 30
0.0
 10
14.79925498029126
 20
25.2463714644357
 30
0.0
 10
14.78621236330604
 20
25.23724237667471
 30
0.0
 10
14.76476638796876
 20
25.2211369177054
 30
0.0
 10
14.757288429872
 20
25.21534680511441
 30
0.0
 10
14.74212459966015
 20
25.2031778802424
 30
0.0
 10
14.73438438986859
 20
25.1967595330884
 30
0.0
 10
14.71857719506122
 20
25.18315133096058
 30
0.0
 10
14.71046453300573
 20
25.1759140539989
 30
0.0
 10
14.69453951932367
 20
25.16115165626639
 30
0.0
 10
14.68665572283716
 20
25.15356800763639
 30
0.0
 10
14.67105609161803
 20
25.13797952477699
 30
0.0
 10
14.66327358562282
 20
25.12989884489315
 30
0.0
 10
14.64844624556147
 20
25.11391484735061
 30
0.0
 10
14.64134642876767
 20
25.10596212857028
 30
0.0
 10
14.62771785435879
 20
25.09014809247112
 30
0.0
 10
14.62116581481946
 20
25.08225375107912
 30
0.0
 10
14.60895001139061
 20
25.06703906980507
 30
0.0
 10
14.60323321324597
 20
25.05965956836621
 30
0.0
 10
14.59246250947562
 20
25.04532676107361
 30
0.0
 10
14.5873996772648
 20
25.03835804560252
 30
0.0
 10
14.57805298825403
 20
25.02512913855054
 30
0.0
 10
14.57373457330635
 20
25.0188238636226
 30
0.0
 10
14.56163925600996
 20
25.00071269566102
 30
0.0
 10
14.55468722928444
 20
24.98966436603198
 30
0.0
 10
14.54246590090032
 20
24.96945102493526
 30
0.0
 10
14.53725875193617
 20
24.96039092073548
 30
0.0
 10
14.52803691391242
 20
24.94380834151315
 30
0.0
 10
14.52402853397592
 20
24.93629070953306
 30
0.0
 10
14.51327555761294
 20
24.91553718556563
 30
0.0
 10
14.50777062351309
 20
24.904062581396
 30
0.0
 10
14.50322936222602
 20
24.89424711207502
 30
0.0
  0
SPLINE
  5
FA
330
1F
100
AcDbEntity
  8
0
  6
Continuous
 62
     7
370
    15
100
AcDbSpline
210
0.0
220
0.0
230
1.0
 70
     8
 71
     3
 72
    42
 73
    38
 74
     0
 42
0.0000000001
 43
0.0000000001
 40
0.0
 40
0.0
 40
0.0
 40
0.0
 40
0.1249999999999991
 40
0.1249999999999991
 40
0.2499999999999981
 40
0.2499999999999981
 40
0.3124999999999976
 40
0.3124999999999976
 40
0.3749999999999971
 40
0.3749999999999971
 40
0.4062499999999968
 40
0.4062499999999968
 40
0.4374999999999967
 40
0.4374999999999967
 40
0.4687499999999963
 40
0.4687499999999963
 40
0.4999999999999961
 40
0.4999999999999961
 40
0.531249999999996
 40
0.531249999999996
 40
0.5624999999999957
 40
0.5624999999999957
 40
0.5937499999999955
 40
0.5937499999999955
 40
0.6249999999999952
 40
0.6249999999999952
 40
0.6562499999999949
 40
0.6562499999999949
 40
0.6874999999999947
 40
0.6874999999999947
 40
0.7499999999999955
 40
0.7499999999999955
 40
0.8124999999999962
 40
0.8124999999999962
 40
0.8749999999999968
 40
0.8749999999999968
 40
1.0
 40
1.0
 40
1.0
 40
1.0
 10
16.09147443780073
 20
24.89424711207503
 30
0.0
 10
16.08695106571851
 20
24.90402391571916
 30
0.0
 10
16.0815106941513
 20
24.91537070269773
 30
0.0
 10
16.06718210403242
 20
24.94303986343509
 30
0.0
 10
16.0582838058013
 20
24.95945381796767
 30
0.0
 10
16.04001370897246
 20
24.9896679165378
 30
0.0
 10
16.03301296879369
 20
25.00079263311677
 30
0.0
 10
16.01688791860317
 20
25.02493236556802
 30
0.0
 10
16.00775883084219
 20
25.03797498255323
 30
0.0
 10
15.99165337187287
 20
25.05942095789051
 30
0.0
 10
15.98586325928189
 20
25.06689891598727
 30
0.0
 10
15.97369433440988
 20
25.08206274619912
 30
0.0
 10
15.96727598725588
 20
25.08980295599067
 30
0.0
 10
15.95366778512805
 20
25.10561015079805
 30
0.0
 10
15.94643050816638
 20
25.11372281285354
 30
0.0
 10
15.93166811043387
 20
25.1296478265356
 30
0.0
 10
15.92408446180388
 20
25.1375316230221
 30
0.0
 10
15.90849597894448
 20
25.15313125424123
 30
0.0
 10
15.90041529906063
 20
25.16091376023645
 30
0.0
 10
15.88443130151809
 20
25.17574110029781
 30
0.0
 10
15.87647858273776
 20
25.18284091709161
 30
0.0
 10
15.86066454663861
 20
25.19646949150049
 30
0.0
 10
15.85277020524661
 20
25.20302153103981
 30
0.0
 10
15.83755552397256
 20
25.21523733446868
 30
0.0
 10
15.83017602253369
 20
25.22095413261331
 30
0.0
 10
15.81584321524109
 20
25.23172483638365
 30
0.0
 10
15.80887449977
 20
25.23678766859448
 30
0.0
 10
15.79564559271803
 20
25.24613435760525
 30
0.0
 10
15.78934031779006
 20
25.25045277255294
 30
0.0
 10
15.77122914982848
 20
25.26254808984934
 30
0.0
 10
15.76018082019949
 20
25.26950011657483
 30
0.0
 10
15.73996747910276
 20
25.28172144495896
 30
0.0
 10
15.73090737490297
 20
25.28692859392311
 30
0.0
 10
15.71432479568063
 20
25.29615043194687
 30
0.0
 10
15.70680716370055
 20
25.30015881188336
 30
0.0
 10
15.68605363973311
 20
25.31091178824635
 30
0.0
 10
15.67457903556349
 20
25.31641672234619
 30
0.0
 10
15.66476356624251
 20
25.32095798363326
 30
0.0
  0
SPLINE
  5
FB
330
1F
100
AcDbEntity
  8
0
  6
Continuous
 62
     7
370
    15
100
AcDbSpline
210
0.0
220
0.0
230
1.0
 70
     8
 71
     3
 72
    42
 73
    38
 74
     0
 42
0.0000000001
 43
0.0000000001
 40
0.0
 40
0.0
 40
0.0
 40
0.0
 40
0.1250000000000004
 40
0.1250000000000004
 40
0.2500000000000007
 40
0.2500000000000007
 40
0.3125000000000011
 40
0.3125000000000011
 40
0.3750000000000013
 40
0.3750000000000013
 40
0.4062500000000009
 40
0.4062500000000009
 40
0.4375000000000007
 40
0.4375000000000007
 40
0.4687500000000002
 40
0.4687500000000002
 40
0.5
 40
0.5
 40
0.53125
 40
0.53125
 40
0.5625
 40
0.5625
 40
0.5937499999999999
 40
0.5937499999999999
 40
0.6249999999999999
 40
0.6249999999999999
 40
0.6562499999999999
 40
0.6562499999999999
 40
0.6874999999999999
 40
0.6874999999999999
 40
0.7499999999999999
 40
0.7499999999999999
 40
0.8124999999999998
 40
0.8124999999999998
 40
0.875
 40
0.875
 40
1.0
 40
1.0
 40
1.0
 40
1.0
 10
15.66476356624244
 20
23.73271290805856
 30
0.0
 10
15.67454036988657
 20
23.73723628014078
 30
0.0
 10
15.68588715686514
 20
23.74267665170799
 30
0.0
 10
15.71355631760249
 20
23.75700524182686
 30
0.0
 10
15.72997027213508
 20
23.76590354005799
 30
0.0
 10
15.76018437070521
 20
23.78417363688682
 30
0.0
 10
15.77130908728419
 20
23.7911743770656
 30
0.0
 10
15.79544881973543
 20
23.80729942725612
 30
0.0
 10
15.80849143672064
 20
23.8164285150171
 30
0.0
 10
15.82993741205793
 20
23.83253397398643
 30
0.0
 10
15.8374153701547
 20
23.83832408657741
 30
0.0
 10
15.85257920036655
 20
23.85049301144942
 30
0.0
 10
15.86031941015811
 20
23.85691135860342
 30
0.0
 10
15.87612660496549
 20
23.87051956073126
 30
0.0
 10
15.88423926702098
 20
23.87775683769293
 30
0.0
 10
15.90016428070305
 20
23.89251923542544
 30
0.0
 10
15.90804807718955
 20
23.90010288405544
 30
0.0
 10
15.92364770840869
 20
23.91569136691484
 30
0.0
 10
15.93143021440391
 20
23.9237720467987
 30
0.0
 10
15.94625755446527
 20
23.93975604434124
 30
0.0
 10
15.95335737125907
 20
23.94770876312158
 30
0.0
 10
15.96698594566795
 20
23.96352279922073
 30
0.0
 10
15.97353798520728
 20
23.97141714061273
 30
0.0
 10
15.98575378863614
 20
23.98663182188679
 30
0.0
 10
15.99147058678078
 20
23.99401132332565
 30
0.0
 10
16.00224129055112
 20
24.00834413061824
 30
0.0
 10
16.00730412276196
 20
24.01531284608935
 30
0.0
 10
16.01665081177273
 20
24.02854175314133
 30
0.0
 10
16.02096922672041
 20
24.03484702806928
 30
0.0
 10
16.03306454401681
 20
24.05295819603087
 30
0.0
 10
16.04001657074232
 20
24.06400652565989
 30
0.0
 10
16.05223789912645
 20
24.08421986675662
 30
0.0
 10
16.0574450480906
 20
24.09327997095641
 30
0.0
 10
16.06666688611435
 20
24.10986255017875
 30
0.0
 10
16.07067526605085
 20
24.11738018215884
 30
0.0
 10
16.08142824241383
 20
24.13813370612627
 30
0.0
 10
16.08693317651367
 20
24.14960831029589
 30
0.0
 10
16.09147443780075
 20
24.15942377961687
 30
0.0
  0
CIRCLE
  5
104
330
1F
100
AcDbEntity
  8
0
  6
HIDDEN
 62
     7
370
     0
100
AcDbCircle
 10
15.29735190001482
 20
24.52683544584461
 30
0.0
 40
8.574413054690198
  0
SPLINE
  5
111
330
1F
100
AcDbEntity
  8
0
  6
Continuous
 62
     7
370
    15
100
AcDbSpline
210
0.0
220
0.0
230
1.0
 70
    24
 71
     1
 72
     4
 73
     2
 74
     0
 42
0.0000000001
 43
0.0000000001
 40
0.0
 40
0.0
 40
1.0
 40
1.0
 10
34.35582110666299
 20
7.079989673754445
 30
0.0
 10
34.39968161892706
 20
6.452755587434641
 30
0.0
  0
SPLINE
  5
112
330
1F
100
AcDbEntity
  8
0
  6
Continuous
 62
     7
370
    15
100
AcDbSpline
210
0.0
220
0.0
230
1.0
 70
    24
 71
     1
 72
     4
 73
     2
 74
     0
 42
0.0000000001
 43
0.0000000001
 40
0.0
 40
0.0
 40
1.0
 40
1.0
 10
37.51305595946127
 20
6.452755587434641
 30
0.0
 10
37.55691647172534
 20
7.079989673754445
 30
0.0
  0
ARC
  5
113
330
1F
100
AcDbEntity
  8
0
  6
Continuous
 62
     7
370
    15
100
AcDbCircle
 10
37.39523364821805
 20
6.460994646098471
 30
0.0
 40
0.1181100000000002
100
AcDbArc
 50
270.0
 51
356.0000000000006
  0
ARC
  5
114
330
1F
100
AcDbEntity
  8
0
  6
Continuous
 62
     7
370
    15
100
AcDbCircle
 10
34.51750393016931
 20
6.460994646098471
 30
0.0
 40
0.1181100000000001
100
AcDbArc
 50
183.9999999999994
 51
270.0
  0
LINE
  5
116
330
1F
100
AcDbEntity
  8
0
  6
Continuous
 62
     7
370
    15
100
AcDbLine
 10
45.33972562488736
 20
10.21990995453628
 30
0.0
 11
45.45634985771716
 21
12.44523457668522
 31
0.0
  0
SPLINE
  5
119
330
1F
100
AcDbEntity
  8
0
  6
Continuous
 62
     7
370
    15
100
AcDbSpline
210
0.0
220
0.0
230
1.0
 70
     8
 71
     3
 72
    22
 73
    18
 74
     0
 42
0.0000000001
 43
0.0000000001
 40
0.0
 40
0.0
 40
0.0
 40
0.0
 40
0.2500000000000024
 40
0.2500000000000024
 40
0.3125000000000029
 40
0.3125000000000029
 40
0.3750000000000034
 40
0.3750000000000034
 40
0.5000000000000023
 40
0.5000000000000023
 40
0.7499999999999979
 40
0.7499999999999979
 40
0.8749999999999978
 40
0.8749999999999978
 40
0.9374999999999989
 40
0.9374999999999989
 40
1.0
 40
1.0
 40
1.0
 40
1.0
 10
39.49567144284682
 20
12.16964464609906
 30
0.0
 10
39.54044917889245
 20
12.16964464609906
 30
0.0
 10
39.58367259731623
 20
12.16183413888497
 30
0.0
 10
39.63628482450917
 20
12.14509772468844
 30
0.0
 10
39.64676562097453
 20
12.1413798405964
 30
0.0
 10
39.66739461585817
 20
12.13335206506676
 30
0.0
 10
39.67754940274024
 20
12.12904290636324
 30
0.0
 10
39.70758505282408
 20
12.11532458465529
 30
0.0
 10
39.72703835742673
 20
12.1051266620281
 30
0.0
 10
39.78402278526287
 20
12.07201072059608
 30
0.0
 10
39.82017799521189
 20
12.04656765543762
 30
0.0
 10
39.87281760897838
 20
12.00557526087141
 30
0.0
 10
39.89004341779
 20
11.9914822187973
 30
0.0
 10
39.91557275995134
 20
11.96997350776846
 30
0.0
 10
39.92403179156913
 20
11.96274169993035
 30
0.0
 10
39.94087928642082
 20
11.94819717773175
 30
0.0
 10
39.94930588741222
 20
11.94085033389006
 30
0.0
 10
39.95763359043048
 20
11.93355562545558
 30
0.0
  0
SPLINE
  5
11A
330
1F
100
AcDbEntity
  8
0
  6
Continuous
 62
     7
370
    15
100
AcDbSpline
210
0.0
220
0.0
230
1.0
 70
    24
 71
     3
 72
    13
 73
     9
 74
     0
 42
0.0000000001
 43
0.0000000001
 40
0.0
 40
0.0
 40
0.0
 40
0.0
 40
0.1666666666666667
 40
0.3333333333333333
 40
0.5
 40
0.6666666666666666
 40
0.8333333333333332
 40
1.0
 40
1.0
 40
1.0
 40
1.0
 10
35.95636878919413
 20
12.44523464609906
 30
0.0
 10
36.79618646123918
 20
12.44523464609906
 30
0.0
 10
38.4535601141432
 20
12.44523464609906
 30
0.0
 10
40.7490221685434
 20
12.44523464609906
 30
0.0
 10
42.75248007086372
 20
12.44523464609906
 30
0.0
 10
44.28410140902285
 20
12.44523464609906
 30
0.0
 10
45.23329074179101
 20
12.44523464609906
 30
0.0
 10
45.45634978919415
 20
12.44523464609906
 30
0.0
 10
45.45634978919415
 20
12.44523464609906
 30
0.0
  0
SPLINE
  5
11B
330
1F
100
AcDbEntity
  8
0
  6
Continuous
 62
     7
370
    15
100
AcDbSpline
210
0.0
220
0.0
230
1.0
 70
    24
 71
     3
 72
     9
 73
     5
 74
     0
 42
0.0000000001
 43
0.0000000001
 40
0.0
 40
0.0
 40
0.0
 40
0.0
 40
0.0767698012587381
 40
0.2434364679254047
 40
0.2434364679254047
 40
0.2434364679254047
 40
0.2434364679254047
 10
39.4956714428469
 20
12.16964464609905
 30
0.0
 10
39.14426692615929
 20
12.16964464609905
 30
0.0
 10
38.00339990612729
 20
12.16964464609905
 30
0.0
 10
36.79487882675511
 20
12.16964464609905
 30
0.0
 10
35.95636878919413
 20
12.16964464609905
 30
0.0
  0
LINE
  5
11C
330
1F
100
AcDbEntity
  8
0
  6
Continuous
 62
     7
370
    15
100
AcDbLine
 10
26.57301195350001
 20
10.21990995453628
 30
0.0
 11
26.45638772067413
 21
12.44523457668522
 31
0.0
  0
SPLINE
  5
120
330
1F
100
AcDbEntity
  8
0
  6
Continuous
 62
     7
370
    15
100
AcDbSpline
210
0.0
220
0.0
230
1.0
 70
    24
 71
     3
 72
    13
 73
     9
 74
     0
 42
0.0000000001
 43
0.0000000001
 40
0.0
 40
0.0
 40
0.0
 40
0.0
 40
0.1666666666666667
 40
0.3333333333333333
 40
0.5
 40
0.6666666666666666
 40
0.8333333333333332
 40
1.0
 40
1.0
 40
1.0
 40
1.0
 10
35.95636878919413
 20
12.44523464609906
 30
0.0
 10
35.11655111714909
 20
12.44523464609906
 30
0.0
 10
33.45917746424508
 20
12.44523464609906
 30
0.0
 10
31.16371540984486
 20
12.44523464609906
 30
0.0
 10
29.16025750752456
 20
12.44523464609906
 30
0.0
 10
27.62863616936545
 20
12.44523464609905
 30
0.0
 10
26.67944683659729
 20
12.44523464609906
 30
0.0
 10
26.45638778919416
 20
12.44523464609906
 30
0.0
 10
26.45638778919416
 20
12.44523464609906
 30
0.0
  0
SPLINE
  5
121
330
1F
100
AcDbEntity
  8
0
  6
Continuous
 62
     7
370
    15
100
AcDbSpline
210
0.0
220
0.0
230
1.0
 70
    24
 71
     3
 72
     9
 73
     5
 74
     0
 42
0.0000000001
 43
0.0000000001
 40
0.0
 40
0.0
 40
0.0
 40
0.0
 40
0.1666666666666667
 40
0.2434364679254399
 40
0.2434364679254399
 40
0.2434364679254399
 40
0.2434364679254399
 10
35.95636878919413
 20
12.16964464609903
 30
0.0
 10
35.11785875163315
 20
12.16964464609903
 30
0.0
 10
33.9093376722608
 20
12.16964464609903
 30
0.0
 10
32.76847065222864
 20
12.16964464609903
 30
0.0
 10
32.41706613554087
 20
12.16964464609903
 30
0.0
  0
SPLINE
  5
128
330
1F
100
AcDbEntity
  8
0
  6
Continuous
 62
     7
370
    15
100
AcDbSpline
210
0.0
220
0.0
230
1.0
 70
     8
 71
     3
 72
     8
 73
     4
 74
     0
 42
0.0000000001
 43
0.0000000001
 40
0.0
 40
0.0
 40
0.0
 40
0.0
 40
1.0
 40
1.0
 40
1.0
 40
1.0
 10
37.26399038686659
 20
8.960888708869145
 30
0.0
 10
36.83140846306983
 20
8.959276683318631
 30
0.0
 10
36.39552832286988
 20
8.95807487766274
 30
0.0
 10
35.95636878919413
 20
8.958074877662738
 30
0.0
  0
SPLINE
  5
129
330
1F
100
AcDbEntity
  8
0
  6
Continuous
 62
     7
370
    15
100
AcDbSpline
210
0.0
220
0.0
230
1.0
 70
     8
 71
     3
 72
     8
 73
     4
 74
     0
 42
0.0000000001
 43
0.0000000001
 40
0.0
 40
0.0
 40
0.0
 40
0.0
 40
1.0
 40
1.0
 40
1.0
 40
1.0
 10
35.95636878919413
 20
8.958074877662735
 30
0.0
 10
35.5171568322653
 20
8.958074877662728
 30
0.0
 10
35.08127738667499
 20
8.959276876086487
 30
0.0
 10
34.64874719152168
 20
8.960888708869148
 30
0.0
  0
SPLINE
  5
12C
330
1F
100
AcDbEntity
  8
0
  6
Continuous
 62
     7
370
    15
100
AcDbSpline
210
0.0
220
0.0
230
1.0
 70
    24
 71
     3
 72
    11
 73
     7
 74
     0
 42
0.0000000001
 43
0.0000000001
 40
0.0
 40
0.0
 40
0.0
 40
0.0
 40
0.0289635614804993
 40
0.0289635614804993
 40
0.0289635614804993
 40
0.0559166228605165
 40
0.0559166228605165
 40
0.0559166228605165
 40
0.0559166228605165
 10
34.15534091902831
 20
9.946990815307536
 30
0.0
 10
34.12887399701508
 20
10.32548543386124
 30
0.0
 10
34.10240669503457
 20
10.70398548619998
 30
0.0
 10
34.07593902640831
 20
11.08249078181751
 30
0.0
 10
34.05130860587924
 20
11.4347222055661
 30
0.0
 10
34.02667786662124
 20
11.78695818735081
 30
0.0
 10
34.0020468188916
 20
12.13919858048565
 30
0.0
  0
SPLINE
  5
12D
330
1F
100
AcDbEntity
  8
0
  6
Continuous
 62
     7
370
    15
100
AcDbSpline
210
0.0
220
0.0
230
1.0
 70
     8
 71
     3
 72
    12
 73
     8
 74
     0
 42
0.0000000001
 43
0.0000000001
 40
0.0
 40
0.0
 40
0.0
 40
0.0
 40
0.5000000000000007
 40
0.5000000000000007
 40
0.7500000000000004
 40
0.7500000000000004
 40
1.0
 40
1.0
 40
1.0
 40
1.0
 10
34.01546530488154
 20
12.16964464609906
 30
0.0
 10
34.00999962432641
 20
12.16964464609906
 30
0.0
 10
34.00624740193091
 20
12.16734663418117
 30
0.0
 10
34.00296587545599
 20
12.15984338611268
 30
0.0
 10
34.00226947503126
 20
12.15663964671147
 30
0.0
 10
34.00163244732141
 20
12.14893134689319
 30
0.0
 10
34.00168207270835
 20
12.14441469392078
 30
0.0
 10
34.00204681889159
 20
12.13919858048581
 30
0.0
  0
SPLINE
  5
12F
330
1F
100
AcDbEntity
  8
0
  6
Continuous
 62
     7
370
    15
100
AcDbSpline
210
0.0
220
0.0
230
1.0
 70
     8
 71
     3
 72
    12
 73
     8
 74
     0
 42
0.0000000001
 43
0.0000000001
 40
0.0
 40
0.0
 40
0.0
 40
0.0
 40
0.5
 40
0.5
 40
0.75
 40
0.75
 40
1.0
 40
1.0
 40
1.0
 40
1.0
 10
37.91069027607656
 20
12.13919166725591
 30
0.0
 10
37.91142002780112
 20
12.14962760311921
 30
0.0
 10
37.91088692600718
 20
12.15720628328555
 30
0.0
 10
37.90763858676591
 20
12.16476250490078
 30
0.0
 10
37.90613590229012
 20
12.1666321653749
 30
0.0
 10
37.90232419902448
 20
12.16906306041944
 30
0.0
 10
37.90001063735848
 20
12.16964464609906
 30
0.0
 10
37.89727658354447
 20
12.16964464609906
 30
0.0
  0
SPLINE
  5
130
330
1F
100
AcDbEntity
  8
0
  6
Continuous
 62
     7
370
    15
100
AcDbSpline
210
0.0
220
0.0
230
1.0
 70
    24
 71
     3
 72
    11
 73
     7
 74
     0
 42
0.0000000001
 43
0.0000000001
 40
0.0007767429205175
 40
0.0007767429205175
 40
0.0007767429205175
 40
0.0007767429205175
 40
0.0277296725064037
 40
0.0277296725064037
 40
0.0277296725064037
 40
0.0566931896225219
 40
0.0566931896225219
 40
0.0566931896225219
 40
0.0566931896225219
 10
37.91069027607656
 20
12.13919166725591
 30
0.0
 10
37.88605934886696
 20
11.78695299763816
 30
0.0
 10
37.86142873012607
 20
11.43471873932826
 30
0.0
 10
37.836798430111
 20
11.08248903901006
 30
0.0
 10
37.81033080210884
 20
10.70398432434446
 30
0.0
 10
37.78386354075136
 20
10.32548485294183
 30
0.0
 10
37.75739665935997
 20
9.946990815307536
 30
0.0
  0
SPLINE
  5
131
330
1F
100
AcDbEntity
  8
0
  6
Continuous
 62
     7
370
    15
100
AcDbSpline
210
0.0
220
0.0
230
1.0
 70
    24
 71
     3
 72
    20
 73
    16
 74
     0
 42
0.0000000001
 43
0.0000000001
 40
0.0
 40
0.0
 40
0.0
 40
0.0
 40
0.1249999999999991
 40
0.1249999999999991
 40
0.2499999999999982
 40
0.2499999999999982
 40
0.4999999999999963
 40
0.4999999999999963
 40
0.562499999999996
 40
0.562499999999996
 40
0.6249999999999955
 40
0.6249999999999955
 40
0.7499999999999969
 40
0.7499999999999969
 40
1.0
 40
1.0
 40
1.0
 40
1.0
 10
37.75739665935997
 20
9.946990815307536
 30
0.0
 10
37.75524288060594
 20
9.916190344155412
 30
0.0
 10
37.75310318739521
 20
9.885591305656934
 30
0.0
 10
37.74885188784811
 20
9.824794889676427
 30
0.0
 10
37.74674005759321
 20
9.794594310010456
 30
0.0
 10
37.74054779465957
 20
9.706040824422636
 30
0.0
 10
37.73657419524246
 20
9.649215705320631
 30
0.0
 10
37.73180056265506
 20
9.58094957885596
 30
0.0
 10
37.73085559517149
 20
9.567435914250136
 30
0.0
 10
37.72898555664673
 20
9.540693117420332
 30
0.0
 10
37.72806041835278
 20
9.527463023437128
 30
0.0
 10
37.72534687163894
 20
9.488657497510647
 30
0.0
 10
37.72360915170321
 20
9.463806944662112
 30
0.0
 10
37.71860420306798
 20
9.39223284459763
 30
0.0
 10
37.71554308882573
 20
9.348456871445637
 30
0.0
 10
37.71276765198962
 20
9.30876627553577
 30
0.0
  0
LWPOLYLINE
  5
132
330
1F
100
AcDbEntity
  8
0
  6
Continuous
 62
     7
370
    15
100
AcDbPolyline
 90
        9
 70
   128
 43
0.0
 10
37.2639904414924
 20
8.96088865026503
 10
37.35077882532472
 20
8.971111471724858
 10
37.4332866538363
 20
8.992991788535004
 10
37.50893204201766
 20
9.025844969970242
 10
37.5753479686068
 20
9.068642749972937
 10
37.63045575511148
 20
9.120046226677587
 10
37.67253135823176
 20
9.178446488565807
 10
37.70025787581405
 20
9.242016240394553
 10
37.71276763961337
 20
9.308766269122575
  0
SPLINE
  5
133
330
1F
100
AcDbEntity
  8
0
  6
Continuous
 62
     7
370
    15
100
AcDbSpline
210
0.0
220
0.0
230
1.0
 70
    24
 71
     3
 72
    20
 73
    16
 74
     0
 42
0.0000000001
 43
0.0000000001
 40
0.0
 40
0.0
 40
0.0
 40
0.0
 40
0.1249999999999998
 40
0.1249999999999998
 40
0.2499999999999996
 40
0.2499999999999996
 40
0.4999999999999967
 40
0.4999999999999967
 40
0.5624999999999966
 40
0.5624999999999966
 40
0.6249999999999966
 40
0.6249999999999966
 40
0.7499999999999983
 40
0.7499999999999983
 40
1.0
 40
1.0
 40
1.0
 40
1.0
 10
34.19996992639865
 20
9.308766275535782
 30
0.0
 10
34.19858219120276
 20
9.328611813424938
 30
0.0
 10
34.1971153522788
 20
9.349588587328927
 30
0.0
 10
34.19402388732648
 20
9.393798595856338
 30
0.0
 10
34.19239788674216
 20
9.417051487545906
 30
0.0
 10
34.18736336753279
 20
9.489048466522152
 30
0.0
 10
34.18377547458968
 20
9.540357726066289
 30
0.0
 10
34.17900087815761
 20
9.608637636151886
 30
0.0
 10
34.17803133663726
 20
9.622502725856229
 30
0.0
 10
34.17606244056654
 20
9.650659251457916
 30
0.0
 10
34.17506271101631
 20
9.664956050102759
 30
0.0
 10
34.17205332115216
 20
9.707992330186193
 30
0.0
 10
34.17002211736849
 20
9.737039897595966
 30
0.0
 10
34.16385566013928
 20
9.825224344417193
 30
0.0
 10
34.15964829859529
 20
9.885392417679017
 30
0.0
 10
34.15534091902831
 20
9.946990815307536
 30
0.0
  0
LWPOLYLINE
  5
134
330
1F
100
AcDbEntity
  8
0
  6
Continuous
 62
     7
370
    15
100
AcDbPolyline
 90
        9
 70
   128
 43
0.0
 10
34.19996993877401
 20
9.308766269122575
 10
34.21247970257332
 20
9.242016240394553
 10
34.24020622015561
 20
9.178446488565807
 10
34.28228182327588
 20
9.120046226677587
 10
34.33738960978056
 20
9.068642749972937
 10
34.40380553637364
 20
9.025844969970242
 10
34.47945092455107
 20
8.992991788535004
 10
34.56195875306264
 20
8.971111471724858
 10
34.64874713689497
 20
8.96088865026503
  0
ARC
  5
136
330
1F
100
AcDbEntity
  8
0
  6
Continuous
 62
     7
370
    15
100
AcDbCircle
 10
39.18609415956467
 20
11.92879792275745
 30
0.0
 40
0.2410504396108488
100
AcDbArc
 50
357.8239296739006
 51
87.64444682950005
  0
ARC
  5
137
330
1F
100
AcDbEntity
  8
0
  6
Continuous
 62
     7
370
    15
100
AcDbCircle
 10
32.72664341882663
 20
11.92879792275745
 30
0.0
 40
0.2410504396108488
100
AcDbArc
 50
92.35555317049996
 51
182.1760703260994
  0
SPLINE
  5
143
330
1F
100
AcDbEntity
  8
0
  6
Continuous
 62
     7
370
    15
100
AcDbSpline
210
0.0
220
0.0
230
1.0
 70
     8
 71
     3
 72
     8
 73
     4
 74
     0
 42
0.0000000001
 43
0.0000000001
 40
0.0
 40
0.0
 40
0.0
 40
0.0
 40
1.0
 40
1.0
 40
1.0
 40
1.0
 10
32.48576674889991
 20
11.91964514609907
 30
0.0
 10
32.49777756936537
 20
11.35974096524291
 30
0.0
 10
32.51115428715164
 20
10.8000398093429
 30
0.0
 10
32.52552656701646
 20
10.24051464609906
 30
0.0
  0
SPLINE
  5
145
330
1F
100
AcDbEntity
  8
0
  6
Continuous
 62
     7
370
    15
100
AcDbSpline
210
0.0
220
0.0
230
1.0
 70
     8
 71
     3
 72
     8
 73
     4
 74
     0
 42
0.0000000001
 43
0.0000000001
 40
0.0
 40
0.0
 40
0.0
 40
0.0
 40
1.0
 40
1.0
 40
1.0
 40
1.0
 10
39.38721101137181
 20
10.24051464609905
 30
0.0
 10
39.40158329123664
 20
10.80003980934289
 30
0.0
 10
39.41496000902289
 20
11.35974096524289
 30
0.0
 10
39.42697082948836
 20
11.91964514609905
 30
0.0
  0
ARC
  5
146
330
1F
100
AcDbEntity
  8
0
  6
Continuous
 62
     7
370
    15
100
AcDbCircle
 10
39.76654408044203
 20
10.22610053969446
 30
0.0
 40
0.3796066923081279
100
AcDbArc
 50
177.8238882700994
 51
267.6445161345997
  0
ARC
  5
148
330
1F
100
AcDbEntity
  8
0
  6
Continuous
 62
     7
370
    15
100
AcDbCircle
 10
32.14619349794534
 20
10.22610053969446
 30
0.0
 40
0.3796066923081289
100
AcDbArc
 50
272.3554838654003
 51
2.176111729900537
  0
SPLINE
  5
151
330
1F
100
AcDbEntity
  8
0
  6
Continuous
 62
     7
370
    15
100
AcDbSpline
210
0.0
220
0.0
230
1.0
 70
    24
 71
     3
 72
    54
 73
    50
 74
     0
 42
0.0000000001
 43
0.0000000001
 40
0.0
 40
0.0
 40
0.0
 40
0.0
 40
0.0312500000000002
 40
0.0312500000000002
 40
0.0625000000000004
 40
0.0625000000000004
 40
0.0937500000000006
 40
0.0937500000000006
 40
0.1250000000000009
 40
0.1250000000000009
 40
0.1562500000000011
 40
0.1562500000000011
 40
0.1718750000000012
 40
0.1718750000000012
 40
0.1875000000000013
 40
0.1875000000000013
 40
0.2187500000000014
 40
0.2187500000000014
 40
0.2500000000000016
 40
0.2500000000000016
 40
0.2812500000000017
 40
0.2812500000000017
 40
0.3125000000000019
 40
0.3125000000000019
 40
0.3750000000000017
 40
0.3750000000000017
 40
0.4375000000000016
 40
0.4375000000000016
 40
0.4687500000000015
 40
0.4687500000000015
 40
0.5000000000000014
 40
0.5000000000000014
 40
0.5625000000000013
 40
0.5625000000000013
 40
0.6250000000000011
 40
0.6250000000000011
 40
0.687500000000001
 40
0.687500000000001
 40
0.7500000000000008
 40
0.7500000000000008
 40
0.8125000000000007
 40
0.8125000000000007
 40
0.8750000000000005
 40
0.8750000000000005
 40
0.9375000000000003
 40
0.9375000000000003
 40
0.9687500000000001
 40
0.9687500000000001
 40
1.0
 40
1.0
 40
1.0
 40
1.0
 10
37.71276765198962
 20
9.30876627553577
 30
0.0
 10
37.7086966230509
 20
9.250547849361746
 30
0.0
 10
37.70480535974454
 20
9.194900191500563
 30
0.0
 10
37.69737235138478
 20
9.088603219664097
 30
0.0
 10
37.69383452843506
 20
9.038009994384813
 30
0.0
 10
37.68704937560601
 20
8.940977788275821
 30
0.0
 10
37.68379335618977
 20
8.894414541279017
 30
0.0
 10
37.67738555742973
 20
8.80277874977135
 30
0.0
 10
37.67424705261522
 20
8.757896039873985
 30
0.0
 10
37.66822585304754
 20
8.671788874391475
 30
0.0
 10
37.66534352710412
 20
8.630569693031667
 30
0.0
 10
37.66122583638357
 20
8.571683972288717
 30
0.0
 10
37.65988863047719
 20
8.552561036904965
 30
0.0
 10
37.65728754549015
 20
8.515363788599902
 30
0.0
 10
37.65602378261672
 20
8.497291137519308
 30
0.0
 10
37.65230476481049
 20
8.444106705069675
 30
0.0
 10
37.64991989535193
 20
8.410001482876943
 30
0.0
 10
37.64521731649933
 20
8.342751472159918
 30
0.0
 10
37.64289256359556
 20
8.309505956753927
 30
0.0
 10
37.63832766712166
 20
8.244224895784503
 30
0.0
 10
37.63608740470286
 20
8.212187650605518
 30
0.0
 10
37.63170789283023
 20
8.149557712947768
 30
0.0
 10
37.62956995918858
 20
8.118983837459348
 30
0.0
 10
37.62333277738064
 20
8.029787982041581
 30
0.0
 10
37.61941618325515
 20
7.9737780765902
 30
0.0
 10
37.61201498112536
 20
7.867935955033445
 30
0.0
 10
37.60852683781893
 20
7.81805318175262
 30
0.0
 10
37.60358930714986
 20
7.747443203521926
 30
0.0
 10
37.60199572536016
 20
7.724653922194626
 30
0.0
 10
37.59893769960372
 20
7.68092211644734
 30
0.0
 10
37.59747308724654
 20
7.659977183931941
 30
0.0
 10
37.5932218293699
 20
7.599181363866716
 30
0.0
 10
37.59057369116495
 20
7.561311223196156
 30
0.0
 10
37.58554896775908
 20
7.489454330736673
 30
0.0
 10
37.58317206054712
 20
7.455462973975123
 30
0.0
 10
37.57868324474239
 20
7.391269917263702
 30
0.0
 10
37.57657210821692
 20
7.361079258390544
 30
0.0
 10
37.57265428948324
 20
7.305051840225974
 30
0.0
 10
37.5708561812239
 20
7.27933769411573
 30
0.0
 10
37.56760494740753
 20
7.232842884385307
 30
0.0
 10
37.56614109150915
 20
7.21190876973445
 30
0.0
 10
37.56343063770972
 20
7.173147474544594
 30
0.0
 10
37.5621755614288
 20
7.155199047524446
 30
0.0
 10
37.55987721078104
 20
7.122331101970046
 30
0.0
 10
37.55883685934892
 20
7.107453383349596
 30
0.0
 10
37.55771066576409
 20
7.091348064752586
 30
0.0
 10
37.5574121528182
 20
7.087079130739883
 30
0.0
 10
37.55701708737106
 20
7.081429431630862
 30
0.0
 10
37.5569211067414
 20
7.080056844678889
 30
0.0
 10
37.5569211067414
 20
7.080056844678887
 30
0.0
  0
SPLINE
  5
155
330
1F
100
AcDbEntity
  8
0
  6
Continuous
 62
     7
370
    15
100
AcDbSpline
210
0.0
220
0.0
230
1.0
 70
    24
 71
     3
 72
    56
 73
    52
 74
     0
 42
0.0000000001
 43
0.0000000001
 40
0.0
 40
0.0
 40
0.0
 40
0.0
 40
0.03125
 40
0.03125
 40
0.0625000000000001
 40
0.0625000000000001
 40
0.1250000000000002
 40
0.1250000000000002
 40
0.1875000000000002
 40
0.1875000000000002
 40
0.2500000000000003
 40
0.2500000000000003
 40
0.3125000000000003
 40
0.3125000000000003
 40
0.3750000000000003
 40
0.3750000000000003
 40
0.4375000000000003
 40
0.4375000000000003
 40
0.5000000000000004
 40
0.5000000000000004
 40
0.5312500000000002
 40
0.5312500000000002
 40
0.5625000000000002
 40
0.5625000000000002
 40
0.5937500000000001
 40
0.5937500000000001
 40
0.625
 40
0.625
 40
0.6875000000000002
 40
0.6875000000000002
 40
0.7500000000000005
 40
0.7500000000000005
 40
0.7812500000000004
 40
0.7812500000000004
 40
0.8125000000000003
 40
0.8125000000000003
 40
0.8281250000000003
 40
0.8281250000000003
 40
0.8437500000000003
 40
0.8437500000000003
 40
0.8593750000000003
 40
0.8593750000000003
 40
0.8750000000000003
 40
0.8750000000000003
 40
0.9062500000000003
 40
0.9062500000000003
 40
0.9375000000000001
 40
0.9375000000000001
 40
0.9687500000000001
 40
0.9687500000000001
 40
1.0
 40
1.0
 40
1.0
 40
1.0
 10
34.35581647164693
 20
7.080056844678887
 30
0.0
 10
34.35581647164693
 20
7.08005684467889
 30
0.0
 10
34.35572060595961
 20
7.081427787879093
 30
0.0
 10
34.35532651256693
 20
7.087063585961637
 30
0.0
 10
34.35502903348089
 20
7.091317735089407
 30
0.0
 10
34.35390666215521
 20
7.107368392833896
 30
0.0
 10
34.35286925746435
 20
7.122203971091011
 30
0.0
 10
34.35057616183449
 20
7.15499676638836
 30
0.0
 10
34.34932335849537
 20
7.17291268882634
 30
0.0
 10
34.3466196953112
 20
7.211576873693752
 30
0.0
 10
34.34515968676423
 20
7.232455968655846
 30
0.0
 10
34.341915505183
 20
7.278849926725202
 30
0.0
 10
34.34011989997046
 20
7.304528277598524
 30
0.0
 10
34.33620801248288
 20
7.360470874992132
 30
0.0
 10
34.33410079726023
 20
7.390605456622296
 30
0.0
 10
34.32962246943481
 20
7.454648528241911
 30
0.0
 10
34.32725206281408
 20
7.488546922217631
 30
0.0
 10
34.32224425109981
 20
7.560161966219844
 30
0.0
 10
34.31960818071154
 20
7.597859529071655
 30
0.0
 10
34.31537118861854
 20
7.658451338926072
 30
0.0
 10
34.3139109705516
 20
7.679333430163319
 30
0.0
 10
34.31085973429249
 20
7.722968141575262
 30
0.0
 10
34.30926797474544
 20
7.745731363618762
 30
0.0
 10
34.3059764722673
 20
7.792802042041626
 30
0.0
 10
34.30427724091696
 20
7.817102182475583
 30
0.0
 10
34.30078702859175
 20
7.867014544103508
 30
0.0
 10
34.2989919716463
 20
7.892685054392213
 30
0.0
 10
34.29344827736944
 20
7.971963576074668
 30
0.0
 10
34.28954186266488
 20
8.027827909025178
 30
0.0
 10
34.28126011111374
 20
8.146262473978877
 30
0.0
 10
34.27689219021502
 20
8.208726652987227
 30
0.0
 10
34.27007911574282
 20
8.306158157196323
 30
0.0
 10
34.2677624079563
 20
8.339288622065691
 30
0.0
 10
34.26307435099813
 20
8.406330960016994
 30
0.0
 10
34.26069678643863
 20
8.440331717286184
 30
0.0
 10
34.25698436609699
 20
8.493421801596543
 30
0.0
 10
34.25572211746097
 20
8.511472798073084
 30
0.0
 10
34.25312081202583
 20
8.548673198932977
 30
0.0
 10
34.25178080291492
 20
8.567836222008882
 30
0.0
 10
34.24902364979488
 20
8.607265348597266
 30
0.0
 10
34.24760702528536
 20
8.627524022919001
 30
0.0
 10
34.24470229335591
 20
8.669063624807302
 30
0.0
 10
34.24321228857149
 20
8.690371685950145
 30
0.0
 10
34.23864811437145
 20
8.755642417922434
 30
0.0
 10
34.23547928675765
 20
8.800958764052456
 30
0.0
 10
34.22901457233844
 20
8.893408487406588
 30
0.0
 10
34.22573172555285
 20
8.940355383659182
 30
0.0
 10
34.21890495795837
 20
9.037982708640077
 30
0.0
 10
34.21535235826624
 20
9.088787251180814
 30
0.0
 10
34.20790954029714
 20
9.1952245069664
 30
0.0
 10
34.20402316440525
 20
9.250802271544461
 30
0.0
 10
34.19996992639865
 20
9.308766275535782
 30
0.0
  0
ARC
  5
156
330
1F
100
AcDbEntity
  8
0
  6
Continuous
 62
     7
370
    15
100
AcDbCircle
 10
44.94656463789595
 20
10.24051515727461
 30
0.0
 40
0.3937005665111737
100
AcDbArc
 50
270.0000730294003
 51
356.9999260968997
  0
SPLINE
  5
157
330
1F
100
AcDbEntity
  8
0
  6
Continuous
 62
     7
370
    15
100
AcDbSpline
210
0.0
220
0.0
230
1.0
 70
    24
 71
     3
 72
    38
 73
    34
 74
     0
 42
0.0000000001
 43
0.0000000001
 40
0.0
 40
0.0
 40
0.0
 40
0.0
 40
0.1249999999999997
 40
0.1249999999999997
 40
0.2499999999999994
 40
0.2499999999999994
 40
0.2656249999999993
 40
0.2656249999999993
 40
0.2812499999999993
 40
0.2812499999999993
 40
0.3124999999999992
 40
0.3124999999999992
 40
0.3749999999999991
 40
0.3749999999999991
 40
0.4999999999999988
 40
0.4999999999999988
 40
0.5624999999999986
 40
0.5624999999999986
 40
0.5937499999999986
 40
0.5937499999999986
 40
0.6249999999999987
 40
0.6249999999999987
 40
0.7499999999999991
 40
0.7499999999999991
 40
0.8124999999999989
 40
0.8124999999999989
 40
0.8437499999999989
 40
0.8437499999999989
 40
0.8593749999999989
 40
0.8593749999999989
 40
0.8749999999999989
 40
0.8749999999999989
 40
1.0
 40
1.0
 40
1.0
 40
1.0
 10
44.94656501743389
 20
9.846814646099058
 30
0.0
 10
44.94656501743389
 20
9.846814646099058
 30
0.0
 10
44.91516543741045
 20
9.846814646099058
 30
0.0
 10
44.7927410877928
 20
9.846814646099055
 30
0.0
 10
44.70172175893556
 20
9.846814646099062
 30
0.0
 10
44.56540605925199
 20
9.846814646099058
 30
0.0
 10
44.54978563964281
 20
9.846814646099051
 30
0.0
 10
44.5175894394079
 20
9.846814646099051
 30
0.0
 10
44.5010076480819
 20
9.846814646099042
 30
0.0
 10
44.45001993446576
 20
9.846814646099042
 30
0.0
 10
44.41431295140436
 20
9.846814646099051
 30
0.0
 10
44.30212765429501
 20
9.846814646099051
 30
0.0
 10
44.22059079432306
 20
9.846814646099062
 30
0.0
 10
43.956168400535
 20
9.846814646099062
 30
0.0
 10
43.75352425215758
 20
9.846814646099051
 30
0.0
 10
43.41028964205879
 20
9.846814646099051
 30
0.0
 10
43.28933133208017
 20
9.846814646099046
 30
0.0
 10
43.09787221815965
 20
9.846814646099046
 30
0.0
 10
43.03266185225166
 20
9.846814646099042
 30
0.0
 10
42.89975426782564
 20
9.846814646099042
 30
0.0
 10
42.83201584934851
 20
9.846814646099046
 30
0.0
 10
42.4869573121831
 20
9.846814646099046
 30
0.0
 10
42.19051099641276
 20
9.846814646099055
 30
0.0
 10
41.71551744181875
 20
9.846814646099058
 30
0.0
 10
41.55215505177756
 20
9.846814646099051
 30
0.0
 10
41.29949254702071
 20
9.846814646099051
 30
0.0
 10
41.21399999114433
 20
9.846814646099051
 30
0.0
 10
41.08382657816934
 20
9.846814646099051
 30
0.0
 10
41.04011288087288
 20
9.846814646099055
 30
0.0
 10
40.95203424892395
 20
9.846814646099055
 30
0.0
 10
40.90767091898142
 20
9.846814646099058
 30
0.0
 10
40.50669719907801
 20
9.846814646099062
 30
0.0
 10
40.13602843910567
 20
9.846814646099058
 30
0.0
 10
39.75094238332149
 20
9.846814646099058
 30
0.0
  0
ARC
  5
158
330
1F
100
AcDbEntity
  8
0
  6
Continuous
 62
     7
370
    15
100
AcDbCircle
 10
26.96617294049142
 20
10.24051515727461
 30
0.0
 40
0.3937005665111732
100
AcDbArc
 50
183.0000739031003
 51
269.9999269705997
  0
SPLINE
  5
159
330
1F
100
AcDbEntity
  8
0
  6
Continuous
 62
     7
370
    15
100
AcDbSpline
210
0.0
220
0.0
230
1.0
 70
    24
 71
     3
 72
    38
 73
    34
 74
     0
 42
0.0000000001
 43
0.0000000001
 40
0.0
 40
0.0
 40
0.0
 40
0.0
 40
0.1250000000000015
 40
0.1250000000000015
 40
0.1406250000000016
 40
0.1406250000000016
 40
0.1562500000000017
 40
0.1562500000000017
 40
0.1875000000000019
 40
0.1875000000000019
 40
0.2500000000000021
 40
0.2500000000000021
 40
0.3750000000000023
 40
0.3750000000000023
 40
0.4062500000000024
 40
0.4062500000000024
 40
0.4375000000000024
 40
0.4375000000000024
 40
0.5000000000000023
 40
0.5000000000000023
 40
0.6250000000000022
 40
0.6250000000000022
 40
0.6875000000000019
 40
0.6875000000000019
 40
0.7187500000000018
 40
0.7187500000000018
 40
0.7343750000000016
 40
0.7343750000000016
 40
0.7500000000000015
 40
0.7500000000000015
 40
0.8750000000000007
 40
0.8750000000000007
 40
1.0
 40
1.0
 40
1.0
 40
1.0
 10
32.1617951950668
 20
9.846814646099065
 30
0.0
 10
31.77670913928263
 20
9.846814646099065
 30
0.0
 10
31.40604037931029
 20
9.846814646099065
 30
0.0
 10
31.00506665940689
 20
9.846814646099065
 30
0.0
 10
30.96070332946431
 20
9.846814646099065
 30
0.0
 10
30.87262469751538
 20
9.846814646099069
 30
0.0
 10
30.82891100021893
 20
9.846814646099069
 30
0.0
 10
30.69873758724395
 20
9.846814646099069
 30
0.0
 10
30.61324503136756
 20
9.846814646099069
 30
0.0
 10
30.36058252661071
 20
9.846814646099069
 30
0.0
 10
30.19722013656953
 20
9.846814646099073
 30
0.0
 10
29.7222265819755
 20
9.846814646099073
 30
0.0
 10
29.42578026620519
 20
9.846814646099058
 30
0.0
 10
29.08072172903978
 20
9.846814646099058
 30
0.0
 10
29.01298331056265
 20
9.846814646099073
 30
0.0
 10
28.88007572613663
 20
9.846814646099073
 30
0.0
 10
28.81486536022862
 20
9.84681464609909
 30
0.0
 10
28.62340624630812
 20
9.84681464609909
 30
0.0
 10
28.5024479363295
 20
9.846814646099073
 30
0.0
 10
28.15921332623072
 20
9.846814646099073
 30
0.0
 10
27.9565691778533
 20
9.846814646099058
 30
0.0
 10
27.69214678406524
 20
9.846814646099058
 30
0.0
 10
27.61060992409331
 20
9.846814646099083
 30
0.0
 10
27.49842462698394
 20
9.846814646099083
 30
0.0
 10
27.46271764392253
 20
9.84681464609909
 30
0.0
 10
27.41172993030642
 20
9.84681464609909
 30
0.0
 10
27.3951481389804
 20
9.846814646099078
 30
0.0
 10
27.3629519387455
 20
9.846814646099078
 30
0.0
 10
27.34733151913633
 20
9.846814646099073
 30
0.0
 10
27.21101581945277
 20
9.846814646099073
 30
0.0
 10
27.1199964905955
 20
9.846814646099078
 30
0.0
 10
26.99757214097787
 20
9.846814646099078
 30
0.0
 10
26.96617256095444
 20
9.846814646099087
 30
0.0
 10
26.96617256095444
 20
9.846814646099087
 30
0.0
  0
ARC
  5
15B
330
1F
100
AcDbEntity
  8
0
  6
Continuous
 62
     7
370
    15
100
AcDbCircle
 10
39.14542934641021
 20
11.92879821446946
 30
0.0
 40
0.2410501351652302
100
AcDbArc
 50
357.8238575357993
 51
87.64451896760011
  0
ARC
  5
15D
330
1F
100
AcDbEntity
  8
0
  6
Continuous
 62
     7
370
    15
100
AcDbCircle
 10
32.76758953483187
 20
11.92879821446946
 30
0.0
 40
0.241050135165228
100
AcDbArc
 50
92.3554810323999
 51
182.1761424641994
  0
SPLINE
  5
15E
330
1F
100
AcDbEntity
  8
0
  6
Continuous
 62
     7
370
    15
100
AcDbSpline
210
0.0
220
0.0
230
1.0
 70
     8
 71
     3
 72
    64
 73
    60
 74
     0
 42
0.0000000001
 43
0.0000000001
 40
0.0136840866674483
 40
0.0136840866674483
 40
0.0136840866674483
 40
0.0136840866674483
 40
0.015625
 40
0.015625
 40
0.017578125
 40
0.017578125
 40
0.01953125
 40
0.01953125
 40
0.0234375
 40
0.0234375
 40
0.03125
 40
0.03125
 40
0.0625
 40
0.0625
 40
0.125
 40
0.125
 40
0.1875
 40
0.1875
 40
0.21875
 40
0.21875
 40
0.234375
 40
0.234375
 40
0.25
 40
0.25
 40
0.375
 40
0.375
 40
0.4375
 40
0.4375
 40
0.46875
 40
0.46875
 40
0.484375
 40
0.484375
 40
0.5
 40
0.5
 40
0.625
 40
0.625
 40
0.6875
 40
0.6875
 40
0.71875
 40
0.71875
 40
0.734375
 40
0.734375
 40
0.75
 40
0.75
 40
0.8125
 40
0.8125
 40
0.84375
 40
0.84375
 40
0.875
 40
0.875
 40
0.9375
 40
0.9375
 40
0.953125
 40
0.953125
 40
0.9609375
 40
0.9609375
 40
0.96875
 40
0.96875
 40
0.9758708516517705
 40
0.9758708516517705
 40
0.9758708516517705
 40
0.9758708516517705
 10
34.13209312188338
 20
10.27944699800058
 30
0.0
 10
34.13213496285327
 20
10.2788159881043
 30
0.0
 10
34.13217967351885
 20
10.27814155109573
 30
0.0
 10
34.13227527366416
 20
10.27670108378443
 30
0.0
 10
34.13232627508211
 20
10.27593445125497
 30
0.0
 10
34.13243466360707
 20
10.27431255909837
 30
0.0
 10
34.13244837626026
 20
10.27410794225902
 30
0.0
 10
34.13253311762456
 20
10.27283646996109
 30
0.0
 10
34.13258943750013
 20
10.27198753823931
 30
0.0
 10
34.13275788860597
 20
10.26943693620435
 30
0.0
 10
34.13287022834982
 20
10.26772040798556
 30
0.0
 10
34.13342156115014
 20
10.25922349703392
 30
0.0
 10
34.13385729326392
 20
10.25226787280324
 30
0.0
 10
34.13510787558507
 20
10.23173018223843
 30
0.0
 10
34.13592777702216
 20
10.21745271659602
 30
0.0
 10
34.13745417522971
 20
10.19000312343134
 30
0.0
 10
34.13820028702124
 20
10.17614058113662
 30
0.0
 10
34.1393125319423
 20
10.15528442689657
 30
0.0
 10
34.13968209107434
 20
10.14832227051282
 30
0.0
 10
34.14023659446697
 20
10.13788435134499
 30
0.0
 10
34.1404214532828
 20
10.13440594707126
 30
0.0
 10
34.14079150418814
 20
10.12745454121289
 30
0.0
 10
34.14098745682603
 20
10.1237803277801
 30
0.0
 10
34.14255998951484
 20
10.09437525167612
 30
0.0
 10
34.1439815607943
 20
10.06834970912609
 30
0.0
 10
34.14620716203805
 20
10.03085864841928
 30
0.0
 10
34.14696357816072
 20
10.01862233615654
 30
0.0
 10
34.14811677291089
 20
10.00084560763678
 30
0.0
 10
34.14850418549543
 20
9.995016358755481
 30
0.0
 10
34.14908866760653
 20
9.986440204855476
 30
0.0
 10
34.14928405016694
 20
9.983609436980673
 30
0.0
 10
34.14967566804353
 20
9.978007615535915
 30
0.0
 10
34.14989007294884
 20
9.974983282996737
 30
0.0
 10
34.15149514794058
 20
9.952608945445764
 30
0.0
 10
34.15295936941268
 20
9.934162752911575
 30
0.0
 10
34.1551080167112
 20
9.909888216148891
 30
0.0
 10
34.1558150796961
 20
9.902361084548656
 30
0.0
 10
34.15683864814941
 20
9.892045841351077
 30
0.0
 10
34.15717359835284
 20
9.888769761230374
 30
0.0
 10
34.15766318445671
 20
9.884112741854163
 30
0.0
 10
34.15782423626841
 20
9.882603232942033
 30
0.0
 10
34.15814143095122
 20
9.879671900305028
 30
0.0
 10
34.15830951895728
 20
9.878142821334449
 30
0.0
 10
34.1590166163714
 20
9.871793821646324
 30
0.0
 10
34.15954651006916
 20
9.867316964387729
 30
0.0
 10
34.16026164045209
 20
9.861568084438587
 30
0.0
 10
34.16048669763314
 20
9.859812583388825
 30
0.0
 10
34.1609054920964
 20
9.856630179225167
 30
0.0
 10
34.16110591800474
 20
9.855155273971119
 30
0.0
 10
34.16161281432787
 20
9.851518352965769
 30
0.0
 10
34.16188533194949
 20
9.849701624509432
 30
0.0
 10
34.1621124589461
 20
9.848245384483679
 30
0.0
 10
34.16215266741776
 20
9.847991674317896
 30
0.0
 10
34.16220478651911
 20
9.847666781480537
 30
0.0
 10
34.16222079403195
 20
9.847567761834945
 30
0.0
 10
34.16225001764979
 20
9.847388163721277
 30
0.0
 10
34.16227874524552
 20
9.847219446733877
 30
0.0
 10
34.1623142670623
 20
9.847037120496437
 30
0.0
 10
34.16232772440492
 20
9.84697373568167
 30
0.0
 10
34.16233801558983
 20
9.846927685868113
 30
0.0
  0
SPLINE
  5
15F
330
1F
100
AcDbEntity
  8
0
  6
Continuous
 62
     7
370
    15
100
AcDbSpline
210
0.0
220
0.0
230
1.0
 70
    24
 71
     3
 72
    12
 73
     8
 74
     0
 42
0.0000000001
 43
0.0000000001
 40
0.0
 40
0.0
 40
0.0
 40
0.0
 40
0.25
 40
0.25
 40
0.5
 40
0.5
 40
1.0
 40
1.0
 40
1.0
 40
1.0
 10
34.16234581706724
 20
9.846814646099062
 30
0.0
 10
34.04998553976795
 20
9.846814646099062
 30
0.0
 10
33.93816436108333
 20
9.846814646099062
 30
0.0
 10
33.71564344319798
 20
9.846814646099062
 30
0.0
 10
33.6048685980716
 20
9.846814646099062
 30
0.0
 10
33.27477466443767
 20
9.846814646099062
 30
0.0
 10
33.05837837924668
 20
9.846814646099058
 30
0.0
 10
32.84531914710202
 20
9.846814646099058
 30
0.0
  0
SPLINE
  5
160
330
1F
100
AcDbEntity
  8
0
  6
Continuous
 62
     7
370
    15
100
AcDbSpline
210
0.0
220
0.0
230
1.0
 70
    24
 71
     3
 72
    10
 73
     6
 74
     0
 42
0.0000000001
 43
0.0000000001
 40
0.0
 40
0.0
 40
0.0
 40
0.0
 40
0.5226203427603827
 40
0.9150937530967008
 40
1.0
 40
1.0
 40
1.0
 40
1.0
 10
32.48162146384889
 20
9.846814646099065
 30
0.0
 10
32.54498515934239
 20
9.846814646099065
 30
0.0
 10
32.65593323612975
 20
9.846814646099065
 30
0.0
 10
32.77716273933317
 20
9.846814646099062
 30
0.0
 10
32.83505010595941
 20
9.846814646099065
 30
0.0
 10
32.84534589248657
 20
9.846814646099065
 30
0.0
  0
SPLINE
  5
163
330
1F
100
AcDbEntity
  8
0
  6
Continuous
 62
     7
370
    15
100
AcDbSpline
210
0.0
220
0.0
230
1.0
 70
    24
 71
     3
 72
    14
 73
    10
 74
     0
 42
0.0000000001
 43
0.0000000001
 40
0.0
 40
0.0
 40
0.0
 40
0.0
 40
0.0322575764199754
 40
0.0885127385763316
 40
0.3124573734792551
 40
0.5387569990762803
 40
0.7625985628592135
 40
0.9888282217552761
 40
1.0
 40
1.0
 40
1.0
 40
1.0
 10
39.06741105504382
 20
9.846814646099058
 30
0.0
 10
39.05368919989243
 20
9.846814646099058
 30
0.0
 10
39.01603730187061
 20
9.846814646099058
 30
0.0
 10
38.88255049293613
 20
9.846814646099058
 30
0.0
 10
38.6639228675532
 20
9.846814646099058
 30
0.0
 10
38.36868812291168
 20
9.846814646099058
 30
0.0
 10
38.06881958541724
 20
9.846814646099058
 30
0.0
 10
37.86222600945378
 20
9.846814646099058
 30
0.0
 10
37.75541790118735
 20
9.846814646099058
 30
0.0
 10
37.75039166160489
 20
9.846814646099058
 30
0.0
  0
SPLINE
  5
166
330
1F
100
AcDbEntity
  8
0
  6
Continuous
 62
     7
370
    15
100
AcDbSpline
210
0.0
220
0.0
230
1.0
 70
    24
 71
     3
 72
    10
 73
     6
 74
     0
 42
0.0000000001
 43
0.0000000001
 40
0.0
 40
0.0
 40
0.0
 40
0.0
 40
0.5200624762467347
 40
0.9155611591620759
 40
1.0
 40
1.0
 40
1.0
 40
1.0
 10
39.43034369068401
 20
9.846814646099055
 30
0.0
 10
39.36742351652814
 20
9.846814646099058
 30
0.0
 10
39.25665361826401
 20
9.846814646099058
 30
0.0
 10
39.13568130036578
 20
9.846814646099055
 30
0.0
 10
39.07760644142539
 20
9.846814646099058
 30
0.0
 10
39.06738891616835
 20
9.846814646099058
 30
0.0
  0
SPLINE
  5
168
330
1F
100
AcDbEntity
  8
0
  6
Continuous
 62
     7
370
    15
100
AcDbSpline
210
0.0
220
0.0
230
1.0
 70
     8
 71
     3
 72
     8
 73
     4
 74
     0
 42
0.0000000001
 43
0.0000000001
 40
0.0
 40
0.0
 40
0.0
 40
0.0
 40
1.0
 40
1.0
 40
1.0
 40
1.0
 10
39.34216327299246
 20
10.26891177171428
 30
0.0
 10
39.34190970097238
 20
10.25942929155904
 30
0.0
 10
39.34158461236576
 20
10.24996358305689
 30
0.0
 10
39.34118800763652
 20
10.24051464609905
 30
0.0
  0
SPLINE
  5
169
330
1F
100
AcDbEntity
  8
0
  6
Continuous
 62
     7
370
    15
100
AcDbSpline
210
0.0
220
0.0
230
1.0
 70
     8
 71
     3
 72
    14
 73
    10
 74
     0
 42
0.0000000001
 43
0.0000000001
 40
0.0
 40
0.0
 40
0.0
 40
0.0
 40
0.0110013445851736
 40
0.0110013445851736
 40
0.0110013445851736
 40
0.0265161254952664
 40
0.0265161254952664
 40
0.0265161254952664
 40
0.042030954163525
 40
0.042030954163525
 40
0.042030954163525
 40
0.042030954163525
 10
39.3863057156287
 20
11.91964514609906
 30
0.0
 10
39.38245434294095
 20
11.77562203875933
 30
0.0
 10
39.37860297458278
 20
11.63159893062903
 30
0.0
 10
39.37475161055261
 20
11.48757582170843
 30
0.0
 10
39.36932017727002
 20
11.28446546882438
 30
0.0
 10
39.3638887525952
 20
11.08135511436855
 30
0.0
 10
39.3584573365216
 20
10.87824475834213
 30
0.0
 10
39.35302590372882
 20
10.67513377709399
 30
0.0
 10
39.34759447953731
 20
10.47202279427525
 30
0.0
 10
39.34216306393803
 20
10.26891180988758
 30
0.0
  0
SPLINE
  5
16A
330
1F
100
AcDbEntity
  8
0
  6
Continuous
 62
     7
370
    15
100
AcDbSpline
210
0.0
220
0.0
230
1.0
 70
     8
 71
     3
 72
    14
 73
    10
 74
     0
 42
0.0000000001
 43
0.0000000001
 40
0.0
 40
0.0
 40
0.0
 40
0.0
 40
0.0155070673732579
 40
0.0155070673732579
 40
0.0155070673732579
 40
0.0310142577411938
 40
0.0310142577411938
 40
0.0310142577411938
 40
0.0420365524703558
 40
0.0420365524703558
 40
0.0420365524703558
 40
0.0420365524703558
 10
32.57087093860287
 20
10.26869364629199
 30
0.0
 10
32.5654185194976
 20
10.47169868350294
 30
0.0
 10
32.55997822490596
 20
10.67470594523553
 30
0.0
 10
32.55454554901641
 20
10.87771459679574
 30
0.0
 10
32.54911283001931
 20
11.08072485920219
 30
0.0
 10
32.54368782719098
 20
11.28373653184676
 30
0.0
 10
32.53826703229226
 20
11.48674897079134
 30
0.0
 10
32.53441400684173
 20
11.63104738249044
 30
0.0
 10
32.53056312349104
 20
11.77534618476658
 30
0.0
 10
32.52671311370415
 20
11.91964514609906
 30
0.0
  0
SPLINE
  5
16B
330
1F
100
AcDbEntity
  8
0
  6
Continuous
 62
     7
370
    15
100
AcDbSpline
210
0.0
220
0.0
230
1.0
 70
     8
 71
     3
 72
     8
 73
     4
 74
     0
 42
0.0000000001
 43
0.0000000001
 40
0.0
 40
0.0
 40
0.0
 40
0.0
 40
1.0
 40
1.0
 40
1.0
 40
1.0
 10
32.5718421156588
 20
10.24051464609906
 30
0.0
 10
32.57144853342277
 20
10.24989120597017
 30
0.0
 10
32.57112537773255
 20
10.25928431056372
 30
0.0
 10
32.57087264909845
 20
10.2686939599996
 30
0.0
  0
LWPOLYLINE
  5
170
330
1F
100
AcDbEntity
  8
0
  6
Continuous
 62
     7
370
    15
100
AcDbPolyline
 90
        3
 70
   128
 43
0.0
 10
44.04267600264927
 20
9.846814590763937
 10
43.9607649527158
 20
9.833015057776444
 10
43.88789724689639
 20
9.793139571507889
  0
SPLINE
  5
171
330
1F
100
AcDbEntity
  8
0
  6
Continuous
 62
     7
370
    15
100
AcDbSpline
210
0.0
220
0.0
230
1.0
 70
     8
 71
     3
 72
    34
 73
    30
 74
     0
 42
0.0000000001
 43
0.0000000001
 40
0.0
 40
0.0
 40
0.0
 40
0.0
 40
0.0625000000000001
 40
0.0625000000000001
 40
0.1250000000000002
 40
0.1250000000000002
 40
0.1875000000000003
 40
0.1875000000000003
 40
0.2500000000000004
 40
0.2500000000000004
 40
0.3125000000000005
 40
0.3125000000000005
 40
0.3750000000000006
 40
0.3750000000000006
 40
0.4375000000000007
 40
0.4375000000000007
 40
0.5000000000000008
 40
0.5000000000000008
 40
0.6250000000000015
 40
0.6250000000000015
 40
0.7500000000000022
 40
0.7500000000000022
 40
0.8750000000000026
 40
0.8750000000000026
 40
0.937500000000003
 40
0.937500000000003
 40
0.9687500000000015
 40
0.9687500000000015
 40
1.0
 40
1.0
 40
1.0
 40
1.0
 10
39.34118800763652
 20
10.24051464609905
 30
0.0
 10
39.33979979432927
 20
10.22028615405253
 30
0.0
 10
39.33904571175938
 20
10.2009512665161
 30
0.0
 10
39.33849486460799
 20
10.16376556172654
 30
0.0
 10
39.338708741084
 20
10.14579841706184
 30
0.0
 10
39.33987431391137
 20
10.11209599811313
 30
0.0
 10
39.34080812722135
 20
10.09653069606791
 30
0.0
 10
39.34315992094454
 20
10.06735938585503
 30
0.0
 10
39.34458023119286
 20
10.05375982099757
 30
0.0
 10
39.34778273200516
 20
10.02818236568275
 30
0.0
 10
39.34954894483386
 20
10.01634504581271
 30
0.0
 10
39.35328439700615
 20
9.994387002233413
 30
0.0
 10
39.35525925535668
 20
9.984230415770273
 30
0.0
 10
39.3593628191725
 20
9.965291405573452
 30
0.0
 10
39.36149188411214
 20
9.956510616020002
 30
0.0
 10
39.36586331549271
 20
9.940147868919074
 30
0.0
 10
39.36810538584848
 20
9.932557045212563
 30
0.0
 10
39.37492734744596
 20
9.911574533902118
 30
0.0
 10
39.37965495278841
 20
9.899857605469108
 30
0.0
 10
39.38935315450594
 20
9.880105188193123
 30
0.0
 10
39.39432510132029
 20
9.872079545953269
 30
0.0
 10
39.40444822769073
 20
9.859323600381422
 30
0.0
 10
39.40959911608734
 20
9.854608119739513
 30
0.0
 10
39.41735107245206
 20
9.849923612006861
 30
0.0
 10
39.41994265216865
 20
9.848757577270738
 30
0.0
 10
39.42383805558415
 20
9.847591681959189
 30
0.0
 10
39.42513786568511
 20
9.847300346906182
 30
0.0
 10
39.42773964029676
 20
9.846911811627656
 30
0.0
 10
39.42904748516495
 20
9.846814646099012
 30
0.0
 10
39.43034369068658
 20
9.846814646099055
 30
0.0
  0
LINE
  5
172
330
1F
100
AcDbEntity
  8
0
  6
Continuous
 62
     7
370
    15
100
AcDbLine
 10
39.75094248470434
 20
9.846814590763937
 30
0.0
 11
39.43034376282827
 21
9.846814590763937
 31
0.0
  0
SPLINE
  5
173
330
1F
100
AcDbEntity
  8
0
  6
Continuous
 62
     7
370
    15
100
AcDbSpline
210
0.0
220
0.0
230
1.0
 70
     8
 71
     3
 72
    32
 73
    28
 74
     0
 42
0.0000000001
 43
0.0000000001
 40
0.0
 40
0.0
 40
0.0
 40
0.0
 40
0.0625
 40
0.0625
 40
0.125
 40
0.125
 40
0.1874999999999999
 40
0.1874999999999999
 40
0.2499999999999999
 40
0.2499999999999999
 40
0.3124999999999999
 40
0.3124999999999999
 40
0.3749999999999999
 40
0.3749999999999999
 40
0.5
 40
0.5
 40
0.625
 40
0.625
 40
0.7499999999999999
 40
0.7499999999999999
 40
0.8749999999999998
 40
0.8749999999999998
 40
0.9374999999999982
 40
0.9374999999999982
 40
0.9687499999999992
 40
0.9687499999999992
 40
1.0
 40
1.0
 40
1.0
 40
1.0
 10
32.5718421156588
 20
10.24051464609906
 30
0.0
 10
32.57322956079688
 20
10.22029813983529
 30
0.0
 10
32.57399420330036
 20
10.20073330606754
 30
0.0
 10
32.57453116429533
 20
10.16306671329732
 30
0.0
 10
32.57430132755722
 20
10.14551755712012
 30
0.0
 10
32.57314522109532
 20
10.11238448150328
 30
0.0
 10
32.57221503103622
 20
10.09680108545163
 30
0.0
 10
32.56982369259291
 20
10.06730221357254
 30
0.0
 10
32.56839162710988
 20
10.0537302317144
 30
0.0
 10
32.5652002857242
 20
10.02840135472716
 30
0.0
 10
32.56343963014226
 20
10.016649592494
 30
0.0
 10
32.55967549082553
 20
9.994650920641477
 30
0.0
 10
32.55766438517782
 20
9.984375468757111
 30
0.0
 10
32.55140306683293
 20
9.955737519497596
 30
0.0
 10
32.54696610881108
 20
9.939608247133509
 30
0.0
 10
32.53777678324191
 20
9.911688064537933
 30
0.0
 10
32.53295932699014
 20
9.899873955397374
 30
0.0
 10
32.52305334074176
 20
9.879969949795425
 30
0.0
 10
32.51800420469222
 20
9.871956056030716
 30
0.0
 10
32.50777968673061
 20
9.859265872080678
 30
0.0
 10
32.50260370273525
 20
9.854594523724996
 30
0.0
 10
32.49477683848257
 20
9.849924884467306
 30
0.0
 10
32.49215728337354
 20
9.848759830908216
 30
0.0
 10
32.48821538256163
 20
9.847593526363493
 30
0.0
 10
32.48689931733242
 20
9.847301738119956
 30
0.0
 10
32.48426351262514
 20
9.84691232249936
 30
0.0
 10
32.4829521022562
 20
9.846814646099065
 30
0.0
 10
32.48162146397438
 20
9.846814646099065
 30
0.0
  0
LINE
  5
174
330
1F
100
AcDbEntity
  8
0
  6
Continuous
 62
     7
370
    15
100
AcDbLine
 10
32.48162147935968
 20
9.846814590763937
 30
0.0
 11
32.16179509368302
 21
9.846814590763937
 31
0.0
  0
LWPOLYLINE
  5
179
330
1F
100
AcDbEntity
  8
0
  6
Continuous
 62
     7
370
    15
100
AcDbPolyline
 90
        2
 70
   128
 43
0.0
 10
35.95636878919368
 20
12.64208468228344
 10
35.95636878919368
 20
12.64208468228344
  0
SPLINE
  5
17A
330
1F
100
AcDbEntity
  8
0
  6
Continuous
 62
     7
370
    15
100
AcDbSpline
210
0.0
220
0.0
230
1.0
 70
    24
 71
     3
 72
    15
 73
    11
 74
     0
 42
0.0000000001
 43
0.0000000001
 40
0.0
 40
0.0
 40
0.0
 40
0.0
 40
0.1309745846325935
 40
0.2704332056759977
 40
0.4156256366326613
 40
0.5630153709624051
 40
0.6779687209821415
 40
0.7900776745739378
 40
0.9205401927246363
 40
1.0
 40
1.0
 40
1.0
 40
1.0
 10
35.95636878919413
 20
12.64208464609906
 30
0.0
 10
36.5093015105748
 20
12.64208464609905
 30
0.0
 10
37.65098383608539
 20
12.64208464609904
 30
0.0
 10
39.32983034458006
 20
12.64208464609905
 30
0.0
 10
40.90610387484074
 20
12.64208464609903
 30
0.0
 10
42.15244527797456
 20
12.64208464609906
 30
0.0
 10
43.04130437471091
 20
12.64208464609904
 30
0.0
 10
43.66001549116364
 20
12.6420846460991
 30
0.0
 10
43.95150887925141
 20
12.64208464609905
 30
0.0
 10
44.00071810937783
 20
12.64208464609906
 30
0.0
 10
44.01934478919416
 20
12.64208464609906
 30
0.0
  0
SPLINE
  5
17B
330
1F
100
AcDbEntity
  8
0
  6
Continuous
 62
     7
370
    15
100
AcDbSpline
210
0.0
220
0.0
230
1.0
 70
    24
 71
     3
 72
    15
 73
    11
 74
     0
 42
0.0000000001
 43
0.0000000001
 40
0.0
 40
0.0
 40
0.0
 40
0.0
 40
0.1309745846325935
 40
0.2704332056759977
 40
0.4156256366326613
 40
0.5630153709624051
 40
0.6779687209821415
 40
0.7900776745739378
 40
0.9205401927246363
 40
1.0
 40
1.0
 40
1.0
 40
1.0
 10
35.95636878919413
 20
12.64208464609906
 30
0.0
 10
35.40343606781347
 20
12.64208464609905
 30
0.0
 10
34.26175374230287
 20
12.64208464609904
 30
0.0
 10
32.58290723380822
 20
12.64208464609905
 30
0.0
 10
31.00663370354754
 20
12.64208464609903
 30
0.0
 10
29.76029230041373
 20
12.64208464609906
 30
0.0
 10
28.8714332036774
 20
12.64208464609904
 30
0.0
 10
28.25272208722466
 20
12.6420846460991
 30
0.0
 10
27.9612286991369
 20
12.64208464609905
 30
0.0
 10
27.91201946901051
 20
12.64208464609906
 30
0.0
 10
27.89339278919416
 20
12.64208464609906
 30
0.0
  0
LINE
  5
17C
330
1F
100
AcDbEntity
  8
0
  6
Continuous
 62
     7
370
    15
100
AcDbLine
 10
44.01934458550512
 20
12.44523457668522
 30
0.0
 11
44.01934458550512
 21
12.64208468228344
 31
0.0
  0
LINE
  5
17E
330
1F
100
AcDbEntity
  8
0
  6
Continuous
 62
     7
370
    15
100
AcDbLine
 10
27.89339299288225
 20
12.44523457668522
 30
0.0
 11
27.89339299288225
 21
12.64208468228344
 31
0.0
  0
LWPOLYLINE
  5
180
330
1F
100
AcDbEntity
  8
0
  6
Continuous
 62
     7
370
    15
100
AcDbPolyline
 90
        3
 70
   128
 43
0.0
 10
27.87006157573809
 20
9.846814590763937
 10
27.95197262567157
 20
9.833015057776444
 10
28.02484033149492
 20
9.793139571507889
  0
SPLINE
  5
181
330
1F
100
AcDbEntity
  8
0
  6
Continuous
 62
     7
370
    15
100
AcDbSpline
210
0.0
220
0.0
230
1.0
 70
     8
 71
     3
 72
    13
 73
     9
 74
     0
 42
0.0000000001
 43
0.0000000001
 40
0.0161112518705325
 40
0.0161112518705325
 40
0.0161112518705325
 40
0.0161112518705325
 40
0.1781413381067956
 40
0.4731727832469358
 40
0.5302098740003533
 40
0.7242564265697908
 40
0.7736610210768735
 40
0.989753992787666
 40
0.989753992787666
 40
0.989753992787666
 40
0.989753992787666
 10
37.60407354126438
 20
7.754367402186185
 30
0.0
 10
37.96668736878074
 20
7.801977785288461
 30
0.0
 10
38.97179277073391
 20
7.935190710150298
 30
0.0
 10
39.47886397744931
 20
8.046839783369939
 30
0.0
 10
40.80870520973249
 20
8.345610926600746
 30
0.0
 10
41.94047033252008
 20
8.692423671017005
 30
0.0
 10
43.32183389679254
 20
9.343448367379764
 30
0.0
 10
43.42731285391619
 20
9.430038849202354
 30
0.0
 10
43.88789658316002
 20
9.793140255184471
 30
0.0
  0
SPLINE
  5
182
330
1F
100
AcDbEntity
  8
0
  6
Continuous
 62
     7
370
    15
100
AcDbSpline
210
0.0
220
0.0
230
1.0
 70
     8
 71
     3
 72
    13
 73
     9
 74
     0
 42
0.0000000001
 43
0.0000000001
 40
0.0161112518705325
 40
0.0161112518705325
 40
0.0161112518705325
 40
0.0161112518705325
 40
0.1781413381067956
 40
0.4731727832469358
 40
0.5302098740003533
 40
0.7242564265697908
 40
0.7736610210768735
 40
0.9897539927876708
 40
0.9897539927876708
 40
0.9897539927876708
 40
0.9897539927876708
 10
34.30866403712395
 20
7.754367402186185
 30
0.0
 10
33.9460502096076
 20
7.801977785288461
 30
0.0
 10
32.94094480765442
 20
7.935190710150296
 30
0.0
 10
32.43387360093902
 20
8.046839783369938
 30
0.0
 10
31.10403236865584
 20
8.345610926600745
 30
0.0
 10
29.97226724586823
 20
8.692423671017005
 30
0.0
 10
28.59090368159577
 20
9.343448367379771
 30
0.0
 10
28.48542472447213
 20
9.430038849202357
 30
0.0
 10
28.02484099522827
 20
9.793140255184496
 30
0.0
  0
SPLINE
  5
185
330
1F
100
AcDbEntity
  8
0
  6
Continuous
 62
     7
370
    15
100
AcDbSpline
210
0.0
220
0.0
230
1.0
 70
     8
 71
     3
 72
    38
 73
    34
 74
     0
 42
0.0000000001
 43
0.0000000001
 40
0.0
 40
0.0
 40
0.0
 40
0.0
 40
0.0624999999999997
 40
0.0624999999999997
 40
0.1249999999999993
 40
0.1249999999999993
 40
0.1874999999999989
 40
0.1874999999999989
 40
0.2187499999999988
 40
0.2187499999999988
 40
0.2499999999999987
 40
0.2499999999999987
 40
0.3749999999999989
 40
0.3749999999999989
 40
0.4374999999999992
 40
0.4374999999999992
 40
0.4999999999999993
 40
0.4999999999999993
 40
0.6249999999999997
 40
0.6249999999999997
 40
0.6562499999999997
 40
0.6562499999999997
 40
0.6874999999999999
 40
0.6874999999999999
 40
0.75
 40
0.75
 40
0.8125000000000001
 40
0.8125000000000001
 40
0.8437500000000001
 40
0.8437500000000001
 40
0.8750000000000001
 40
0.8750000000000001
 40
1.0
 40
1.0
 40
1.0
 40
1.0
 10
37.12580334580611
 20
6.52866310795559
 30
0.0
 10
37.08899745358216
 20
6.52866310795559
 30
0.0
 10
37.04990070019457
 20
6.528663107955589
 30
0.0
 10
36.96842230437891
 20
6.528663107955588
 30
0.0
 10
36.92598597082284
 20
6.528663107955588
 30
0.0
 10
36.83779374697859
 20
6.528663107955588
 30
0.0
 10
36.79203775329498
 20
6.528663107955587
 30
0.0
 10
36.72088612731351
 20
6.528663107955587
 30
0.0
 10
36.6967484556257
 20
6.528663107955587
 30
0.0
 10
36.64761673009071
 20
6.528663107955589
 30
0.0
 10
36.62255821996617
 20
6.528663107955589
 30
0.0
 10
36.49648391236581
 20
6.528663107955594
 30
0.0
 10
36.39238836070169
 20
6.528663059419246
 30
0.0
 10
36.23150693651404
 20
6.528662747106469
 30
0.0
 10
36.17703738290315
 20
6.528662689206987
 30
0.0
 10
36.06663473471396
 20
6.528662904918189
 30
0.0
 10
36.01106600758892
 20
6.528663108876323
 30
0.0
 10
35.84584026960488
 20
6.528663106104609
 30
0.0
 10
35.73698531966667
 20
6.528662594097295
 30
0.0
 10
35.60252948270092
 20
6.5286624907353
 30
0.0
 10
35.57571979757158
 20
6.528662466673441
 30
0.0
 10
35.52226669128238
 20
6.528662369373891
 30
0.0
 10
35.49563370591192
 20
6.528662295057189
 30
0.0
 10
35.41693996468815
 20
6.528662187376832
 30
0.0
 10
35.36575665257332
 20
6.528662350128951
 30
0.0
 10
35.26588458303187
 20
6.528663567495407
 30
0.0
 10
35.21719595261638
 20
6.52866436487494
 30
0.0
 10
35.14604949605609
 20
6.528663894697997
 30
0.0
 10
35.12264906809987
 20
6.52866343969803
 30
0.0
 10
35.07648891551859
 20
6.528662477475456
 30
0.0
 10
35.05367372184324
 20
6.528661971140785
 30
0.0
 10
34.94201884050807
 20
6.528660691226665
 30
0.0
 10
34.86053142146369
 20
6.528666262073063
 30
0.0
 10
34.78692067383884
 20
6.528666418781365
 30
0.0
  0
SPLINE
  5
187
330
1F
100
AcDbEntity
  8
0
  6
Continuous
 62
     7
370
    15
100
AcDbSpline
210
0.0
220
0.0
230
1.0
 70
     8
 71
     3
 72
    24
 73
    20
 74
     0
 42
0.0000000001
 43
0.0000000001
 40
0.0
 40
0.0
 40
0.0
 40
0.0
 40
0.1250000000000005
 40
0.1250000000000005
 40
0.1875000000000005
 40
0.1875000000000005
 40
0.2500000000000006
 40
0.2500000000000006
 40
0.3750000000000005
 40
0.3750000000000005
 40
0.5000000000000005
 40
0.5000000000000005
 40
0.6250000000000004
 40
0.6250000000000004
 40
0.7500000000000002
 40
0.7500000000000002
 40
0.8750000000000001
 40
0.8750000000000001
 40
1.0
 40
1.0
 40
1.0
 40
1.0
 10
34.78692067383884
 20
6.528666418781365
 30
0.0
 10
34.75129456215802
 20
6.537366216016481
 30
0.0
 10
34.71810400736874
 20
6.549198523023382
 30
0.0
 10
34.67162526803083
 20
6.570685987750376
 30
0.0
 10
34.65664792868124
 20
6.578500523454826
 30
0.0
 10
34.62797935247946
 20
6.595150558991504
 30
0.0
 10
34.61429100478694
 20
6.603977842060972
 30
0.0
 10
34.57502821905895
 20
6.631790688004779
 30
0.0
 10
34.55124874158419
 20
6.652097890207917
 30
0.0
 10
34.50798943441608
 20
6.695610048604224
 30
0.0
 10
34.48851263665077
 20
6.718819410245979
 30
0.0
 10
34.45357680341658
 20
6.767769112692568
 30
0.0
 10
34.43809011234939
 20
6.793581656431784
 30
0.0
 10
34.41119771372321
 20
6.8470546234017
 30
0.0
 10
34.39982399827739
 20
6.874613832662785
 30
0.0
 10
34.38089766551027
 20
6.931144579718631
 30
0.0
 10
34.37334599841567
 20
6.960117896133248
 30
0.0
 10
34.36187376016554
 20
7.019272864284856
 30
0.0
 10
34.35795369566376
 20
7.049493117298588
 30
0.0
 10
34.35581647164693
 20
7.080056844678887
 30
0.0
  0
SPLINE
  5
188
330
1F
100
AcDbEntity
  8
0
  6
Continuous
 62
     7
370
    15
100
AcDbSpline
210
0.0
220
0.0
230
1.0
 70
     8
 71
     3
 72
    26
 73
    22
 74
     0
 42
0.0000000001
 43
0.0000000001
 40
0.0
 40
0.0
 40
0.0
 40
0.0
 40
0.1249999999999995
 40
0.1249999999999995
 40
0.1874999999999993
 40
0.1874999999999993
 40
0.2499999999999992
 40
0.2499999999999992
 40
0.3749999999999993
 40
0.3749999999999993
 40
0.4999999999999994
 40
0.4999999999999994
 40
0.6249999999999996
 40
0.6249999999999996
 40
0.7499999999999997
 40
0.7499999999999997
 40
0.8749999999999998
 40
0.8749999999999998
 40
0.9375
 40
0.9375
 40
1.0
 40
1.0
 40
1.0
 40
1.0
 10
37.12580334580611
 20
6.52866310795559
 30
0.0
 10
37.16153522959618
 20
6.537387777339686
 30
0.0
 10
37.19482991535751
 20
6.549266865647681
 30
0.0
 10
37.24145583971619
 20
6.570856178410812
 30
0.0
 10
37.25647779922725
 20
6.578710160318704
 30
0.0
 10
37.28515222811906
 20
6.595395614063124
 30
0.0
 10
37.29883636613751
 20
6.604237318329642
 30
0.0
 10
37.3380712983036
 20
6.632081101463787
 30
0.0
 10
37.36181216116886
 20
6.652392382979726
 30
0.0
 10
37.40497748587294
 20
6.695871848178596
 30
0.0
 10
37.42439873758101
 20
6.719044559368268
 30
0.0
 10
37.4592232246433
 20
6.767875099602258
 30
0.0
 10
37.47463040027308
 20
6.793546650615206
 30
0.0
 10
37.50156563904271
 20
6.847106945807936
 30
0.0
 10
37.51294477165263
 20
6.874693506613921
 30
0.0
 10
37.53186833087988
 20
6.931242995073938
 30
0.0
 10
37.53941170783855
 20
6.9602077186489
 30
0.0
 10
37.54800376545146
 20
7.004532412156982
 30
0.0
 10
37.55041298734762
 20
7.019453582368183
 30
0.0
 10
37.55433641806435
 20
7.049561751182683
 30
0.0
 10
37.5558488663859
 20
7.064723093208023
 30
0.0
 10
37.5569211067414
 20
7.080056844678887
 30
0.0
  0
LINE
  5
189
330
1F
100
AcDbEntity
  8
0
  6
Continuous
 62
     7
370
    15
100
AcDbLine
 10
37.39523362286771
 20
6.342884676417308
 30
0.0
 11
34.51750395551966
 21
6.342884676417308
 31
0.0
  0
LWPOLYLINE
  5
18A
330
1F
100
AcDbEntity
  8
0
  6
Continuous
 62
     7
370
    15
100
AcDbPolyline
 90
        2
 70
   128
 43
0.0
 10
35.95636878919368
 20
12.64208468228344
 10
35.95636878919368
 20
12.64208468228344
  0
LWPOLYLINE
  5
18B
330
1F
100
AcDbEntity
  8
0
  6
Continuous
 62
     7
370
    15
100
AcDbPolyline
 90
        2
 70
   128
 43
0.0
 10
35.95636878919368
 20
12.64208468228344
 10
35.95636878919368
 20
12.64208468228344
  0
SPLINE
  5
19C
330
1F
100
AcDbEntity
  8
0
  6
Continuous
 62
     7
370
    15
100
AcDbSpline
210
0.0
220
0.0
230
1.0
 70
     8
 71
     3
 72
    22
 73
    18
 74
     0
 42
0.0000000001
 43
0.0000000001
 40
0.0
 40
0.0
 40
0.0
 40
0.0
 40
0.2500000000000024
 40
0.2500000000000024
 40
0.3125000000000029
 40
0.3125000000000029
 40
0.3750000000000034
 40
0.3750000000000034
 40
0.5000000000000023
 40
0.5000000000000023
 40
0.7499999999999979
 40
0.7499999999999979
 40
0.8749999999999978
 40
0.8749999999999978
 40
0.9374999999999989
 40
0.9374999999999989
 40
1.0
 40
1.0
 40
1.0
 40
1.0
 10
32.41706613554055
 20
12.16964464609906
 30
0.0
 10
32.37228839949491
 20
12.16964464609906
 30
0.0
 10
32.32906498107114
 20
12.16183413888497
 30
0.0
 10
32.2764527538782
 20
12.14509772468844
 30
0.0
 10
32.26597195741284
 20
12.1413798405964
 30
0.0
 10
32.24534296252919
 20
12.13335206506676
 30
0.0
 10
32.23518817564713
 20
12.12904290636324
 30
0.0
 10
32.20515252556329
 20
12.11532458465529
 30
0.0
 10
32.18569922096064
 20
12.1051266620281
 30
0.0
 10
32.1287147931245
 20
12.07201072059608
 30
0.0
 10
32.09255958317549
 20
12.04656765543762
 30
0.0
 10
32.03991996940898
 20
12.00557526087141
 30
0.0
 10
32.02269416059737
 20
11.9914822187973
 30
0.0
 10
31.99716481843603
 20
11.96997350776846
 30
0.0
 10
31.98870578681824
 20
11.96274169993035
 30
0.0
 10
31.97185829196655
 20
11.94819717773175
 30
0.0
 10
31.96343169097515
 20
11.94085033389006
 30
0.0
 10
31.95510398795689
 20
11.93355562545558
 30
0.0
  0
ENDSEC
  0
SECTION
  2
OBJECTS
  0
DICTIONARY
  5
C
330
0
100
AcDbDictionary
281
     1
  3
ACAD_COLOR
350
197
  3
ACAD_GROUP
350
D
  3
ACAD_LAYOUT
350
1A
  3
ACAD_MATERIAL
350
196
  3
ACAD_MLEADERSTYLE
350
191
  3
ACAD_MLINESTYLE
350
17
  3
ACAD_PLOTSETTINGS
350
19
  3
ACAD_PLOTSTYLENAME
350
E
  3
ACAD_SCALELIST
350
3B
  3
ACAD_TABLESTYLE
350
190
  3
ACAD_VISUALSTYLE
350
2A
  3
AcDbVariableDictionary
350
18E
  0
DICTIONARY
  5
197
102
{ACAD_REACTORS
330
C
102
}
330
C
100
AcDbDictionary
281
     1
  0
DICTIONARY
  5
D
102
{ACAD_REACTORS
330
C
102
}
330
C
100
AcDbDictionary
281
     1
  0
DICTIONARY
  5
1A
102
{ACAD_REACTORS
330
C
102
}
330
C
100
AcDbDictionary
281
     1
  3
Layout1
350
1E
  3
Layout2
350
26
  3
Model
350
22
  0
DICTIONARY
  5
196
102
{ACAD_REACTORS
330
C
102
}
330
C
100
AcDbDictionary
281
     1
  0
DICTIONARY
  5
191
102
{ACAD_REACTORS
330
C
102
}
330
C
100
AcDbDictionary
281
     1
  0
DICTIONARY
  5
17
102
{ACAD_REACTORS
330
C
102
}
330
C
100
AcDbDictionary
281
     1
  3
Standard
350
18
  0
DICTIONARY
  5
19
102
{ACAD_REACTORS
330
C
102
}
330
C
100
AcDbDictionary
281
     1
  0
ACDBDICTIONARYWDFLT
  5
E
102
{ACAD_REACTORS
330
C
102
}
330
C
100
AcDbDictionary
281
     1
  3
Normal
350
F
100
AcDbDictionaryWithDefault
340
F
  0
DICTIONARY
  5
3B
102
{ACAD_REACTORS
330
C
102
}
330
C
100
AcDbDictionary
281
     1
  3
A0
350
3C
  3
A1
350
3D
  3
A2
350
3E
  3
A3
350
3F
  3
A4
350
40
  3
A5
350
41
  3
A6
350
42
  3
A7
350
43
  3
A8
350
44
  3
A9
350
45
  3
B0
350
46
  3
B1
350
47
  3
B2
350
48
  3
B3
350
49
  3
B4
350
4A
  3
B5
350
4B
  3
B6
350
4C
  3
B7
350
4D
  3
B8
350
4E
  3
B9
350
4F
  3
C0
350
50
  3
C1
350
51
  3
C2
350
52
  3
C3
350
53
  3
C4
350
54
  3
C5
350
55
  3
C6
350
56
  3
C7
350
57
  3
C8
350
58
  3
C9
350
59
  3
D0
350
5A
  3
D1
350
5B
  3
D2
350
5C
  0
DICTIONARY
  5
190
102
{ACAD_REACTORS
330
C
102
}
330
C
100
AcDbDictionary
281
     1
  3
Standard
350
198
  0
DICTIONARY
  5
2A
102
{ACAD_REACTORS
330
C
102
}
330
C
100
AcDbDictionary
281
     1
  3
2dWireframe
350
2F
  3
3D Hidden
350
31
  3
3dWireframe
350
30
  3
Basic
350
32
  3
Brighten
350
36
  3
ColorChange
350
3A
  3
Conceptual
350
34
  3
Dim
350
35
  3
Facepattern
350
39
  3
Flat
350
2B
  3
FlatWithEdges
350
2C
  3
Gouraud
350
2D
  3
GouraudWithEdges
350
2E
  3
Linepattern
350
38
  3
Realistic
350
33
  3
Thicken
350
37
  0
DICTIONARY
  5
18E
102
{ACAD_REACTORS
330
C
102
}
330
C
100
AcDbDictionary
281
     1
  3
CANNOSCALE
350
18F
  3
CTABLESTYLE
350
19E
  3
PSOLHEIGHT
350
193
  3
PSOLWIDTH
350
192
  0
LAYOUT
  5
1E
102
{ACAD_REACTORS
330
1A
102
}
330
1A
100
AcDbPlotSettings
  1

  2
none_device
  4

  6

 40
0.0
 41
0.0
 42
0.0
 43
0.0
 44
0.0
 45
0.0
 46
0.0
 47
0.0
 48
0.0
 49
0.0
140
0.0
141
0.0
142
1.0
143
1.0
 70
   688
 72
     0
 73
     0
 74
     5
  7

 75
    16
147
1.0
 76
     0
 77
     2
 78
   300
148
0.0
149
0.0
100
AcDbLayout
  1
Layout1
 70
     1
 71
     1
 10
0.0
 20
0.0
 11
420.0
 21
297.0
 12
0.0
 22
0.0
 32
0.0
 14
1.000000000000000E+20
 24
1.000000000000000E+20
 34
1.000000000000000E+20
 15
-1.000000000000000E+20
 25
-1.000000000000000E+20
 35
-1.000000000000000E+20
146
0.0
 13
0.0
 23
0.0
 33
0.0
 16
1.0
 26
0.0
 36
0.0
 17
0.0
 27
1.0
 37
0.0
 76
     0
330
1B
  0
LAYOUT
  5
26
102
{ACAD_REACTORS
330
1A
102
}
330
1A
100
AcDbPlotSettings
  1

  2
none_device
  4

  6

 40
0.0
 41
0.0
 42
0.0
 43
0.0
 44
0.0
 45
0.0
 46
0.0
 47
0.0
 48
0.0
 49
0.0
140
0.0
141
0.0
142
1.0
143
1.0
 70
   688
 72
     0
 73
     0
 74
     5
  7

 75
    16
147
1.0
 76
     0
 77
     2
 78
   300
148
0.0
149
0.0
100
AcDbLayout
  1
Layout2
 70
     1
 71
     2
 10
0.0
 20
0.0
 11
0.0
 21
0.0
 12
0.0
 22
0.0
 32
0.0
 14
0.0
 24
0.0
 34
0.0
 15
0.0
 25
0.0
 35
0.0
146
0.0
 13
0.0
 23
0.0
 33
0.0
 16
1.0
 26
0.0
 36
0.0
 17
0.0
 27
1.0
 37
0.0
 76
     0
330
23
  0
LAYOUT
  5
22
102
{ACAD_REACTORS
330
1A
102
}
330
1A
100
AcDbPlotSettings
  1

  2
none_device
  4

  6

 40
0.0
 41
0.0
 42
0.0
 43
0.0
 44
0.0
 45
0.0
 46
0.0
 47
0.0
 48
0.0
 49
0.0
140
0.0
141
0.0
142
1.0
143
1.0
 70
  1712
 72
     0
 73
     0
 74
     0
  7

 75
     0
147
1.0
 76
     0
 77
     2
 78
   300
148
0.0
149
0.0
100
AcDbLayout
  1
Model
 70
     1
 71
     0
 10
0.0
 20
0.0
 11
1066.8
 21
762.0
 12
0.0
 22
0.0
 32
0.0
 14
0.0
 24
0.0
 34
0.0
 15
1066.8
 25
762.0
 35
0.0
146
0.0
 13
0.0
 23
0.0
 33
0.0
 16
1.0
 26
0.0
 36
0.0
 17
0.0
 27
1.0
 37
0.0
 76
     0
330
1F
331
29
  0
MLINESTYLE
  5
18
102
{ACAD_REACTORS
330
17
102
}
330
17
100
AcDbMlineStyle
  2
STANDARD
 70
     0
  3

 62
   256
 51
90.0
 52
90.0
 71
     2
 49
0.5
 62
   256
  6
BYLAYER
 49
-0.5
 62
   256
  6
BYLAYER
  0
ACDBPLACEHOLDER
  5
F
102
{ACAD_REACTORS
330
E
102
}
330
E
  0
ACAD_PROXY_OBJECT
  5
3C
102
{ACAD_REACTORS
330
3B
102
}
330
3B
100
AcDbProxyObject
 90
      499
 91
      502
 95
   393239
 70
     1
100
AcDbScale
 70
     0
300
1:1
140
1.0
141
1.0
290
     1
  0
ACAD_PROXY_OBJECT
  5
3D
102
{ACAD_REACTORS
330
3B
102
}
330
3B
100
AcDbProxyObject
 90
      499
 91
      502
 95
   393239
 70
     1
100
AcDbScale
 70
     0
300
1:2
140
1.0
141
2.0
290
     0
  0
ACAD_PROXY_OBJECT
  5
3E
102
{ACAD_REACTORS
330
3B
102
}
330
3B
100
AcDbProxyObject
 90
      499
 91
      502
 95
   393239
 70
     1
100
AcDbScale
 70
     0
300
1:4
140
1.0
141
4.0
290
     0
  0
ACAD_PROXY_OBJECT
  5
3F
102
{ACAD_REACTORS
330
3B
102
}
330
3B
100
AcDbProxyObject
 90
      499
 91
      502
 95
   393239
 70
     1
100
AcDbScale
 70
     0
300
1:5
140
1.0
141
5.0
290
     0
  0
ACAD_PROXY_OBJECT
  5
40
102
{ACAD_REACTORS
330
3B
102
}
330
3B
100
AcDbProxyObject
 90
      499
 91
      502
 95
   393239
 70
     1
100
AcDbScale
 70
     0
300
1:8
140
1.0
141
8.0
290
     0
  0
ACAD_PROXY_OBJECT
  5
41
102
{ACAD_REACTORS
330
3B
102
}
330
3B
100
AcDbProxyObject
 90
      499
 91
      502
 95
   393239
 70
     1
100
AcDbScale
 70
     0
300
1:10
140
1.0
141
10.0
290
     0
  0
ACAD_PROXY_OBJECT
  5
42
102
{ACAD_REACTORS
330
3B
102
}
330
3B
100
AcDbProxyObject
 90
      499
 91
      502
 95
   393239
 70
     1
100
AcDbScale
 70
     0
300
1:16
140
1.0
141
16.0
290
     0
  0
ACAD_PROXY_OBJECT
  5
43
102
{ACAD_REACTORS
330
3B
102
}
330
3B
100
AcDbProxyObject
 90
      499
 91
      502
 95
   393239
 70
     1
100
AcDbScale
 70
     0
300
1:20
140
1.0
141
20.0
290
     0
  0
ACAD_PROXY_OBJECT
  5
44
102
{ACAD_REACTORS
330
3B
102
}
330
3B
100
AcDbProxyObject
 90
      499
 91
      502
 95
   393239
 70
     1
100
AcDbScale
 70
     0
300
1:30
140
1.0
141
30.0
290
     0
  0
ACAD_PROXY_OBJECT
  5
45
102
{ACAD_REACTORS
330
3B
102
}
330
3B
100
AcDbProxyObject
 90
      499
 91
      502
 95
   393239
 70
     1
100
AcDbScale
 70
     0
300
1:40
140
1.0
141
40.0
290
     0
  0
ACAD_PROXY_OBJECT
  5
46
102
{ACAD_REACTORS
330
3B
102
}
330
3B
100
AcDbProxyObject
 90
      499
 91
      502
 95
   393239
 70
     1
100
AcDbScale
 70
     0
300
1:50
140
1.0
141
50.0
290
     0
  0
ACAD_PROXY_OBJECT
  5
47
102
{ACAD_REACTORS
330
3B
102
}
330
3B
100
AcDbProxyObject
 90
      499
 91
      502
 95
   393239
 70
     1
100
AcDbScale
 70
     0
300
1:100
140
1.0
141
100.0
290
     0
  0
ACAD_PROXY_OBJECT
  5
48
102
{ACAD_REACTORS
330
3B
102
}
330
3B
100
AcDbProxyObject
 90
      499
 91
      502
 95
   393239
 70
     1
100
AcDbScale
 70
     0
300
2:1
140
2.0
141
1.0
290
     0
  0
ACAD_PROXY_OBJECT
  5
49
102
{ACAD_REACTORS
330
3B
102
}
330
3B
100
AcDbProxyObject
 90
      499
 91
      502
 95
   393239
 70
     1
100
AcDbScale
 70
     0
300
4:1
140
4.0
141
1.0
290
     0
  0
ACAD_PROXY_OBJECT
  5
4A
102
{ACAD_REACTORS
330
3B
102
}
330
3B
100
AcDbProxyObject
 90
      499
 91
      502
 95
   393239
 70
     1
100
AcDbScale
 70
     0
300
8:1
140
8.0
141
1.0
290
     0
  0
ACAD_PROXY_OBJECT
  5
4B
102
{ACAD_REACTORS
330
3B
102
}
330
3B
100
AcDbProxyObject
 90
      499
 91
      502
 95
   393239
 70
     1
100
AcDbScale
 70
     0
300
10:1
140
10.0
141
1.0
290
     0
  0
ACAD_PROXY_OBJECT
  5
4C
102
{ACAD_REACTORS
330
3B
102
}
330
3B
100
AcDbProxyObject
 90
      499
 91
      502
 95
   393239
 70
     1
100
AcDbScale
 70
     0
300
100:1
140
100.0
141
1.0
290
     0
  0
ACAD_PROXY_OBJECT
  5
4D
102
{ACAD_REACTORS
330
3B
102
}
330
3B
100
AcDbProxyObject
 90
      499
 91
      502
 95
   393239
 70
     1
100
AcDbScale
 70
     0
300
1/128" = 1'-0"
140
0.0078125
141
12.0
290
     0
  0
ACAD_PROXY_OBJECT
  5
4E
102
{ACAD_REACTORS
330
3B
102
}
330
3B
100
AcDbProxyObject
 90
      499
 91
      502
 95
   393239
 70
     1
100
AcDbScale
 70
     0
300
1/64" = 1'-0"
140
0.015625
141
12.0
290
     0
  0
ACAD_PROXY_OBJECT
  5
4F
102
{ACAD_REACTORS
330
3B
102
}
330
3B
100
AcDbProxyObject
 90
      499
 91
      502
 95
   393239
 70
     1
100
AcDbScale
 70
     0
300
1/32" = 1'-0"
140
0.03125
141
12.0
290
     0
  0
ACAD_PROXY_OBJECT
  5
50
102
{ACAD_REACTORS
330
3B
102
}
330
3B
100
AcDbProxyObject
 90
      499
 91
      502
 95
   393239
 70
     1
100
AcDbScale
 70
     0
300
1/16" = 1'-0"
140
0.0625
141
12.0
290
     0
  0
ACAD_PROXY_OBJECT
  5
51
102
{ACAD_REACTORS
330
3B
102
}
330
3B
100
AcDbProxyObject
 90
      499
 91
      502
 95
   393239
 70
     1
100
AcDbScale
 70
     0
300
3/32" = 1'-0"
140
0.09375
141
12.0
290
     0
  0
ACAD_PROXY_OBJECT
  5
52
102
{ACAD_REACTORS
330
3B
102
}
330
3B
100
AcDbProxyObject
 90
      499
 91
      502
 95
   393239
 70
     1
100
AcDbScale
 70
     0
300
1/8" = 1'-0"
140
0.125
141
12.0
290
     0
  0
ACAD_PROXY_OBJECT
  5
53
102
{ACAD_REACTORS
330
3B
102
}
330
3B
100
AcDbProxyObject
 90
      499
 91
      502
 95
   393239
 70
     1
100
AcDbScale
 70
     0
300
3/16" = 1'-0"
140
0.1875
141
12.0
290
     0
  0
ACAD_PROXY_OBJECT
  5
54
102
{ACAD_REACTORS
330
3B
102
}
330
3B
100
AcDbProxyObject
 90
      499
 91
      502
 95
   393239
 70
     1
100
AcDbScale
 70
     0
300
1/4" = 1'-0"
140
0.25
141
12.0
290
     0
  0
ACAD_PROXY_OBJECT
  5
55
102
{ACAD_REACTORS
330
3B
102
}
330
3B
100
AcDbProxyObject
 90
      499
 91
      502
 95
   393239
 70
     1
100
AcDbScale
 70
     0
300
3/8" = 1'-0"
140
0.375
141
12.0
290
     0
  0
ACAD_PROXY_OBJECT
  5
56
102
{ACAD_REACTORS
330
3B
102
}
330
3B
100
AcDbProxyObject
 90
      499
 91
      502
 95
   393239
 70
     1
100
AcDbScale
 70
     0
300
1/2" = 1'-0"
140
0.5
141
12.0
290
     0
  0
ACAD_PROXY_OBJECT
  5
57
102
{ACAD_REACTORS
330
3B
102
}
330
3B
100
AcDbProxyObject
 90
      499
 91
      502
 95
   393239
 70
     1
100
AcDbScale
 70
     0
300
3/4" = 1'-0"
140
0.75
141
12.0
290
     0
  0
ACAD_PROXY_OBJECT
  5
58
102
{ACAD_REACTORS
330
3B
102
}
330
3B
100
AcDbProxyObject
 90
      499
 91
      502
 95
   393239
 70
     1
100
AcDbScale
 70
     0
300
1" = 1'-0"
140
1.0
141
12.0
290
     0
  0
ACAD_PROXY_OBJECT
  5
59
102
{ACAD_REACTORS
330
3B
102
}
330
3B
100
AcDbProxyObject
 90
      499
 91
      502
 95
   393239
 70
     1
100
AcDbScale
 70
     0
300
1-1/2" = 1'-0"
140
1.5
141
12.0
290
     0
  0
ACAD_PROXY_OBJECT
  5
5A
102
{ACAD_REACTORS
330
3B
102
}
330
3B
100
AcDbProxyObject
 90
      499
 91
      502
 95
   393239
 70
     1
100
AcDbScale
 70
     0
300
3" = 1'-0"
140
3.0
141
12.0
290
     0
  0
ACAD_PROXY_OBJECT
  5
5B
102
{ACAD_REACTORS
330
3B
102
}
330
3B
100
AcDbProxyObject
 90
      499
 91
      502
 95
   393239
 70
     1
100
AcDbScale
 70
     0
300
6" = 1'-0"
140
6.0
141
12.0
290
     0
  0
ACAD_PROXY_OBJECT
  5
5C
102
{ACAD_REACTORS
330
3B
102
}
330
3B
100
AcDbProxyObject
 90
      499
 91
      502
 95
   393239
 70
     1
100
AcDbScale
 70
     0
300
1'-0" = 1'-0"
140
12.0
141
12.0
290
     0
  0
TABLESTYLE
  5
198
102
{ACAD_REACTORS
330
190
102
}
330
190
100
AcDbTableStyle
  3
Standard
 70
     0
 71
     0
 40
1.5
 41
1.5
280
     0
281
     0
  7
Standard
140
4.5
170
     2
 62
     0
 63
     7
283
     0
274
    -2
284
     1
 64
     0
275
    -2
285
     1
 65
     0
276
    -2
286
     1
 66
     0
277
    -2
287
     1
 67
     0
278
    -2
288
     1
 68
     0
279
    -2
289
     1
 69
     0
  7
Standard
140
6.0
170
     5
 62
     0
 63
     7
283
     0
274
    -2
284
     1
 64
     0
275
    -2
285
     1
 65
     0
276
    -2
286
     1
 66
     0
277
    -2
287
     1
 67
     0
278
    -2
288
     1
 68
     0
279
    -2
289
     1
 69
     0
  7
Standard
140
4.5
170
     5
 62
     0
 63
     7
283
     0
274
    -2
284
     1
 64
     0
275
    -2
285
     1
 65
     0
276
    -2
286
     1
 66
     0
277
    -2
287
     1
 67
     0
278
    -2
288
     1
 68
     0
279
    -2
289
     1
 69
     0
  0
ACAD_PROXY_OBJECT
  5
2F
102
{ACAD_REACTORS
330
2A
102
}
330
2A
100
AcDbProxyObject
 90
      499
 91
      501
 95
   393239
 70
     1
100
AcDbVisualStyle
  2
2dWireframe
 70
     4
 71
     0
 72
     2
 73
     0
 90
        0
 40
-0.6
 41
-30.0
 62
     5
 63
     7
 74
     1
 91
        4
 64
     7
 65
   257
 75
     1
175
     1
 42
1.0
 92
        0
 66
   257
 43
1.0
 76
     1
 77
     6
 78
     2
 67
     7
 79
     5
170
     0
171
     0
290
     0
174
     0
 93
        1
 44
0.0
173
     0
291
     0
 45
0.0
1001
ACAD
1000
AcDbSavedByObjectVersion
1070
     0
  0
ACAD_PROXY_OBJECT
  5
31
102
{ACAD_REACTORS
330
2A
102
}
330
2A
100
AcDbProxyObject
 90
      499
 91
      501
 95
   393239
 70
     1
100
AcDbVisualStyle
  2
3D Hidden
 70
     6
 71
     1
 72
     2
 73
     2
 90
        0
 40
-0.6
 41
-30.0
 62
     5
 63
     7
 74
     2
 91
        2
 64
     7
 65
   257
 75
     2
175
     1
 42
40.0
 92
        0
 66
   257
 43
1.0
 76
     1
 77
     6
 78
     2
 67
     7
 79
     3
170
     0
171
     0
290
     0
174
     0
 93
        1
 44
0.0
173
     0
291
     0
 45
0.0
1001
ACAD
1000
AcDbSavedByObjectVersion
1070
     0
  0
ACAD_PROXY_OBJECT
  5
30
102
{ACAD_REACTORS
330
2A
102
}
330
2A
100
AcDbProxyObject
 90
      499
 91
      501
 95
   393239
 70
     1
100
AcDbVisualStyle
  2
3dWireframe
 70
     5
 71
     0
 72
     2
 73
     0
 90
        0
 40
-0.6
 41
-30.0
 62
     5
 63
     7
 74
     1
 91
        4
 64
     7
 65
   257
 75
     1
175
     1
 42
1.0
 92
        0
 66
   257
 43
1.0
 76
     1
 77
     6
 78
     2
 67
     7
 79
     5
170
     0
171
     0
290
     0
174
     0
 93
        1
 44
0.0
173
     0
291
     0
 45
0.0
1001
ACAD
1000
AcDbSavedByObjectVersion
1070
     0
  0
ACAD_PROXY_OBJECT
  5
32
102
{ACAD_REACTORS
330
2A
102
}
330
2A
100
AcDbProxyObject
 90
      499
 91
      501
 95
   393239
 70
     1
100
AcDbVisualStyle
  2
Basic
 70
     7
 71
     1
 72
     0
 73
     1
 90
        0
 40
-0.6
 41
-30.0
 62
     5
 63
     7
 74
     0
 91
        4
 64
     7
 65
   257
 75
     1
175
     1
 42
1.0
 92
        8
 66
     7
 43
1.0
 76
     1
 77
     6
 78
     2
 67
     7
 79
     5
170
     0
171
     0
290
     0
174
     0
 93
        1
 44
0.0
173
     0
291
     1
 45
0.0
1001
ACAD
1000
AcDbSavedByObjectVersion
1070
     0
  0
ACAD_PROXY_OBJECT
  5
36
102
{ACAD_REACTORS
330
2A
102
}
330
2A
100
AcDbProxyObject
 90
      499
 91
      501
 95
   393239
 70
     1
100
AcDbVisualStyle
  2
Brighten
 70
    12
 71
     2
 72
     2
 73
     0
 90
        0
 40
-0.6
 41
-30.0
 62
     5
 63
     7
 74
     1
 91
        4
 64
     7
 65
   257
 75
     1
175
     1
 42
1.0
 92
        8
 66
     7
 43
1.0
 76
     1
 77
     6
 78
     2
 67
     7
 79
     5
170
     0
171
     0
290
     0
174
     0
 93
        1
 44
50.0
173
     0
291
     1
 45
0.0
1001
ACAD
1000
AcDbSavedByObjectVersion
1070
     0
  0
ACAD_PROXY_OBJECT
  5
3A
102
{ACAD_REACTORS
330
2A
102
}
330
2A
100
AcDbProxyObject
 90
      499
 91
      501
 95
   393239
 70
     1
100
AcDbVisualStyle
  2
ColorChange
 70
    16
 71
     2
 72
     2
 73
     3
 90
        0
 40
-0.6
 41
-30.0
 62
     5
 63
     8
 74
     1
 91
        4
 64
     7
 65
   257
 75
     1
175
     1
 42
1.0
 92
        8
 66
     8
 43
1.0
 76
     1
 77
     6
 78
     2
 67
     7
 79
     5
170
     0
171
     0
290
     0
174
     0
 93
        1
 44
0.0
173
     0
291
     1
 45
0.0
1001
ACAD
1000
AcDbSavedByObjectVersion
1070
     0
  0
ACAD_PROXY_OBJECT
  5
34
102
{ACAD_REACTORS
330
2A
102
}
330
2A
100
AcDbProxyObject
 90
      499
 91
      501
 95
   393239
 70
     1
100
AcDbVisualStyle
  2
Conceptual
 70
     9
 71
     3
 72
     2
 73
     0
 90
        0
 40
-0.6
 41
-30.0
 62
     5
 63
     7
 74
     2
 91
        2
 64
     7
 65
   257
 75
     1
175
     1
 42
40.0
 92
        8
 66
     7
 43
1.0
 76
     1
 77
     6
 78
     2
 67
     7
 79
     3
170
     0
171
     0
290
     0
174
     0
 93
        1
 44
0.0
173
     0
291
     0
 45
0.0
1001
ACAD
1000
AcDbSavedByObjectVersion
1070
     0
  0
ACAD_PROXY_OBJECT
  5
35
102
{ACAD_REACTORS
330
2A
102
}
330
2A
100
AcDbProxyObject
 90
      499
 91
      501
 95
   393239
 70
     1
100
AcDbVisualStyle
  2
Dim
 70
    11
 71
     2
 72
     2
 73
     0
 90
        0
 40
-0.6
 41
-30.0
 62
     5
 63
     7
 74
     1
 91
        4
 64
     7
 65
   257
 75
     1
175
     1
 42
1.0
 92
        8
 66
     7
 43
1.0
 76
     1
 77
     6
 78
     2
 67
     7
 79
     5
170
     0
171
     0
290
     0
174
     0
 93
        1
 44
-50.0
173
     0
291
     1
 45
0.0
1001
ACAD
1000
AcDbSavedByObjectVersion
1070
     0
  0
ACAD_PROXY_OBJECT
  5
39
102
{ACAD_REACTORS
330
2A
102
}
330
2A
100
AcDbProxyObject
 90
      499
 91
      501
 95
   393239
 70
     1
100
AcDbVisualStyle
  2
Facepattern
 70
    15
 71
     2
 72
     2
 73
     0
 90
        0
 40
-0.6
 41
-30.0
 62
     5
 63
     7
 74
     1
 91
        4
 64
     7
 65
   257
 75
     1
175
     1
 42
1.0
 92
        8
 66
     7
 43
1.0
 76
     1
 77
     6
 78
     2
 67
     7
 79
     5
170
     0
171
     0
290
     0
174
     0
 93
        1
 44
0.0
173
     0
291
     1
 45
0.0
1001
ACAD
1000
AcDbSavedByObjectVersion
1070
     0
  0
ACAD_PROXY_OBJECT
  5
2B
102
{ACAD_REACTORS
330
2A
102
}
330
2A
100
AcDbProxyObject
 90
      499
 91
      501
 95
   393239
 70
     1
100
AcDbVisualStyle
  2
Flat
 70
     0
 71
     2
 72
     1
 73
     1
 90
        2
 40
-0.6
 41
30.0
 62
     5
 63
     7
 74
     0
 91
        4
 64
     7
 65
   257
 75
     1
175
     1
 42
1.0
 92
        8
 66
     7
 43
1.0
 76
     1
 77
     6
 78
     2
 67
     7
 79
     5
170
     0
171
     0
290
     0
174
     0
 93
       13
 44
0.0
173
     0
291
     1
 45
0.0
1001
ACAD
1000
AcDbSavedByObjectVersion
1070
     0
  0
ACAD_PROXY_OBJECT
  5
2C
102
{ACAD_REACTORS
330
2A
102
}
330
2A
100
AcDbProxyObject
 90
      499
 91
      501
 95
   393239
 70
     1
100
AcDbVisualStyle
  2
FlatWithEdges
 70
     1
 71
     2
 72
     1
 73
     1
 90
        2
 40
-0.6
 41
30.0
 62
     5
 63
     7
 74
     1
 91
        4
 64
     7
 65
   257
 75
     1
175
     1
 42
1.0
 92
        0
 66
   257
 43
1.0
 76
     1
 77
     6
 78
     2
 67
     7
 79
     5
170
     0
171
     0
290
     0
174
     0
 93
       13
 44
0.0
173
     0
291
     1
 45
0.0
1001
ACAD
1000
AcDbSavedByObjectVersion
1070
     0
  0
ACAD_PROXY_OBJECT
  5
2D
102
{ACAD_REACTORS
330
2A
102
}
330
2A
100
AcDbProxyObject
 90
      499
 91
      501
 95
   393239
 70
     1
100
AcDbVisualStyle
  2
Gouraud
 70
     2
 71
     2
 72
     2
 73
     1
 90
        2
 40
-0.6
 41
30.0
 62
     5
 63
     7
 74
     0
 91
        4
 64
     7
 65
   257
 75
     1
175
     1
 42
1.0
 92
        0
 66
     7
 43
1.0
 76
     1
 77
     6
 78
     2
 67
     7
 79
     5
170
     0
171
     0
290
     0
174
     0
 93
       13
 44
0.0
173
     0
291
     1
 45
0.0
1001
ACAD
1000
AcDbSavedByObjectVersion
1070
     0
  0
ACAD_PROXY_OBJECT
  5
2E
102
{ACAD_REACTORS
330
2A
102
}
330
2A
100
AcDbProxyObject
 90
      499
 91
      501
 95
   393239
 70
     1
100
AcDbVisualStyle
  2
GouraudWithEdges
 70
     3
 71
     2
 72
     2
 73
     1
 90
        2
 40
-0.6
 41
30.0
 62
     5
 63
     7
 74
     1
 91
        4
 64
     7
 65
   257
 75
     1
175
     1
 42
1.0
 92
        0
 66
   257
 43
1.0
 76
     1
 77
     6
 78
     2
 67
     7
 79
     5
170
     0
171
     0
290
     0
174
     0
 93
       13
 44
0.0
173
     0
291
     1
 45
0.0
1001
ACAD
1000
AcDbSavedByObjectVersion
1070
     0
  0
ACAD_PROXY_OBJECT
  5
38
102
{ACAD_REACTORS
330
2A
102
}
330
2A
100
AcDbProxyObject
 90
      499
 91
      501
 95
   393239
 70
     1
100
AcDbVisualStyle
  2
Linepattern
 70
    14
 71
     2
 72
     2
 73
     0
 90
        0
 40
-0.6
 41
-30.0
 62
     5
 63
     7
 74
     1
 91
        4
 64
     7
 65
   257
 75
     7
175
     7
 42
1.0
 92
        8
 66
     7
 43
1.0
 76
     1
 77
     6
 78
     2
 67
     7
 79
     5
170
     0
171
     0
290
     0
174
     0
 93
        1
 44
0.0
173
     0
291
     1
 45
0.0
1001
ACAD
1000
AcDbSavedByObjectVersion
1070
     0
  0
ACAD_PROXY_OBJECT
  5
33
102
{ACAD_REACTORS
330
2A
102
}
330
2A
100
AcDbProxyObject
 90
      499
 91
      501
 95
   393239
 70
     1
100
AcDbVisualStyle
  2
Realistic
 70
     8
 71
     2
 72
     2
 73
     0
 90
        0
 40
-0.6
 41
-30.0
 62
     5
 63
     7
 74
     1
 91
        0
 64
     7
 65
   257
 75
     1
175
     1
 42
1.0
 92
        8
 66
     8
 43
1.0
 76
     1
 77
     6
 78
     2
 67
     7
 79
     5
170
     0
171
     0
290
     0
174
     0
 93
       13
 44
0.0
173
     0
291
     0
 45
0.0
1001
ACAD
1000
AcDbSavedByObjectVersion
1070
     0
  0
ACAD_PROXY_OBJECT
  5
37
102
{ACAD_REACTORS
330
2A
102
}
330
2A
100
AcDbProxyObject
 90
      499
 91
      501
 95
   393239
 70
     1
100
AcDbVisualStyle
  2
Thicken
 70
    13
 71
     2
 72
     2
 73
     0
 90
        0
 40
-0.6
 41
-30.0
 62
     5
 63
     7
 74
     1
 91
        4
 64
     7
 65
   257
 75
     1
175
     1
 42
1.0
 92
       12
 66
     7
 43
1.0
 76
     1
 77
     6
 78
     2
 67
     7
 79
     5
170
     0
171
     0
290
     0
174
     0
 93
        1
 44
0.0
173
     0
291
     1
 45
0.0
1001
ACAD
1000
AcDbSavedByObjectVersion
1070
     0
  0
DICTIONARYVAR
  5
18F
102
{ACAD_REACTORS
330
18E
102
}
330
18E
100
DictionaryVariables
280
     0
  1
1:1
  0
DICTIONARYVAR
  5
19E
102
{ACAD_REACTORS
330
18E
102
}
330
18E
100
DictionaryVariables
280
     0
  1
STANDARD
  0
DICTIONARYVAR
  5
193
102
{ACAD_REACTORS
330
18E
102
}
330
18E
100
DictionaryVariables
280
     0
  1
80.000000
  0
DICTIONARYVAR
  5
192
102
{ACAD_REACTORS
330
18E
102
}
330
18E
100
DictionaryVariables
280
     0
  1
5.000000
  0
ENDSEC
  0
EOF
