  0
SECTION
  2
HEADER
  9
$ACADVER
  1
AC1015
  9
$ACADMAINTVER
 70
     6
  9
$DWGCODEPAGE
  3
ANSI_1252
  9
$INSBASE
 10
0.0
 20
0.0
 30
0.0
  9
$EXTMIN
 10
37.865616
 20
3.090131
 30
0.0
  9
$EXTMAX
 10
295.67804
 20
192.147461
 30
0.0
  9
$LIMMIN
 10
0.0
 20
0.0
  9
$LIMMAX
 10
0.0
 20
0.0
  9
$ORTHOMODE
 70
     0
  9
$REGENMODE
 70
     1
  9
$FILLMODE
 70
     1
  9
$QTEXTMODE
 70
     0
  9
$MIRRTEXT
 70
     1
  9
$LTSCALE
 40
1.0
  9
$ATTMODE
 70
     1
  9
$TEXTSIZE
 40
0.2
  9
$TRACEWID
 40
0.05
  9
$TEXTSTYLE
  7
Standard
  9
$CLAYER
  8
0
  9
$CELTYPE
  6
Continuous
  9
$CECOLOR
 62
   256
  9
$CELTSCALE
 40
1.0
  9
$DISPSILH
 70
     0
  9
$DIMSCALE
 40
1.0
  9
$DIMASZ
 40
0.18
  9
$DIMEXO
 40
0.0625
  9
$DIMDLI
 40
0.38
  9
$DIMRND
 40
0.0
  9
$DIMDLE
 40
0.0
  9
$DIMEXE
 40
0.18
  9
$DIMTP
 40
0.0
  9
$DIMTM
 40
0.0
  9
$DIMTXT
 40
0.18
  9
$DIMCEN
 40
0.09
  9
$DIMTSZ
 40
0.0
  9
$DIMTOL
 70
     0
  9
$DIMLIM
 70
     0
  9
$DIMTIH
 70
     1
  9
$DIMTOH
 70
     1
  9
$DIMSE1
 70
     0
  9
$DIMSE2
 70
     0
  9
$DIMTAD
 70
     0
  9
$DIMZIN
 70
     0
  9
$DIMBLK
  1

  9
$DIMASO
 70
     1
  9
$DIMSHO
 70
     1
  9
$DIMPOST
  1

  9
$DIMAPOST
  1

  9
$DIMALT
 70
     0
  9
$DIMALTD
 70
     2
  9
$DIMALTF
 40
25.4
  9
$DIMLFAC
 40
1.0
  9
$DIMTOFL
 70
     0
  9
$DIMTVP
 40
0.0
  9
$DIMTIX
 70
     0
  9
$DIMSOXD
 70
     0
  9
$DIMSAH
 70
     0
  9
$DIMBLK1
  1

  9
$DIMBLK2
  1

  9
$DIMSTYLE
  2
Standard
  9
$DIMCLRD
 70
     0
  9
$DIMCLRE
 70
     0
  9
$DIMCLRT
 70
     0
  9
$DIMTFAC
 40
1.0
  9
$DIMGAP
 40
0.09
  9
$DIMJUST
 70
     0
  9
$DIMSD1
 70
     0
  9
$DIMSD2
 70
     0
  9
$DIMTOLJ
 70
     1
  9
$DIMTZIN
 70
     0
  9
$DIMALTZ
 70
     0
  9
$DIMALTTZ
 70
     0
  9
$DIMUPT
 70
     0
  9
$DIMDEC
 70
     4
  9
$DIMTDEC
 70
     4
  9
$DIMALTU
 70
     2
  9
$DIMALTTD
 70
     2
  9
$DIMTXSTY
  7
Standard
  9
$DIMAUNIT
 70
     0
  9
$DIMADEC
 70
     0
  9
$DIMALTRND
 40
0.0
  9
$DIMAZIN
 70
     0
  9
$DIMDSEP
 70
     0
  9
$DIMATFIT
 70
     3
  9
$DIMFRAC
 70
     0
  9
$DIMLDRBLK
  1

  9
$DIMLUNIT
 70
     2
  9
$DIMLWD
 70
     0
  9
$DIMLWE
 70
     0
  9
$DIMTMOVE
 70
     0
  9
$LUNITS
 70
     2
  9
$LUPREC
 70
     4
  9
$SKETCHINC
 40
0.1
  9
$FILLETRAD
 40
0.0
  9
$AUNITS
 70
     0
  9
$AUPREC
 70
     0
  9
$MENU
  1
acad
  9
$ELEVATION
 40
0.0
  9
$PELEVATION
 40
0.0
  9
$THICKNESS
 40
0.0
  9
$LIMCHECK
 70
     0
  9
$CHAMFERA
 40
0.0
  9
$CHAMFERB
 40
0.0
  9
$CHAMFERC
 40
0.0
  9
$CHAMFERD
 40
0.0
  9
$SKPOLY
 70
     0
  9
$TDCREATE
 40
0.000000000
  9
$TDUCREATE
 40
0.000000000
  9
$TDUPDATE
 40
0.000000000
  9
$TDUUPDATE
 40
0.000000000
  9
$TDINDWG
 40
0.0000000000
  9
$TDUSRTIMER
 40
0.0000000000
  9
$USRTIMER
 70
     1
  9
$ANGBASE
 50
0.0
  9
$ANGDIR
 70
     0
  9
$PDMODE
 70
     0
  9
$PDSIZE
 40
0.0
  9
$PLINEWID
 40
0.0
  9
$SPLFRAME
 70
     0
  9
$SPLINETYPE
 70
     6
  9
$SPLINESEGS
 70
     8
  9
$HANDSEED
  5
3EE
  9
$SURFTAB1
 70
     6
  9
$SURFTAB2
 70
     6
  9
$SURFTYPE
 70
     6
  9
$SURFU
 70
     6
  9
$SURFV
 70
     6
  9
$UCSBASE
  2

  9
$UCSNAME
  2

  9
$UCSORG
 10
0.0
 20
0.0
 30
0.0
  9
$UCSXDIR
 10
1.0
 20
0.0
 30
0.0
  9
$UCSYDIR
 10
0.0
 20
1.0
 30
0.0
  9
$UCSORTHOREF
  2

  9
$UCSORTHOVIEW
 70
     0
  9
$UCSORGTOP
 10
0.0
 20
0.0
 30
0.0
  9
$UCSORGBOTTOM
 10
0.0
 20
0.0
 30
0.0
  9
$UCSORGLEFT
 10
0.0
 20
0.0
 30
0.0
  9
$UCSORGRIGHT
 10
0.0
 20
0.0
 30
0.0
  9
$UCSORGFRONT
 10
0.0
 20
0.0
 30
0.0
  9
$UCSORGBACK
 10
0.0
 20
0.0
 30
0.0
  9
$PUCSBASE
  2

  9
$PUCSNAME
  2

  9
$PUCSORG
 10
0.0
 20
0.0
 30
0.0
  9
$PUCSXDIR
 10
1.0
 20
0.0
 30
0.0
  9
$PUCSYDIR
 10
0.0
 20
1.0
 30
0.0
  9
$PUCSORTHOREF
  2

  9
$PUCSORTHOVIEW
 70
     0
  9
$PUCSORGTOP
 10
0.0
 20
0.0
 30
0.0
  9
$PUCSORGBOTTOM
 10
0.0
 20
0.0
 30
0.0
  9
$PUCSORGLEFT
 10
0.0
 20
0.0
 30
0.0
  9
$PUCSORGRIGHT
 10
0.0
 20
0.0
 30
0.0
  9
$PUCSORGFRONT
 10
0.0
 20
0.0
 30
0.0
  9
$PUCSORGBACK
 10
0.0
 20
0.0
 30
0.0
  9
$USERI1
 70
     0
  9
$USERI2
 70
     0
  9
$USERI3
 70
     0
  9
$USERI4
 70
     0
  9
$USERI5
 70
     0
  9
$USERR1
 40
0.0
  9
$USERR2
 40
0.0
  9
$USERR3
 40
0.0
  9
$USERR4
 40
0.0
  9
$USERR5
 40
0.0
  9
$WORLDVIEW
 70
     1
  9
$SHADEDGE
 70
     3
  9
$SHADEDIF
 70
    70
  9
$TILEMODE
 70
     1
  9
$MAXACTVP
 70
    16
  9
$PINSBASE
 10
0.0
 20
0.0
 30
0.0
  9
$PLIMCHECK
 70
     0
  9
$PEXTMIN
 10
1.000000E+20
 20
1.000000E+20
 30
1.000000E+20
  9
$PEXTMAX
 10
-1.000000E+20
 20
-1.000000E+20
 30
-1.000000E+20
  9
$PLIMMIN
 10
0.0
 20
0.0
  9
$PLIMMAX
 10
12.0
 20
9.0
  9
$UNITMODE
 70
     0
  9
$VISRETAIN
 70
     0
  9
$PLINEGEN
 70
     1
  9
$PSLTSCALE
 70
     0
  9
$TREEDEPTH
 70
  3020
  9
$CMLSTYLE
  2
Standard
  9
$CMLJUST
 70
     0
  9
$CMLSCALE
 40
1.0
  9
$PROXYGRAPHICS
 70
     0
  9
$MEASUREMENT
 70
     0
  9
$CELWEIGHT
370
     0
  9
$ENDCAPS
280
     0
  9
$JOINSTYLE
280
     0
  9
$LWDISPLAY
290
     0
  9
$INSUNITS
 70
     0
  9
$HYPERLINKBASE
  1

  9
$STYLESHEET
  1

  9
$XEDIT
290
     1
  9
$CEPSNTYPE
380
     0
  9
$PSTYLEMODE
290
     1
  9
$FINGERPRINTGUID
  2

  9
$VERSIONGUID
  2

  9
$EXTNAMES
290
     1
  9
$PSVPSCALE
 40
0.0
  0
ENDSEC
  0
SECTION
  2
CLASSES
  0
CLASS
  1
LWPOLYLINE
  2
AcDbPolyline
  3
AutoCAD 2000
 90
        0
280
     0
281
     1
  0
CLASS
  1
IMAGE
  2
AcDbRasterImage
  3
ISM
 90
      127
280
     0
281
     1
  0
CLASS
  1
OLE2FRAME
  2
AcDbOle2Frame
  3
AutoCAD 2000
 90
        0
280
     0
281
     1
  0
CLASS
  1
HATCH
  2
AcDbHatch
  3
AutoCAD 2000
 90
        0
280
     0
281
     1
  0
CLASS
  1
DICTIONARYVAR
  2
AcDbDictionaryVar
  3
AutoCAD 2000
 90
        0
280
     0
281
     0
  0
CLASS
  1
RASTERVARIABLES
  2
AcDbRasterVariables
  3
ISM
 90
        0
280
     0
281
     0
  0
CLASS
  1
IMAGEDEF
  2
AcDbRasterImageDef
  3
ISM
 90
        0
280
     0
281
     0
  0
CLASS
  1
IMAGEDEF_REACTOR
  2
AcDbRasterImageDefReactor
  3
ISM
 90
        1
280
     0
281
     0
  0
CLASS
  1
IDBUFFER
  2
AcDbIdBuffer
  3
AutoCAD 2000
 90
        0
280
     0
281
     0
  0
CLASS
  1
SPATIAL_FILTER
  2
AcDbSpatialFilter
  3
AutoCAD 2000
 90
        0
280
     0
281
     0
  0
CLASS
  1
XRECORD
  2
AcDbXrecord
  3
AutoCAD 2000
 90
        0
280
     0
281
     0
  0
CLASS
  1
SORTENTSTABLE
  2
AcDbSortentsTable
  3
AutoCAD 2000
 90
        0
280
     0
281
     0
  0
CLASS
  1
LAYER_INDEX
  2
AcDbLayerIndex
  3
AutoCAD 2000
 90
        0
280
     0
281
     0
  0
CLASS
  1
SPATIAL_INDEX
  2
AcDbSpatialIndex
  3
AutoCAD 2000
 90
        0
280
     0
281
     0
  0
CLASS
  1
OBJECT_PTR
  2
CAseDLPNTableRecord
  3
"ASE-LPNTableRecord"
 90
        1
280
     0
281
     0
  0
CLASS
  1
LAYOUT
  2
AcDbLayout
  3
AutoCAD 2000
 90
        0
280
     0
281
     0
  0
CLASS
  1
PLOTSETTINGS
  2
AcDbPlotSettings
  3
AutoCAD 2000
 90
        0
280
     0
281
     0
  0
CLASS
  1
ACDBDICTIONARYWDFLT
  2
AcDbDictionaryWithDefault
  3
AutoCAD 2000
 90
        0
280
     0
281
     0
  0
CLASS
  1
ACDBPLACEHOLDER
  2
AcDbPlaceHolder
  3
AutoCAD 2000
 90
        0
280
     0
281
     0
  0
CLASS
  1
VBA_PROJECT
  2
AcDbVbaProject
  3
acadvba
 90
        0
280
     0
281
     0
  0
CLASS
  1
WIPEOUT
  2
AcDbWipeout
  3
WipeOut|AutoCAD Express Tool|expresstools@autodesk.com
 90
      127
280
     0
281
     1
  0
CLASS
  1
WIPEOUTVARIABLES
  2
AcDbWipeoutVariables
  3
WipeOut|AutoCAD Express Tool|expresstools@autodesk.com
 90
        0
280
     0
281
     0
  0
CLASS
  1
RTEXT
  2
RText
  3
RText|AutoCAD Express Tool|expresstools@autodesk.com
 90
        0
280
     0
281
     1
  0
CLASS
  1
ARCALIGNEDTEXT
  2
AcDbArcAlignedText
  3
ATEXT|AutoCAD Express Tool|expresstools@autodesk.com
 90
        0
280
     0
281
     1
  0
ENDSEC
  0
SECTION
  2
TABLES
  0
TABLE
  2
VPORT
  5
7
100
AcDbSymbolTable
 70
     1
  0
VPORT
  5
15
100
AcDbSymbolTableRecord
100
AcDbViewportTableRecord
  2
*ACTIVE
 70
     0
 10
0.0
 20
0.0
 11
1.0
 21
1.0
 12
6.591288
 22
4.579184
 13
0.0
 23
0.0
 14
1.0
 24
1.0
 15
0.0
 25
0.0
 16
0.0
 26
0.0
 36
1.0
 17
0.0
 27
0.0
 37
0.0
 40
9.158369
 41
0.688564
 42
50.0
 43
0.0
 44
0.0
 50
0.0
 51
0.0
 71
     0
 72
   100
 73
     1
 74
     1
 75
     0
 76
     0
 77
     0
 78
     0
281
     0
 65
     0
110
0.0
120
0.0
130
0.0
111
1.0
121
0.0
131
0.0
112
0.0
122
1.0
132
0.0
345
0
346
0
 79
     0
146
0.0
  0
ENDTAB
  0
TABLE
  2
LTYPE
  5
4
100
AcDbSymbolTable
 70
   169
  0
LTYPE
  5
11
100
AcDbSymbolTableRecord
100
AcDbLinetypeTableRecord
  2
ByBlock
 70
    64
  3

 72
    65
 73
     0
 40
0.0
  0
LTYPE
  5
12
100
AcDbSymbolTableRecord
100
AcDbLinetypeTableRecord
  2
ByLayer
 70
    64
  3

 72
    65
 73
     0
 40
0.0
  0
LTYPE
  5
13
100
AcDbSymbolTableRecord
100
AcDbLinetypeTableRecord
  2
Continuous
 70
    64
  3
Solid line
 72
    65
 73
     0
 40
0.0
  0
LTYPE
  5
25
100
AcDbSymbolTableRecord
100
AcDbLinetypeTableRecord
  2
DURCHGEHEND
 70
    64
  3

 72
    65
 73
     0
 40
0.0
  0
LTYPE
  5
26
100
AcDbSymbolTableRecord
100
AcDbLinetypeTableRecord
  2
GESTRICHELT
 70
    64
  3

 72
    65
 73
     2
 40
10.0
 49
5.0
 74
     0
 49
-5.0
 74
     0
  0
LTYPE
  5
27
100
AcDbSymbolTableRecord
100
AcDbLinetypeTableRecord
  2
MITTELLINIE
 70
    64
  3

 72
    65
 73
     4
 40
20.0
 49
10.0
 74
     0
 49
-2.0
 74
     0
 49
5.0
 74
     0
 49
-3.0
 74
     0
  0
LTYPE
  5
28
100
AcDbSymbolTableRecord
100
AcDbLinetypeTableRecord
  2
PUNKTIERT
 70
    64
  3

 72
    65
 73
     2
 40
0.25
 49
0.0
 74
     0
 49
-0.25
 74
     0
  0
LTYPE
  5
29
100
AcDbSymbolTableRecord
100
AcDbLinetypeTableRecord
  2
STRICHPUNKTIERT
 70
    64
  3

 72
    65
 73
     4
 40
8.0
 49
5.0
 74
     0
 49
-1.0
 74
     0
 49
1.0
 74
     0
 49
-1.0
 74
     0
  0
LTYPE
  5
2A
100
AcDbSymbolTableRecord
100
AcDbLinetypeTableRecord
  2
STRICH-PUNKT-PUNKT
 70
    64
  3

 72
    65
 73
     6
 40
10.0
 49
5.0
 74
     0
 49
-1.0
 74
     0
 49
1.0
 74
     0
 49
-1.0
 74
     0
 49
1.0
 74
     0
 49
-1.0
 74
     0
  0
LTYPE
  5
2B
100
AcDbSymbolTableRecord
100
AcDbLinetypeTableRecord
  2
STARTPFEIL
 70
    64
  3

 72
    65
 73
     0
 40
0.0
  0
LTYPE
  5
2C
100
AcDbSymbolTableRecord
100
AcDbLinetypeTableRecord
  2
ENDPFEIL
 70
    64
  3

 72
    65
 73
     0
 40
0.0
  0
LTYPE
  5
2D
100
AcDbSymbolTableRecord
100
AcDbLinetypeTableRecord
  2
ENDPUNKT
 70
    64
  3

 72
    65
 73
     0
 40
0.0
  0
LTYPE
  5
2E
100
AcDbSymbolTableRecord
100
AcDbLinetypeTableRecord
  2
PFEIL
 70
    64
  3

 72
    65
 73
     0
 40
0.0
  0
LTYPE
  5
2F
100
AcDbSymbolTableRecord
100
AcDbLinetypeTableRecord
  2
STITCHLINE
 70
    64
  3

 72
    65
 73
     2
 40
6.0
 49
3.0
 74
     0
 49
-3.0
 74
     0
  0
LTYPE
  5
30
100
AcDbSymbolTableRecord
100
AcDbLinetypeTableRecord
  2
MITTELLINIE_2
 70
    64
  3

 72
    65
 73
     4
 40
17.0
 49
10.0
 74
     0
 49
-2.0
 74
     0
 49
3.0
 74
     0
 49
-2.0
 74
     0
  0
LTYPE
  5
31
100
AcDbSymbolTableRecord
100
AcDbLinetypeTableRecord
  2
VERDECKTE_LINIE
 70
    64
  3

 72
    65
 73
     2
 40
4.0
 49
2.0
 74
     0
 49
-2.0
 74
     0
  0
LTYPE
  5
32
100
AcDbSymbolTableRecord
100
AcDbLinetypeTableRecord
  2
PHANTOMLINIE
 70
    64
  3

 72
    65
 73
     6
 40
21.0
 49
10.0
 74
     0
 49
-2.0
 74
     0
 49
3.0
 74
     0
 49
-1.0
 74
     0
 49
3.0
 74
     0
 49
-2.0
 74
     0
  0
LTYPE
  5
33
100
AcDbSymbolTableRecord
100
AcDbLinetypeTableRecord
  2
BRUCHLINIE_1
 70
    64
  3

 72
    65
 73
     0
 40
0.0
  0
LTYPE
  5
34
100
AcDbSymbolTableRecord
100
AcDbLinetypeTableRecord
  2
BRUCHLINIE_2
 70
    64
  3

 72
    65
 73
     0
 40
0.0
  0
LTYPE
  5
35
100
AcDbSymbolTableRecord
100
AcDbLinetypeTableRecord
  2
_DURCHGEHEND
 70
    64
  3

 72
    65
 73
     0
 40
0.0
  0
LTYPE
  5
36
100
AcDbSymbolTableRecord
100
AcDbLinetypeTableRecord
  2
_GESTRICHELT
 70
    64
  3

 72
    65
 73
     2
 40
10.0
 49
5.0
 74
     0
 49
-5.0
 74
     0
  0
LTYPE
  5
37
100
AcDbSymbolTableRecord
100
AcDbLinetypeTableRecord
  2
_MITTELLINIE
 70
    64
  3

 72
    65
 73
     4
 40
20.0
 49
10.0
 74
     0
 49
-2.0
 74
     0
 49
5.0
 74
     0
 49
-3.0
 74
     0
  0
LTYPE
  5
38
100
AcDbSymbolTableRecord
100
AcDbLinetypeTableRecord
  2
_PUNKTIERT
 70
    64
  3

 72
    65
 73
     2
 40
0.25
 49
0.0
 74
     0
 49
-0.25
 74
     0
  0
LTYPE
  5
39
100
AcDbSymbolTableRecord
100
AcDbLinetypeTableRecord
  2
_STRICHPUNKTIERT
 70
    64
  3

 72
    65
 73
     4
 40
8.0
 49
5.0
 74
     0
 49
-1.0
 74
     0
 49
1.0
 74
     0
 49
-1.0
 74
     0
  0
LTYPE
  5
3A
100
AcDbSymbolTableRecord
100
AcDbLinetypeTableRecord
  2
_STRICH-PUNKT-PUNKT
 70
    64
  3

 72
    65
 73
     6
 40
10.0
 49
5.0
 74
     0
 49
-1.0
 74
     0
 49
1.0
 74
     0
 49
-1.0
 74
     0
 49
1.0
 74
     0
 49
-1.0
 74
     0
  0
LTYPE
  5
3B
100
AcDbSymbolTableRecord
100
AcDbLinetypeTableRecord
  2
_STARTPFEIL
 70
    64
  3

 72
    65
 73
     0
 40
0.0
  0
LTYPE
  5
3C
100
AcDbSymbolTableRecord
100
AcDbLinetypeTableRecord
  2
_ENDPFEIL
 70
    64
  3

 72
    65
 73
     0
 40
0.0
  0
LTYPE
  5
3D
100
AcDbSymbolTableRecord
100
AcDbLinetypeTableRecord
  2
_ENDPUNKT
 70
    64
  3

 72
    65
 73
     0
 40
0.0
  0
LTYPE
  5
3E
100
AcDbSymbolTableRecord
100
AcDbLinetypeTableRecord
  2
_PFEIL
 70
    64
  3

 72
    65
 73
     0
 40
0.0
  0
LTYPE
  5
3F
100
AcDbSymbolTableRecord
100
AcDbLinetypeTableRecord
  2
_STITCHLINE
 70
    64
  3

 72
    65
 73
     2
 40
6.0
 49
3.0
 74
     0
 49
-3.0
 74
     0
  0
LTYPE
  5
40
100
AcDbSymbolTableRecord
100
AcDbLinetypeTableRecord
  2
_MITTELLINIE_2
 70
    64
  3

 72
    65
 73
     4
 40
17.0
 49
10.0
 74
     0
 49
-2.0
 74
     0
 49
3.0
 74
     0
 49
-2.0
 74
     0
  0
LTYPE
  5
41
100
AcDbSymbolTableRecord
100
AcDbLinetypeTableRecord
  2
_VERDECKTE_LINIE
 70
    64
  3

 72
    65
 73
     2
 40
4.0
 49
2.0
 74
     0
 49
-2.0
 74
     0
  0
LTYPE
  5
42
100
AcDbSymbolTableRecord
100
AcDbLinetypeTableRecord
  2
_PHANTOMLINIE
 70
    64
  3

 72
    65
 73
     6
 40
21.0
 49
10.0
 74
     0
 49
-2.0
 74
     0
 49
3.0
 74
     0
 49
-1.0
 74
     0
 49
3.0
 74
     0
 49
-2.0
 74
     0
  0
LTYPE
  5
43
100
AcDbSymbolTableRecord
100
AcDbLinetypeTableRecord
  2
_BRUCHLINIE_1
 70
    64
  3

 72
    65
 73
     0
 40
0.0
  0
LTYPE
  5
44
100
AcDbSymbolTableRecord
100
AcDbLinetypeTableRecord
  2
_BRUCHLINIE_2
 70
    64
  3

 72
    65
 73
     0
 40
0.0
  0
LTYPE
  5
45
100
AcDbSymbolTableRecord
100
AcDbLinetypeTableRecord
  2
CONTINUOUS
 70
    64
  3

 72
    65
 73
     0
 40
0.0
  0
LTYPE
  5
46
100
AcDbSymbolTableRecord
100
AcDbLinetypeTableRecord
  2
_DURCHGEHEND
 70
    64
  3

 72
    65
 73
     0
 40
0.0
  0
LTYPE
  5
47
100
AcDbSymbolTableRecord
100
AcDbLinetypeTableRecord
  2
_GESTRICHELT
 70
    64
  3

 72
    65
 73
     2
 40
10.0
 49
5.0
 74
     0
 49
-5.0
 74
     0
  0
LTYPE
  5
48
100
AcDbSymbolTableRecord
100
AcDbLinetypeTableRecord
  2
_MITTELLINIE
 70
    64
  3

 72
    65
 73
     4
 40
20.0
 49
10.0
 74
     0
 49
-2.0
 74
     0
 49
5.0
 74
     0
 49
-3.0
 74
     0
  0
LTYPE
  5
49
100
AcDbSymbolTableRecord
100
AcDbLinetypeTableRecord
  2
_PUNKTIERT
 70
    64
  3

 72
    65
 73
     2
 40
0.25
 49
0.0
 74
     0
 49
-0.25
 74
     0
  0
LTYPE
  5
4A
100
AcDbSymbolTableRecord
100
AcDbLinetypeTableRecord
  2
_STRICHPUNKTIERT
 70
    64
  3

 72
    65
 73
     4
 40
8.0
 49
5.0
 74
     0
 49
-1.0
 74
     0
 49
1.0
 74
     0
 49
-1.0
 74
     0
  0
LTYPE
  5
4B
100
AcDbSymbolTableRecord
100
AcDbLinetypeTableRecord
  2
_STRICH-PUNKT-PUNKT
 70
    64
  3

 72
    65
 73
     6
 40
10.0
 49
5.0
 74
     0
 49
-1.0
 74
     0
 49
1.0
 74
     0
 49
-1.0
 74
     0
 49
1.0
 74
     0
 49
-1.0
 74
     0
  0
LTYPE
  5
4C
100
AcDbSymbolTableRecord
100
AcDbLinetypeTableRecord
  2
_STARTPFEIL
 70
    64
  3

 72
    65
 73
     0
 40
0.0
  0
LTYPE
  5
4D
100
AcDbSymbolTableRecord
100
AcDbLinetypeTableRecord
  2
_ENDPFEIL
 70
    64
  3

 72
    65
 73
     0
 40
0.0
  0
LTYPE
  5
4E
100
AcDbSymbolTableRecord
100
AcDbLinetypeTableRecord
  2
_ENDPUNKT
 70
    64
  3

 72
    65
 73
     0
 40
0.0
  0
LTYPE
  5
4F
100
AcDbSymbolTableRecord
100
AcDbLinetypeTableRecord
  2
_PFEIL
 70
    64
  3

 72
    65
 73
     0
 40
0.0
  0
LTYPE
  5
50
100
AcDbSymbolTableRecord
100
AcDbLinetypeTableRecord
  2
_STITCHLINE
 70
    64
  3

 72
    65
 73
     2
 40
6.0
 49
3.0
 74
     0
 49
-3.0
 74
     0
  0
LTYPE
  5
51
100
AcDbSymbolTableRecord
100
AcDbLinetypeTableRecord
  2
_MITTELLINIE_2
 70
    64
  3

 72
    65
 73
     4
 40
17.0
 49
10.0
 74
     0
 49
-2.0
 74
     0
 49
3.0
 74
     0
 49
-2.0
 74
     0
  0
LTYPE
  5
52
100
AcDbSymbolTableRecord
100
AcDbLinetypeTableRecord
  2
_VERDECKTE_LINIE
 70
    64
  3

 72
    65
 73
     2
 40
4.0
 49
2.0
 74
     0
 49
-2.0
 74
     0
  0
LTYPE
  5
53
100
AcDbSymbolTableRecord
100
AcDbLinetypeTableRecord
  2
_PHANTOMLINIE
 70
    64
  3

 72
    65
 73
     6
 40
21.0
 49
10.0
 74
     0
 49
-2.0
 74
     0
 49
3.0
 74
     0
 49
-1.0
 74
     0
 49
3.0
 74
     0
 49
-2.0
 74
     0
  0
LTYPE
  5
54
100
AcDbSymbolTableRecord
100
AcDbLinetypeTableRecord
  2
_BRUCHLINIE_1
 70
    64
  3

 72
    65
 73
     0
 40
0.0
  0
LTYPE
  5
55
100
AcDbSymbolTableRecord
100
AcDbLinetypeTableRecord
  2
_BRUCHLINIE_2
 70
    64
  3

 72
    65
 73
     0
 40
0.0
  0
LTYPE
  5
56
100
AcDbSymbolTableRecord
100
AcDbLinetypeTableRecord
  2
_DURCHGEHEND
 70
    64
  3

 72
    65
 73
     0
 40
0.0
  0
LTYPE
  5
57
100
AcDbSymbolTableRecord
100
AcDbLinetypeTableRecord
  2
_GESTRICHELT
 70
    64
  3

 72
    65
 73
     2
 40
10.0
 49
5.0
 74
     0
 49
-5.0
 74
     0
  0
LTYPE
  5
58
100
AcDbSymbolTableRecord
100
AcDbLinetypeTableRecord
  2
_MITTELLINIE
 70
    64
  3

 72
    65
 73
     4
 40
20.0
 49
10.0
 74
     0
 49
-2.0
 74
     0
 49
5.0
 74
     0
 49
-3.0
 74
     0
  0
LTYPE
  5
59
100
AcDbSymbolTableRecord
100
AcDbLinetypeTableRecord
  2
_PUNKTIERT
 70
    64
  3

 72
    65
 73
     2
 40
0.25
 49
0.0
 74
     0
 49
-0.25
 74
     0
  0
LTYPE
  5
5A
100
AcDbSymbolTableRecord
100
AcDbLinetypeTableRecord
  2
_STRICHPUNKTIERT
 70
    64
  3

 72
    65
 73
     4
 40
8.0
 49
5.0
 74
     0
 49
-1.0
 74
     0
 49
1.0
 74
     0
 49
-1.0
 74
     0
  0
LTYPE
  5
5B
100
AcDbSymbolTableRecord
100
AcDbLinetypeTableRecord
  2
_STRICH-PUNKT-PUNKT
 70
    64
  3

 72
    65
 73
     6
 40
10.0
 49
5.0
 74
     0
 49
-1.0
 74
     0
 49
1.0
 74
     0
 49
-1.0
 74
     0
 49
1.0
 74
     0
 49
-1.0
 74
     0
  0
LTYPE
  5
5C
100
AcDbSymbolTableRecord
100
AcDbLinetypeTableRecord
  2
_STARTPFEIL
 70
    64
  3

 72
    65
 73
     0
 40
0.0
  0
LTYPE
  5
5D
100
AcDbSymbolTableRecord
100
AcDbLinetypeTableRecord
  2
_ENDPFEIL
 70
    64
  3

 72
    65
 73
     0
 40
0.0
  0
LTYPE
  5
5E
100
AcDbSymbolTableRecord
100
AcDbLinetypeTableRecord
  2
_ENDPUNKT
 70
    64
  3

 72
    65
 73
     0
 40
0.0
  0
LTYPE
  5
5F
100
AcDbSymbolTableRecord
100
AcDbLinetypeTableRecord
  2
_PFEIL
 70
    64
  3

 72
    65
 73
     0
 40
0.0
  0
LTYPE
  5
60
100
AcDbSymbolTableRecord
100
AcDbLinetypeTableRecord
  2
_STITCHLINE
 70
    64
  3

 72
    65
 73
     2
 40
6.0
 49
3.0
 74
     0
 49
-3.0
 74
     0
  0
LTYPE
  5
61
100
AcDbSymbolTableRecord
100
AcDbLinetypeTableRecord
  2
_MITTELLINIE_2
 70
    64
  3

 72
    65
 73
     4
 40
17.0
 49
10.0
 74
     0
 49
-2.0
 74
     0
 49
3.0
 74
     0
 49
-2.0
 74
     0
  0
LTYPE
  5
62
100
AcDbSymbolTableRecord
100
AcDbLinetypeTableRecord
  2
_VERDECKTE_LINIE
 70
    64
  3

 72
    65
 73
     2
 40
4.0
 49
2.0
 74
     0
 49
-2.0
 74
     0
  0
LTYPE
  5
63
100
AcDbSymbolTableRecord
100
AcDbLinetypeTableRecord
  2
_PHANTOMLINIE
 70
    64
  3

 72
    65
 73
     6
 40
21.0
 49
10.0
 74
     0
 49
-2.0
 74
     0
 49
3.0
 74
     0
 49
-1.0
 74
     0
 49
3.0
 74
     0
 49
-2.0
 74
     0
  0
LTYPE
  5
64
100
AcDbSymbolTableRecord
100
AcDbLinetypeTableRecord
  2
_BRUCHLINIE_1
 70
    64
  3

 72
    65
 73
     0
 40
0.0
  0
LTYPE
  5
65
100
AcDbSymbolTableRecord
100
AcDbLinetypeTableRecord
  2
_BRUCHLINIE_2
 70
    64
  3

 72
    65
 73
     0
 40
0.0
  0
LTYPE
  5
66
100
AcDbSymbolTableRecord
100
AcDbLinetypeTableRecord
  2
SLDCENTERLINES0
 70
    64
  3

 72
    65
 73
     4
 40
19.05
 49
15.24
 74
     0
 49
-1.27
 74
     0
 49
1.27
 74
     0
 49
-1.27
 74
     0
  0
LTYPE
  5
67
100
AcDbSymbolTableRecord
100
AcDbLinetypeTableRecord
  2
SLDTANVISIBLE0
 70
    64
  3

 72
    65
 73
     6
 40
12.7
 49
6.35
 74
     0
 49
-1.27
 74
     0
 49
1.27
 74
     0
 49
-1.27
 74
     0
 49
1.27
 74
     0
 49
-1.27
 74
     0
  0
LTYPE
  5
68
100
AcDbSymbolTableRecord
100
AcDbLinetypeTableRecord
  2
_DURCHGEHEND
 70
    64
  3

 72
    65
 73
     0
 40
0.0
  0
LTYPE
  5
69
100
AcDbSymbolTableRecord
100
AcDbLinetypeTableRecord
  2
_GESTRICHELT
 70
    64
  3

 72
    65
 73
     2
 40
10.0
 49
5.0
 74
     0
 49
-5.0
 74
     0
  0
LTYPE
  5
6A
100
AcDbSymbolTableRecord
100
AcDbLinetypeTableRecord
  2
_MITTELLINIE
 70
    64
  3

 72
    65
 73
     4
 40
20.0
 49
10.0
 74
     0
 49
-2.0
 74
     0
 49
5.0
 74
     0
 49
-3.0
 74
     0
  0
LTYPE
  5
6B
100
AcDbSymbolTableRecord
100
AcDbLinetypeTableRecord
  2
_PUNKTIERT
 70
    64
  3

 72
    65
 73
     2
 40
0.25
 49
0.0
 74
     0
 49
-0.25
 74
     0
  0
LTYPE
  5
6C
100
AcDbSymbolTableRecord
100
AcDbLinetypeTableRecord
  2
_STRICHPUNKTIERT
 70
    64
  3

 72
    65
 73
     4
 40
8.0
 49
5.0
 74
     0
 49
-1.0
 74
     0
 49
1.0
 74
     0
 49
-1.0
 74
     0
  0
LTYPE
  5
6D
100
AcDbSymbolTableRecord
100
AcDbLinetypeTableRecord
  2
_STRICH-PUNKT-PUNKT
 70
    64
  3

 72
    65
 73
     6
 40
10.0
 49
5.0
 74
     0
 49
-1.0
 74
     0
 49
1.0
 74
     0
 49
-1.0
 74
     0
 49
1.0
 74
     0
 49
-1.0
 74
     0
  0
LTYPE
  5
6E
100
AcDbSymbolTableRecord
100
AcDbLinetypeTableRecord
  2
_STARTPFEIL
 70
    64
  3

 72
    65
 73
     0
 40
0.0
  0
LTYPE
  5
6F
100
AcDbSymbolTableRecord
100
AcDbLinetypeTableRecord
  2
_ENDPFEIL
 70
    64
  3

 72
    65
 73
     0
 40
0.0
  0
LTYPE
  5
70
100
AcDbSymbolTableRecord
100
AcDbLinetypeTableRecord
  2
_ENDPUNKT
 70
    64
  3

 72
    65
 73
     0
 40
0.0
  0
LTYPE
  5
71
100
AcDbSymbolTableRecord
100
AcDbLinetypeTableRecord
  2
_PFEIL
 70
    64
  3

 72
    65
 73
     0
 40
0.0
  0
LTYPE
  5
72
100
AcDbSymbolTableRecord
100
AcDbLinetypeTableRecord
  2
_STITCHLINE
 70
    64
  3

 72
    65
 73
     2
 40
6.0
 49
3.0
 74
     0
 49
-3.0
 74
     0
  0
LTYPE
  5
73
100
AcDbSymbolTableRecord
100
AcDbLinetypeTableRecord
  2
_MITTELLINIE_2
 70
    64
  3

 72
    65
 73
     4
 40
17.0
 49
10.0
 74
     0
 49
-2.0
 74
     0
 49
3.0
 74
     0
 49
-2.0
 74
     0
  0
LTYPE
  5
74
100
AcDbSymbolTableRecord
100
AcDbLinetypeTableRecord
  2
_VERDECKTE_LINIE
 70
    64
  3

 72
    65
 73
     2
 40
4.0
 49
2.0
 74
     0
 49
-2.0
 74
     0
  0
LTYPE
  5
75
100
AcDbSymbolTableRecord
100
AcDbLinetypeTableRecord
  2
_PHANTOMLINIE
 70
    64
  3

 72
    65
 73
     6
 40
21.0
 49
10.0
 74
     0
 49
-2.0
 74
     0
 49
3.0
 74
     0
 49
-1.0
 74
     0
 49
3.0
 74
     0
 49
-2.0
 74
     0
  0
LTYPE
  5
76
100
AcDbSymbolTableRecord
100
AcDbLinetypeTableRecord
  2
_BRUCHLINIE_1
 70
    64
  3

 72
    65
 73
     0
 40
0.0
  0
LTYPE
  5
77
100
AcDbSymbolTableRecord
100
AcDbLinetypeTableRecord
  2
_BRUCHLINIE_2
 70
    64
  3

 72
    65
 73
     0
 40
0.0
  0
LTYPE
  5
78
100
AcDbSymbolTableRecord
100
AcDbLinetypeTableRecord
  2
_DURCHGEHEND
 70
    64
  3

 72
    65
 73
     0
 40
0.0
  0
LTYPE
  5
79
100
AcDbSymbolTableRecord
100
AcDbLinetypeTableRecord
  2
_GESTRICHELT
 70
    64
  3

 72
    65
 73
     2
 40
10.0
 49
5.0
 74
     0
 49
-5.0
 74
     0
  0
LTYPE
  5
7A
100
AcDbSymbolTableRecord
100
AcDbLinetypeTableRecord
  2
_MITTELLINIE
 70
    64
  3

 72
    65
 73
     4
 40
20.0
 49
10.0
 74
     0
 49
-2.0
 74
     0
 49
5.0
 74
     0
 49
-3.0
 74
     0
  0
LTYPE
  5
7B
100
AcDbSymbolTableRecord
100
AcDbLinetypeTableRecord
  2
_PUNKTIERT
 70
    64
  3

 72
    65
 73
     2
 40
0.25
 49
0.0
 74
     0
 49
-0.25
 74
     0
  0
LTYPE
  5
7C
100
AcDbSymbolTableRecord
100
AcDbLinetypeTableRecord
  2
_STRICHPUNKTIERT
 70
    64
  3

 72
    65
 73
     4
 40
8.0
 49
5.0
 74
     0
 49
-1.0
 74
     0
 49
1.0
 74
     0
 49
-1.0
 74
     0
  0
LTYPE
  5
7D
100
AcDbSymbolTableRecord
100
AcDbLinetypeTableRecord
  2
_STRICH-PUNKT-PUNKT
 70
    64
  3

 72
    65
 73
     6
 40
10.0
 49
5.0
 74
     0
 49
-1.0
 74
     0
 49
1.0
 74
     0
 49
-1.0
 74
     0
 49
1.0
 74
     0
 49
-1.0
 74
     0
  0
LTYPE
  5
7E
100
AcDbSymbolTableRecord
100
AcDbLinetypeTableRecord
  2
_STARTPFEIL
 70
    64
  3

 72
    65
 73
     0
 40
0.0
  0
LTYPE
  5
7F
100
AcDbSymbolTableRecord
100
AcDbLinetypeTableRecord
  2
_ENDPFEIL
 70
    64
  3

 72
    65
 73
     0
 40
0.0
  0
LTYPE
  5
80
100
AcDbSymbolTableRecord
100
AcDbLinetypeTableRecord
  2
_ENDPUNKT
 70
    64
  3

 72
    65
 73
     0
 40
0.0
  0
LTYPE
  5
81
100
AcDbSymbolTableRecord
100
AcDbLinetypeTableRecord
  2
_PFEIL
 70
    64
  3

 72
    65
 73
     0
 40
0.0
  0
LTYPE
  5
82
100
AcDbSymbolTableRecord
100
AcDbLinetypeTableRecord
  2
_STITCHLINE
 70
    64
  3

 72
    65
 73
     2
 40
6.0
 49
3.0
 74
     0
 49
-3.0
 74
     0
  0
LTYPE
  5
83
100
AcDbSymbolTableRecord
100
AcDbLinetypeTableRecord
  2
_MITTELLINIE_2
 70
    64
  3

 72
    65
 73
     4
 40
17.0
 49
10.0
 74
     0
 49
-2.0
 74
     0
 49
3.0
 74
     0
 49
-2.0
 74
     0
  0
LTYPE
  5
84
100
AcDbSymbolTableRecord
100
AcDbLinetypeTableRecord
  2
_VERDECKTE_LINIE
 70
    64
  3

 72
    65
 73
     2
 40
4.0
 49
2.0
 74
     0
 49
-2.0
 74
     0
  0
LTYPE
  5
85
100
AcDbSymbolTableRecord
100
AcDbLinetypeTableRecord
  2
_PHANTOMLINIE
 70
    64
  3

 72
    65
 73
     6
 40
21.0
 49
10.0
 74
     0
 49
-2.0
 74
     0
 49
3.0
 74
     0
 49
-1.0
 74
     0
 49
3.0
 74
     0
 49
-2.0
 74
     0
  0
LTYPE
  5
86
100
AcDbSymbolTableRecord
100
AcDbLinetypeTableRecord
  2
_BRUCHLINIE_1
 70
    64
  3

 72
    65
 73
     0
 40
0.0
  0
LTYPE
  5
87
100
AcDbSymbolTableRecord
100
AcDbLinetypeTableRecord
  2
_BRUCHLINIE_2
 70
    64
  3

 72
    65
 73
     0
 40
0.0
  0
LTYPE
  5
88
100
AcDbSymbolTableRecord
100
AcDbLinetypeTableRecord
  2
_DURCHGEHEND
 70
    64
  3

 72
    65
 73
     0
 40
0.0
  0
LTYPE
  5
89
100
AcDbSymbolTableRecord
100
AcDbLinetypeTableRecord
  2
_GESTRICHELT
 70
    64
  3

 72
    65
 73
     2
 40
10.0
 49
5.0
 74
     0
 49
-5.0
 74
     0
  0
LTYPE
  5
8A
100
AcDbSymbolTableRecord
100
AcDbLinetypeTableRecord
  2
_MITTELLINIE
 70
    64
  3

 72
    65
 73
     4
 40
20.0
 49
10.0
 74
     0
 49
-2.0
 74
     0
 49
5.0
 74
     0
 49
-3.0
 74
     0
  0
LTYPE
  5
8B
100
AcDbSymbolTableRecord
100
AcDbLinetypeTableRecord
  2
_PUNKTIERT
 70
    64
  3

 72
    65
 73
     2
 40
0.25
 49
0.0
 74
     0
 49
-0.25
 74
     0
  0
LTYPE
  5
8C
100
AcDbSymbolTableRecord
100
AcDbLinetypeTableRecord
  2
_STRICHPUNKTIERT
 70
    64
  3

 72
    65
 73
     4
 40
8.0
 49
5.0
 74
     0
 49
-1.0
 74
     0
 49
1.0
 74
     0
 49
-1.0
 74
     0
  0
LTYPE
  5
8D
100
AcDbSymbolTableRecord
100
AcDbLinetypeTableRecord
  2
_STRICH-PUNKT-PUNKT
 70
    64
  3

 72
    65
 73
     6
 40
10.0
 49
5.0
 74
     0
 49
-1.0
 74
     0
 49
1.0
 74
     0
 49
-1.0
 74
     0
 49
1.0
 74
     0
 49
-1.0
 74
     0
  0
LTYPE
  5
8E
100
AcDbSymbolTableRecord
100
AcDbLinetypeTableRecord
  2
_STARTPFEIL
 70
    64
  3

 72
    65
 73
     0
 40
0.0
  0
LTYPE
  5
8F
100
AcDbSymbolTableRecord
100
AcDbLinetypeTableRecord
  2
_ENDPFEIL
 70
    64
  3

 72
    65
 73
     0
 40
0.0
  0
LTYPE
  5
90
100
AcDbSymbolTableRecord
100
AcDbLinetypeTableRecord
  2
_ENDPUNKT
 70
    64
  3

 72
    65
 73
     0
 40
0.0
  0
LTYPE
  5
91
100
AcDbSymbolTableRecord
100
AcDbLinetypeTableRecord
  2
_PFEIL
 70
    64
  3

 72
    65
 73
     0
 40
0.0
  0
LTYPE
  5
92
100
AcDbSymbolTableRecord
100
AcDbLinetypeTableRecord
  2
_STITCHLINE
 70
    64
  3

 72
    65
 73
     2
 40
6.0
 49
3.0
 74
     0
 49
-3.0
 74
     0
  0
LTYPE
  5
93
100
AcDbSymbolTableRecord
100
AcDbLinetypeTableRecord
  2
_MITTELLINIE_2
 70
    64
  3

 72
    65
 73
     4
 40
17.0
 49
10.0
 74
     0
 49
-2.0
 74
     0
 49
3.0
 74
     0
 49
-2.0
 74
     0
  0
LTYPE
  5
94
100
AcDbSymbolTableRecord
100
AcDbLinetypeTableRecord
  2
_VERDECKTE_LINIE
 70
    64
  3

 72
    65
 73
     2
 40
4.0
 49
2.0
 74
     0
 49
-2.0
 74
     0
  0
LTYPE
  5
95
100
AcDbSymbolTableRecord
100
AcDbLinetypeTableRecord
  2
_PHANTOMLINIE
 70
    64
  3

 72
    65
 73
     6
 40
21.0
 49
10.0
 74
     0
 49
-2.0
 74
     0
 49
3.0
 74
     0
 49
-1.0
 74
     0
 49
3.0
 74
     0
 49
-2.0
 74
     0
  0
LTYPE
  5
96
100
AcDbSymbolTableRecord
100
AcDbLinetypeTableRecord
  2
_BRUCHLINIE_1
 70
    64
  3

 72
    65
 73
     0
 40
0.0
  0
LTYPE
  5
97
100
AcDbSymbolTableRecord
100
AcDbLinetypeTableRecord
  2
_BRUCHLINIE_2
 70
    64
  3

 72
    65
 73
     0
 40
0.0
  0
LTYPE
  5
98
100
AcDbSymbolTableRecord
100
AcDbLinetypeTableRecord
  2
_DURCHGEHEND
 70
    64
  3

 72
    65
 73
     0
 40
0.0
  0
LTYPE
  5
99
100
AcDbSymbolTableRecord
100
AcDbLinetypeTableRecord
  2
_GESTRICHELT
 70
    64
  3

 72
    65
 73
     2
 40
10.0
 49
5.0
 74
     0
 49
-5.0
 74
     0
  0
LTYPE
  5
9A
100
AcDbSymbolTableRecord
100
AcDbLinetypeTableRecord
  2
_MITTELLINIE
 70
    64
  3

 72
    65
 73
     4
 40
20.0
 49
10.0
 74
     0
 49
-2.0
 74
     0
 49
5.0
 74
     0
 49
-3.0
 74
     0
  0
LTYPE
  5
9B
100
AcDbSymbolTableRecord
100
AcDbLinetypeTableRecord
  2
_PUNKTIERT
 70
    64
  3

 72
    65
 73
     2
 40
0.25
 49
0.0
 74
     0
 49
-0.25
 74
     0
  0
LTYPE
  5
9C
100
AcDbSymbolTableRecord
100
AcDbLinetypeTableRecord
  2
_STRICHPUNKTIERT
 70
    64
  3

 72
    65
 73
     4
 40
8.0
 49
5.0
 74
     0
 49
-1.0
 74
     0
 49
1.0
 74
     0
 49
-1.0
 74
     0
  0
LTYPE
  5
9D
100
AcDbSymbolTableRecord
100
AcDbLinetypeTableRecord
  2
_STRICH-PUNKT-PUNKT
 70
    64
  3

 72
    65
 73
     6
 40
10.0
 49
5.0
 74
     0
 49
-1.0
 74
     0
 49
1.0
 74
     0
 49
-1.0
 74
     0
 49
1.0
 74
     0
 49
-1.0
 74
     0
  0
LTYPE
  5
9E
100
AcDbSymbolTableRecord
100
AcDbLinetypeTableRecord
  2
_STARTPFEIL
 70
    64
  3

 72
    65
 73
     0
 40
0.0
  0
LTYPE
  5
9F
100
AcDbSymbolTableRecord
100
AcDbLinetypeTableRecord
  2
_ENDPFEIL
 70
    64
  3

 72
    65
 73
     0
 40
0.0
  0
LTYPE
  5
A0
100
AcDbSymbolTableRecord
100
AcDbLinetypeTableRecord
  2
_ENDPUNKT
 70
    64
  3

 72
    65
 73
     0
 40
0.0
  0
LTYPE
  5
A1
100
AcDbSymbolTableRecord
100
AcDbLinetypeTableRecord
  2
_PFEIL
 70
    64
  3

 72
    65
 73
     0
 40
0.0
  0
LTYPE
  5
A2
100
AcDbSymbolTableRecord
100
AcDbLinetypeTableRecord
  2
_STITCHLINE
 70
    64
  3

 72
    65
 73
     2
 40
6.0
 49
3.0
 74
     0
 49
-3.0
 74
     0
  0
LTYPE
  5
A3
100
AcDbSymbolTableRecord
100
AcDbLinetypeTableRecord
  2
_MITTELLINIE_2
 70
    64
  3

 72
    65
 73
     4
 40
17.0
 49
10.0
 74
     0
 49
-2.0
 74
     0
 49
3.0
 74
     0
 49
-2.0
 74
     0
  0
LTYPE
  5
A4
100
AcDbSymbolTableRecord
100
AcDbLinetypeTableRecord
  2
_VERDECKTE_LINIE
 70
    64
  3

 72
    65
 73
     2
 40
4.0
 49
2.0
 74
     0
 49
-2.0
 74
     0
  0
LTYPE
  5
A5
100
AcDbSymbolTableRecord
100
AcDbLinetypeTableRecord
  2
_PHANTOMLINIE
 70
    64
  3

 72
    65
 73
     6
 40
21.0
 49
10.0
 74
     0
 49
-2.0
 74
     0
 49
3.0
 74
     0
 49
-1.0
 74
     0
 49
3.0
 74
     0
 49
-2.0
 74
     0
  0
LTYPE
  5
A6
100
AcDbSymbolTableRecord
100
AcDbLinetypeTableRecord
  2
_BRUCHLINIE_1
 70
    64
  3

 72
    65
 73
     0
 40
0.0
  0
LTYPE
  5
A7
100
AcDbSymbolTableRecord
100
AcDbLinetypeTableRecord
  2
_BRUCHLINIE_2
 70
    64
  3

 72
    65
 73
     0
 40
0.0
  0
LTYPE
  5
A8
100
AcDbSymbolTableRecord
100
AcDbLinetypeTableRecord
  2
_DURCHGEHEND
 70
    64
  3

 72
    65
 73
     0
 40
0.0
  0
LTYPE
  5
A9
100
AcDbSymbolTableRecord
100
AcDbLinetypeTableRecord
  2
_GESTRICHELT
 70
    64
  3

 72
    65
 73
     2
 40
10.0
 49
5.0
 74
     0
 49
-5.0
 74
     0
  0
LTYPE
  5
AA
100
AcDbSymbolTableRecord
100
AcDbLinetypeTableRecord
  2
_MITTELLINIE
 70
    64
  3

 72
    65
 73
     4
 40
20.0
 49
10.0
 74
     0
 49
-2.0
 74
     0
 49
5.0
 74
     0
 49
-3.0
 74
     0
  0
LTYPE
  5
AB
100
AcDbSymbolTableRecord
100
AcDbLinetypeTableRecord
  2
_PUNKTIERT
 70
    64
  3

 72
    65
 73
     2
 40
0.25
 49
0.0
 74
     0
 49
-0.25
 74
     0
  0
LTYPE
  5
AC
100
AcDbSymbolTableRecord
100
AcDbLinetypeTableRecord
  2
_STRICHPUNKTIERT
 70
    64
  3

 72
    65
 73
     4
 40
8.0
 49
5.0
 74
     0
 49
-1.0
 74
     0
 49
1.0
 74
     0
 49
-1.0
 74
     0
  0
LTYPE
  5
AD
100
AcDbSymbolTableRecord
100
AcDbLinetypeTableRecord
  2
_STRICH-PUNKT-PUNKT
 70
    64
  3

 72
    65
 73
     6
 40
10.0
 49
5.0
 74
     0
 49
-1.0
 74
     0
 49
1.0
 74
     0
 49
-1.0
 74
     0
 49
1.0
 74
     0
 49
-1.0
 74
     0
  0
LTYPE
  5
AE
100
AcDbSymbolTableRecord
100
AcDbLinetypeTableRecord
  2
_STARTPFEIL
 70
    64
  3

 72
    65
 73
     0
 40
0.0
  0
LTYPE
  5
AF
100
AcDbSymbolTableRecord
100
AcDbLinetypeTableRecord
  2
_ENDPFEIL
 70
    64
  3

 72
    65
 73
     0
 40
0.0
  0
LTYPE
  5
B0
100
AcDbSymbolTableRecord
100
AcDbLinetypeTableRecord
  2
_ENDPUNKT
 70
    64
  3

 72
    65
 73
     0
 40
0.0
  0
LTYPE
  5
B1
100
AcDbSymbolTableRecord
100
AcDbLinetypeTableRecord
  2
_PFEIL
 70
    64
  3

 72
    65
 73
     0
 40
0.0
  0
LTYPE
  5
B2
100
AcDbSymbolTableRecord
100
AcDbLinetypeTableRecord
  2
_STITCHLINE
 70
    64
  3

 72
    65
 73
     2
 40
6.0
 49
3.0
 74
     0
 49
-3.0
 74
     0
  0
LTYPE
  5
B3
100
AcDbSymbolTableRecord
100
AcDbLinetypeTableRecord
  2
_MITTELLINIE_2
 70
    64
  3

 72
    65
 73
     4
 40
17.0
 49
10.0
 74
     0
 49
-2.0
 74
     0
 49
3.0
 74
     0
 49
-2.0
 74
     0
  0
LTYPE
  5
B4
100
AcDbSymbolTableRecord
100
AcDbLinetypeTableRecord
  2
_VERDECKTE_LINIE
 70
    64
  3

 72
    65
 73
     2
 40
4.0
 49
2.0
 74
     0
 49
-2.0
 74
     0
  0
LTYPE
  5
B5
100
AcDbSymbolTableRecord
100
AcDbLinetypeTableRecord
  2
_PHANTOMLINIE
 70
    64
  3

 72
    65
 73
     6
 40
21.0
 49
10.0
 74
     0
 49
-2.0
 74
     0
 49
3.0
 74
     0
 49
-1.0
 74
     0
 49
3.0
 74
     0
 49
-2.0
 74
     0
  0
LTYPE
  5
B6
100
AcDbSymbolTableRecord
100
AcDbLinetypeTableRecord
  2
_BRUCHLINIE_1
 70
    64
  3

 72
    65
 73
     0
 40
0.0
  0
LTYPE
  5
B7
100
AcDbSymbolTableRecord
100
AcDbLinetypeTableRecord
  2
_BRUCHLINIE_2
 70
    64
  3

 72
    65
 73
     0
 40
0.0
  0
LTYPE
  5
B8
100
AcDbSymbolTableRecord
100
AcDbLinetypeTableRecord
  2
4_2-0_7-0_7-0_7
 70
    64
  3

 72
    65
 73
     4
 40
6.35
 49
4.233334
 74
     0
 49
-0.705556
 74
     0
 49
0.705556
 74
     0
 49
-0.705556
 74
     0
  0
LTYPE
  5
B9
100
AcDbSymbolTableRecord
100
AcDbLinetypeTableRecord
  2
0_7-0_7
 70
    64
  3

 72
    65
 73
     2
 40
1.411111
 49
0.705556
 74
     0
 49
-0.705556
 74
     0
  0
LTYPE
  5
BA
100
AcDbSymbolTableRecord
100
AcDbLinetypeTableRecord
  2
_DURCHGEHEND
 70
    64
  3

 72
    65
 73
     0
 40
0.0
  0
LTYPE
  5
BB
100
AcDbSymbolTableRecord
100
AcDbLinetypeTableRecord
  2
_GESTRICHELT
 70
    64
  3

 72
    65
 73
     2
 40
10.0
 49
5.0
 74
     0
 49
-5.0
 74
     0
  0
LTYPE
  5
BC
100
AcDbSymbolTableRecord
100
AcDbLinetypeTableRecord
  2
_MITTELLINIE
 70
    64
  3

 72
    65
 73
     4
 40
20.0
 49
10.0
 74
     0
 49
-2.0
 74
     0
 49
5.0
 74
     0
 49
-3.0
 74
     0
  0
LTYPE
  5
BD
100
AcDbSymbolTableRecord
100
AcDbLinetypeTableRecord
  2
_PUNKTIERT
 70
    64
  3

 72
    65
 73
     2
 40
0.25
 49
0.0
 74
     0
 49
-0.25
 74
     0
  0
LTYPE
  5
BE
100
AcDbSymbolTableRecord
100
AcDbLinetypeTableRecord
  2
_STRICHPUNKTIERT
 70
    64
  3

 72
    65
 73
     4
 40
8.0
 49
5.0
 74
     0
 49
-1.0
 74
     0
 49
1.0
 74
     0
 49
-1.0
 74
     0
  0
LTYPE
  5
BF
100
AcDbSymbolTableRecord
100
AcDbLinetypeTableRecord
  2
_STRICH-PUNKT-PUNKT
 70
    64
  3

 72
    65
 73
     6
 40
10.0
 49
5.0
 74
     0
 49
-1.0
 74
     0
 49
1.0
 74
     0
 49
-1.0
 74
     0
 49
1.0
 74
     0
 49
-1.0
 74
     0
  0
LTYPE
  5
C0
100
AcDbSymbolTableRecord
100
AcDbLinetypeTableRecord
  2
_STARTPFEIL
 70
    64
  3

 72
    65
 73
     0
 40
0.0
  0
LTYPE
  5
C1
100
AcDbSymbolTableRecord
100
AcDbLinetypeTableRecord
  2
_ENDPFEIL
 70
    64
  3

 72
    65
 73
     0
 40
0.0
  0
LTYPE
  5
C2
100
AcDbSymbolTableRecord
100
AcDbLinetypeTableRecord
  2
_ENDPUNKT
 70
    64
  3

 72
    65
 73
     0
 40
0.0
  0
LTYPE
  5
C3
100
AcDbSymbolTableRecord
100
AcDbLinetypeTableRecord
  2
_PFEIL
 70
    64
  3

 72
    65
 73
     0
 40
0.0
  0
LTYPE
  5
C4
100
AcDbSymbolTableRecord
100
AcDbLinetypeTableRecord
  2
_STITCHLINE
 70
    64
  3

 72
    65
 73
     2
 40
6.0
 49
3.0
 74
     0
 49
-3.0
 74
     0
  0
LTYPE
  5
C5
100
AcDbSymbolTableRecord
100
AcDbLinetypeTableRecord
  2
_MITTELLINIE_2
 70
    64
  3

 72
    65
 73
     4
 40
17.0
 49
10.0
 74
     0
 49
-2.0
 74
     0
 49
3.0
 74
     0
 49
-2.0
 74
     0
  0
LTYPE
  5
C6
100
AcDbSymbolTableRecord
100
AcDbLinetypeTableRecord
  2
_VERDECKTE_LINIE
 70
    64
  3

 72
    65
 73
     2
 40
4.0
 49
2.0
 74
     0
 49
-2.0
 74
     0
  0
LTYPE
  5
C7
100
AcDbSymbolTableRecord
100
AcDbLinetypeTableRecord
  2
_PHANTOMLINIE
 70
    64
  3

 72
    65
 73
     6
 40
21.0
 49
10.0
 74
     0
 49
-2.0
 74
     0
 49
3.0
 74
     0
 49
-1.0
 74
     0
 49
3.0
 74
     0
 49
-2.0
 74
     0
  0
LTYPE
  5
C8
100
AcDbSymbolTableRecord
100
AcDbLinetypeTableRecord
  2
_BRUCHLINIE_1
 70
    64
  3

 72
    65
 73
     0
 40
0.0
  0
LTYPE
  5
C9
100
AcDbSymbolTableRecord
100
AcDbLinetypeTableRecord
  2
_BRUCHLINIE_2
 70
    64
  3

 72
    65
 73
     0
 40
0.0
  0
LTYPE
  5
CA
100
AcDbSymbolTableRecord
100
AcDbLinetypeTableRecord
  2
CONTINUOUS
 70
    64
  3

 72
    65
 73
     0
 40
0.0
  0
ENDTAB
  0
TABLE
  2
LAYER
  5
2
100
AcDbSymbolTable
 70
     7
  0
LAYER
  5
14
100
AcDbSymbolTableRecord
100
AcDbLayerTableRecord
  2
0
 70
     0
 62
     7
  6
Continuous
290
     1
370
    -3
390
1D
  0
LAYER
  5
CB
100
AcDbSymbolTableRecord
100
AcDbLayerTableRecord
  2
STANDARDEBENE
 70
     0
 62
     7
  6
Continuous
290
     1
370
    -3
390
1D
  0
LAYER
  5
CC
100
AcDbSymbolTableRecord
100
AcDbLayerTableRecord
  2
ARMATUR
 70
     0
 62
     7
  6
Continuous
290
     1
370
    -3
390
1D
  0
LAYER
  5
CD
100
AcDbSymbolTableRecord
100
AcDbLayerTableRecord
  2
ACHSEN
 70
     0
 62
     7
  6
Continuous
290
     1
370
    -3
390
1D
  0
LAYER
  5
CE
100
AcDbSymbolTableRecord
100
AcDbLayerTableRecord
  2
TEXT
 70
     0
 62
     7
  6
Continuous
290
     1
370
    -3
390
1D
  0
LAYER
  5
CF
100
AcDbSymbolTableRecord
100
AcDbLayerTableRecord
  2
BEMASSUNG
 70
     0
 62
     7
  6
Continuous
290
     1
370
    -3
390
1D
  0
LAYER
  5
D0
100
AcDbSymbolTableRecord
100
AcDbLayerTableRecord
  2
WAND
 70
     0
 62
     7
  6
Continuous
290
     1
370
    -3
390
1D
  0
ENDTAB
  0
TABLE
  2
STYLE
  5
3
100
AcDbSymbolTable
 70
     1
  0
STYLE
  5
17
100
AcDbSymbolTableRecord
100
AcDbTextStyleTableRecord
  2
Standard
 70
     0
 40
0.0
 41
1.0
 50
0.0
 71
     0
 42
0.0
  3
txt
  4

  0
ENDTAB
  0
TABLE
  2
VIEW
  5
5
100
AcDbSymbolTable
 70
     0
  0
ENDTAB
  0
TABLE
  2
UCS
  5
6
100
AcDbSymbolTable
 70
     1
  0
UCS
  5
24
100
AcDbSymbolTableRecord
100
AcDbUCSTableRecord
  2
ISODRAW_6_2
 70
     0
 10
0.0
 20
0.0
 30
0.0
 11
0.0
 21
1.0
 31
0.0
 12
0.0
 22
0.0
 32
1.0
 79
     0
146
0.0
  0
ENDTAB
  0
TABLE
  2
APPID
  5
8
100
AcDbSymbolTable
 70
     1
  0
APPID
  5
16
100
AcDbSymbolTableRecord
100
AcDbRegAppTableRecord
  2
ACAD
 70
     0
  0
ENDTAB
  0
TABLE
  2
DIMSTYLE
  5
9
100
AcDbSymbolTable
 70
     1
100
AcDbDimStyleTable
 71
     0
  0
DIMSTYLE
105
18
100
AcDbSymbolTableRecord
100
AcDbDimStyleTableRecord
  2
Standard
 70
     0
  3

  4

 40
1.0
 41
0.18
 42
0.0625
 43
0.38
 44
0.18
 45
0.0
 46
0.0
 47
0.0
 48
0.0
 71
     0
 72
     0
 73
     1
 74
     1
 75
     0
 76
     0
 77
     0
 78
     0
 79
     0
140
0.18
141
0.09
142
0.0
143
25.4
144
1.0
145
0.0
146
1.0
147
0.09
148
0.0
170
     0
171
     2
172
     0
173
     0
174
     0
175
     0
176
     0
177
     0
178
     0
179
     0
271
     4
272
     4
273
     2
274
     2
275
     0
276
     0
277
     2
278
    46
279
     0
280
     0
281
     0
282
     0
283
     1
284
     0
285
     0
286
     0
288
     0
289
     3
340
17
341
0
342
0
343
0
344
0
371
    -2
372
    -2
  0
ENDTAB
  0
TABLE
  2
BLOCK_RECORD
  5
1
100
AcDbSymbolTable
 70
     0
  0
BLOCK_RECORD
  5
A
100
AcDbSymbolTableRecord
100
AcDbBlockTableRecord
  2
*MODEL_SPACE
340
20
  0
BLOCK_RECORD
  5
B
100
AcDbSymbolTableRecord
100
AcDbBlockTableRecord
  2
*PAPER_SPACE
340
21
  0
ENDTAB
  0
ENDSEC
  0
SECTION
  2
BLOCKS
  0
BLOCK
  5
D
100
AcDbEntity
  8
0
390
0
100
AcDbBlockBegin
  2
*MODEL_SPACE
 70
     0
 10
0.0
 20
0.0
 30
0.0
  3
*MODEL_SPACE
  1

  0
ENDBLK
  5
E
100
AcDbEntity
  8
0
390
0
100
AcDbBlockEnd
  0
BLOCK
  5
F
100
AcDbEntity
 67
     1
  8
0
390
0
100
AcDbBlockBegin
  2
*PAPER_SPACE
 70
     0
 10
0.0
 20
0.0
 30
0.0
  3
*PAPER_SPACE
  1

  0
ENDBLK
  5
10
100
AcDbEntity
 67
     1
  8
0
390
0
100
AcDbBlockEnd
  0
ENDSEC
  0
SECTION
  2
ENTITIES
  0
LINE
  5
D1
100
AcDbEntity
  8
ARMATUR
390
0
  6
DURCHGEHEND
 62
     1
100
AcDbLine
 10
124.57988
 20
121.718079
 30
0.0
 11
124.57988
 21
122.468079
 31
0.0
  0
LINE
  5
D2
100
AcDbEntity
  8
ARMATUR
390
0
  6
DURCHGEHEND
 62
     1
100
AcDbLine
 10
118.454887
 20
122.468079
 30
0.0
 11
118.454887
 21
121.718079
 31
0.0
  0
POLYLINE
  5
D3
100
AcDbEntity
  8
ARMATUR
390
0
  6
DURCHGEHEND
 62
     1
100
AcDb3dPolyline
 66
     1
 10
0.0
 20
0.0
 30
0.0
 70
    12
 75
     5
  0
VERTEX
  5
D4
100
AcDbEntity
  8
0
390
0
100
AcDbVertex
100
AcDb3dPolylineVertex
 10
127.595413
 20
124.850174
 30
0.0
 70
    48
  0
VERTEX
  5
D5
100
AcDbEntity
  8
0
390
0
100
AcDbVertex
100
AcDb3dPolylineVertex
 10
127.595413
 20
124.850174
 30
0.0
 70
    40
  0
VERTEX
  5
D6
100
AcDbEntity
  8
0
390
0
100
AcDbVertex
100
AcDb3dPolylineVertex
 10
127.683609
 20
124.849976
 30
0.0
 70
    40
  0
VERTEX
  5
D7
100
AcDbEntity
  8
0
390
0
100
AcDbVertex
100
AcDb3dPolylineVertex
 10
127.595413
 20
124.850174
 30
0.0
 70
    48
  0
VERTEX
  5
D8
100
AcDbEntity
  8
0
390
0
100
AcDbVertex
100
AcDb3dPolylineVertex
 10
127.683609
 20
124.849976
 30
0.0
 70
    48
  0
VERTEX
  5
D9
100
AcDbEntity
  8
0
390
0
100
AcDbVertex
100
AcDb3dPolylineVertex
 10
127.683609
 20
124.849976
 30
0.0
 70
    48
  0
VERTEX
  5
DA
100
AcDbEntity
  8
0
390
0
100
AcDbVertex
100
AcDb3dPolylineVertex
 10
127.903854
 20
124.905121
 30
0.0
 70
    40
  0
VERTEX
  5
DB
100
AcDbEntity
  8
0
390
0
100
AcDbVertex
100
AcDb3dPolylineVertex
 10
127.683609
 20
124.849976
 30
0.0
 70
    48
  0
VERTEX
  5
DC
100
AcDbEntity
  8
0
390
0
100
AcDbVertex
100
AcDb3dPolylineVertex
 10
127.903854
 20
124.905121
 30
0.0
 70
    48
  0
VERTEX
  5
DD
100
AcDbEntity
  8
0
390
0
100
AcDbVertex
100
AcDb3dPolylineVertex
 10
127.903854
 20
124.905121
 30
0.0
 70
    48
  0
VERTEX
  5
DE
100
AcDbEntity
  8
0
390
0
100
AcDbVertex
100
AcDb3dPolylineVertex
 10
128.110367
 20
125.012451
 30
0.0
 70
    40
  0
VERTEX
  5
DF
100
AcDbEntity
  8
0
390
0
100
AcDbVertex
100
AcDb3dPolylineVertex
 10
127.903854
 20
124.905121
 30
0.0
 70
    48
  0
VERTEX
  5
E0
100
AcDbEntity
  8
0
390
0
100
AcDbVertex
100
AcDb3dPolylineVertex
 10
128.110367
 20
125.012451
 30
0.0
 70
    48
  0
VERTEX
  5
E1
100
AcDbEntity
  8
0
390
0
100
AcDbVertex
100
AcDb3dPolylineVertex
 10
128.110367
 20
125.012451
 30
0.0
 70
    48
  0
VERTEX
  5
E2
100
AcDbEntity
  8
0
390
0
100
AcDbVertex
100
AcDb3dPolylineVertex
 10
128.298447
 20
125.168854
 30
0.0
 70
    40
  0
VERTEX
  5
E3
100
AcDbEntity
  8
0
390
0
100
AcDbVertex
100
AcDb3dPolylineVertex
 10
128.110367
 20
125.012451
 30
0.0
 70
    48
  0
VERTEX
  5
E4
100
AcDbEntity
  8
0
390
0
100
AcDbVertex
100
AcDb3dPolylineVertex
 10
128.298447
 20
125.168854
 30
0.0
 70
    48
  0
VERTEX
  5
E5
100
AcDbEntity
  8
0
390
0
100
AcDbVertex
100
AcDb3dPolylineVertex
 10
128.298447
 20
125.168854
 30
0.0
 70
    48
  0
VERTEX
  5
E6
100
AcDbEntity
  8
0
390
0
100
AcDbVertex
100
AcDb3dPolylineVertex
 10
128.462601
 20
125.370529
 30
0.0
 70
    40
  0
VERTEX
  5
E7
100
AcDbEntity
  8
0
390
0
100
AcDbVertex
100
AcDb3dPolylineVertex
 10
128.298447
 20
125.168854
 30
0.0
 70
    48
  0
VERTEX
  5
E8
100
AcDbEntity
  8
0
390
0
100
AcDbVertex
100
AcDb3dPolylineVertex
 10
128.462601
 20
125.370529
 30
0.0
 70
    48
  0
VERTEX
  5
E9
100
AcDbEntity
  8
0
390
0
100
AcDbVertex
100
AcDb3dPolylineVertex
 10
128.462601
 20
125.370529
 30
0.0
 70
    48
  0
VERTEX
  5
EA
100
AcDbEntity
  8
0
390
0
100
AcDbVertex
100
AcDb3dPolylineVertex
 10
128.596848
 20
125.611267
 30
0.0
 70
    40
  0
VERTEX
  5
EB
100
AcDbEntity
  8
0
390
0
100
AcDbVertex
100
AcDb3dPolylineVertex
 10
128.462601
 20
125.370529
 30
0.0
 70
    48
  0
VERTEX
  5
EC
100
AcDbEntity
  8
0
390
0
100
AcDbVertex
100
AcDb3dPolylineVertex
 10
128.596848
 20
125.611267
 30
0.0
 70
    48
  0
VERTEX
  5
ED
100
AcDbEntity
  8
0
390
0
100
AcDbVertex
100
AcDb3dPolylineVertex
 10
128.596848
 20
125.611267
 30
0.0
 70
    48
  0
VERTEX
  5
EE
100
AcDbEntity
  8
0
390
0
100
AcDbVertex
100
AcDb3dPolylineVertex
 10
128.695969
 20
125.882462
 30
0.0
 70
    40
  0
VERTEX
  5
EF
100
AcDbEntity
  8
0
390
0
100
AcDbVertex
100
AcDb3dPolylineVertex
 10
128.596848
 20
125.611267
 30
0.0
 70
    48
  0
VERTEX
  5
F0
100
AcDbEntity
  8
0
390
0
100
AcDbVertex
100
AcDb3dPolylineVertex
 10
128.695969
 20
125.882462
 30
0.0
 70
    48
  0
VERTEX
  5
F1
100
AcDbEntity
  8
0
390
0
100
AcDbVertex
100
AcDb3dPolylineVertex
 10
128.695969
 20
125.882462
 30
0.0
 70
    48
  0
VERTEX
  5
F2
100
AcDbEntity
  8
0
390
0
100
AcDbVertex
100
AcDb3dPolylineVertex
 10
128.756302
 20
126.174118
 30
0.0
 70
    40
  0
VERTEX
  5
F3
100
AcDbEntity
  8
0
390
0
100
AcDbVertex
100
AcDb3dPolylineVertex
 10
128.695969
 20
125.882462
 30
0.0
 70
    48
  0
VERTEX
  5
F4
100
AcDbEntity
  8
0
390
0
100
AcDbVertex
100
AcDb3dPolylineVertex
 10
128.756302
 20
126.174118
 30
0.0
 70
    48
  0
VERTEX
  5
F5
100
AcDbEntity
  8
0
390
0
100
AcDbVertex
100
AcDb3dPolylineVertex
 10
128.756302
 20
126.174118
 30
0.0
 70
    48
  0
VERTEX
  5
F6
100
AcDbEntity
  8
0
390
0
100
AcDbVertex
100
AcDb3dPolylineVertex
 10
128.775955
 20
126.468079
 30
0.0
 70
    40
  0
VERTEX
  5
F7
100
AcDbEntity
  8
0
390
0
100
AcDbVertex
100
AcDb3dPolylineVertex
 10
128.756302
 20
126.174118
 30
0.0
 70
    48
  0
VERTEX
  5
F8
100
AcDbEntity
  8
0
390
0
100
AcDbVertex
100
AcDb3dPolylineVertex
 10
128.775955
 20
126.468079
 30
0.0
 70
    48
  0
VERTEX
  5
F9
100
AcDbEntity
  8
0
390
0
100
AcDbVertex
100
AcDb3dPolylineVertex
 10
128.775955
 20
126.468079
 30
0.0
 70
    48
  0
SEQEND
  5
FA
100
AcDbEntity
  8
0
390
0
  0
POLYLINE
  5
FB
100
AcDbEntity
  8
ARMATUR
390
0
  6
DURCHGEHEND
 62
     1
100
AcDb3dPolyline
 66
     1
 10
0.0
 20
0.0
 30
0.0
 70
    12
 75
     5
  0
VERTEX
  5
FC
100
AcDbEntity
  8
0
390
0
100
AcDbVertex
100
AcDb3dPolylineVertex
 10
128.775955
 20
126.468079
 30
0.0
 70
    48
  0
VERTEX
  5
FD
100
AcDbEntity
  8
0
390
0
100
AcDbVertex
100
AcDb3dPolylineVertex
 10
128.775955
 20
126.468079
 30
0.0
 70
    40
  0
VERTEX
  5
FE
100
AcDbEntity
  8
0
390
0
100
AcDbVertex
100
AcDb3dPolylineVertex
 10
128.770004
 20
126.63028
 30
0.0
 70
    40
  0
VERTEX
  5
FF
100
AcDbEntity
  8
0
390
0
100
AcDbVertex
100
AcDb3dPolylineVertex
 10
128.775955
 20
126.468079
 30
0.0
 70
    48
  0
VERTEX
  5
100
100
AcDbEntity
  8
0
390
0
100
AcDbVertex
100
AcDb3dPolylineVertex
 10
128.770004
 20
126.63028
 30
0.0
 70
    48
  0
VERTEX
  5
101
100
AcDbEntity
  8
0
390
0
100
AcDbVertex
100
AcDb3dPolylineVertex
 10
128.770004
 20
126.63028
 30
0.0
 70
    48
  0
VERTEX
  5
102
100
AcDbEntity
  8
0
390
0
100
AcDbVertex
100
AcDb3dPolylineVertex
 10
128.72731
 20
126.927963
 30
0.0
 70
    40
  0
VERTEX
  5
103
100
AcDbEntity
  8
0
390
0
100
AcDbVertex
100
AcDb3dPolylineVertex
 10
128.770004
 20
126.63028
 30
0.0
 70
    48
  0
VERTEX
  5
104
100
AcDbEntity
  8
0
390
0
100
AcDbVertex
100
AcDb3dPolylineVertex
 10
128.72731
 20
126.927963
 30
0.0
 70
    48
  0
VERTEX
  5
105
100
AcDbEntity
  8
0
390
0
100
AcDbVertex
100
AcDb3dPolylineVertex
 10
128.72731
 20
126.927963
 30
0.0
 70
    48
  0
VERTEX
  5
106
100
AcDbEntity
  8
0
390
0
100
AcDbVertex
100
AcDb3dPolylineVertex
 10
128.644272
 20
127.210785
 30
0.0
 70
    40
  0
VERTEX
  5
107
100
AcDbEntity
  8
0
390
0
100
AcDbVertex
100
AcDb3dPolylineVertex
 10
128.72731
 20
126.927963
 30
0.0
 70
    48
  0
VERTEX
  5
108
100
AcDbEntity
  8
0
390
0
100
AcDbVertex
100
AcDb3dPolylineVertex
 10
128.644272
 20
127.210785
 30
0.0
 70
    48
  0
VERTEX
  5
109
100
AcDbEntity
  8
0
390
0
100
AcDbVertex
100
AcDb3dPolylineVertex
 10
128.644272
 20
127.210785
 30
0.0
 70
    48
  0
VERTEX
  5
10A
100
AcDbEntity
  8
0
390
0
100
AcDbVertex
100
AcDb3dPolylineVertex
 10
128.522934
 20
127.468872
 30
0.0
 70
    40
  0
VERTEX
  5
10B
100
AcDbEntity
  8
0
390
0
100
AcDbVertex
100
AcDb3dPolylineVertex
 10
128.644272
 20
127.210785
 30
0.0
 70
    48
  0
VERTEX
  5
10C
100
AcDbEntity
  8
0
390
0
100
AcDbVertex
100
AcDb3dPolylineVertex
 10
128.522934
 20
127.468872
 30
0.0
 70
    48
  0
VERTEX
  5
10D
100
AcDbEntity
  8
0
390
0
100
AcDbVertex
100
AcDb3dPolylineVertex
 10
128.522934
 20
127.468872
 30
0.0
 70
    48
  0
VERTEX
  5
10E
100
AcDbEntity
  8
0
390
0
100
AcDbVertex
100
AcDb3dPolylineVertex
 10
128.366287
 20
127.692978
 30
0.0
 70
    40
  0
VERTEX
  5
10F
100
AcDbEntity
  8
0
390
0
100
AcDbVertex
100
AcDb3dPolylineVertex
 10
128.522934
 20
127.468872
 30
0.0
 70
    48
  0
VERTEX
  5
110
100
AcDbEntity
  8
0
390
0
100
AcDbVertex
100
AcDb3dPolylineVertex
 10
128.366287
 20
127.692978
 30
0.0
 70
    48
  0
VERTEX
  5
111
100
AcDbEntity
  8
0
390
0
100
AcDbVertex
100
AcDb3dPolylineVertex
 10
128.366287
 20
127.692978
 30
0.0
 70
    48
  0
VERTEX
  5
112
100
AcDbEntity
  8
0
390
0
100
AcDbVertex
100
AcDb3dPolylineVertex
 10
128.179092
 20
127.873978
 30
0.0
 70
    40
  0
VERTEX
  5
113
100
AcDbEntity
  8
0
390
0
100
AcDbVertex
100
AcDb3dPolylineVertex
 10
128.366287
 20
127.692978
 30
0.0
 70
    48
  0
VERTEX
  5
114
100
AcDbEntity
  8
0
390
0
100
AcDbVertex
100
AcDb3dPolylineVertex
 10
128.179092
 20
127.873978
 30
0.0
 70
    48
  0
VERTEX
  5
115
100
AcDbEntity
  8
0
390
0
100
AcDbVertex
100
AcDb3dPolylineVertex
 10
128.179092
 20
127.873978
 30
0.0
 70
    48
  0
VERTEX
  5
116
100
AcDbEntity
  8
0
390
0
100
AcDbVertex
100
AcDb3dPolylineVertex
 10
127.968338
 20
128.003769
 30
0.0
 70
    40
  0
VERTEX
  5
117
100
AcDbEntity
  8
0
390
0
100
AcDbVertex
100
AcDb3dPolylineVertex
 10
128.179092
 20
127.873978
 30
0.0
 70
    48
  0
VERTEX
  5
118
100
AcDbEntity
  8
0
390
0
100
AcDbVertex
100
AcDb3dPolylineVertex
 10
127.968338
 20
128.003769
 30
0.0
 70
    48
  0
VERTEX
  5
119
100
AcDbEntity
  8
0
390
0
100
AcDbVertex
100
AcDb3dPolylineVertex
 10
127.968338
 20
128.003769
 30
0.0
 70
    48
  0
VERTEX
  5
11A
100
AcDbEntity
  8
0
390
0
100
AcDbVertex
100
AcDb3dPolylineVertex
 10
127.743729
 20
128.076721
 30
0.0
 70
    40
  0
VERTEX
  5
11B
100
AcDbEntity
  8
0
390
0
100
AcDbVertex
100
AcDb3dPolylineVertex
 10
127.968338
 20
128.003769
 30
0.0
 70
    48
  0
VERTEX
  5
11C
100
AcDbEntity
  8
0
390
0
100
AcDbVertex
100
AcDb3dPolylineVertex
 10
127.743729
 20
128.076721
 30
0.0
 70
    48
  0
VERTEX
  5
11D
100
AcDbEntity
  8
0
390
0
100
AcDbVertex
100
AcDb3dPolylineVertex
 10
127.743729
 20
128.076721
 30
0.0
 70
    48
  0
VERTEX
  5
11E
100
AcDbEntity
  8
0
390
0
100
AcDbVertex
100
AcDb3dPolylineVertex
 10
127.551437
 20
128.089066
 30
0.0
 70
    40
  0
VERTEX
  5
11F
100
AcDbEntity
  8
0
390
0
100
AcDbVertex
100
AcDb3dPolylineVertex
 10
127.743729
 20
128.076721
 30
0.0
 70
    48
  0
VERTEX
  5
120
100
AcDbEntity
  8
0
390
0
100
AcDbVertex
100
AcDb3dPolylineVertex
 10
127.551437
 20
128.089066
 30
0.0
 70
    48
  0
VERTEX
  5
121
100
AcDbEntity
  8
0
390
0
100
AcDbVertex
100
AcDb3dPolylineVertex
 10
127.551437
 20
128.089066
 30
0.0
 70
    48
  0
SEQEND
  5
122
100
AcDbEntity
  8
0
390
0
  0
POLYLINE
  5
123
100
AcDbEntity
  8
ARMATUR
390
0
  6
DURCHGEHEND
 62
     1
100
AcDb3dPolyline
 66
     1
 10
0.0
 20
0.0
 30
0.0
 70
    12
 75
     5
  0
VERTEX
  5
124
100
AcDbEntity
  8
0
390
0
100
AcDbVertex
100
AcDb3dPolylineVertex
 10
115.462776
 20
128.093094
 30
0.0
 70
    48
  0
VERTEX
  5
125
100
AcDbEntity
  8
0
390
0
100
AcDbVertex
100
AcDb3dPolylineVertex
 10
115.462776
 20
128.093094
 30
0.0
 70
    40
  0
VERTEX
  5
126
100
AcDbEntity
  8
0
390
0
100
AcDbVertex
100
AcDb3dPolylineVertex
 10
115.330559
 20
128.08342
 30
0.0
 70
    40
  0
VERTEX
  5
127
100
AcDbEntity
  8
0
390
0
100
AcDbVertex
100
AcDb3dPolylineVertex
 10
115.462776
 20
128.093094
 30
0.0
 70
    48
  0
VERTEX
  5
128
100
AcDbEntity
  8
0
390
0
100
AcDbVertex
100
AcDb3dPolylineVertex
 10
115.330559
 20
128.08342
 30
0.0
 70
    48
  0
VERTEX
  5
129
100
AcDbEntity
  8
0
390
0
100
AcDbVertex
100
AcDb3dPolylineVertex
 10
115.330559
 20
128.08342
 30
0.0
 70
    48
  0
VERTEX
  5
12A
100
AcDbEntity
  8
0
390
0
100
AcDbVertex
100
AcDb3dPolylineVertex
 10
115.111595
 20
128.023438
 30
0.0
 70
    40
  0
VERTEX
  5
12B
100
AcDbEntity
  8
0
390
0
100
AcDbVertex
100
AcDb3dPolylineVertex
 10
115.330559
 20
128.08342
 30
0.0
 70
    48
  0
VERTEX
  5
12C
100
AcDbEntity
  8
0
390
0
100
AcDbVertex
100
AcDb3dPolylineVertex
 10
115.111595
 20
128.023438
 30
0.0
 70
    48
  0
VERTEX
  5
12D
100
AcDbEntity
  8
0
390
0
100
AcDbVertex
100
AcDb3dPolylineVertex
 10
115.111595
 20
128.023438
 30
0.0
 70
    48
  0
VERTEX
  5
12E
100
AcDbEntity
  8
0
390
0
100
AcDbVertex
100
AcDb3dPolylineVertex
 10
114.906548
 20
127.911545
 30
0.0
 70
    40
  0
VERTEX
  5
12F
100
AcDbEntity
  8
0
390
0
100
AcDbVertex
100
AcDb3dPolylineVertex
 10
115.111595
 20
128.023438
 30
0.0
 70
    48
  0
VERTEX
  5
130
100
AcDbEntity
  8
0
390
0
100
AcDbVertex
100
AcDb3dPolylineVertex
 10
114.906548
 20
127.911545
 30
0.0
 70
    48
  0
VERTEX
  5
131
100
AcDbEntity
  8
0
390
0
100
AcDbVertex
100
AcDb3dPolylineVertex
 10
114.906548
 20
127.911545
 30
0.0
 70
    48
  0
VERTEX
  5
132
100
AcDbEntity
  8
0
390
0
100
AcDbVertex
100
AcDb3dPolylineVertex
 10
114.720406
 20
127.75087
 30
0.0
 70
    40
  0
VERTEX
  5
133
100
AcDbEntity
  8
0
390
0
100
AcDbVertex
100
AcDb3dPolylineVertex
 10
114.906548
 20
127.911545
 30
0.0
 70
    48
  0
VERTEX
  5
134
100
AcDbEntity
  8
0
390
0
100
AcDbVertex
100
AcDb3dPolylineVertex
 10
114.720406
 20
127.75087
 30
0.0
 70
    48
  0
VERTEX
  5
135
100
AcDbEntity
  8
0
390
0
100
AcDbVertex
100
AcDb3dPolylineVertex
 10
114.720406
 20
127.75087
 30
0.0
 70
    48
  0
VERTEX
  5
136
100
AcDbEntity
  8
0
390
0
100
AcDbVertex
100
AcDb3dPolylineVertex
 10
114.558693
 20
127.545364
 30
0.0
 70
    40
  0
VERTEX
  5
137
100
AcDbEntity
  8
0
390
0
100
AcDbVertex
100
AcDb3dPolylineVertex
 10
114.720406
 20
127.75087
 30
0.0
 70
    48
  0
VERTEX
  5
138
100
AcDbEntity
  8
0
390
0
100
AcDbVertex
100
AcDb3dPolylineVertex
 10
114.558693
 20
127.545364
 30
0.0
 70
    48
  0
VERTEX
  5
139
100
AcDbEntity
  8
0
390
0
100
AcDbVertex
100
AcDb3dPolylineVertex
 10
114.558693
 20
127.545364
 30
0.0
 70
    48
  0
VERTEX
  5
13A
100
AcDbEntity
  8
0
390
0
100
AcDbVertex
100
AcDb3dPolylineVertex
 10
114.427437
 20
127.301483
 30
0.0
 70
    40
  0
VERTEX
  5
13B
100
AcDbEntity
  8
0
390
0
100
AcDbVertex
100
AcDb3dPolylineVertex
 10
114.558693
 20
127.545364
 30
0.0
 70
    48
  0
VERTEX
  5
13C
100
AcDbEntity
  8
0
390
0
100
AcDbVertex
100
AcDb3dPolylineVertex
 10
114.427437
 20
127.301483
 30
0.0
 70
    48
  0
VERTEX
  5
13D
100
AcDbEntity
  8
0
390
0
100
AcDbVertex
100
AcDb3dPolylineVertex
 10
114.427437
 20
127.301483
 30
0.0
 70
    48
  0
VERTEX
  5
13E
100
AcDbEntity
  8
0
390
0
100
AcDbVertex
100
AcDb3dPolylineVertex
 10
114.331703
 20
127.02803
 30
0.0
 70
    40
  0
VERTEX
  5
13F
100
AcDbEntity
  8
0
390
0
100
AcDbVertex
100
AcDb3dPolylineVertex
 10
114.427437
 20
127.301483
 30
0.0
 70
    48
  0
VERTEX
  5
140
100
AcDbEntity
  8
0
390
0
100
AcDbVertex
100
AcDb3dPolylineVertex
 10
114.331703
 20
127.02803
 30
0.0
 70
    48
  0
VERTEX
  5
141
100
AcDbEntity
  8
0
390
0
100
AcDbVertex
100
AcDb3dPolylineVertex
 10
114.331703
 20
127.02803
 30
0.0
 70
    48
  0
VERTEX
  5
142
100
AcDbEntity
  8
0
390
0
100
AcDbVertex
100
AcDb3dPolylineVertex
 10
114.274971
 20
126.735031
 30
0.0
 70
    40
  0
VERTEX
  5
143
100
AcDbEntity
  8
0
390
0
100
AcDbVertex
100
AcDb3dPolylineVertex
 10
114.331703
 20
127.02803
 30
0.0
 70
    48
  0
VERTEX
  5
144
100
AcDbEntity
  8
0
390
0
100
AcDbVertex
100
AcDb3dPolylineVertex
 10
114.274971
 20
126.735031
 30
0.0
 70
    48
  0
VERTEX
  5
145
100
AcDbEntity
  8
0
390
0
100
AcDbVertex
100
AcDb3dPolylineVertex
 10
114.274971
 20
126.735031
 30
0.0
 70
    48
  0
VERTEX
  5
146
100
AcDbEntity
  8
0
390
0
100
AcDbVertex
100
AcDb3dPolylineVertex
 10
114.259087
 20
126.432755
 30
0.0
 70
    40
  0
VERTEX
  5
147
100
AcDbEntity
  8
0
390
0
100
AcDbVertex
100
AcDb3dPolylineVertex
 10
114.274971
 20
126.735031
 30
0.0
 70
    48
  0
VERTEX
  5
148
100
AcDbEntity
  8
0
390
0
100
AcDbVertex
100
AcDb3dPolylineVertex
 10
114.259087
 20
126.432755
 30
0.0
 70
    48
  0
VERTEX
  5
149
100
AcDbEntity
  8
0
390
0
100
AcDbVertex
100
AcDb3dPolylineVertex
 10
114.259087
 20
126.432755
 30
0.0
 70
    48
  0
VERTEX
  5
14A
100
AcDbEntity
  8
0
390
0
100
AcDbVertex
100
AcDb3dPolylineVertex
 10
114.28463
 20
126.131393
 30
0.0
 70
    40
  0
VERTEX
  5
14B
100
AcDbEntity
  8
0
390
0
100
AcDbVertex
100
AcDb3dPolylineVertex
 10
114.259087
 20
126.432755
 30
0.0
 70
    48
  0
VERTEX
  5
14C
100
AcDbEntity
  8
0
390
0
100
AcDbVertex
100
AcDb3dPolylineVertex
 10
114.28463
 20
126.131393
 30
0.0
 70
    48
  0
VERTEX
  5
14D
100
AcDbEntity
  8
0
390
0
100
AcDbVertex
100
AcDb3dPolylineVertex
 10
114.28463
 20
126.131393
 30
0.0
 70
    48
  0
VERTEX
  5
14E
100
AcDbEntity
  8
0
390
0
100
AcDbVertex
100
AcDb3dPolylineVertex
 10
114.351006
 20
125.841034
 30
0.0
 70
    40
  0
VERTEX
  5
14F
100
AcDbEntity
  8
0
390
0
100
AcDbVertex
100
AcDb3dPolylineVertex
 10
114.28463
 20
126.131393
 30
0.0
 70
    48
  0
VERTEX
  5
150
100
AcDbEntity
  8
0
390
0
100
AcDbVertex
100
AcDb3dPolylineVertex
 10
114.351006
 20
125.841034
 30
0.0
 70
    48
  0
VERTEX
  5
151
100
AcDbEntity
  8
0
390
0
100
AcDbVertex
100
AcDb3dPolylineVertex
 10
114.351006
 20
125.841034
 30
0.0
 70
    48
  0
VERTEX
  5
152
100
AcDbEntity
  8
0
390
0
100
AcDbVertex
100
AcDb3dPolylineVertex
 10
114.456657
 20
125.571487
 30
0.0
 70
    40
  0
VERTEX
  5
153
100
AcDbEntity
  8
0
390
0
100
AcDbVertex
100
AcDb3dPolylineVertex
 10
114.351006
 20
125.841034
 30
0.0
 70
    48
  0
VERTEX
  5
154
100
AcDbEntity
  8
0
390
0
100
AcDbVertex
100
AcDb3dPolylineVertex
 10
114.456657
 20
125.571487
 30
0.0
 70
    48
  0
VERTEX
  5
155
100
AcDbEntity
  8
0
390
0
100
AcDbVertex
100
AcDb3dPolylineVertex
 10
114.456657
 20
125.571487
 30
0.0
 70
    48
  0
VERTEX
  5
156
100
AcDbEntity
  8
0
390
0
100
AcDbVertex
100
AcDb3dPolylineVertex
 10
114.598991
 20
125.332077
 30
0.0
 70
    40
  0
VERTEX
  5
157
100
AcDbEntity
  8
0
390
0
100
AcDbVertex
100
AcDb3dPolylineVertex
 10
114.456657
 20
125.571487
 30
0.0
 70
    48
  0
VERTEX
  5
158
100
AcDbEntity
  8
0
390
0
100
AcDbVertex
100
AcDb3dPolylineVertex
 10
114.598991
 20
125.332077
 30
0.0
 70
    48
  0
VERTEX
  5
159
100
AcDbEntity
  8
0
390
0
100
AcDbVertex
100
AcDb3dPolylineVertex
 10
114.598991
 20
125.332077
 30
0.0
 70
    48
  0
VERTEX
  5
15A
100
AcDbEntity
  8
0
390
0
100
AcDbVertex
100
AcDb3dPolylineVertex
 10
114.774132
 20
125.132004
 30
0.0
 70
    40
  0
VERTEX
  5
15B
100
AcDbEntity
  8
0
390
0
100
AcDbVertex
100
AcDb3dPolylineVertex
 10
114.598991
 20
125.332077
 30
0.0
 70
    48
  0
VERTEX
  5
15C
100
AcDbEntity
  8
0
390
0
100
AcDbVertex
100
AcDb3dPolylineVertex
 10
114.774132
 20
125.132004
 30
0.0
 70
    48
  0
VERTEX
  5
15D
100
AcDbEntity
  8
0
390
0
100
AcDbVertex
100
AcDb3dPolylineVertex
 10
114.774132
 20
125.132004
 30
0.0
 70
    48
  0
VERTEX
  5
15E
100
AcDbEntity
  8
0
390
0
100
AcDbVertex
100
AcDb3dPolylineVertex
 10
114.976097
 20
124.979935
 30
0.0
 70
    40
  0
VERTEX
  5
15F
100
AcDbEntity
  8
0
390
0
100
AcDbVertex
100
AcDb3dPolylineVertex
 10
114.774132
 20
125.132004
 30
0.0
 70
    48
  0
VERTEX
  5
160
100
AcDbEntity
  8
0
390
0
100
AcDbVertex
100
AcDb3dPolylineVertex
 10
114.976097
 20
124.979935
 30
0.0
 70
    48
  0
VERTEX
  5
161
100
AcDbEntity
  8
0
390
0
100
AcDbVertex
100
AcDb3dPolylineVertex
 10
114.976097
 20
124.979935
 30
0.0
 70
    48
  0
VERTEX
  5
162
100
AcDbEntity
  8
0
390
0
100
AcDbVertex
100
AcDb3dPolylineVertex
 10
115.196205
 20
124.882813
 30
0.0
 70
    40
  0
VERTEX
  5
163
100
AcDbEntity
  8
0
390
0
100
AcDbVertex
100
AcDb3dPolylineVertex
 10
114.976097
 20
124.979935
 30
0.0
 70
    48
  0
VERTEX
  5
164
100
AcDbEntity
  8
0
390
0
100
AcDbVertex
100
AcDb3dPolylineVertex
 10
115.196205
 20
124.882813
 30
0.0
 70
    48
  0
VERTEX
  5
165
100
AcDbEntity
  8
0
390
0
100
AcDbVertex
100
AcDb3dPolylineVertex
 10
115.196205
 20
124.882813
 30
0.0
 70
    48
  0
VERTEX
  5
166
100
AcDbEntity
  8
0
390
0
100
AcDbVertex
100
AcDb3dPolylineVertex
 10
115.423958
 20
124.843918
 30
0.0
 70
    40
  0
VERTEX
  5
167
100
AcDbEntity
  8
0
390
0
100
AcDbVertex
100
AcDb3dPolylineVertex
 10
115.196205
 20
124.882813
 30
0.0
 70
    48
  0
VERTEX
  5
168
100
AcDbEntity
  8
0
390
0
100
AcDbVertex
100
AcDb3dPolylineVertex
 10
115.423958
 20
124.843918
 30
0.0
 70
    48
  0
VERTEX
  5
169
100
AcDbEntity
  8
0
390
0
100
AcDbVertex
100
AcDb3dPolylineVertex
 10
115.423958
 20
124.843918
 30
0.0
 70
    48
  0
VERTEX
  5
16A
100
AcDbEntity
  8
0
390
0
100
AcDbVertex
100
AcDb3dPolylineVertex
 10
115.482307
 20
124.848709
 30
0.0
 70
    40
  0
VERTEX
  5
16B
100
AcDbEntity
  8
0
390
0
100
AcDbVertex
100
AcDb3dPolylineVertex
 10
115.423958
 20
124.843918
 30
0.0
 70
    48
  0
VERTEX
  5
16C
100
AcDbEntity
  8
0
390
0
100
AcDbVertex
100
AcDb3dPolylineVertex
 10
115.482307
 20
124.848709
 30
0.0
 70
    48
  0
VERTEX
  5
16D
100
AcDbEntity
  8
0
390
0
100
AcDbVertex
100
AcDb3dPolylineVertex
 10
115.482307
 20
124.848709
 30
0.0
 70
    48
  0
SEQEND
  5
16E
100
AcDbEntity
  8
0
390
0
  0
LINE
  5
16F
100
AcDbEntity
  8
ARMATUR
390
0
  6
DURCHGEHEND
 62
     1
100
AcDbLine
 10
127.571976
 20
128.093094
 30
0.0
 11
121.517387
 21
128.093094
 31
0.0
  0
LINE
  5
170
100
AcDbEntity
  8
ARMATUR
390
0
  6
DURCHGEHEND
 62
     1
100
AcDbLine
 10
122.75634
 20
124.843079
 30
0.0
 11
127.571976
 21
124.843079
 31
0.0
  0
LINE
  5
171
100
AcDbEntity
  8
ARMATUR
390
0
  6
DURCHGEHEND
 62
     1
100
AcDbLine
 10
115.462776
 20
124.843079
 30
0.0
 11
120.278404
 21
124.843079
 31
0.0
  0
LINE
  5
172
100
AcDbEntity
  8
ARMATUR
390
0
  6
DURCHGEHEND
 62
     1
100
AcDbLine
 10
121.517387
 20
128.093094
 30
0.0
 11
115.462776
 21
128.093094
 31
0.0
  0
LINE
  5
173
100
AcDbEntity
  8
ARMATUR
390
0
  6
DURCHGEHEND
 62
     1
100
AcDbLine
 10
119.893578
 20
123.465088
 30
0.0
 11
119.90229
 21
122.468079
 31
0.0
  0
LINE
  5
174
100
AcDbEntity
  8
ARMATUR
390
0
  6
DURCHGEHEND
 62
     1
100
AcDbLine
 10
119.881554
 20
124.843079
 30
0.0
 11
119.886986
 21
124.221161
 31
0.0
  0
LINE
  5
175
100
AcDbEntity
  8
ARMATUR
390
0
  6
DURCHGEHEND
 62
     1
100
AcDbLine
 10
123.132469
 20
122.468079
 30
0.0
 11
123.153191
 21
124.843079
 31
0.0
  0
LINE
  5
176
100
AcDbEntity
  8
ARMATUR
390
0
  6
DURCHGEHEND
 62
     1
100
AcDbLine
 10
127.571976
 20
124.843079
 30
0.0
 11
127.666672
 21
124.850006
 31
0.0
  0
POLYLINE
  5
177
100
AcDbEntity
  8
ARMATUR
390
0
  6
DURCHGEHEND
 62
     1
100
AcDb3dPolyline
 66
     1
 10
0.0
 20
0.0
 30
0.0
 70
    12
 75
     5
  0
VERTEX
  5
178
100
AcDbEntity
  8
0
390
0
100
AcDbVertex
100
AcDb3dPolylineVertex
 10
127.676468
 20
128.081039
 30
0.0
 70
    48
  0
VERTEX
  5
179
100
AcDbEntity
  8
0
390
0
100
AcDbVertex
100
AcDb3dPolylineVertex
 10
127.676468
 20
128.081039
 30
0.0
 70
    40
  0
VERTEX
  5
17A
100
AcDbEntity
  8
0
390
0
100
AcDbVertex
100
AcDb3dPolylineVertex
 10
127.610794
 20
128.092255
 30
0.0
 70
    40
  0
VERTEX
  5
17B
100
AcDbEntity
  8
0
390
0
100
AcDbVertex
100
AcDb3dPolylineVertex
 10
127.676468
 20
128.081039
 30
0.0
 70
    48
  0
VERTEX
  5
17C
100
AcDbEntity
  8
0
390
0
100
AcDbVertex
100
AcDb3dPolylineVertex
 10
127.610794
 20
128.092255
 30
0.0
 70
    48
  0
VERTEX
  5
17D
100
AcDbEntity
  8
0
390
0
100
AcDbVertex
100
AcDb3dPolylineVertex
 10
127.610794
 20
128.092255
 30
0.0
 70
    48
  0
VERTEX
  5
17E
100
AcDbEntity
  8
0
390
0
100
AcDbVertex
100
AcDb3dPolylineVertex
 10
127.564346
 20
128.088425
 30
0.0
 70
    40
  0
VERTEX
  5
17F
100
AcDbEntity
  8
0
390
0
100
AcDbVertex
100
AcDb3dPolylineVertex
 10
127.610794
 20
128.092255
 30
0.0
 70
    48
  0
VERTEX
  5
180
100
AcDbEntity
  8
0
390
0
100
AcDbVertex
100
AcDb3dPolylineVertex
 10
127.564346
 20
128.088425
 30
0.0
 70
    48
  0
VERTEX
  5
181
100
AcDbEntity
  8
0
390
0
100
AcDbVertex
100
AcDb3dPolylineVertex
 10
127.564346
 20
128.088425
 30
0.0
 70
    48
  0
SEQEND
  5
182
100
AcDbEntity
  8
0
390
0
  0
LINE
  5
183
100
AcDbEntity
  8
ARMATUR
390
0
  6
DURCHGEHEND
 62
     1
100
AcDbLine
 10
124.57988
 20
122.468079
 30
0.0
 11
118.454887
 21
122.468079
 31
0.0
  0
POLYLINE
  5
184
100
AcDbEntity
  8
ARMATUR
390
0
  6
DURCHGEHEND
 62
     1
100
AcDb3dPolyline
 66
     1
 10
0.0
 20
0.0
 30
0.0
 70
    12
 75
     5
  0
VERTEX
  5
185
100
AcDbEntity
  8
0
390
0
100
AcDbVertex
100
AcDb3dPolylineVertex
 10
120.278923
 20
124.85022
 30
0.0
 70
    48
  0
VERTEX
  5
186
100
AcDbEntity
  8
0
390
0
100
AcDbVertex
100
AcDb3dPolylineVertex
 10
120.278923
 20
124.85022
 30
0.0
 70
    40
  0
VERTEX
  5
187
100
AcDbEntity
  8
0
390
0
100
AcDbVertex
100
AcDb3dPolylineVertex
 10
120.316704
 20
124.844208
 30
0.0
 70
    40
  0
VERTEX
  5
188
100
AcDbEntity
  8
0
390
0
100
AcDbVertex
100
AcDb3dPolylineVertex
 10
120.278923
 20
124.85022
 30
0.0
 70
    48
  0
VERTEX
  5
189
100
AcDbEntity
  8
0
390
0
100
AcDbVertex
100
AcDb3dPolylineVertex
 10
120.316704
 20
124.844208
 30
0.0
 70
    48
  0
VERTEX
  5
18A
100
AcDbEntity
  8
0
390
0
100
AcDbVertex
100
AcDb3dPolylineVertex
 10
120.316704
 20
124.844208
 30
0.0
 70
    48
  0
VERTEX
  5
18B
100
AcDbEntity
  8
0
390
0
100
AcDbVertex
100
AcDb3dPolylineVertex
 10
120.325264
 20
124.845825
 30
0.0
 70
    40
  0
VERTEX
  5
18C
100
AcDbEntity
  8
0
390
0
100
AcDbVertex
100
AcDb3dPolylineVertex
 10
120.316704
 20
124.844208
 30
0.0
 70
    48
  0
VERTEX
  5
18D
100
AcDbEntity
  8
0
390
0
100
AcDbVertex
100
AcDb3dPolylineVertex
 10
120.325264
 20
124.845825
 30
0.0
 70
    48
  0
VERTEX
  5
18E
100
AcDbEntity
  8
0
390
0
100
AcDbVertex
100
AcDb3dPolylineVertex
 10
120.325264
 20
124.845825
 30
0.0
 70
    48
  0
SEQEND
  5
18F
100
AcDbEntity
  8
0
390
0
  0
POLYLINE
  5
190
100
AcDbEntity
  8
ARMATUR
390
0
  6
DURCHGEHEND
 62
     1
100
AcDb3dPolyline
 66
     1
 10
0.0
 20
0.0
 30
0.0
 70
    12
 75
     5
  0
VERTEX
  5
191
100
AcDbEntity
  8
0
390
0
100
AcDbVertex
100
AcDb3dPolylineVertex
 10
121.580391
 20
125.328491
 30
0.0
 70
    48
  0
VERTEX
  5
192
100
AcDbEntity
  8
0
390
0
100
AcDbVertex
100
AcDb3dPolylineVertex
 10
121.580391
 20
125.328491
 30
0.0
 70
    40
  0
VERTEX
  5
193
100
AcDbEntity
  8
0
390
0
100
AcDbVertex
100
AcDb3dPolylineVertex
 10
121.56562
 20
125.334473
 30
0.0
 70
    40
  0
VERTEX
  5
194
100
AcDbEntity
  8
0
390
0
100
AcDbVertex
100
AcDb3dPolylineVertex
 10
121.580391
 20
125.328491
 30
0.0
 70
    48
  0
VERTEX
  5
195
100
AcDbEntity
  8
0
390
0
100
AcDbVertex
100
AcDb3dPolylineVertex
 10
121.56562
 20
125.334473
 30
0.0
 70
    48
  0
VERTEX
  5
196
100
AcDbEntity
  8
0
390
0
100
AcDbVertex
100
AcDb3dPolylineVertex
 10
121.56562
 20
125.334473
 30
0.0
 70
    48
  0
VERTEX
  5
197
100
AcDbEntity
  8
0
390
0
100
AcDbVertex
100
AcDb3dPolylineVertex
 10
121.550011
 20
125.338821
 30
0.0
 70
    40
  0
VERTEX
  5
198
100
AcDbEntity
  8
0
390
0
100
AcDbVertex
100
AcDb3dPolylineVertex
 10
121.56562
 20
125.334473
 30
0.0
 70
    48
  0
VERTEX
  5
199
100
AcDbEntity
  8
0
390
0
100
AcDbVertex
100
AcDb3dPolylineVertex
 10
121.550011
 20
125.338821
 30
0.0
 70
    48
  0
VERTEX
  5
19A
100
AcDbEntity
  8
0
390
0
100
AcDbVertex
100
AcDb3dPolylineVertex
 10
121.550011
 20
125.338821
 30
0.0
 70
    48
  0
VERTEX
  5
19B
100
AcDbEntity
  8
0
390
0
100
AcDbVertex
100
AcDb3dPolylineVertex
 10
121.533836
 20
125.341446
 30
0.0
 70
    40
  0
VERTEX
  5
19C
100
AcDbEntity
  8
0
390
0
100
AcDbVertex
100
AcDb3dPolylineVertex
 10
121.550011
 20
125.338821
 30
0.0
 70
    48
  0
VERTEX
  5
19D
100
AcDbEntity
  8
0
390
0
100
AcDbVertex
100
AcDb3dPolylineVertex
 10
121.533836
 20
125.341446
 30
0.0
 70
    48
  0
VERTEX
  5
19E
100
AcDbEntity
  8
0
390
0
100
AcDbVertex
100
AcDb3dPolylineVertex
 10
121.533836
 20
125.341446
 30
0.0
 70
    48
  0
VERTEX
  5
19F
100
AcDbEntity
  8
0
390
0
100
AcDbVertex
100
AcDb3dPolylineVertex
 10
121.517387
 20
125.342331
 30
0.0
 70
    40
  0
VERTEX
  5
1A0
100
AcDbEntity
  8
0
390
0
100
AcDbVertex
100
AcDb3dPolylineVertex
 10
121.533836
 20
125.341446
 30
0.0
 70
    48
  0
VERTEX
  5
1A1
100
AcDbEntity
  8
0
390
0
100
AcDbVertex
100
AcDb3dPolylineVertex
 10
121.517387
 20
125.342331
 30
0.0
 70
    48
  0
VERTEX
  5
1A2
100
AcDbEntity
  8
0
390
0
100
AcDbVertex
100
AcDb3dPolylineVertex
 10
121.517387
 20
125.342331
 30
0.0
 70
    48
  0
VERTEX
  5
1A3
100
AcDbEntity
  8
0
390
0
100
AcDbVertex
100
AcDb3dPolylineVertex
 10
121.500908
 20
125.341446
 30
0.0
 70
    40
  0
VERTEX
  5
1A4
100
AcDbEntity
  8
0
390
0
100
AcDbVertex
100
AcDb3dPolylineVertex
 10
121.517387
 20
125.342331
 30
0.0
 70
    48
  0
VERTEX
  5
1A5
100
AcDbEntity
  8
0
390
0
100
AcDbVertex
100
AcDb3dPolylineVertex
 10
121.500908
 20
125.341446
 30
0.0
 70
    48
  0
VERTEX
  5
1A6
100
AcDbEntity
  8
0
390
0
100
AcDbVertex
100
AcDb3dPolylineVertex
 10
121.500908
 20
125.341446
 30
0.0
 70
    48
  0
VERTEX
  5
1A7
100
AcDbEntity
  8
0
390
0
100
AcDbVertex
100
AcDb3dPolylineVertex
 10
121.484734
 20
125.338821
 30
0.0
 70
    40
  0
VERTEX
  5
1A8
100
AcDbEntity
  8
0
390
0
100
AcDbVertex
100
AcDb3dPolylineVertex
 10
121.500908
 20
125.341446
 30
0.0
 70
    48
  0
VERTEX
  5
1A9
100
AcDbEntity
  8
0
390
0
100
AcDbVertex
100
AcDb3dPolylineVertex
 10
121.484734
 20
125.338821
 30
0.0
 70
    48
  0
VERTEX
  5
1AA
100
AcDbEntity
  8
0
390
0
100
AcDbVertex
100
AcDb3dPolylineVertex
 10
121.484734
 20
125.338821
 30
0.0
 70
    48
  0
VERTEX
  5
1AB
100
AcDbEntity
  8
0
390
0
100
AcDbVertex
100
AcDb3dPolylineVertex
 10
121.469139
 20
125.334473
 30
0.0
 70
    40
  0
VERTEX
  5
1AC
100
AcDbEntity
  8
0
390
0
100
AcDbVertex
100
AcDb3dPolylineVertex
 10
121.484734
 20
125.338821
 30
0.0
 70
    48
  0
VERTEX
  5
1AD
100
AcDbEntity
  8
0
390
0
100
AcDbVertex
100
AcDb3dPolylineVertex
 10
121.469139
 20
125.334473
 30
0.0
 70
    48
  0
VERTEX
  5
1AE
100
AcDbEntity
  8
0
390
0
100
AcDbVertex
100
AcDb3dPolylineVertex
 10
121.469139
 20
125.334473
 30
0.0
 70
    48
  0
VERTEX
  5
1AF
100
AcDbEntity
  8
0
390
0
100
AcDbVertex
100
AcDb3dPolylineVertex
 10
121.454369
 20
125.328491
 30
0.0
 70
    40
  0
VERTEX
  5
1B0
100
AcDbEntity
  8
0
390
0
100
AcDbVertex
100
AcDb3dPolylineVertex
 10
121.469139
 20
125.334473
 30
0.0
 70
    48
  0
VERTEX
  5
1B1
100
AcDbEntity
  8
0
390
0
100
AcDbVertex
100
AcDb3dPolylineVertex
 10
121.454369
 20
125.328491
 30
0.0
 70
    48
  0
VERTEX
  5
1B2
100
AcDbEntity
  8
0
390
0
100
AcDbVertex
100
AcDb3dPolylineVertex
 10
121.454369
 20
125.328491
 30
0.0
 70
    48
  0
SEQEND
  5
1B3
100
AcDbEntity
  8
0
390
0
  0
POLYLINE
  5
1B4
100
AcDbEntity
  8
ARMATUR
390
0
  6
DURCHGEHEND
 62
     1
100
AcDb3dPolyline
 66
     1
 10
0.0
 20
0.0
 30
0.0
 70
    12
 75
     5
  0
VERTEX
  5
1B5
100
AcDbEntity
  8
0
390
0
100
AcDbVertex
100
AcDb3dPolylineVertex
 10
119.933434
 20
123.91803
 30
0.0
 70
    48
  0
VERTEX
  5
1B6
100
AcDbEntity
  8
0
390
0
100
AcDbVertex
100
AcDb3dPolylineVertex
 10
119.933434
 20
123.91803
 30
0.0
 70
    40
  0
VERTEX
  5
1B7
100
AcDbEntity
  8
0
390
0
100
AcDbVertex
100
AcDb3dPolylineVertex
 10
119.935539
 20
123.792786
 30
0.0
 70
    40
  0
VERTEX
  5
1B8
100
AcDbEntity
  8
0
390
0
100
AcDbVertex
100
AcDb3dPolylineVertex
 10
119.933434
 20
123.91803
 30
0.0
 70
    48
  0
VERTEX
  5
1B9
100
AcDbEntity
  8
0
390
0
100
AcDbVertex
100
AcDb3dPolylineVertex
 10
119.935539
 20
123.792786
 30
0.0
 70
    48
  0
VERTEX
  5
1BA
100
AcDbEntity
  8
0
390
0
100
AcDbVertex
100
AcDb3dPolylineVertex
 10
119.935539
 20
123.792786
 30
0.0
 70
    48
  0
VERTEX
  5
1BB
100
AcDbEntity
  8
0
390
0
100
AcDbVertex
100
AcDb3dPolylineVertex
 10
119.928291
 20
123.673126
 30
0.0
 70
    40
  0
VERTEX
  5
1BC
100
AcDbEntity
  8
0
390
0
100
AcDbVertex
100
AcDb3dPolylineVertex
 10
119.935539
 20
123.792786
 30
0.0
 70
    48
  0
VERTEX
  5
1BD
100
AcDbEntity
  8
0
390
0
100
AcDbVertex
100
AcDb3dPolylineVertex
 10
119.928291
 20
123.673126
 30
0.0
 70
    48
  0
VERTEX
  5
1BE
100
AcDbEntity
  8
0
390
0
100
AcDbVertex
100
AcDb3dPolylineVertex
 10
119.928291
 20
123.673126
 30
0.0
 70
    48
  0
VERTEX
  5
1BF
100
AcDbEntity
  8
0
390
0
100
AcDbVertex
100
AcDb3dPolylineVertex
 10
119.915092
 20
123.571259
 30
0.0
 70
    40
  0
VERTEX
  5
1C0
100
AcDbEntity
  8
0
390
0
100
AcDbVertex
100
AcDb3dPolylineVertex
 10
119.928291
 20
123.673126
 30
0.0
 70
    48
  0
VERTEX
  5
1C1
100
AcDbEntity
  8
0
390
0
100
AcDbVertex
100
AcDb3dPolylineVertex
 10
119.915092
 20
123.571259
 30
0.0
 70
    48
  0
VERTEX
  5
1C2
100
AcDbEntity
  8
0
390
0
100
AcDbVertex
100
AcDb3dPolylineVertex
 10
119.915092
 20
123.571259
 30
0.0
 70
    48
  0
VERTEX
  5
1C3
100
AcDbEntity
  8
0
390
0
100
AcDbVertex
100
AcDb3dPolylineVertex
 10
119.901573
 20
123.497406
 30
0.0
 70
    40
  0
VERTEX
  5
1C4
100
AcDbEntity
  8
0
390
0
100
AcDbVertex
100
AcDb3dPolylineVertex
 10
119.915092
 20
123.571259
 30
0.0
 70
    48
  0
VERTEX
  5
1C5
100
AcDbEntity
  8
0
390
0
100
AcDbVertex
100
AcDb3dPolylineVertex
 10
119.901573
 20
123.497406
 30
0.0
 70
    48
  0
VERTEX
  5
1C6
100
AcDbEntity
  8
0
390
0
100
AcDbVertex
100
AcDb3dPolylineVertex
 10
119.901573
 20
123.497406
 30
0.0
 70
    48
  0
VERTEX
  5
1C7
100
AcDbEntity
  8
0
390
0
100
AcDbVertex
100
AcDb3dPolylineVertex
 10
119.894081
 20
123.462601
 30
0.0
 70
    40
  0
VERTEX
  5
1C8
100
AcDbEntity
  8
0
390
0
100
AcDbVertex
100
AcDb3dPolylineVertex
 10
119.901573
 20
123.497406
 30
0.0
 70
    48
  0
VERTEX
  5
1C9
100
AcDbEntity
  8
0
390
0
100
AcDbVertex
100
AcDb3dPolylineVertex
 10
119.894081
 20
123.462601
 30
0.0
 70
    48
  0
VERTEX
  5
1CA
100
AcDbEntity
  8
0
390
0
100
AcDbVertex
100
AcDb3dPolylineVertex
 10
119.894081
 20
123.462601
 30
0.0
 70
    48
  0
VERTEX
  5
1CB
100
AcDbEntity
  8
0
390
0
100
AcDbVertex
100
AcDb3dPolylineVertex
 10
119.894646
 20
123.465103
 30
0.0
 70
    40
  0
VERTEX
  5
1CC
100
AcDbEntity
  8
0
390
0
100
AcDbVertex
100
AcDb3dPolylineVertex
 10
119.894081
 20
123.462601
 30
0.0
 70
    48
  0
VERTEX
  5
1CD
100
AcDbEntity
  8
0
390
0
100
AcDbVertex
100
AcDb3dPolylineVertex
 10
119.894646
 20
123.465103
 30
0.0
 70
    48
  0
VERTEX
  5
1CE
100
AcDbEntity
  8
0
390
0
100
AcDbVertex
100
AcDb3dPolylineVertex
 10
119.894646
 20
123.465103
 30
0.0
 70
    48
  0
SEQEND
  5
1CF
100
AcDbEntity
  8
0
390
0
  0
LINE
  5
1D0
100
AcDbEntity
  8
ARMATUR
390
0
  6
DURCHGEHEND
 62
     1
100
AcDbLine
 10
119.934059
 20
123.880829
 30
0.0
 11
119.930962
 21
123.946198
 31
0.0
  0
POLYLINE
  5
1D1
100
AcDbEntity
  8
ARMATUR
390
0
  6
DURCHGEHEND
 62
     1
100
AcDb3dPolyline
 66
     1
 10
0.0
 20
0.0
 30
0.0
 70
    12
 75
     5
  0
VERTEX
  5
1D2
100
AcDbEntity
  8
0
390
0
100
AcDbVertex
100
AcDb3dPolylineVertex
 10
119.888008
 20
124.221176
 30
0.0
 70
    48
  0
VERTEX
  5
1D3
100
AcDbEntity
  8
0
390
0
100
AcDbVertex
100
AcDb3dPolylineVertex
 10
119.888008
 20
124.221176
 30
0.0
 70
    40
  0
VERTEX
  5
1D4
100
AcDbEntity
  8
0
390
0
100
AcDbVertex
100
AcDb3dPolylineVertex
 10
119.887383
 20
124.223801
 30
0.0
 70
    40
  0
VERTEX
  5
1D5
100
AcDbEntity
  8
0
390
0
100
AcDbVertex
100
AcDb3dPolylineVertex
 10
119.888008
 20
124.221176
 30
0.0
 70
    48
  0
VERTEX
  5
1D6
100
AcDbEntity
  8
0
390
0
100
AcDbVertex
100
AcDb3dPolylineVertex
 10
119.887383
 20
124.223801
 30
0.0
 70
    48
  0
VERTEX
  5
1D7
100
AcDbEntity
  8
0
390
0
100
AcDbVertex
100
AcDb3dPolylineVertex
 10
119.887383
 20
124.223801
 30
0.0
 70
    48
  0
VERTEX
  5
1D8
100
AcDbEntity
  8
0
390
0
100
AcDbVertex
100
AcDb3dPolylineVertex
 10
119.894875
 20
124.19165
 30
0.0
 70
    40
  0
VERTEX
  5
1D9
100
AcDbEntity
  8
0
390
0
100
AcDbVertex
100
AcDb3dPolylineVertex
 10
119.887383
 20
124.223801
 30
0.0
 70
    48
  0
VERTEX
  5
1DA
100
AcDbEntity
  8
0
390
0
100
AcDbVertex
100
AcDb3dPolylineVertex
 10
119.894875
 20
124.19165
 30
0.0
 70
    48
  0
VERTEX
  5
1DB
100
AcDbEntity
  8
0
390
0
100
AcDbVertex
100
AcDb3dPolylineVertex
 10
119.894875
 20
124.19165
 30
0.0
 70
    48
  0
VERTEX
  5
1DC
100
AcDbEntity
  8
0
390
0
100
AcDbVertex
100
AcDb3dPolylineVertex
 10
119.909004
 20
124.12204
 30
0.0
 70
    40
  0
VERTEX
  5
1DD
100
AcDbEntity
  8
0
390
0
100
AcDbVertex
100
AcDb3dPolylineVertex
 10
119.894875
 20
124.19165
 30
0.0
 70
    48
  0
VERTEX
  5
1DE
100
AcDbEntity
  8
0
390
0
100
AcDbVertex
100
AcDb3dPolylineVertex
 10
119.909004
 20
124.12204
 30
0.0
 70
    48
  0
VERTEX
  5
1DF
100
AcDbEntity
  8
0
390
0
100
AcDbVertex
100
AcDb3dPolylineVertex
 10
119.909004
 20
124.12204
 30
0.0
 70
    48
  0
VERTEX
  5
1E0
100
AcDbEntity
  8
0
390
0
100
AcDbVertex
100
AcDb3dPolylineVertex
 10
119.924477
 20
124.019714
 30
0.0
 70
    40
  0
VERTEX
  5
1E1
100
AcDbEntity
  8
0
390
0
100
AcDbVertex
100
AcDb3dPolylineVertex
 10
119.909004
 20
124.12204
 30
0.0
 70
    48
  0
VERTEX
  5
1E2
100
AcDbEntity
  8
0
390
0
100
AcDbVertex
100
AcDb3dPolylineVertex
 10
119.924477
 20
124.019714
 30
0.0
 70
    48
  0
VERTEX
  5
1E3
100
AcDbEntity
  8
0
390
0
100
AcDbVertex
100
AcDb3dPolylineVertex
 10
119.924477
 20
124.019714
 30
0.0
 70
    48
  0
VERTEX
  5
1E4
100
AcDbEntity
  8
0
390
0
100
AcDbVertex
100
AcDb3dPolylineVertex
 10
119.933434
 20
123.91803
 30
0.0
 70
    40
  0
VERTEX
  5
1E5
100
AcDbEntity
  8
0
390
0
100
AcDbVertex
100
AcDb3dPolylineVertex
 10
119.924477
 20
124.019714
 30
0.0
 70
    48
  0
VERTEX
  5
1E6
100
AcDbEntity
  8
0
390
0
100
AcDbVertex
100
AcDb3dPolylineVertex
 10
119.933434
 20
123.91803
 30
0.0
 70
    48
  0
VERTEX
  5
1E7
100
AcDbEntity
  8
0
390
0
100
AcDbVertex
100
AcDb3dPolylineVertex
 10
119.933434
 20
123.91803
 30
0.0
 70
    48
  0
SEQEND
  5
1E8
100
AcDbEntity
  8
0
390
0
  0
POLYLINE
  5
1E9
100
AcDbEntity
  8
ARMATUR
390
0
  6
DURCHGEHEND
 62
     1
100
AcDb3dPolyline
 66
     1
 10
0.0
 20
0.0
 30
0.0
 70
    12
 75
     5
  0
VERTEX
  5
1EA
100
AcDbEntity
  8
0
390
0
100
AcDbVertex
100
AcDb3dPolylineVertex
 10
127.593735
 20
124.843369
 30
0.0
 70
    48
  0
VERTEX
  5
1EB
100
AcDbEntity
  8
0
390
0
100
AcDbVertex
100
AcDb3dPolylineVertex
 10
127.593735
 20
124.843369
 30
0.0
 70
    40
  0
VERTEX
  5
1EC
100
AcDbEntity
  8
0
390
0
100
AcDbVertex
100
AcDb3dPolylineVertex
 10
127.520432
 20
124.844727
 30
0.0
 70
    40
  0
VERTEX
  5
1ED
100
AcDbEntity
  8
0
390
0
100
AcDbVertex
100
AcDb3dPolylineVertex
 10
127.593735
 20
124.843369
 30
0.0
 70
    48
  0
VERTEX
  5
1EE
100
AcDbEntity
  8
0
390
0
100
AcDbVertex
100
AcDb3dPolylineVertex
 10
127.520432
 20
124.844727
 30
0.0
 70
    48
  0
VERTEX
  5
1EF
100
AcDbEntity
  8
0
390
0
100
AcDbVertex
100
AcDb3dPolylineVertex
 10
127.520432
 20
124.844727
 30
0.0
 70
    48
  0
VERTEX
  5
1F0
100
AcDbEntity
  8
0
390
0
100
AcDbVertex
100
AcDb3dPolylineVertex
 10
127.316299
 20
124.88382
 30
0.0
 70
    40
  0
VERTEX
  5
1F1
100
AcDbEntity
  8
0
390
0
100
AcDbVertex
100
AcDb3dPolylineVertex
 10
127.520432
 20
124.844727
 30
0.0
 70
    48
  0
VERTEX
  5
1F2
100
AcDbEntity
  8
0
390
0
100
AcDbVertex
100
AcDb3dPolylineVertex
 10
127.316299
 20
124.88382
 30
0.0
 70
    48
  0
VERTEX
  5
1F3
100
AcDbEntity
  8
0
390
0
100
AcDbVertex
100
AcDb3dPolylineVertex
 10
127.316299
 20
124.88382
 30
0.0
 70
    48
  0
VERTEX
  5
1F4
100
AcDbEntity
  8
0
390
0
100
AcDbVertex
100
AcDb3dPolylineVertex
 10
127.120377
 20
124.973846
 30
0.0
 70
    40
  0
VERTEX
  5
1F5
100
AcDbEntity
  8
0
390
0
100
AcDbVertex
100
AcDb3dPolylineVertex
 10
127.316299
 20
124.88382
 30
0.0
 70
    48
  0
VERTEX
  5
1F6
100
AcDbEntity
  8
0
390
0
100
AcDbVertex
100
AcDb3dPolylineVertex
 10
127.120377
 20
124.973846
 30
0.0
 70
    48
  0
VERTEX
  5
1F7
100
AcDbEntity
  8
0
390
0
100
AcDbVertex
100
AcDb3dPolylineVertex
 10
127.120377
 20
124.973846
 30
0.0
 70
    48
  0
VERTEX
  5
1F8
100
AcDbEntity
  8
0
390
0
100
AcDbVertex
100
AcDb3dPolylineVertex
 10
126.93898
 20
125.111908
 30
0.0
 70
    40
  0
VERTEX
  5
1F9
100
AcDbEntity
  8
0
390
0
100
AcDbVertex
100
AcDb3dPolylineVertex
 10
127.120377
 20
124.973846
 30
0.0
 70
    48
  0
VERTEX
  5
1FA
100
AcDbEntity
  8
0
390
0
100
AcDbVertex
100
AcDb3dPolylineVertex
 10
126.93898
 20
125.111908
 30
0.0
 70
    48
  0
VERTEX
  5
1FB
100
AcDbEntity
  8
0
390
0
100
AcDbVertex
100
AcDb3dPolylineVertex
 10
126.93898
 20
125.111908
 30
0.0
 70
    48
  0
VERTEX
  5
1FC
100
AcDbEntity
  8
0
390
0
100
AcDbVertex
100
AcDb3dPolylineVertex
 10
126.777908
 20
125.293549
 30
0.0
 70
    40
  0
VERTEX
  5
1FD
100
AcDbEntity
  8
0
390
0
100
AcDbVertex
100
AcDb3dPolylineVertex
 10
126.93898
 20
125.111908
 30
0.0
 70
    48
  0
VERTEX
  5
1FE
100
AcDbEntity
  8
0
390
0
100
AcDbVertex
100
AcDb3dPolylineVertex
 10
126.777908
 20
125.293549
 30
0.0
 70
    48
  0
VERTEX
  5
1FF
100
AcDbEntity
  8
0
390
0
100
AcDbVertex
100
AcDb3dPolylineVertex
 10
126.777908
 20
125.293549
 30
0.0
 70
    48
  0
VERTEX
  5
200
100
AcDbEntity
  8
0
390
0
100
AcDbVertex
100
AcDb3dPolylineVertex
 10
126.64238
 20
125.512924
 30
0.0
 70
    40
  0
VERTEX
  5
201
100
AcDbEntity
  8
0
390
0
100
AcDbVertex
100
AcDb3dPolylineVertex
 10
126.777908
 20
125.293549
 30
0.0
 70
    48
  0
VERTEX
  5
202
100
AcDbEntity
  8
0
390
0
100
AcDbVertex
100
AcDb3dPolylineVertex
 10
126.64238
 20
125.512924
 30
0.0
 70
    48
  0
VERTEX
  5
203
100
AcDbEntity
  8
0
390
0
100
AcDbVertex
100
AcDb3dPolylineVertex
 10
126.64238
 20
125.512924
 30
0.0
 70
    48
  0
VERTEX
  5
204
100
AcDbEntity
  8
0
390
0
100
AcDbVertex
100
AcDb3dPolylineVertex
 10
126.536728
 20
125.763016
 30
0.0
 70
    40
  0
VERTEX
  5
205
100
AcDbEntity
  8
0
390
0
100
AcDbVertex
100
AcDb3dPolylineVertex
 10
126.64238
 20
125.512924
 30
0.0
 70
    48
  0
VERTEX
  5
206
100
AcDbEntity
  8
0
390
0
100
AcDbVertex
100
AcDb3dPolylineVertex
 10
126.536728
 20
125.763016
 30
0.0
 70
    48
  0
VERTEX
  5
207
100
AcDbEntity
  8
0
390
0
100
AcDbVertex
100
AcDb3dPolylineVertex
 10
126.536728
 20
125.763016
 30
0.0
 70
    48
  0
VERTEX
  5
208
100
AcDbEntity
  8
0
390
0
100
AcDbVertex
100
AcDb3dPolylineVertex
 10
126.46434
 20
126.035767
 30
0.0
 70
    40
  0
VERTEX
  5
209
100
AcDbEntity
  8
0
390
0
100
AcDbVertex
100
AcDb3dPolylineVertex
 10
126.536728
 20
125.763016
 30
0.0
 70
    48
  0
VERTEX
  5
20A
100
AcDbEntity
  8
0
390
0
100
AcDbVertex
100
AcDb3dPolylineVertex
 10
126.46434
 20
126.035767
 30
0.0
 70
    48
  0
VERTEX
  5
20B
100
AcDbEntity
  8
0
390
0
100
AcDbVertex
100
AcDb3dPolylineVertex
 10
126.46434
 20
126.035767
 30
0.0
 70
    48
  0
VERTEX
  5
20C
100
AcDbEntity
  8
0
390
0
100
AcDbVertex
100
AcDb3dPolylineVertex
 10
126.427567
 20
126.322418
 30
0.0
 70
    40
  0
VERTEX
  5
20D
100
AcDbEntity
  8
0
390
0
100
AcDbVertex
100
AcDb3dPolylineVertex
 10
126.46434
 20
126.035767
 30
0.0
 70
    48
  0
VERTEX
  5
20E
100
AcDbEntity
  8
0
390
0
100
AcDbVertex
100
AcDb3dPolylineVertex
 10
126.427567
 20
126.322418
 30
0.0
 70
    48
  0
VERTEX
  5
20F
100
AcDbEntity
  8
0
390
0
100
AcDbVertex
100
AcDb3dPolylineVertex
 10
126.427567
 20
126.322418
 30
0.0
 70
    48
  0
VERTEX
  5
210
100
AcDbEntity
  8
0
390
0
100
AcDbVertex
100
AcDb3dPolylineVertex
 10
126.427567
 20
126.613754
 30
0.0
 70
    40
  0
VERTEX
  5
211
100
AcDbEntity
  8
0
390
0
100
AcDbVertex
100
AcDb3dPolylineVertex
 10
126.427567
 20
126.322418
 30
0.0
 70
    48
  0
VERTEX
  5
212
100
AcDbEntity
  8
0
390
0
100
AcDbVertex
100
AcDb3dPolylineVertex
 10
126.427567
 20
126.613754
 30
0.0
 70
    48
  0
VERTEX
  5
213
100
AcDbEntity
  8
0
390
0
100
AcDbVertex
100
AcDb3dPolylineVertex
 10
126.427567
 20
126.613754
 30
0.0
 70
    48
  0
VERTEX
  5
214
100
AcDbEntity
  8
0
390
0
100
AcDbVertex
100
AcDb3dPolylineVertex
 10
126.46434
 20
126.900406
 30
0.0
 70
    40
  0
VERTEX
  5
215
100
AcDbEntity
  8
0
390
0
100
AcDbVertex
100
AcDb3dPolylineVertex
 10
126.427567
 20
126.613754
 30
0.0
 70
    48
  0
VERTEX
  5
216
100
AcDbEntity
  8
0
390
0
100
AcDbVertex
100
AcDb3dPolylineVertex
 10
126.46434
 20
126.900406
 30
0.0
 70
    48
  0
VERTEX
  5
217
100
AcDbEntity
  8
0
390
0
100
AcDbVertex
100
AcDb3dPolylineVertex
 10
126.46434
 20
126.900406
 30
0.0
 70
    48
  0
VERTEX
  5
218
100
AcDbEntity
  8
0
390
0
100
AcDbVertex
100
AcDb3dPolylineVertex
 10
126.536728
 20
127.173141
 30
0.0
 70
    40
  0
VERTEX
  5
219
100
AcDbEntity
  8
0
390
0
100
AcDbVertex
100
AcDb3dPolylineVertex
 10
126.46434
 20
126.900406
 30
0.0
 70
    48
  0
VERTEX
  5
21A
100
AcDbEntity
  8
0
390
0
100
AcDbVertex
100
AcDb3dPolylineVertex
 10
126.536728
 20
127.173141
 30
0.0
 70
    48
  0
VERTEX
  5
21B
100
AcDbEntity
  8
0
390
0
100
AcDbVertex
100
AcDb3dPolylineVertex
 10
126.536728
 20
127.173141
 30
0.0
 70
    48
  0
VERTEX
  5
21C
100
AcDbEntity
  8
0
390
0
100
AcDbVertex
100
AcDb3dPolylineVertex
 10
126.64238
 20
127.423233
 30
0.0
 70
    40
  0
VERTEX
  5
21D
100
AcDbEntity
  8
0
390
0
100
AcDbVertex
100
AcDb3dPolylineVertex
 10
126.536728
 20
127.173141
 30
0.0
 70
    48
  0
VERTEX
  5
21E
100
AcDbEntity
  8
0
390
0
100
AcDbVertex
100
AcDb3dPolylineVertex
 10
126.64238
 20
127.423233
 30
0.0
 70
    48
  0
VERTEX
  5
21F
100
AcDbEntity
  8
0
390
0
100
AcDbVertex
100
AcDb3dPolylineVertex
 10
126.64238
 20
127.423233
 30
0.0
 70
    48
  0
VERTEX
  5
220
100
AcDbEntity
  8
0
390
0
100
AcDbVertex
100
AcDb3dPolylineVertex
 10
126.777908
 20
127.642624
 30
0.0
 70
    40
  0
VERTEX
  5
221
100
AcDbEntity
  8
0
390
0
100
AcDbVertex
100
AcDb3dPolylineVertex
 10
126.64238
 20
127.423233
 30
0.0
 70
    48
  0
VERTEX
  5
222
100
AcDbEntity
  8
0
390
0
100
AcDbVertex
100
AcDb3dPolylineVertex
 10
126.777908
 20
127.642624
 30
0.0
 70
    48
  0
VERTEX
  5
223
100
AcDbEntity
  8
0
390
0
100
AcDbVertex
100
AcDb3dPolylineVertex
 10
126.777908
 20
127.642624
 30
0.0
 70
    48
  0
VERTEX
  5
224
100
AcDbEntity
  8
0
390
0
100
AcDbVertex
100
AcDb3dPolylineVertex
 10
126.93898
 20
127.824265
 30
0.0
 70
    40
  0
VERTEX
  5
225
100
AcDbEntity
  8
0
390
0
100
AcDbVertex
100
AcDb3dPolylineVertex
 10
126.777908
 20
127.642624
 30
0.0
 70
    48
  0
VERTEX
  5
226
100
AcDbEntity
  8
0
390
0
100
AcDbVertex
100
AcDb3dPolylineVertex
 10
126.93898
 20
127.824265
 30
0.0
 70
    48
  0
VERTEX
  5
227
100
AcDbEntity
  8
0
390
0
100
AcDbVertex
100
AcDb3dPolylineVertex
 10
126.93898
 20
127.824265
 30
0.0
 70
    48
  0
VERTEX
  5
228
100
AcDbEntity
  8
0
390
0
100
AcDbVertex
100
AcDb3dPolylineVertex
 10
127.120377
 20
127.962326
 30
0.0
 70
    40
  0
VERTEX
  5
229
100
AcDbEntity
  8
0
390
0
100
AcDbVertex
100
AcDb3dPolylineVertex
 10
126.93898
 20
127.824265
 30
0.0
 70
    48
  0
VERTEX
  5
22A
100
AcDbEntity
  8
0
390
0
100
AcDbVertex
100
AcDb3dPolylineVertex
 10
127.120377
 20
127.962326
 30
0.0
 70
    48
  0
VERTEX
  5
22B
100
AcDbEntity
  8
0
390
0
100
AcDbVertex
100
AcDb3dPolylineVertex
 10
127.120377
 20
127.962326
 30
0.0
 70
    48
  0
VERTEX
  5
22C
100
AcDbEntity
  8
0
390
0
100
AcDbVertex
100
AcDb3dPolylineVertex
 10
127.316299
 20
128.052353
 30
0.0
 70
    40
  0
VERTEX
  5
22D
100
AcDbEntity
  8
0
390
0
100
AcDbVertex
100
AcDb3dPolylineVertex
 10
127.120377
 20
127.962326
 30
0.0
 70
    48
  0
VERTEX
  5
22E
100
AcDbEntity
  8
0
390
0
100
AcDbVertex
100
AcDb3dPolylineVertex
 10
127.316299
 20
128.052353
 30
0.0
 70
    48
  0
VERTEX
  5
22F
100
AcDbEntity
  8
0
390
0
100
AcDbVertex
100
AcDb3dPolylineVertex
 10
127.316299
 20
128.052353
 30
0.0
 70
    48
  0
VERTEX
  5
230
100
AcDbEntity
  8
0
390
0
100
AcDbVertex
100
AcDb3dPolylineVertex
 10
127.520432
 20
128.091446
 30
0.0
 70
    40
  0
VERTEX
  5
231
100
AcDbEntity
  8
0
390
0
100
AcDbVertex
100
AcDb3dPolylineVertex
 10
127.316299
 20
128.052353
 30
0.0
 70
    48
  0
VERTEX
  5
232
100
AcDbEntity
  8
0
390
0
100
AcDbVertex
100
AcDb3dPolylineVertex
 10
127.520432
 20
128.091446
 30
0.0
 70
    48
  0
VERTEX
  5
233
100
AcDbEntity
  8
0
390
0
100
AcDbVertex
100
AcDb3dPolylineVertex
 10
127.520432
 20
128.091446
 30
0.0
 70
    48
  0
VERTEX
  5
234
100
AcDbEntity
  8
0
390
0
100
AcDbVertex
100
AcDb3dPolylineVertex
 10
127.553116
 20
128.092865
 30
0.0
 70
    40
  0
VERTEX
  5
235
100
AcDbEntity
  8
0
390
0
100
AcDbVertex
100
AcDb3dPolylineVertex
 10
127.520432
 20
128.091446
 30
0.0
 70
    48
  0
VERTEX
  5
236
100
AcDbEntity
  8
0
390
0
100
AcDbVertex
100
AcDb3dPolylineVertex
 10
127.553116
 20
128.092865
 30
0.0
 70
    48
  0
VERTEX
  5
237
100
AcDbEntity
  8
0
390
0
100
AcDbVertex
100
AcDb3dPolylineVertex
 10
127.553116
 20
128.092865
 30
0.0
 70
    48
  0
SEQEND
  5
238
100
AcDbEntity
  8
0
390
0
  0
POLYLINE
  5
239
100
AcDbEntity
  8
ARMATUR
390
0
  6
DURCHGEHEND
 62
     1
100
AcDb3dPolyline
 66
     1
 10
0.0
 20
0.0
 30
0.0
 70
    12
 75
     5
  0
VERTEX
  5
23A
100
AcDbEntity
  8
0
390
0
100
AcDbVertex
100
AcDb3dPolylineVertex
 10
115.462776
 20
128.093094
 30
0.0
 70
    48
  0
VERTEX
  5
23B
100
AcDbEntity
  8
0
390
0
100
AcDbVertex
100
AcDb3dPolylineVertex
 10
115.462776
 20
128.093094
 30
0.0
 70
    40
  0
VERTEX
  5
23C
100
AcDbEntity
  8
0
390
0
100
AcDbVertex
100
AcDb3dPolylineVertex
 10
115.667946
 20
128.066971
 30
0.0
 70
    40
  0
VERTEX
  5
23D
100
AcDbEntity
  8
0
390
0
100
AcDbVertex
100
AcDb3dPolylineVertex
 10
115.462776
 20
128.093094
 30
0.0
 70
    48
  0
VERTEX
  5
23E
100
AcDbEntity
  8
0
390
0
100
AcDbVertex
100
AcDb3dPolylineVertex
 10
115.667946
 20
128.066971
 30
0.0
 70
    48
  0
VERTEX
  5
23F
100
AcDbEntity
  8
0
390
0
100
AcDbVertex
100
AcDb3dPolylineVertex
 10
115.667946
 20
128.066971
 30
0.0
 70
    48
  0
VERTEX
  5
240
100
AcDbEntity
  8
0
390
0
100
AcDbVertex
100
AcDb3dPolylineVertex
 10
115.866524
 20
127.989471
 30
0.0
 70
    40
  0
VERTEX
  5
241
100
AcDbEntity
  8
0
390
0
100
AcDbVertex
100
AcDb3dPolylineVertex
 10
115.667946
 20
128.066971
 30
0.0
 70
    48
  0
VERTEX
  5
242
100
AcDbEntity
  8
0
390
0
100
AcDbVertex
100
AcDb3dPolylineVertex
 10
115.866524
 20
127.989471
 30
0.0
 70
    48
  0
VERTEX
  5
243
100
AcDbEntity
  8
0
390
0
100
AcDbVertex
100
AcDb3dPolylineVertex
 10
115.866524
 20
127.989471
 30
0.0
 70
    48
  0
VERTEX
  5
244
100
AcDbEntity
  8
0
390
0
100
AcDbVertex
100
AcDb3dPolylineVertex
 10
116.052116
 20
127.863068
 30
0.0
 70
    40
  0
VERTEX
  5
245
100
AcDbEntity
  8
0
390
0
100
AcDbVertex
100
AcDb3dPolylineVertex
 10
115.866524
 20
127.989471
 30
0.0
 70
    48
  0
VERTEX
  5
246
100
AcDbEntity
  8
0
390
0
100
AcDbVertex
100
AcDb3dPolylineVertex
 10
116.052116
 20
127.863068
 30
0.0
 70
    48
  0
VERTEX
  5
247
100
AcDbEntity
  8
0
390
0
100
AcDbVertex
100
AcDb3dPolylineVertex
 10
116.052116
 20
127.863068
 30
0.0
 70
    48
  0
VERTEX
  5
248
100
AcDbEntity
  8
0
390
0
100
AcDbVertex
100
AcDb3dPolylineVertex
 10
116.218773
 20
127.691818
 30
0.0
 70
    40
  0
VERTEX
  5
249
100
AcDbEntity
  8
0
390
0
100
AcDbVertex
100
AcDb3dPolylineVertex
 10
116.052116
 20
127.863068
 30
0.0
 70
    48
  0
VERTEX
  5
24A
100
AcDbEntity
  8
0
390
0
100
AcDbVertex
100
AcDb3dPolylineVertex
 10
116.218773
 20
127.691818
 30
0.0
 70
    48
  0
VERTEX
  5
24B
100
AcDbEntity
  8
0
390
0
100
AcDbVertex
100
AcDb3dPolylineVertex
 10
116.218773
 20
127.691818
 30
0.0
 70
    48
  0
VERTEX
  5
24C
100
AcDbEntity
  8
0
390
0
100
AcDbVertex
100
AcDb3dPolylineVertex
 10
116.361137
 20
127.481247
 30
0.0
 70
    40
  0
VERTEX
  5
24D
100
AcDbEntity
  8
0
390
0
100
AcDbVertex
100
AcDb3dPolylineVertex
 10
116.218773
 20
127.691818
 30
0.0
 70
    48
  0
VERTEX
  5
24E
100
AcDbEntity
  8
0
390
0
100
AcDbVertex
100
AcDb3dPolylineVertex
 10
116.361137
 20
127.481247
 30
0.0
 70
    48
  0
VERTEX
  5
24F
100
AcDbEntity
  8
0
390
0
100
AcDbVertex
100
AcDb3dPolylineVertex
 10
116.361137
 20
127.481247
 30
0.0
 70
    48
  0
VERTEX
  5
250
100
AcDbEntity
  8
0
390
0
100
AcDbVertex
100
AcDb3dPolylineVertex
 10
116.474632
 20
127.238113
 30
0.0
 70
    40
  0
VERTEX
  5
251
100
AcDbEntity
  8
0
390
0
100
AcDbVertex
100
AcDb3dPolylineVertex
 10
116.361137
 20
127.481247
 30
0.0
 70
    48
  0
VERTEX
  5
252
100
AcDbEntity
  8
0
390
0
100
AcDbVertex
100
AcDb3dPolylineVertex
 10
116.474632
 20
127.238113
 30
0.0
 70
    48
  0
VERTEX
  5
253
100
AcDbEntity
  8
0
390
0
100
AcDbVertex
100
AcDb3dPolylineVertex
 10
116.474632
 20
127.238113
 30
0.0
 70
    48
  0
VERTEX
  5
254
100
AcDbEntity
  8
0
390
0
100
AcDbVertex
100
AcDb3dPolylineVertex
 10
116.555595
 20
126.97023
 30
0.0
 70
    40
  0
VERTEX
  5
255
100
AcDbEntity
  8
0
390
0
100
AcDbVertex
100
AcDb3dPolylineVertex
 10
116.474632
 20
127.238113
 30
0.0
 70
    48
  0
VERTEX
  5
256
100
AcDbEntity
  8
0
390
0
100
AcDbVertex
100
AcDb3dPolylineVertex
 10
116.555595
 20
126.97023
 30
0.0
 70
    48
  0
VERTEX
  5
257
100
AcDbEntity
  8
0
390
0
100
AcDbVertex
100
AcDb3dPolylineVertex
 10
116.555595
 20
126.97023
 30
0.0
 70
    48
  0
VERTEX
  5
258
100
AcDbEntity
  8
0
390
0
100
AcDbVertex
100
AcDb3dPolylineVertex
 10
116.601433
 20
126.686218
 30
0.0
 70
    40
  0
VERTEX
  5
259
100
AcDbEntity
  8
0
390
0
100
AcDbVertex
100
AcDb3dPolylineVertex
 10
116.555595
 20
126.97023
 30
0.0
 70
    48
  0
VERTEX
  5
25A
100
AcDbEntity
  8
0
390
0
100
AcDbVertex
100
AcDb3dPolylineVertex
 10
116.601433
 20
126.686218
 30
0.0
 70
    48
  0
VERTEX
  5
25B
100
AcDbEntity
  8
0
390
0
100
AcDbVertex
100
AcDb3dPolylineVertex
 10
116.601433
 20
126.686218
 30
0.0
 70
    48
  0
VERTEX
  5
25C
100
AcDbEntity
  8
0
390
0
100
AcDbVertex
100
AcDb3dPolylineVertex
 10
116.610664
 20
126.395172
 30
0.0
 70
    40
  0
VERTEX
  5
25D
100
AcDbEntity
  8
0
390
0
100
AcDbVertex
100
AcDb3dPolylineVertex
 10
116.601433
 20
126.686218
 30
0.0
 70
    48
  0
VERTEX
  5
25E
100
AcDbEntity
  8
0
390
0
100
AcDbVertex
100
AcDb3dPolylineVertex
 10
116.610664
 20
126.395172
 30
0.0
 70
    48
  0
VERTEX
  5
25F
100
AcDbEntity
  8
0
390
0
100
AcDbVertex
100
AcDb3dPolylineVertex
 10
116.610664
 20
126.395172
 30
0.0
 70
    48
  0
VERTEX
  5
260
100
AcDbEntity
  8
0
390
0
100
AcDbVertex
100
AcDb3dPolylineVertex
 10
116.583015
 20
126.106491
 30
0.0
 70
    40
  0
VERTEX
  5
261
100
AcDbEntity
  8
0
390
0
100
AcDbVertex
100
AcDb3dPolylineVertex
 10
116.610664
 20
126.395172
 30
0.0
 70
    48
  0
VERTEX
  5
262
100
AcDbEntity
  8
0
390
0
100
AcDbVertex
100
AcDb3dPolylineVertex
 10
116.583015
 20
126.106491
 30
0.0
 70
    48
  0
VERTEX
  5
263
100
AcDbEntity
  8
0
390
0
100
AcDbVertex
100
AcDb3dPolylineVertex
 10
116.583015
 20
126.106491
 30
0.0
 70
    48
  0
VERTEX
  5
264
100
AcDbEntity
  8
0
390
0
100
AcDbVertex
100
AcDb3dPolylineVertex
 10
116.519356
 20
125.829422
 30
0.0
 70
    40
  0
VERTEX
  5
265
100
AcDbEntity
  8
0
390
0
100
AcDbVertex
100
AcDb3dPolylineVertex
 10
116.583015
 20
126.106491
 30
0.0
 70
    48
  0
VERTEX
  5
266
100
AcDbEntity
  8
0
390
0
100
AcDbVertex
100
AcDb3dPolylineVertex
 10
116.519356
 20
125.829422
 30
0.0
 70
    48
  0
VERTEX
  5
267
100
AcDbEntity
  8
0
390
0
100
AcDbVertex
100
AcDb3dPolylineVertex
 10
116.519356
 20
125.829422
 30
0.0
 70
    48
  0
VERTEX
  5
268
100
AcDbEntity
  8
0
390
0
100
AcDbVertex
100
AcDb3dPolylineVertex
 10
116.421745
 20
125.572876
 30
0.0
 70
    40
  0
VERTEX
  5
269
100
AcDbEntity
  8
0
390
0
100
AcDbVertex
100
AcDb3dPolylineVertex
 10
116.519356
 20
125.829422
 30
0.0
 70
    48
  0
VERTEX
  5
26A
100
AcDbEntity
  8
0
390
0
100
AcDbVertex
100
AcDb3dPolylineVertex
 10
116.421745
 20
125.572876
 30
0.0
 70
    48
  0
VERTEX
  5
26B
100
AcDbEntity
  8
0
390
0
100
AcDbVertex
100
AcDb3dPolylineVertex
 10
116.421745
 20
125.572876
 30
0.0
 70
    48
  0
VERTEX
  5
26C
100
AcDbEntity
  8
0
390
0
100
AcDbVertex
100
AcDb3dPolylineVertex
 10
116.293297
 20
125.345108
 30
0.0
 70
    40
  0
VERTEX
  5
26D
100
AcDbEntity
  8
0
390
0
100
AcDbVertex
100
AcDb3dPolylineVertex
 10
116.421745
 20
125.572876
 30
0.0
 70
    48
  0
VERTEX
  5
26E
100
AcDbEntity
  8
0
390
0
100
AcDbVertex
100
AcDb3dPolylineVertex
 10
116.293297
 20
125.345108
 30
0.0
 70
    48
  0
VERTEX
  5
26F
100
AcDbEntity
  8
0
390
0
100
AcDbVertex
100
AcDb3dPolylineVertex
 10
116.293297
 20
125.345108
 30
0.0
 70
    48
  0
VERTEX
  5
270
100
AcDbEntity
  8
0
390
0
100
AcDbVertex
100
AcDb3dPolylineVertex
 10
116.138176
 20
125.153427
 30
0.0
 70
    40
  0
VERTEX
  5
271
100
AcDbEntity
  8
0
390
0
100
AcDbVertex
100
AcDb3dPolylineVertex
 10
116.293297
 20
125.345108
 30
0.0
 70
    48
  0
VERTEX
  5
272
100
AcDbEntity
  8
0
390
0
100
AcDbVertex
100
AcDb3dPolylineVertex
 10
116.138176
 20
125.153427
 30
0.0
 70
    48
  0
VERTEX
  5
273
100
AcDbEntity
  8
0
390
0
100
AcDbVertex
100
AcDb3dPolylineVertex
 10
116.138176
 20
125.153427
 30
0.0
 70
    48
  0
VERTEX
  5
274
100
AcDbEntity
  8
0
390
0
100
AcDbVertex
100
AcDb3dPolylineVertex
 10
115.961327
 20
125.004013
 30
0.0
 70
    40
  0
VERTEX
  5
275
100
AcDbEntity
  8
0
390
0
100
AcDbVertex
100
AcDb3dPolylineVertex
 10
116.138176
 20
125.153427
 30
0.0
 70
    48
  0
VERTEX
  5
276
100
AcDbEntity
  8
0
390
0
100
AcDbVertex
100
AcDb3dPolylineVertex
 10
115.961327
 20
125.004013
 30
0.0
 70
    48
  0
VERTEX
  5
277
100
AcDbEntity
  8
0
390
0
100
AcDbVertex
100
AcDb3dPolylineVertex
 10
115.961327
 20
125.004013
 30
0.0
 70
    48
  0
VERTEX
  5
278
100
AcDbEntity
  8
0
390
0
100
AcDbVertex
100
AcDb3dPolylineVertex
 10
115.768471
 20
124.901642
 30
0.0
 70
    40
  0
VERTEX
  5
279
100
AcDbEntity
  8
0
390
0
100
AcDbVertex
100
AcDb3dPolylineVertex
 10
115.961327
 20
125.004013
 30
0.0
 70
    48
  0
VERTEX
  5
27A
100
AcDbEntity
  8
0
390
0
100
AcDbVertex
100
AcDb3dPolylineVertex
 10
115.768471
 20
124.901642
 30
0.0
 70
    48
  0
VERTEX
  5
27B
100
AcDbEntity
  8
0
390
0
100
AcDbVertex
100
AcDb3dPolylineVertex
 10
115.768471
 20
124.901642
 30
0.0
 70
    48
  0
VERTEX
  5
27C
100
AcDbEntity
  8
0
390
0
100
AcDbVertex
100
AcDb3dPolylineVertex
 10
115.565773
 20
124.849625
 30
0.0
 70
    40
  0
VERTEX
  5
27D
100
AcDbEntity
  8
0
390
0
100
AcDbVertex
100
AcDb3dPolylineVertex
 10
115.768471
 20
124.901642
 30
0.0
 70
    48
  0
VERTEX
  5
27E
100
AcDbEntity
  8
0
390
0
100
AcDbVertex
100
AcDb3dPolylineVertex
 10
115.565773
 20
124.849625
 30
0.0
 70
    48
  0
VERTEX
  5
27F
100
AcDbEntity
  8
0
390
0
100
AcDbVertex
100
AcDb3dPolylineVertex
 10
115.565773
 20
124.849625
 30
0.0
 70
    48
  0
VERTEX
  5
280
100
AcDbEntity
  8
0
390
0
100
AcDbVertex
100
AcDb3dPolylineVertex
 10
115.480965
 20
124.843292
 30
0.0
 70
    40
  0
VERTEX
  5
281
100
AcDbEntity
  8
0
390
0
100
AcDbVertex
100
AcDb3dPolylineVertex
 10
115.565773
 20
124.849625
 30
0.0
 70
    48
  0
VERTEX
  5
282
100
AcDbEntity
  8
0
390
0
100
AcDbVertex
100
AcDb3dPolylineVertex
 10
115.480965
 20
124.843292
 30
0.0
 70
    48
  0
VERTEX
  5
283
100
AcDbEntity
  8
0
390
0
100
AcDbVertex
100
AcDb3dPolylineVertex
 10
115.480965
 20
124.843292
 30
0.0
 70
    48
  0
SEQEND
  5
284
100
AcDbEntity
  8
0
390
0
  0
POLYLINE
  5
285
100
AcDbEntity
  8
ARMATUR
390
0
  6
DURCHGEHEND
 62
     1
100
AcDb3dPolyline
 66
     1
 10
0.0
 20
0.0
 30
0.0
 70
    12
 75
     5
  0
VERTEX
  5
286
100
AcDbEntity
  8
0
390
0
100
AcDbVertex
100
AcDb3dPolylineVertex
 10
121.580391
 20
125.328491
 30
0.0
 70
    48
  0
VERTEX
  5
287
100
AcDbEntity
  8
0
390
0
100
AcDbVertex
100
AcDb3dPolylineVertex
 10
121.580391
 20
125.328491
 30
0.0
 70
    40
  0
VERTEX
  5
288
100
AcDbEntity
  8
0
390
0
100
AcDbVertex
100
AcDb3dPolylineVertex
 10
122.071739
 20
125.03717
 30
0.0
 70
    40
  0
VERTEX
  5
289
100
AcDbEntity
  8
0
390
0
100
AcDbVertex
100
AcDb3dPolylineVertex
 10
121.580391
 20
125.328491
 30
0.0
 70
    48
  0
VERTEX
  5
28A
100
AcDbEntity
  8
0
390
0
100
AcDbVertex
100
AcDb3dPolylineVertex
 10
122.071739
 20
125.03717
 30
0.0
 70
    48
  0
VERTEX
  5
28B
100
AcDbEntity
  8
0
390
0
100
AcDbVertex
100
AcDb3dPolylineVertex
 10
122.071739
 20
125.03717
 30
0.0
 70
    48
  0
VERTEX
  5
28C
100
AcDbEntity
  8
0
390
0
100
AcDbVertex
100
AcDb3dPolylineVertex
 10
122.457375
 20
124.888626
 30
0.0
 70
    40
  0
VERTEX
  5
28D
100
AcDbEntity
  8
0
390
0
100
AcDbVertex
100
AcDb3dPolylineVertex
 10
122.071739
 20
125.03717
 30
0.0
 70
    48
  0
VERTEX
  5
28E
100
AcDbEntity
  8
0
390
0
100
AcDbVertex
100
AcDb3dPolylineVertex
 10
122.457375
 20
124.888626
 30
0.0
 70
    48
  0
VERTEX
  5
28F
100
AcDbEntity
  8
0
390
0
100
AcDbVertex
100
AcDb3dPolylineVertex
 10
122.457375
 20
124.888626
 30
0.0
 70
    48
  0
VERTEX
  5
290
100
AcDbEntity
  8
0
390
0
100
AcDbVertex
100
AcDb3dPolylineVertex
 10
122.756859
 20
124.85022
 30
0.0
 70
    40
  0
VERTEX
  5
291
100
AcDbEntity
  8
0
390
0
100
AcDbVertex
100
AcDb3dPolylineVertex
 10
122.457375
 20
124.888626
 30
0.0
 70
    48
  0
VERTEX
  5
292
100
AcDbEntity
  8
0
390
0
100
AcDbVertex
100
AcDb3dPolylineVertex
 10
122.756859
 20
124.85022
 30
0.0
 70
    48
  0
VERTEX
  5
293
100
AcDbEntity
  8
0
390
0
100
AcDbVertex
100
AcDb3dPolylineVertex
 10
122.756859
 20
124.85022
 30
0.0
 70
    48
  0
SEQEND
  5
294
100
AcDbEntity
  8
0
390
0
  0
POLYLINE
  5
295
100
AcDbEntity
  8
ARMATUR
390
0
  6
DURCHGEHEND
 62
     1
100
AcDb3dPolyline
 66
     1
 10
0.0
 20
0.0
 30
0.0
 70
    12
 75
     5
  0
VERTEX
  5
296
100
AcDbEntity
  8
0
390
0
100
AcDbVertex
100
AcDb3dPolylineVertex
 10
120.325264
 20
124.845825
 30
0.0
 70
    48
  0
VERTEX
  5
297
100
AcDbEntity
  8
0
390
0
100
AcDbVertex
100
AcDb3dPolylineVertex
 10
120.325264
 20
124.845825
 30
0.0
 70
    40
  0
VERTEX
  5
298
100
AcDbEntity
  8
0
390
0
100
AcDbVertex
100
AcDb3dPolylineVertex
 10
120.625648
 20
124.902542
 30
0.0
 70
    40
  0
VERTEX
  5
299
100
AcDbEntity
  8
0
390
0
100
AcDbVertex
100
AcDb3dPolylineVertex
 10
120.325264
 20
124.845825
 30
0.0
 70
    48
  0
VERTEX
  5
29A
100
AcDbEntity
  8
0
390
0
100
AcDbVertex
100
AcDb3dPolylineVertex
 10
120.625648
 20
124.902542
 30
0.0
 70
    48
  0
VERTEX
  5
29B
100
AcDbEntity
  8
0
390
0
100
AcDbVertex
100
AcDb3dPolylineVertex
 10
120.625648
 20
124.902542
 30
0.0
 70
    48
  0
VERTEX
  5
29C
100
AcDbEntity
  8
0
390
0
100
AcDbVertex
100
AcDb3dPolylineVertex
 10
120.965248
 20
125.038239
 30
0.0
 70
    40
  0
VERTEX
  5
29D
100
AcDbEntity
  8
0
390
0
100
AcDbVertex
100
AcDb3dPolylineVertex
 10
120.625648
 20
124.902542
 30
0.0
 70
    48
  0
VERTEX
  5
29E
100
AcDbEntity
  8
0
390
0
100
AcDbVertex
100
AcDb3dPolylineVertex
 10
120.965248
 20
125.038239
 30
0.0
 70
    48
  0
VERTEX
  5
29F
100
AcDbEntity
  8
0
390
0
100
AcDbVertex
100
AcDb3dPolylineVertex
 10
120.965248
 20
125.038239
 30
0.0
 70
    48
  0
VERTEX
  5
2A0
100
AcDbEntity
  8
0
390
0
100
AcDbVertex
100
AcDb3dPolylineVertex
 10
121.454369
 20
125.328491
 30
0.0
 70
    40
  0
VERTEX
  5
2A1
100
AcDbEntity
  8
0
390
0
100
AcDbVertex
100
AcDb3dPolylineVertex
 10
120.965248
 20
125.038239
 30
0.0
 70
    48
  0
VERTEX
  5
2A2
100
AcDbEntity
  8
0
390
0
100
AcDbVertex
100
AcDb3dPolylineVertex
 10
121.454369
 20
125.328491
 30
0.0
 70
    48
  0
VERTEX
  5
2A3
100
AcDbEntity
  8
0
390
0
100
AcDbVertex
100
AcDb3dPolylineVertex
 10
121.454369
 20
125.328491
 30
0.0
 70
    48
  0
SEQEND
  5
2A4
100
AcDbEntity
  8
0
390
0
  0
LINE
  5
2A5
100
AcDbEntity
  8
ARMATUR
390
0
  6
DURCHGEHEND
 62
     3
100
AcDbLine
 10
121.517387
 20
128.093094
 30
0.0
 11
121.517387
 21
125.328491
 31
0.0
  0
LINE
  5
2A6
100
AcDbEntity
  8
ARMATUR
390
0
  6
DURCHGEHEND
 62
     1
100
AcDbLine
 10
109.767387
 20
113.877159
 30
0.0
 11
109.767387
 21
113.891258
 31
0.0
  0
LINE
  5
2A7
100
AcDbEntity
  8
ARMATUR
390
0
  6
DURCHGEHEND
 62
     1
100
AcDbLine
 10
109.767387
 20
113.877159
 30
0.0
 11
109.739204
 21
113.877159
 31
0.0
  0
LINE
  5
2A8
100
AcDbEntity
  8
ARMATUR
390
0
  6
DURCHGEHEND
 62
     1
100
AcDbLine
 10
107.517387
 20
107.002159
 30
0.0
 11
109.767387
 21
107.002159
 31
0.0
  0
LINE
  5
2A9
100
AcDbEntity
  8
ARMATUR
390
0
  6
DURCHGEHEND
 62
     1
100
AcDbLine
 10
109.767387
 20
120.752159
 30
0.0
 11
107.517387
 21
120.752159
 31
0.0
  0
LINE
  5
2AA
100
AcDbEntity
  8
ARMATUR
390
0
  6
DURCHGEHEND
 62
     1
100
AcDbLine
 10
109.767387
 20
113.877159
 30
0.0
 11
109.767387
 21
120.752159
 31
0.0
  0
LINE
  5
2AB
100
AcDbEntity
  8
ARMATUR
390
0
  6
DURCHGEHEND
 62
     1
100
AcDbLine
 10
109.767387
 20
107.002159
 30
0.0
 11
109.767387
 21
113.877159
 31
0.0
  0
LINE
  5
2AC
100
AcDbEntity
  8
ARMATUR
390
0
  6
DURCHGEHEND
 62
     1
100
AcDbLine
 10
107.517387
 20
113.877159
 30
0.0
 11
107.517387
 21
120.752159
 31
0.0
  0
LINE
  5
2AD
100
AcDbEntity
  8
ARMATUR
390
0
  6
DURCHGEHEND
 62
     1
100
AcDbLine
 10
107.517387
 20
107.002151
 30
0.0
 11
107.517387
 21
113.877151
 31
0.0
  0
LINE
  5
2AE
100
AcDbEntity
  8
ARMATUR
390
0
  6
DURCHGEHEND
 62
     1
100
AcDbLine
 10
121.517387
 20
109.218063
 30
0.0
 11
121.517387
 21
109.218071
 31
0.0
  0
LINE
  5
2AF
100
AcDbEntity
  8
ARMATUR
390
0
  6
DURCHGEHEND
 62
     1
100
AcDbLine
 10
121.517387
 20
109.218063
 30
0.0
 11
121.545555
 21
109.218071
 31
0.0
  0
LINE
  5
2B0
100
AcDbEntity
  8
ARMATUR
390
0
  6
DURCHGEHEND
 62
     1
100
AcDbLine
 10
121.517387
 20
109.218063
 30
0.0
 11
121.517387
 21
109.218071
 31
0.0
  0
LINE
  5
2B1
100
AcDbEntity
  8
ARMATUR
390
0
  6
DURCHGEHEND
 62
     1
100
AcDbLine
 10
121.517387
 20
109.218063
 30
0.0
 11
121.545555
 21
109.218071
 31
0.0
  0
LINE
  5
2B2
100
AcDbEntity
  8
ARMATUR
390
0
  6
DURCHGEHEND
 62
     1
100
AcDbLine
 10
104.017387
 20
113.718063
 30
0.0
 11
104.017387
 21
113.718071
 31
0.0
  0
LINE
  5
2B3
100
AcDbEntity
  8
ARMATUR
390
0
  6
DURCHGEHEND
 62
     1
100
AcDbLine
 10
104.017387
 20
113.718063
 30
0.0
 11
104.017387
 21
113.689896
 31
0.0
  0
LINE
  5
2B4
100
AcDbEntity
  8
ARMATUR
390
0
  6
DURCHGEHEND
 62
     1
100
AcDbLine
 10
125.26738
 20
116.468063
 30
0.0
 11
125.26738
 21
121.718079
 31
0.0
  0
LINE
  5
2B5
100
AcDbEntity
  8
ARMATUR
390
0
  6
DURCHGEHEND
 62
     1
100
AcDbLine
 10
125.26738
 20
109.218063
 30
0.0
 11
125.26738
 21
110.968071
 31
0.0
  0
LINE
  5
2B6
100
AcDbEntity
  8
ARMATUR
390
0
  6
DURCHGEHEND
 62
     1
100
AcDbLine
 10
117.767387
 20
111.068069
 30
0.0
 11
117.767387
 21
109.218071
 31
0.0
  0
LINE
  5
2B7
100
AcDbEntity
  8
ARMATUR
390
0
  6
DURCHGEHEND
 62
     1
100
AcDbLine
 10
117.767387
 20
121.718079
 30
0.0
 11
117.767387
 21
116.368073
 31
0.0
  0
LINE
  5
2B8
100
AcDbEntity
  8
ARMATUR
390
0
  6
DURCHGEHEND
 62
     1
100
AcDbLine
 10
107.517387
 20
116.368073
 30
0.0
 11
104.267342
 21
116.312355
 31
0.0
  0
LINE
  5
2B9
100
AcDbEntity
  8
ARMATUR
390
0
  6
DURCHGEHEND
 62
     1
100
AcDbLine
 10
104.267342
 20
111.123779
 30
0.0
 11
107.517387
 21
111.068069
 31
0.0
  0
LINE
  5
2BA
100
AcDbEntity
  8
ARMATUR
390
0
  6
DURCHGEHEND
 62
     1
100
AcDbLine
 10
117.767387
 20
116.368073
 30
0.0
 11
109.767372
 21
116.368073
 31
0.0
  0
LINE
  5
2BB
100
AcDbEntity
  8
ARMATUR
390
0
  6
DURCHGEHEND
 62
     1
100
AcDbLine
 10
109.767372
 20
111.068069
 30
0.0
 11
117.767387
 21
111.068069
 31
0.0
  0
LINE
  5
2BC
100
AcDbEntity
  8
ARMATUR
390
0
  6
DURCHGEHEND
 62
     1
100
AcDbLine
 10
104.267342
 20
116.312347
 30
0.0
 11
104.017387
 21
116.053673
 31
0.0
  0
LINE
  5
2BD
100
AcDbEntity
  8
ARMATUR
390
0
  6
DURCHGEHEND
 62
     1
100
AcDbLine
 10
104.017387
 20
111.382462
 30
0.0
 11
104.267342
 21
111.123787
 31
0.0
  0
LINE
  5
2BE
100
AcDbEntity
  8
ARMATUR
390
0
  6
DURCHGEHEND
 62
     1
100
AcDbLine
 10
125.26738
 20
109.218063
 30
0.0
 11
117.767387
 21
109.218071
 31
0.0
  0
LINE
  5
2BF
100
AcDbEntity
  8
ARMATUR
390
0
  6
DURCHGEHEND
 62
     1
100
AcDbLine
 10
125.26738
 20
121.718079
 30
0.0
 11
117.767387
 21
121.718079
 31
0.0
  0
POLYLINE
  5
2C0
100
AcDbEntity
  8
ARMATUR
390
0
  6
DURCHGEHEND
 62
     1
100
AcDb3dPolyline
 66
     1
 10
0.0
 20
0.0
 30
0.0
 70
    12
 75
     5
  0
VERTEX
  5
2C1
100
AcDbEntity
  8
0
390
0
100
AcDbVertex
100
AcDb3dPolylineVertex
 10
125.265244
 20
110.970901
 30
0.0
 70
    48
  0
VERTEX
  5
2C2
100
AcDbEntity
  8
0
390
0
100
AcDbVertex
100
AcDb3dPolylineVertex
 10
125.265244
 20
110.970901
 30
0.0
 70
    40
  0
VERTEX
  5
2C3
100
AcDbEntity
  8
0
390
0
100
AcDbVertex
100
AcDb3dPolylineVertex
 10
125.266891
 20
110.968666
 30
0.0
 70
    40
  0
VERTEX
  5
2C4
100
AcDbEntity
  8
0
390
0
100
AcDbVertex
100
AcDb3dPolylineVertex
 10
125.265244
 20
110.970901
 30
0.0
 70
    48
  0
VERTEX
  5
2C5
100
AcDbEntity
  8
0
390
0
100
AcDbVertex
100
AcDb3dPolylineVertex
 10
125.266891
 20
110.968666
 30
0.0
 70
    48
  0
VERTEX
  5
2C6
100
AcDbEntity
  8
0
390
0
100
AcDbVertex
100
AcDb3dPolylineVertex
 10
125.266891
 20
110.968666
 30
0.0
 70
    48
  0
VERTEX
  5
2C7
100
AcDbEntity
  8
0
390
0
100
AcDbVertex
100
AcDb3dPolylineVertex
 10
125.241867
 20
111.002953
 30
0.0
 70
    40
  0
VERTEX
  5
2C8
100
AcDbEntity
  8
0
390
0
100
AcDbVertex
100
AcDb3dPolylineVertex
 10
125.266891
 20
110.968666
 30
0.0
 70
    48
  0
VERTEX
  5
2C9
100
AcDbEntity
  8
0
390
0
100
AcDbVertex
100
AcDb3dPolylineVertex
 10
125.241867
 20
111.002953
 30
0.0
 70
    48
  0
VERTEX
  5
2CA
100
AcDbEntity
  8
0
390
0
100
AcDbVertex
100
AcDb3dPolylineVertex
 10
125.241867
 20
111.002953
 30
0.0
 70
    48
  0
VERTEX
  5
2CB
100
AcDbEntity
  8
0
390
0
100
AcDbVertex
100
AcDb3dPolylineVertex
 10
125.181412
 20
111.086479
 30
0.0
 70
    40
  0
VERTEX
  5
2CC
100
AcDbEntity
  8
0
390
0
100
AcDbVertex
100
AcDb3dPolylineVertex
 10
125.241867
 20
111.002953
 30
0.0
 70
    48
  0
VERTEX
  5
2CD
100
AcDbEntity
  8
0
390
0
100
AcDbVertex
100
AcDb3dPolylineVertex
 10
125.181412
 20
111.086479
 30
0.0
 70
    48
  0
VERTEX
  5
2CE
100
AcDbEntity
  8
0
390
0
100
AcDbVertex
100
AcDb3dPolylineVertex
 10
125.181412
 20
111.086479
 30
0.0
 70
    48
  0
VERTEX
  5
2CF
100
AcDbEntity
  8
0
390
0
100
AcDbVertex
100
AcDb3dPolylineVertex
 10
125.090286
 20
111.214935
 30
0.0
 70
    40
  0
VERTEX
  5
2D0
100
AcDbEntity
  8
0
390
0
100
AcDbVertex
100
AcDb3dPolylineVertex
 10
125.181412
 20
111.086479
 30
0.0
 70
    48
  0
VERTEX
  5
2D1
100
AcDbEntity
  8
0
390
0
100
AcDbVertex
100
AcDb3dPolylineVertex
 10
125.090286
 20
111.214935
 30
0.0
 70
    48
  0
VERTEX
  5
2D2
100
AcDbEntity
  8
0
390
0
100
AcDbVertex
100
AcDb3dPolylineVertex
 10
125.090286
 20
111.214935
 30
0.0
 70
    48
  0
VERTEX
  5
2D3
100
AcDbEntity
  8
0
390
0
100
AcDbVertex
100
AcDb3dPolylineVertex
 10
124.963943
 20
111.398781
 30
0.0
 70
    40
  0
VERTEX
  5
2D4
100
AcDbEntity
  8
0
390
0
100
AcDbVertex
100
AcDb3dPolylineVertex
 10
125.090286
 20
111.214935
 30
0.0
 70
    48
  0
VERTEX
  5
2D5
100
AcDbEntity
  8
0
390
0
100
AcDbVertex
100
AcDb3dPolylineVertex
 10
124.963943
 20
111.398781
 30
0.0
 70
    48
  0
VERTEX
  5
2D6
100
AcDbEntity
  8
0
390
0
100
AcDbVertex
100
AcDb3dPolylineVertex
 10
124.963943
 20
111.398781
 30
0.0
 70
    48
  0
VERTEX
  5
2D7
100
AcDbEntity
  8
0
390
0
100
AcDbVertex
100
AcDb3dPolylineVertex
 10
124.817032
 20
111.623405
 30
0.0
 70
    40
  0
VERTEX
  5
2D8
100
AcDbEntity
  8
0
390
0
100
AcDbVertex
100
AcDb3dPolylineVertex
 10
124.963943
 20
111.398781
 30
0.0
 70
    48
  0
VERTEX
  5
2D9
100
AcDbEntity
  8
0
390
0
100
AcDbVertex
100
AcDb3dPolylineVertex
 10
124.817032
 20
111.623405
 30
0.0
 70
    48
  0
VERTEX
  5
2DA
100
AcDbEntity
  8
0
390
0
100
AcDbVertex
100
AcDb3dPolylineVertex
 10
124.817032
 20
111.623405
 30
0.0
 70
    48
  0
VERTEX
  5
2DB
100
AcDbEntity
  8
0
390
0
100
AcDbVertex
100
AcDb3dPolylineVertex
 10
124.628036
 20
111.935646
 30
0.0
 70
    40
  0
VERTEX
  5
2DC
100
AcDbEntity
  8
0
390
0
100
AcDbVertex
100
AcDb3dPolylineVertex
 10
124.817032
 20
111.623405
 30
0.0
 70
    48
  0
VERTEX
  5
2DD
100
AcDbEntity
  8
0
390
0
100
AcDbVertex
100
AcDb3dPolylineVertex
 10
124.628036
 20
111.935646
 30
0.0
 70
    48
  0
VERTEX
  5
2DE
100
AcDbEntity
  8
0
390
0
100
AcDbVertex
100
AcDb3dPolylineVertex
 10
124.628036
 20
111.935646
 30
0.0
 70
    48
  0
VERTEX
  5
2DF
100
AcDbEntity
  8
0
390
0
100
AcDbVertex
100
AcDb3dPolylineVertex
 10
124.437912
 20
112.293442
 30
0.0
 70
    40
  0
VERTEX
  5
2E0
100
AcDbEntity
  8
0
390
0
100
AcDbVertex
100
AcDb3dPolylineVertex
 10
124.628036
 20
111.935646
 30
0.0
 70
    48
  0
VERTEX
  5
2E1
100
AcDbEntity
  8
0
390
0
100
AcDbVertex
100
AcDb3dPolylineVertex
 10
124.437912
 20
112.293442
 30
0.0
 70
    48
  0
VERTEX
  5
2E2
100
AcDbEntity
  8
0
390
0
100
AcDbVertex
100
AcDb3dPolylineVertex
 10
124.437912
 20
112.293442
 30
0.0
 70
    48
  0
VERTEX
  5
2E3
100
AcDbEntity
  8
0
390
0
100
AcDbVertex
100
AcDb3dPolylineVertex
 10
124.280846
 20
112.651871
 30
0.0
 70
    40
  0
VERTEX
  5
2E4
100
AcDbEntity
  8
0
390
0
100
AcDbVertex
100
AcDb3dPolylineVertex
 10
124.437912
 20
112.293442
 30
0.0
 70
    48
  0
VERTEX
  5
2E5
100
AcDbEntity
  8
0
390
0
100
AcDbVertex
100
AcDb3dPolylineVertex
 10
124.280846
 20
112.651871
 30
0.0
 70
    48
  0
VERTEX
  5
2E6
100
AcDbEntity
  8
0
390
0
100
AcDbVertex
100
AcDb3dPolylineVertex
 10
124.280846
 20
112.651871
 30
0.0
 70
    48
  0
VERTEX
  5
2E7
100
AcDbEntity
  8
0
390
0
100
AcDbVertex
100
AcDb3dPolylineVertex
 10
124.154778
 20
113.042877
 30
0.0
 70
    40
  0
VERTEX
  5
2E8
100
AcDbEntity
  8
0
390
0
100
AcDbVertex
100
AcDb3dPolylineVertex
 10
124.280846
 20
112.651871
 30
0.0
 70
    48
  0
VERTEX
  5
2E9
100
AcDbEntity
  8
0
390
0
100
AcDbVertex
100
AcDb3dPolylineVertex
 10
124.154778
 20
113.042877
 30
0.0
 70
    48
  0
VERTEX
  5
2EA
100
AcDbEntity
  8
0
390
0
100
AcDbVertex
100
AcDb3dPolylineVertex
 10
124.154778
 20
113.042877
 30
0.0
 70
    48
  0
VERTEX
  5
2EB
100
AcDbEntity
  8
0
390
0
100
AcDbVertex
100
AcDb3dPolylineVertex
 10
124.09182
 20
113.362907
 30
0.0
 70
    40
  0
VERTEX
  5
2EC
100
AcDbEntity
  8
0
390
0
100
AcDbVertex
100
AcDb3dPolylineVertex
 10
124.154778
 20
113.042877
 30
0.0
 70
    48
  0
VERTEX
  5
2ED
100
AcDbEntity
  8
0
390
0
100
AcDbVertex
100
AcDb3dPolylineVertex
 10
124.09182
 20
113.362907
 30
0.0
 70
    48
  0
VERTEX
  5
2EE
100
AcDbEntity
  8
0
390
0
100
AcDbVertex
100
AcDb3dPolylineVertex
 10
124.09182
 20
113.362907
 30
0.0
 70
    48
  0
VERTEX
  5
2EF
100
AcDbEntity
  8
0
390
0
100
AcDbVertex
100
AcDb3dPolylineVertex
 10
124.067024
 20
113.692696
 30
0.0
 70
    40
  0
VERTEX
  5
2F0
100
AcDbEntity
  8
0
390
0
100
AcDbVertex
100
AcDb3dPolylineVertex
 10
124.09182
 20
113.362907
 30
0.0
 70
    48
  0
VERTEX
  5
2F1
100
AcDbEntity
  8
0
390
0
100
AcDbVertex
100
AcDb3dPolylineVertex
 10
124.067024
 20
113.692696
 30
0.0
 70
    48
  0
VERTEX
  5
2F2
100
AcDbEntity
  8
0
390
0
100
AcDbVertex
100
AcDb3dPolylineVertex
 10
124.067024
 20
113.692696
 30
0.0
 70
    48
  0
VERTEX
  5
2F3
100
AcDbEntity
  8
0
390
0
100
AcDbVertex
100
AcDb3dPolylineVertex
 10
124.085518
 20
114.02401
 30
0.0
 70
    40
  0
VERTEX
  5
2F4
100
AcDbEntity
  8
0
390
0
100
AcDbVertex
100
AcDb3dPolylineVertex
 10
124.067024
 20
113.692696
 30
0.0
 70
    48
  0
VERTEX
  5
2F5
100
AcDbEntity
  8
0
390
0
100
AcDbVertex
100
AcDb3dPolylineVertex
 10
124.085518
 20
114.02401
 30
0.0
 70
    48
  0
VERTEX
  5
2F6
100
AcDbEntity
  8
0
390
0
100
AcDbVertex
100
AcDb3dPolylineVertex
 10
124.085518
 20
114.02401
 30
0.0
 70
    48
  0
VERTEX
  5
2F7
100
AcDbEntity
  8
0
390
0
100
AcDbVertex
100
AcDb3dPolylineVertex
 10
124.143257
 20
114.346741
 30
0.0
 70
    40
  0
VERTEX
  5
2F8
100
AcDbEntity
  8
0
390
0
100
AcDbVertex
100
AcDb3dPolylineVertex
 10
124.085518
 20
114.02401
 30
0.0
 70
    48
  0
VERTEX
  5
2F9
100
AcDbEntity
  8
0
390
0
100
AcDbVertex
100
AcDb3dPolylineVertex
 10
124.143257
 20
114.346741
 30
0.0
 70
    48
  0
VERTEX
  5
2FA
100
AcDbEntity
  8
0
390
0
100
AcDbVertex
100
AcDb3dPolylineVertex
 10
124.143257
 20
114.346741
 30
0.0
 70
    48
  0
VERTEX
  5
2FB
100
AcDbEntity
  8
0
390
0
100
AcDbVertex
100
AcDb3dPolylineVertex
 10
124.263603
 20
114.738663
 30
0.0
 70
    40
  0
VERTEX
  5
2FC
100
AcDbEntity
  8
0
390
0
100
AcDbVertex
100
AcDb3dPolylineVertex
 10
124.143257
 20
114.346741
 30
0.0
 70
    48
  0
VERTEX
  5
2FD
100
AcDbEntity
  8
0
390
0
100
AcDbVertex
100
AcDb3dPolylineVertex
 10
124.263603
 20
114.738663
 30
0.0
 70
    48
  0
VERTEX
  5
2FE
100
AcDbEntity
  8
0
390
0
100
AcDbVertex
100
AcDb3dPolylineVertex
 10
124.263603
 20
114.738663
 30
0.0
 70
    48
  0
VERTEX
  5
2FF
100
AcDbEntity
  8
0
390
0
100
AcDbVertex
100
AcDb3dPolylineVertex
 10
124.416794
 20
115.098877
 30
0.0
 70
    40
  0
VERTEX
  5
300
100
AcDbEntity
  8
0
390
0
100
AcDbVertex
100
AcDb3dPolylineVertex
 10
124.263603
 20
114.738663
 30
0.0
 70
    48
  0
VERTEX
  5
301
100
AcDbEntity
  8
0
390
0
100
AcDbVertex
100
AcDb3dPolylineVertex
 10
124.416794
 20
115.098877
 30
0.0
 70
    48
  0
VERTEX
  5
302
100
AcDbEntity
  8
0
390
0
100
AcDbVertex
100
AcDb3dPolylineVertex
 10
124.416794
 20
115.098877
 30
0.0
 70
    48
  0
VERTEX
  5
303
100
AcDbEntity
  8
0
390
0
100
AcDbVertex
100
AcDb3dPolylineVertex
 10
124.631973
 20
115.507553
 30
0.0
 70
    40
  0
VERTEX
  5
304
100
AcDbEntity
  8
0
390
0
100
AcDbVertex
100
AcDb3dPolylineVertex
 10
124.416794
 20
115.098877
 30
0.0
 70
    48
  0
VERTEX
  5
305
100
AcDbEntity
  8
0
390
0
100
AcDbVertex
100
AcDb3dPolylineVertex
 10
124.631973
 20
115.507553
 30
0.0
 70
    48
  0
VERTEX
  5
306
100
AcDbEntity
  8
0
390
0
100
AcDbVertex
100
AcDb3dPolylineVertex
 10
124.631973
 20
115.507553
 30
0.0
 70
    48
  0
VERTEX
  5
307
100
AcDbEntity
  8
0
390
0
100
AcDbVertex
100
AcDb3dPolylineVertex
 10
124.845474
 20
115.857262
 30
0.0
 70
    40
  0
VERTEX
  5
308
100
AcDbEntity
  8
0
390
0
100
AcDbVertex
100
AcDb3dPolylineVertex
 10
124.631973
 20
115.507553
 30
0.0
 70
    48
  0
VERTEX
  5
309
100
AcDbEntity
  8
0
390
0
100
AcDbVertex
100
AcDb3dPolylineVertex
 10
124.845474
 20
115.857262
 30
0.0
 70
    48
  0
VERTEX
  5
30A
100
AcDbEntity
  8
0
390
0
100
AcDbVertex
100
AcDb3dPolylineVertex
 10
124.845474
 20
115.857262
 30
0.0
 70
    48
  0
VERTEX
  5
30B
100
AcDbEntity
  8
0
390
0
100
AcDbVertex
100
AcDb3dPolylineVertex
 10
125.00676
 20
116.100548
 30
0.0
 70
    40
  0
VERTEX
  5
30C
100
AcDbEntity
  8
0
390
0
100
AcDbVertex
100
AcDb3dPolylineVertex
 10
124.845474
 20
115.857262
 30
0.0
 70
    48
  0
VERTEX
  5
30D
100
AcDbEntity
  8
0
390
0
100
AcDbVertex
100
AcDb3dPolylineVertex
 10
125.00676
 20
116.100548
 30
0.0
 70
    48
  0
VERTEX
  5
30E
100
AcDbEntity
  8
0
390
0
100
AcDbVertex
100
AcDb3dPolylineVertex
 10
125.00676
 20
116.100548
 30
0.0
 70
    48
  0
VERTEX
  5
30F
100
AcDbEntity
  8
0
390
0
100
AcDbVertex
100
AcDb3dPolylineVertex
 10
125.13826
 20
116.289192
 30
0.0
 70
    40
  0
VERTEX
  5
310
100
AcDbEntity
  8
0
390
0
100
AcDbVertex
100
AcDb3dPolylineVertex
 10
125.00676
 20
116.100548
 30
0.0
 70
    48
  0
VERTEX
  5
311
100
AcDbEntity
  8
0
390
0
100
AcDbVertex
100
AcDb3dPolylineVertex
 10
125.13826
 20
116.289192
 30
0.0
 70
    48
  0
VERTEX
  5
312
100
AcDbEntity
  8
0
390
0
100
AcDbVertex
100
AcDb3dPolylineVertex
 10
125.13826
 20
116.289192
 30
0.0
 70
    48
  0
VERTEX
  5
313
100
AcDbEntity
  8
0
390
0
100
AcDbVertex
100
AcDb3dPolylineVertex
 10
125.217239
 20
116.399361
 30
0.0
 70
    40
  0
VERTEX
  5
314
100
AcDbEntity
  8
0
390
0
100
AcDbVertex
100
AcDb3dPolylineVertex
 10
125.13826
 20
116.289192
 30
0.0
 70
    48
  0
VERTEX
  5
315
100
AcDbEntity
  8
0
390
0
100
AcDbVertex
100
AcDb3dPolylineVertex
 10
125.217239
 20
116.399361
 30
0.0
 70
    48
  0
VERTEX
  5
316
100
AcDbEntity
  8
0
390
0
100
AcDbVertex
100
AcDb3dPolylineVertex
 10
125.217239
 20
116.399361
 30
0.0
 70
    48
  0
VERTEX
  5
317
100
AcDbEntity
  8
0
390
0
100
AcDbVertex
100
AcDb3dPolylineVertex
 10
125.260513
 20
116.458687
 30
0.0
 70
    40
  0
VERTEX
  5
318
100
AcDbEntity
  8
0
390
0
100
AcDbVertex
100
AcDb3dPolylineVertex
 10
125.217239
 20
116.399361
 30
0.0
 70
    48
  0
VERTEX
  5
319
100
AcDbEntity
  8
0
390
0
100
AcDbVertex
100
AcDb3dPolylineVertex
 10
125.260513
 20
116.458687
 30
0.0
 70
    48
  0
VERTEX
  5
31A
100
AcDbEntity
  8
0
390
0
100
AcDbVertex
100
AcDb3dPolylineVertex
 10
125.260513
 20
116.458687
 30
0.0
 70
    48
  0
VERTEX
  5
31B
100
AcDbEntity
  8
0
390
0
100
AcDbVertex
100
AcDb3dPolylineVertex
 10
125.26738
 20
116.468071
 30
0.0
 70
    40
  0
VERTEX
  5
31C
100
AcDbEntity
  8
0
390
0
100
AcDbVertex
100
AcDb3dPolylineVertex
 10
125.260513
 20
116.458687
 30
0.0
 70
    48
  0
VERTEX
  5
31D
100
AcDbEntity
  8
0
390
0
100
AcDbVertex
100
AcDb3dPolylineVertex
 10
125.26738
 20
116.468071
 30
0.0
 70
    48
  0
VERTEX
  5
31E
100
AcDbEntity
  8
0
390
0
100
AcDbVertex
100
AcDb3dPolylineVertex
 10
125.26738
 20
116.468071
 30
0.0
 70
    48
  0
SEQEND
  5
31F
100
AcDbEntity
  8
0
390
0
  0
LINE
  5
320
100
AcDbEntity
  8
ARMATUR
390
0
  6
DURCHGEHEND
 62
     1
100
AcDbLine
 10
107.517387
 20
111.068069
 30
0.0
 11
107.517387
 21
116.368073
 31
0.0
  0
POLYLINE
  5
321
100
AcDbEntity
  8
ARMATUR
390
0
  6
DURCHGEHEND
 62
     1
100
AcDb3dPolyline
 66
     1
 10
0.0
 20
0.0
 30
0.0
 70
    12
 75
     5
  0
VERTEX
  5
322
100
AcDbEntity
  8
0
390
0
100
AcDbVertex
100
AcDb3dPolylineVertex
 10
118.864082
 20
113.718063
 30
0.0
 70
    48
  0
VERTEX
  5
323
100
AcDbEntity
  8
0
390
0
100
AcDbVertex
100
AcDb3dPolylineVertex
 10
118.864082
 20
113.718063
 30
0.0
 70
    40
  0
VERTEX
  5
324
100
AcDbEntity
  8
0
390
0
100
AcDbVertex
100
AcDb3dPolylineVertex
 10
118.836815
 20
113.340179
 30
0.0
 70
    40
  0
VERTEX
  5
325
100
AcDbEntity
  8
0
390
0
100
AcDbVertex
100
AcDb3dPolylineVertex
 10
118.864082
 20
113.718063
 30
0.0
 70
    48
  0
VERTEX
  5
326
100
AcDbEntity
  8
0
390
0
100
AcDbVertex
100
AcDb3dPolylineVertex
 10
118.836815
 20
113.340179
 30
0.0
 70
    48
  0
VERTEX
  5
327
100
AcDbEntity
  8
0
390
0
100
AcDbVertex
100
AcDb3dPolylineVertex
 10
118.836815
 20
113.340179
 30
0.0
 70
    48
  0
VERTEX
  5
328
100
AcDbEntity
  8
0
390
0
100
AcDbVertex
100
AcDb3dPolylineVertex
 10
118.762169
 20
112.975647
 30
0.0
 70
    40
  0
VERTEX
  5
329
100
AcDbEntity
  8
0
390
0
100
AcDbVertex
100
AcDb3dPolylineVertex
 10
118.836815
 20
113.340179
 30
0.0
 70
    48
  0
VERTEX
  5
32A
100
AcDbEntity
  8
0
390
0
100
AcDbVertex
100
AcDb3dPolylineVertex
 10
118.762169
 20
112.975647
 30
0.0
 70
    48
  0
VERTEX
  5
32B
100
AcDbEntity
  8
0
390
0
100
AcDbVertex
100
AcDb3dPolylineVertex
 10
118.762169
 20
112.975647
 30
0.0
 70
    48
  0
VERTEX
  5
32C
100
AcDbEntity
  8
0
390
0
100
AcDbVertex
100
AcDb3dPolylineVertex
 10
118.652641
 20
112.637909
 30
0.0
 70
    40
  0
VERTEX
  5
32D
100
AcDbEntity
  8
0
390
0
100
AcDbVertex
100
AcDb3dPolylineVertex
 10
118.762169
 20
112.975647
 30
0.0
 70
    48
  0
VERTEX
  5
32E
100
AcDbEntity
  8
0
390
0
100
AcDbVertex
100
AcDb3dPolylineVertex
 10
118.652641
 20
112.637909
 30
0.0
 70
    48
  0
VERTEX
  5
32F
100
AcDbEntity
  8
0
390
0
100
AcDbVertex
100
AcDb3dPolylineVertex
 10
118.652641
 20
112.637909
 30
0.0
 70
    48
  0
VERTEX
  5
330
100
AcDbEntity
  8
0
390
0
100
AcDbVertex
100
AcDb3dPolylineVertex
 10
118.521111
 20
112.326073
 30
0.0
 70
    40
  0
VERTEX
  5
331
100
AcDbEntity
  8
0
390
0
100
AcDbVertex
100
AcDb3dPolylineVertex
 10
118.652641
 20
112.637909
 30
0.0
 70
    48
  0
VERTEX
  5
332
100
AcDbEntity
  8
0
390
0
100
AcDbVertex
100
AcDb3dPolylineVertex
 10
118.521111
 20
112.326073
 30
0.0
 70
    48
  0
VERTEX
  5
333
100
AcDbEntity
  8
0
390
0
100
AcDbVertex
100
AcDb3dPolylineVertex
 10
118.521111
 20
112.326073
 30
0.0
 70
    48
  0
VERTEX
  5
334
100
AcDbEntity
  8
0
390
0
100
AcDbVertex
100
AcDb3dPolylineVertex
 10
118.353279
 20
111.994072
 30
0.0
 70
    40
  0
VERTEX
  5
335
100
AcDbEntity
  8
0
390
0
100
AcDbVertex
100
AcDb3dPolylineVertex
 10
118.521111
 20
112.326073
 30
0.0
 70
    48
  0
VERTEX
  5
336
100
AcDbEntity
  8
0
390
0
100
AcDbVertex
100
AcDb3dPolylineVertex
 10
118.353279
 20
111.994072
 30
0.0
 70
    48
  0
VERTEX
  5
337
100
AcDbEntity
  8
0
390
0
100
AcDbVertex
100
AcDb3dPolylineVertex
 10
118.353279
 20
111.994072
 30
0.0
 70
    48
  0
VERTEX
  5
338
100
AcDbEntity
  8
0
390
0
100
AcDbVertex
100
AcDb3dPolylineVertex
 10
118.18589
 20
111.703407
 30
0.0
 70
    40
  0
VERTEX
  5
339
100
AcDbEntity
  8
0
390
0
100
AcDbVertex
100
AcDb3dPolylineVertex
 10
118.353279
 20
111.994072
 30
0.0
 70
    48
  0
VERTEX
  5
33A
100
AcDbEntity
  8
0
390
0
100
AcDbVertex
100
AcDb3dPolylineVertex
 10
118.18589
 20
111.703407
 30
0.0
 70
    48
  0
VERTEX
  5
33B
100
AcDbEntity
  8
0
390
0
100
AcDbVertex
100
AcDb3dPolylineVertex
 10
118.18589
 20
111.703407
 30
0.0
 70
    48
  0
VERTEX
  5
33C
100
AcDbEntity
  8
0
390
0
100
AcDbVertex
100
AcDb3dPolylineVertex
 10
118.00843
 20
111.421677
 30
0.0
 70
    40
  0
VERTEX
  5
33D
100
AcDbEntity
  8
0
390
0
100
AcDbVertex
100
AcDb3dPolylineVertex
 10
118.18589
 20
111.703407
 30
0.0
 70
    48
  0
VERTEX
  5
33E
100
AcDbEntity
  8
0
390
0
100
AcDbVertex
100
AcDb3dPolylineVertex
 10
118.00843
 20
111.421677
 30
0.0
 70
    48
  0
VERTEX
  5
33F
100
AcDbEntity
  8
0
390
0
100
AcDbVertex
100
AcDb3dPolylineVertex
 10
118.00843
 20
111.421677
 30
0.0
 70
    48
  0
VERTEX
  5
340
100
AcDbEntity
  8
0
390
0
100
AcDbVertex
100
AcDb3dPolylineVertex
 10
117.868919
 20
111.213814
 30
0.0
 70
    40
  0
VERTEX
  5
341
100
AcDbEntity
  8
0
390
0
100
AcDbVertex
100
AcDb3dPolylineVertex
 10
118.00843
 20
111.421677
 30
0.0
 70
    48
  0
VERTEX
  5
342
100
AcDbEntity
  8
0
390
0
100
AcDbVertex
100
AcDb3dPolylineVertex
 10
117.868919
 20
111.213814
 30
0.0
 70
    48
  0
VERTEX
  5
343
100
AcDbEntity
  8
0
390
0
100
AcDbVertex
100
AcDb3dPolylineVertex
 10
117.868919
 20
111.213814
 30
0.0
 70
    48
  0
VERTEX
  5
344
100
AcDbEntity
  8
0
390
0
100
AcDbVertex
100
AcDb3dPolylineVertex
 10
117.802162
 20
111.11747
 30
0.0
 70
    40
  0
VERTEX
  5
345
100
AcDbEntity
  8
0
390
0
100
AcDbVertex
100
AcDb3dPolylineVertex
 10
117.868919
 20
111.213814
 30
0.0
 70
    48
  0
VERTEX
  5
346
100
AcDbEntity
  8
0
390
0
100
AcDbVertex
100
AcDb3dPolylineVertex
 10
117.802162
 20
111.11747
 30
0.0
 70
    48
  0
VERTEX
  5
347
100
AcDbEntity
  8
0
390
0
100
AcDbVertex
100
AcDb3dPolylineVertex
 10
117.802162
 20
111.11747
 30
0.0
 70
    48
  0
VERTEX
  5
348
100
AcDbEntity
  8
0
390
0
100
AcDbVertex
100
AcDb3dPolylineVertex
 10
117.769814
 20
111.071526
 30
0.0
 70
    40
  0
VERTEX
  5
349
100
AcDbEntity
  8
0
390
0
100
AcDbVertex
100
AcDb3dPolylineVertex
 10
117.802162
 20
111.11747
 30
0.0
 70
    48
  0
VERTEX
  5
34A
100
AcDbEntity
  8
0
390
0
100
AcDbVertex
100
AcDb3dPolylineVertex
 10
117.769814
 20
111.071526
 30
0.0
 70
    48
  0
VERTEX
  5
34B
100
AcDbEntity
  8
0
390
0
100
AcDbVertex
100
AcDb3dPolylineVertex
 10
117.769814
 20
111.071526
 30
0.0
 70
    48
  0
VERTEX
  5
34C
100
AcDbEntity
  8
0
390
0
100
AcDbVertex
100
AcDb3dPolylineVertex
 10
117.771843
 20
111.074356
 30
0.0
 70
    40
  0
VERTEX
  5
34D
100
AcDbEntity
  8
0
390
0
100
AcDbVertex
100
AcDb3dPolylineVertex
 10
117.769814
 20
111.071526
 30
0.0
 70
    48
  0
VERTEX
  5
34E
100
AcDbEntity
  8
0
390
0
100
AcDbVertex
100
AcDb3dPolylineVertex
 10
117.771843
 20
111.074356
 30
0.0
 70
    48
  0
VERTEX
  5
34F
100
AcDbEntity
  8
0
390
0
100
AcDbVertex
100
AcDb3dPolylineVertex
 10
117.771843
 20
111.074356
 30
0.0
 70
    48
  0
SEQEND
  5
350
100
AcDbEntity
  8
0
390
0
  0
POLYLINE
  5
351
100
AcDbEntity
  8
ARMATUR
390
0
  6
DURCHGEHEND
 62
     1
100
AcDb3dPolyline
 66
     1
 10
0.0
 20
0.0
 30
0.0
 70
    12
 75
     5
  0
VERTEX
  5
352
100
AcDbEntity
  8
0
390
0
100
AcDbVertex
100
AcDb3dPolylineVertex
 10
117.77317
 20
116.359924
 30
0.0
 70
    48
  0
VERTEX
  5
353
100
AcDbEntity
  8
0
390
0
100
AcDbVertex
100
AcDb3dPolylineVertex
 10
117.77317
 20
116.359924
 30
0.0
 70
    40
  0
VERTEX
  5
354
100
AcDbEntity
  8
0
390
0
100
AcDbVertex
100
AcDb3dPolylineVertex
 10
117.772423
 20
116.360939
 30
0.0
 70
    40
  0
VERTEX
  5
355
100
AcDbEntity
  8
0
390
0
100
AcDbVertex
100
AcDb3dPolylineVertex
 10
117.77317
 20
116.359924
 30
0.0
 70
    48
  0
VERTEX
  5
356
100
AcDbEntity
  8
0
390
0
100
AcDbVertex
100
AcDb3dPolylineVertex
 10
117.772423
 20
116.360939
 30
0.0
 70
    48
  0
VERTEX
  5
357
100
AcDbEntity
  8
0
390
0
100
AcDbVertex
100
AcDb3dPolylineVertex
 10
117.772423
 20
116.360939
 30
0.0
 70
    48
  0
VERTEX
  5
358
100
AcDbEntity
  8
0
390
0
100
AcDbVertex
100
AcDb3dPolylineVertex
 10
117.809349
 20
116.308388
 30
0.0
 70
    40
  0
VERTEX
  5
359
100
AcDbEntity
  8
0
390
0
100
AcDbVertex
100
AcDb3dPolylineVertex
 10
117.772423
 20
116.360939
 30
0.0
 70
    48
  0
VERTEX
  5
35A
100
AcDbEntity
  8
0
390
0
100
AcDbVertex
100
AcDb3dPolylineVertex
 10
117.809349
 20
116.308388
 30
0.0
 70
    48
  0
VERTEX
  5
35B
100
AcDbEntity
  8
0
390
0
100
AcDbVertex
100
AcDb3dPolylineVertex
 10
117.809349
 20
116.308388
 30
0.0
 70
    48
  0
VERTEX
  5
35C
100
AcDbEntity
  8
0
390
0
100
AcDbVertex
100
AcDb3dPolylineVertex
 10
117.878792
 20
116.207924
 30
0.0
 70
    40
  0
VERTEX
  5
35D
100
AcDbEntity
  8
0
390
0
100
AcDbVertex
100
AcDb3dPolylineVertex
 10
117.809349
 20
116.308388
 30
0.0
 70
    48
  0
VERTEX
  5
35E
100
AcDbEntity
  8
0
390
0
100
AcDbVertex
100
AcDb3dPolylineVertex
 10
117.878792
 20
116.207924
 30
0.0
 70
    48
  0
VERTEX
  5
35F
100
AcDbEntity
  8
0
390
0
100
AcDbVertex
100
AcDb3dPolylineVertex
 10
117.878792
 20
116.207924
 30
0.0
 70
    48
  0
VERTEX
  5
360
100
AcDbEntity
  8
0
390
0
100
AcDbVertex
100
AcDb3dPolylineVertex
 10
117.979347
 20
116.058556
 30
0.0
 70
    40
  0
VERTEX
  5
361
100
AcDbEntity
  8
0
390
0
100
AcDbVertex
100
AcDb3dPolylineVertex
 10
117.878792
 20
116.207924
 30
0.0
 70
    48
  0
VERTEX
  5
362
100
AcDbEntity
  8
0
390
0
100
AcDbVertex
100
AcDb3dPolylineVertex
 10
117.979347
 20
116.058556
 30
0.0
 70
    48
  0
VERTEX
  5
363
100
AcDbEntity
  8
0
390
0
100
AcDbVertex
100
AcDb3dPolylineVertex
 10
117.979347
 20
116.058556
 30
0.0
 70
    48
  0
VERTEX
  5
364
100
AcDbEntity
  8
0
390
0
100
AcDbVertex
100
AcDb3dPolylineVertex
 10
118.10218
 20
115.86834
 30
0.0
 70
    40
  0
VERTEX
  5
365
100
AcDbEntity
  8
0
390
0
100
AcDbVertex
100
AcDb3dPolylineVertex
 10
117.979347
 20
116.058556
 30
0.0
 70
    48
  0
VERTEX
  5
366
100
AcDbEntity
  8
0
390
0
100
AcDbVertex
100
AcDb3dPolylineVertex
 10
118.10218
 20
115.86834
 30
0.0
 70
    48
  0
VERTEX
  5
367
100
AcDbEntity
  8
0
390
0
100
AcDbVertex
100
AcDb3dPolylineVertex
 10
118.10218
 20
115.86834
 30
0.0
 70
    48
  0
VERTEX
  5
368
100
AcDbEntity
  8
0
390
0
100
AcDbVertex
100
AcDb3dPolylineVertex
 10
118.262459
 20
115.603554
 30
0.0
 70
    40
  0
VERTEX
  5
369
100
AcDbEntity
  8
0
390
0
100
AcDbVertex
100
AcDb3dPolylineVertex
 10
118.10218
 20
115.86834
 30
0.0
 70
    48
  0
VERTEX
  5
36A
100
AcDbEntity
  8
0
390
0
100
AcDbVertex
100
AcDb3dPolylineVertex
 10
118.262459
 20
115.603554
 30
0.0
 70
    48
  0
VERTEX
  5
36B
100
AcDbEntity
  8
0
390
0
100
AcDbVertex
100
AcDb3dPolylineVertex
 10
118.262459
 20
115.603554
 30
0.0
 70
    48
  0
VERTEX
  5
36C
100
AcDbEntity
  8
0
390
0
100
AcDbVertex
100
AcDb3dPolylineVertex
 10
118.430321
 20
115.296021
 30
0.0
 70
    40
  0
VERTEX
  5
36D
100
AcDbEntity
  8
0
390
0
100
AcDbVertex
100
AcDb3dPolylineVertex
 10
118.262459
 20
115.603554
 30
0.0
 70
    48
  0
VERTEX
  5
36E
100
AcDbEntity
  8
0
390
0
100
AcDbVertex
100
AcDb3dPolylineVertex
 10
118.430321
 20
115.296021
 30
0.0
 70
    48
  0
VERTEX
  5
36F
100
AcDbEntity
  8
0
390
0
100
AcDbVertex
100
AcDb3dPolylineVertex
 10
118.430321
 20
115.296021
 30
0.0
 70
    48
  0
VERTEX
  5
370
100
AcDbEntity
  8
0
390
0
100
AcDbVertex
100
AcDb3dPolylineVertex
 10
118.617668
 20
114.887978
 30
0.0
 70
    40
  0
VERTEX
  5
371
100
AcDbEntity
  8
0
390
0
100
AcDbVertex
100
AcDb3dPolylineVertex
 10
118.430321
 20
115.296021
 30
0.0
 70
    48
  0
VERTEX
  5
372
100
AcDbEntity
  8
0
390
0
100
AcDbVertex
100
AcDb3dPolylineVertex
 10
118.617668
 20
114.887978
 30
0.0
 70
    48
  0
VERTEX
  5
373
100
AcDbEntity
  8
0
390
0
100
AcDbVertex
100
AcDb3dPolylineVertex
 10
118.617668
 20
114.887978
 30
0.0
 70
    48
  0
VERTEX
  5
374
100
AcDbEntity
  8
0
390
0
100
AcDbVertex
100
AcDb3dPolylineVertex
 10
118.769936
 20
114.431129
 30
0.0
 70
    40
  0
VERTEX
  5
375
100
AcDbEntity
  8
0
390
0
100
AcDbVertex
100
AcDb3dPolylineVertex
 10
118.617668
 20
114.887978
 30
0.0
 70
    48
  0
VERTEX
  5
376
100
AcDbEntity
  8
0
390
0
100
AcDbVertex
100
AcDb3dPolylineVertex
 10
118.769936
 20
114.431129
 30
0.0
 70
    48
  0
VERTEX
  5
377
100
AcDbEntity
  8
0
390
0
100
AcDbVertex
100
AcDb3dPolylineVertex
 10
118.769936
 20
114.431129
 30
0.0
 70
    48
  0
VERTEX
  5
378
100
AcDbEntity
  8
0
390
0
100
AcDbVertex
100
AcDb3dPolylineVertex
 10
118.839012
 20
114.080551
 30
0.0
 70
    40
  0
VERTEX
  5
379
100
AcDbEntity
  8
0
390
0
100
AcDbVertex
100
AcDb3dPolylineVertex
 10
118.769936
 20
114.431129
 30
0.0
 70
    48
  0
VERTEX
  5
37A
100
AcDbEntity
  8
0
390
0
100
AcDbVertex
100
AcDb3dPolylineVertex
 10
118.839012
 20
114.080551
 30
0.0
 70
    48
  0
VERTEX
  5
37B
100
AcDbEntity
  8
0
390
0
100
AcDbVertex
100
AcDb3dPolylineVertex
 10
118.839012
 20
114.080551
 30
0.0
 70
    48
  0
VERTEX
  5
37C
100
AcDbEntity
  8
0
390
0
100
AcDbVertex
100
AcDb3dPolylineVertex
 10
118.864082
 20
113.718071
 30
0.0
 70
    40
  0
VERTEX
  5
37D
100
AcDbEntity
  8
0
390
0
100
AcDbVertex
100
AcDb3dPolylineVertex
 10
118.839012
 20
114.080551
 30
0.0
 70
    48
  0
VERTEX
  5
37E
100
AcDbEntity
  8
0
390
0
100
AcDbVertex
100
AcDb3dPolylineVertex
 10
118.864082
 20
113.718071
 30
0.0
 70
    48
  0
VERTEX
  5
37F
100
AcDbEntity
  8
0
390
0
100
AcDbVertex
100
AcDb3dPolylineVertex
 10
118.864082
 20
113.718071
 30
0.0
 70
    48
  0
SEQEND
  5
380
100
AcDbEntity
  8
0
390
0
  0
LINE
  5
381
100
AcDbEntity
  8
ARMATUR
390
0
  6
DURCHGEHEND
 62
     1
100
AcDbLine
 10
104.017387
 20
111.382462
 30
0.0
 11
104.017387
 21
116.053673
 31
0.0
  0
LINE
  5
382
100
AcDbEntity
  8
ARMATUR
390
0
  6
DURCHGEHEND
 62
     3
100
AcDbLine
 10
104.017387
 20
115.888306
 30
0.0
 11
107.51738
 21
115.888306
 31
0.0
  0
LINE
  5
383
100
AcDbEntity
  8
ARMATUR
390
0
  6
DURCHGEHEND
 62
     3
100
AcDbLine
 10
104.017387
 20
111.588829
 30
0.0
 11
107.51738
 21
111.588829
 31
0.0
  0
LINE
  5
384
100
AcDbEntity
  8
ARMATUR
390
0
  6
DURCHGEHEND
 62
     1
100
AcDbLine
 10
199.387375
 20
107.581207
 30
0.0
 11
199.387375
 21
107.581207
 31
0.0
  0
LINE
  5
385
100
AcDbEntity
  8
ARMATUR
390
0
  6
DURCHGEHEND
 62
     1
100
AcDbLine
 10
199.387375
 20
107.581207
 30
0.0
 11
199.414963
 21
107.587067
 31
0.0
  0
LINE
  5
386
100
AcDbEntity
  8
ARMATUR
390
0
  6
DURCHGEHEND
 62
     1
100
AcDbLine
 10
202.094193
 20
110.658714
 30
0.0
 11
201.409256
 21
110.694618
 31
0.0
  0
LINE
  5
387
100
AcDbEntity
  8
ARMATUR
390
0
  6
DURCHGEHEND
 62
     1
100
AcDbLine
 10
196.273972
 20
109.603081
 30
0.0
 11
195.662857
 21
109.291695
 31
0.0
  0
LINE
  5
388
100
AcDbEntity
  8
ARMATUR
390
0
  6
DURCHGEHEND
 62
     1
100
AcDbLine
 10
202.551071
 20
108.509254
 30
0.0
 11
202.094193
 21
110.658714
 31
0.0
  0
LINE
  5
389
100
AcDbEntity
  8
ARMATUR
390
0
  6
DURCHGEHEND
 62
     1
100
AcDbLine
 10
195.662857
 20
109.291695
 30
0.0
 11
196.119736
 21
107.142235
 31
0.0
  0
LINE
  5
38A
100
AcDbEntity
  8
ARMATUR
390
0
  6
DURCHGEHEND
 62
     1
100
AcDbLine
 10
196.119736
 20
107.142235
 30
0.0
 11
196.416275
 21
106.949677
 31
0.0
  0
LINE
  5
38B
100
AcDbEntity
  8
ARMATUR
390
0
  6
DURCHGEHEND
 62
     1
100
AcDbLine
 10
202.358505
 20
108.212746
 30
0.0
 11
202.551071
 21
108.509254
 31
0.0
  0
LINE
  5
38C
100
AcDbEntity
  8
ARMATUR
390
0
  6
DURCHGEHEND
 62
     1
100
AcDbLine
 10
201.409256
 20
110.694618
 30
0.0
 11
196.273972
 21
109.603081
 31
0.0
  0
LINE
  5
38D
100
AcDbEntity
  8
ARMATUR
390
0
  6
DURCHGEHEND
 62
     1
100
AcDbLine
 10
202.358505
 20
108.212746
 30
0.0
 11
196.416275
 21
106.949677
 31
0.0
  0
LINE
  5
38E
100
AcDbEntity
  8
ARMATUR
390
0
  6
DURCHGEHEND
 62
     3
100
AcDbLine
 10
202.166122
 20
108.16465
 30
0.0
 11
201.637863
 21
110.649933
 31
0.0
  0
LINE
  5
38F
100
AcDbEntity
  8
ARMATUR
390
0
  6
DURCHGEHEND
 62
     3
100
AcDbLine
 10
196.572586
 20
106.9617
 30
0.0
 11
196.043045
 21
109.452927
 31
0.0
  0
LINE
  5
390
100
AcDbEntity
  8
ARMATUR
390
0
  6
DURCHGEHEND
 62
     1
100
AcDbLine
 10
202.057266
 20
110.832359
 30
0.0
 11
202.057266
 21
110.832359
 31
0.0
  0
LINE
  5
391
100
AcDbEntity
  8
ARMATUR
390
0
  6
DURCHGEHEND
 62
     1
100
AcDbLine
 10
190.16658
 20
110.968071
 30
0.0
 11
194.90831
 21
110.968079
 31
0.0
  0
LINE
  5
392
100
AcDbEntity
  8
ARMATUR
390
0
  6
DURCHGEHEND
 62
     1
100
AcDbLine
 10
194.90831
 20
116.468063
 30
0.0
 11
189.326553
 21
116.468063
 31
0.0
  0
ARC
  5
393
100
AcDbEntity
  8
ARMATUR
390
0
  6
DURCHGEHEND
 62
     1
100
AcDbCircle
 10
194.90831
 20
109.818069
 30
0.0
 40
1.150009
100
AcDbArc
 50
12.0
 51
90.0
  0
ARC
  5
394
100
AcDbEntity
  8
ARMATUR
390
0
  6
DURCHGEHEND
 62
     1
100
AcDbCircle
 10
194.90831
 20
109.818069
 30
0.0
 40
6.650009
100
AcDbArc
 50
12.0
 51
90.0
  0
LINE
  5
395
100
AcDbEntity
  8
ARMATUR
390
0
  6
DURCHGEHEND
 62
     1
100
AcDbLine
 10
201.484329
 20
110.865082
 30
0.0
 11
201.41301
 21
111.200684
 31
0.0
  0
LINE
  5
396
100
AcDbEntity
  8
ARMATUR
390
0
  6
DURCHGEHEND
 62
     1
100
AcDbLine
 10
196.033188
 20
110.057175
 30
0.0
 11
196.104538
 21
109.721581
 31
0.0
  0
ARC
  5
397
100
AcDbEntity
  8
ARMATUR
390
0
  6
DURCHGEHEND
 62
     1
100
AcDbCircle
 10
196.593613
 20
109.825531
 30
0.0
 40
0.5
100
AcDbArc
 50
191.998993
 51
209.891998
  0
ARC
  5
398
100
AcDbEntity
  8
ARMATUR
390
0
  6
DURCHGEHEND
 62
     1
100
AcDbCircle
 10
200.995255
 20
110.761139
 30
0.0
 40
0.5
100
AcDbArc
 50
0.0
 51
12.001
  0
ARC
  5
399
100
AcDbEntity
  8
ARMATUR
390
0
  6
DURCHGEHEND
 62
     1
100
AcDbCircle
 10
200.995255
 20
110.761139
 30
0.0
 40
0.5
100
AcDbArc
 50
354.108002
 51
360.0
  0
LINE
  5
39A
100
AcDbEntity
  8
ARMATUR
390
0
  6
DURCHGEHEND
 62
     1
100
AcDbLine
 10
201.49263
 20
110.709793
 30
0.0
 11
196.16011
 21
109.576347
 31
0.0
  0
POLYLINE
  5
39B
100
AcDbEntity
  8
ARMATUR
390
0
  6
DURCHGEHEND
 62
     3
100
AcDb3dPolyline
 66
     1
 10
0.0
 20
0.0
 30
0.0
 70
    12
 75
     5
  0
VERTEX
  5
39C
100
AcDbEntity
  8
0
390
0
100
AcDbVertex
100
AcDb3dPolylineVertex
 10
189.324356
 20
116.474907
 30
0.0
 70
    48
  0
VERTEX
  5
39D
100
AcDbEntity
  8
0
390
0
100
AcDbVertex
100
AcDb3dPolylineVertex
 10
189.324356
 20
116.474907
 30
0.0
 70
    40
  0
VERTEX
  5
39E
100
AcDbEntity
  8
0
390
0
100
AcDbVertex
100
AcDb3dPolylineVertex
 10
189.556503
 20
115.724312
 30
0.0
 70
    40
  0
VERTEX
  5
39F
100
AcDbEntity
  8
0
390
0
100
AcDbVertex
100
AcDb3dPolylineVertex
 10
189.780182
 20
114.875526
 30
0.0
 70
    40
  0
VERTEX
  5
3A0
100
AcDbEntity
  8
0
390
0
100
AcDbVertex
100
AcDb3dPolylineVertex
 10
189.974197
 20
113.952011
 30
0.0
 70
    40
  0
VERTEX
  5
3A1
100
AcDbEntity
  8
0
390
0
100
AcDbVertex
100
AcDb3dPolylineVertex
 10
190.117386
 20
112.977219
 30
0.0
 70
    40
  0
VERTEX
  5
3A2
100
AcDbEntity
  8
0
390
0
100
AcDbVertex
100
AcDb3dPolylineVertex
 10
190.188522
 20
111.974586
 30
0.0
 70
    40
  0
VERTEX
  5
3A3
100
AcDbEntity
  8
0
390
0
100
AcDbVertex
100
AcDb3dPolylineVertex
 10
190.166428
 20
110.967575
 30
0.0
 70
    40
  0
VERTEX
  5
3A4
100
AcDbEntity
  8
0
390
0
100
AcDbVertex
100
AcDb3dPolylineVertex
 10
189.782974
 20
115.087532
 30
0.0
 70
    48
  0
VERTEX
  5
3A5
100
AcDbEntity
  8
0
390
0
100
AcDbVertex
100
AcDb3dPolylineVertex
 10
190.317978
 20
112.970345
 30
0.0
 70
    48
  0
VERTEX
  5
3A6
100
AcDbEntity
  8
0
390
0
100
AcDbVertex
100
AcDb3dPolylineVertex
 10
190.166428
 20
110.967575
 30
0.0
 70
    48
  0
SEQEND
  5
3A7
100
AcDbEntity
  8
0
390
0
  0
LINE
  5
3A8
100
AcDbEntity
  8
ARMATUR
390
0
  6
DURCHGEHEND
 62
     1
100
AcDbLine
 10
125.271416
 20
111.091675
 30
0.0
 11
136.180298
 21
111.091675
 31
0.0
  0
LINE
  5
3A9
100
AcDbEntity
  8
ARMATUR
390
0
  6
DURCHGEHEND
 62
     1
100
AcDbLine
 10
136.180298
 20
116.341675
 30
0.0
 11
125.271416
 21
116.341675
 31
0.0
  0
ARC
  5
3AA
100
AcDbEntity
  8
ARMATUR
390
0
  6
DURCHGEHEND
 62
     1
100
AcDbCircle
 10
136.180298
 20
107.466675
 30
0.0
 40
3.625
100
AcDbArc
 50
15.0
 51
90.0
  0
ARC
  5
3AB
100
AcDbEntity
  8
ARMATUR
390
0
  6
DURCHGEHEND
 62
     1
100
AcDbCircle
 10
136.180298
 20
107.466675
 30
0.0
 40
8.875
100
AcDbArc
 50
15.0
 51
90.0
  0
LINE
  5
3AC
100
AcDbEntity
  8
ARMATUR
390
0
  6
DURCHGEHEND
 62
     1
100
AcDbLine
 10
139.714111
 20
108.284149
 30
0.0
 11
140.296463
 21
106.110817
 31
0.0
  0
LINE
  5
3AD
100
AcDbEntity
  8
ARMATUR
390
0
  6
DURCHGEHEND
 62
     1
100
AcDbLine
 10
145.367584
 20
107.46962
 30
0.0
 11
144.785233
 21
109.642944
 31
0.0
  0
ARC
  5
3AE
100
AcDbEntity
  8
ARMATUR
390
0
  6
DURCHGEHEND
 62
     1
100
AcDbCircle
 10
139.834869
 20
108.316498
 30
0.0
 40
0.125
100
AcDbArc
 50
104.998001
 51
194.998001
  0
ARC
  5
3AF
100
AcDbEntity
  8
ARMATUR
390
0
  6
DURCHGEHEND
 62
     1
100
AcDbCircle
 10
144.66449
 20
109.610596
 30
0.0
 40
0.125
100
AcDbArc
 50
14.998
 51
104.998001
  0
ARC
  5
3B0
100
AcDbEntity
  8
ARMATUR
390
0
  6
DURCHGEHEND
 62
     1
100
AcDbCircle
 10
140.417206
 20
106.143173
 30
0.0
 40
0.125
100
AcDbArc
 50
194.998001
 51
284.997986
  0
ARC
  5
3B1
100
AcDbEntity
  8
ARMATUR
390
0
  6
DURCHGEHEND
 62
     1
100
AcDbCircle
 10
145.246826
 20
107.437263
 30
0.0
 40
0.125
100
AcDbArc
 50
0.0
 51
14.998
  0
ARC
  5
3B2
100
AcDbEntity
  8
ARMATUR
390
0
  6
DURCHGEHEND
 62
     1
100
AcDbCircle
 10
145.246826
 20
107.437263
 30
0.0
 40
0.125
100
AcDbArc
 50
284.997986
 51
360.0
  0
LINE
  5
3B3
100
AcDbEntity
  8
ARMATUR
390
0
  6
DURCHGEHEND
 62
     1
100
AcDbLine
 10
139.681763
 20
108.404892
 30
0.0
 11
144.752869
 21
109.763687
 31
0.0
  0
LINE
  5
3B4
100
AcDbEntity
  8
ARMATUR
390
0
  6
DURCHGEHEND
 62
     1
100
AcDbLine
 10
145.27919
 20
107.316528
 30
0.0
 11
140.449554
 21
106.02243
 31
0.0
  0
LINE
  5
3B5
100
AcDbEntity
  8
ACHSEN
390
0
  6
STRICHPUNKTIERT
 62
     4
100
AcDbLine
 10
121.500313
 20
107.787697
 30
0.0
 11
121.500313
 21
129.801529
 31
0.0
  0
LINE
  5
3B6
100
AcDbEntity
  8
ACHSEN
390
0
  6
STRICHPUNKTIERT
 62
     4
100
AcDbLine
 10
102.462288
 20
113.736542
 30
0.0
 11
137.715378
 21
113.736542
 31
0.0
  0
LINE
  5
3B7
100
AcDbEntity
  8
ACHSEN
390
0
  6
STRICHPUNKTIERT
 62
     4
100
AcDbLine
 10
141.910248
 20
110.169479
 30
0.0
 11
142.935822
 21
106.341942
 31
0.0
  0
LINE
  5
3B8
100
AcDbEntity
  8
ACHSEN
390
0
  6
STRICHPUNKTIERT
 62
     4
100
AcDbLine
 10
198.449387
 20
110.939262
 30
0.0
 11
199.273209
 21
107.063301
 31
0.0
  0
LINE
  5
3B9
100
AcDbEntity
  8
ACHSEN
390
0
  6
STRICHPUNKTIERT
 62
     4
100
AcDbLine
 10
187.932053
 20
113.886917
 30
0.0
 11
195.262497
 21
113.886917
 31
0.0
  0
TEXT
  5
3BA
100
AcDbEntity
  8
TEXT
390
0
100
AcDbText
 10
93.237976
 20
60.527916
 30
0.0
 40
7.055555
  1
1/2-14 NPT
 50
90.0
100
AcDbText
  0
TEXT
  5
3BB
100
AcDbEntity
  8
TEXT
390
0
100
AcDbText
 10
78.987961
 20
111.650322
 30
0.0
 40
7.055555
  1
55
 50
90.0
100
AcDbText
  0
LINE
  5
3BC
100
AcDbEntity
  8
TEXT
390
0
  6
DURCHGEHEND
 62
     9
100
AcDbLine
 10
73.952736
 20
110.903679
 30
0.0
 11
77.952751
 21
106.903679
 31
0.0
  0
CIRCLE
  5
3BD
100
AcDbEntity
  8
TEXT
390
0
  6
DURCHGEHEND
 62
     9
100
AcDbCircle
 10
75.934273
 20
108.922157
 30
0.0
 40
1.875
  0
TEXT
  5
3BE
100
AcDbEntity
  8
TEXT
390
0
100
AcDbText
 10
206.820267
 20
101.99408
 30
0.0
 40
7.055555
  1
G 3/4
 50
11.999999
100
AcDbText
  0
TEXT
  5
3BF
100
AcDbEntity
  8
TEXT
390
0
100
AcDbText
 10
116.825768
 20
137.501312
 30
0.0
 40
7.055555
  1
140
100
AcDbText
  0
TEXT
  5
3C0
100
AcDbEntity
  8
TEXT
390
0
100
AcDbText
 10
164.91629
 20
96.927536
 30
0.0
 40
7.055555
  1
28
 50
90.0
100
AcDbText
  0
TEXT
  5
3C1
100
AcDbEntity
  8
TEXT
390
0
100
AcDbText
 10
163.237564
 20
116.411949
 30
0.0
 40
7.055555
  1
58
 50
90.0
100
AcDbText
  0
TEXT
  5
3C2
100
AcDbEntity
  8
TEXT
390
0
100
AcDbText
 10
148.805832
 20
92.066208
 30
0.0
 40
7.055555
  1
15%%d
 50
43.000001
100
AcDbText
  0
LINE
  5
3C3
100
AcDbEntity
  8
BEMASSUNG
390
0
  6
DURCHGEHEND
 62
     3
100
AcDbLine
 10
165.420151
 20
129.647446
 30
0.0
 11
165.420151
 21
97.06739
 31
0.0
  0
LINE
  5
3C4
100
AcDbEntity
  8
BEMASSUNG
390
0
  6
DURCHGEHEND
 62
     3
100
AcDbLine
 10
143.8806
 20
113.886917
 30
0.0
 11
167.008011
 21
113.886917
 31
0.0
  0
LINE
  5
3C5
100
AcDbEntity
  8
BEMASSUNG
390
0
  6
DURCHGEHEND
 62
     3
100
AcDbLine
 10
144.471024
 20
106.737114
 30
0.0
 11
166.79213
 21
106.737114
 31
0.0
  0
LINE
  5
3C6
100
AcDbEntity
  8
BEMASSUNG
390
0
  6
DURCHGEHEND
 62
     3
100
AcDbLine
 10
164.20369
 20
129.310562
 30
0.0
 11
166.649826
 21
127.136688
 31
0.0
  0
LINE
  5
3C7
100
AcDbEntity
  8
BEMASSUNG
390
0
  6
DURCHGEHEND
 62
     3
100
AcDbLine
 10
164.236435
 20
107.780197
 30
0.0
 11
166.682571
 21
105.606323
 31
0.0
  0
LINE
  5
3C8
100
AcDbEntity
  8
BEMASSUNG
390
0
  6
DURCHGEHEND
 62
     3
100
AcDbLine
 10
107.517387
 20
137.807648
 30
0.0
 11
107.517387
 21
124.900185
 31
0.0
  0
LINE
  5
3C9
100
AcDbEntity
  8
BEMASSUNG
390
0
  6
DURCHGEHEND
 62
     3
100
AcDbLine
 10
128.522934
 20
128.109238
 30
0.0
 11
166.67482
 21
128.109238
 31
0.0
  0
LINE
  5
3CA
100
AcDbEntity
  8
BEMASSUNG
390
0
  6
DURCHGEHEND
 62
     3
100
AcDbLine
 10
106.562141
 20
135.121811
 30
0.0
 11
108.736015
 21
137.567947
 31
0.0
  0
LINE
  5
3CB
100
AcDbEntity
  8
BEMASSUNG
390
0
  6
DURCHGEHEND
 62
     3
100
AcDbLine
 10
141.412598
 20
135.08429
 30
0.0
 11
143.586487
 21
137.530426
 31
0.0
  0
LINE
  5
3CC
100
AcDbEntity
  8
BEMASSUNG
390
0
  6
DURCHGEHEND
 62
     3
100
AcDbLine
 10
106.350044
 20
136.290527
 30
0.0
 11
143.606094
 21
136.290527
 31
0.0
  0
LINE
  5
3CD
100
AcDbEntity
  8
BEMASSUNG
390
0
  6
DURCHGEHEND
 62
     3
100
AcDbLine
 10
141.221939
 20
106.872765
 30
0.0
 11
141.221939
 21
87.861824
 31
0.0
  0
LINE
  5
3CE
100
AcDbEntity
  8
BEMASSUNG
390
0
  6
DURCHGEHEND
 62
     3
100
AcDbLine
 10
142.481216
 20
90.536026
 30
0.0
 11
140.307327
 21
88.089874
 31
0.0
  0
LINE
  5
3CF
100
AcDbEntity
  8
BEMASSUNG
390
0
  6
DURCHGEHEND
 62
     3
100
AcDbLine
 10
148.32283
 20
91.754173
 30
0.0
 11
146.279984
 21
89.197601
 31
0.0
  0
LINE
  5
3D0
100
AcDbEntity
  8
BEMASSUNG
390
0
  6
DURCHGEHEND
 62
     3
100
AcDbLine
 10
164.265121
 20
114.826263
 30
0.0
 11
166.711258
 21
112.65239
 31
0.0
  0
LINE
  5
3D1
100
AcDbEntity
  8
BEMASSUNG
390
0
  6
DURCHGEHEND
 62
     3
100
AcDbLine
 10
143.035599
 20
105.978157
 30
0.0
 11
147.72876
 21
88.921188
 31
0.0
  0
LINE
  5
3D2
100
AcDbEntity
  8
BEMASSUNG
390
0
  6
DURCHGEHEND
 62
     3
100
AcDbLine
 10
142.544098
 20
127.262772
 30
0.0
 11
142.544098
 21
114.325729
 31
0.0
  0
LINE
  5
3D3
100
AcDbEntity
  8
BEMASSUNG
390
0
  6
DURCHGEHEND
 62
     3
100
AcDbLine
 10
142.544098
 20
137.611893
 30
0.0
 11
142.544098
 21
129.23526
 31
0.0
  0
ARC
  5
3D4
100
AcDbEntity
  8
BEMASSUNG
390
0
  6
DURCHGEHEND
 62
     3
100
AcDbCircle
 10
141.502243
 20
104.835976
 30
0.0
 40
15.523401
100
AcDbArc
 50
263.930389
 51
339.746399
  0
POLYLINE
  5
3D5
100
AcDbEntity
  8
BEMASSUNG
390
0
  6
DURCHGEHEND
 62
     3
100
AcDb3dPolyline
 66
     1
 10
0.0
 20
0.0
 30
0.0
 70
    12
 75
     5
  0
VERTEX
  5
3D6
100
AcDbEntity
  8
0
390
0
100
AcDbVertex
100
AcDb3dPolylineVertex
 10
126.637131
 20
139.867477
 30
0.0
 70
    48
  0
VERTEX
  5
3D7
100
AcDbEntity
  8
0
390
0
100
AcDbVertex
100
AcDb3dPolylineVertex
 10
126.637131
 20
139.867477
 30
0.0
 70
    40
  0
VERTEX
  5
3D8
100
AcDbEntity
  8
0
390
0
100
AcDbVertex
100
AcDb3dPolylineVertex
 10
126.637131
 20
139.867477
 30
0.0
 70
    40
  0
VERTEX
  5
3D9
100
AcDbEntity
  8
0
390
0
100
AcDbVertex
100
AcDb3dPolylineVertex
 10
126.637131
 20
139.867477
 30
0.0
 70
    48
  0
VERTEX
  5
3DA
100
AcDbEntity
  8
0
390
0
100
AcDbVertex
100
AcDb3dPolylineVertex
 10
126.637131
 20
139.867477
 30
0.0
 70
    48
  0
VERTEX
  5
3DB
100
AcDbEntity
  8
0
390
0
100
AcDbVertex
100
AcDb3dPolylineVertex
 10
126.637131
 20
139.867477
 30
0.0
 70
    48
  0
SEQEND
  5
3DC
100
AcDbEntity
  8
0
390
0
  0
LINE
  5
3DD
100
AcDbEntity
  8
BEMASSUNG
390
0
  6
DURCHGEHEND
 62
     3
100
AcDbLine
 10
103.142334
 20
116.278038
 30
0.0
 11
93.26297
 21
116.278038
 31
0.0
  0
LINE
  5
3DE
100
AcDbEntity
  8
BEMASSUNG
390
0
  6
DURCHGEHEND
 62
     3
100
AcDbLine
 10
102.967987
 20
111.230049
 30
0.0
 11
93.088608
 21
111.230049
 31
0.0
  0
LINE
  5
3DF
100
AcDbEntity
  8
BEMASSUNG
390
0
  6
DURCHGEHEND
 62
     3
100
AcDbLine
 10
94.748978
 20
117.424156
 30
0.0
 11
94.748978
 21
61.024696
 31
0.0
  0
LINE
  5
3E0
100
AcDbEntity
  8
BEMASSUNG
390
0
  6
DURCHGEHEND
 62
     3
100
AcDbLine
 10
80.253372
 20
121.985924
 30
0.0
 11
80.253372
 21
105.84214
 31
0.0
  0
LINE
  5
3E1
100
AcDbEntity
  8
BEMASSUNG
390
0
  6
DURCHGEHEND
 62
     3
100
AcDbLine
 10
106.043747
 20
120.752159
 30
0.0
 11
78.97963
 21
120.752159
 31
0.0
  0
LINE
  5
3E2
100
AcDbEntity
  8
BEMASSUNG
390
0
  6
DURCHGEHEND
 62
     3
100
AcDbLine
 10
93.453003
 20
112.42112
 30
0.0
 11
95.899155
 21
110.247231
 31
0.0
  0
LINE
  5
3E3
100
AcDbEntity
  8
BEMASSUNG
390
0
  6
DURCHGEHEND
 62
     3
100
AcDbLine
 10
93.453003
 20
117.391701
 30
0.0
 11
95.899155
 21
115.217812
 31
0.0
  0
LINE
  5
3E4
100
AcDbEntity
  8
BEMASSUNG
390
0
  6
DURCHGEHEND
 62
     3
100
AcDbLine
 10
78.96608
 20
121.937447
 30
0.0
 11
81.412231
 21
119.763557
 31
0.0
  0
LINE
  5
3E5
100
AcDbEntity
  8
BEMASSUNG
390
0
  6
DURCHGEHEND
 62
     3
100
AcDbLine
 10
78.96608
 20
108.245979
 30
0.0
 11
81.412231
 21
106.07209
 31
0.0
  0
LINE
  5
3E6
100
AcDbEntity
  8
BEMASSUNG
390
0
  6
DURCHGEHEND
 62
     3
100
AcDbLine
 10
93.395187
 20
106.999641
 30
0.0
 11
78.937134
 21
106.999641
 31
0.0
  0
LINE
  5
3E7
100
AcDbEntity
  8
BEMASSUNG
390
0
  6
DURCHGEHEND
 62
     3
100
AcDbLine
 10
106.339691
 20
106.999641
 30
0.0
 11
95.914398
 21
106.999641
 31
0.0
  0
LINE
  5
3E8
100
AcDbEntity
  8
BEMASSUNG
390
0
  6
DURCHGEHEND
 62
     3
100
AcDbLine
 10
196.322128
 20
106.238434
 30
0.0
 11
198.271072
 21
97.06929
 31
0.0
  0
LINE
  5
3E9
100
AcDbEntity
  8
BEMASSUNG
390
0
  6
DURCHGEHEND
 62
     3
100
AcDbLine
 10
202.793442
 20
107.617844
 30
0.0
 11
204.711075
 21
98.596031
 31
0.0
  0
LINE
  5
3EA
100
AcDbEntity
  8
BEMASSUNG
390
0
  6
DURCHGEHEND
 62
     3
100
AcDbLine
 10
227.984848
 20
105.026245
 30
0.0
 11
196.735489
 21
98.383949
 31
0.0
  0
LINE
  5
3EB
100
AcDbEntity
  8
BEMASSUNG
390
0
  6
DURCHGEHEND
 62
     3
100
AcDbLine
 10
197.178055
 20
97.069618
 30
0.0
 11
198.64476
 21
99.995033
 31
0.0
  0
LINE
  5
3EC
100
AcDbEntity
  8
BEMASSUNG
390
0
  6
DURCHGEHEND
 62
     3
100
AcDbLine
 10
203.642868
 20
98.489922
 30
0.0
 11
205.109573
 21
101.415337
 31
0.0
  0
LINE
  5
3ED
100
AcDbEntity
  8
WAND
390
0
  6
DURCHGEHEND
 62
     6
100
AcDbLine
 10
107.517387
 20
103.377052
 30
0.0
 11
107.517387
 21
123.708458
 31
0.0
  0
ENDSEC
  0
SECTION
  2
OBJECTS
  0
DICTIONARY
  5
19
100
AcDbDictionary
280
     0
281
     1
  3
ACAD_GROUP
350
1A
  3
ACAD_MLINESTYLE
350
1B
  3
ACAD_LAYOUT
350
1E
  3
ACAD_PLOTSETTINGS
350
22
  3
ACAD_PLOTSTYLENAME
350
1F
  3
ACAD_WIPEOUT_VARS
350
23
  0
DICTIONARY
  5
1A
102
{ACAD_REACTORS
330
19
102
}
100
AcDbDictionary
280
     0
281
     1
  0
DICTIONARY
  5
1B
102
{ACAD_REACTORS
330
19
102
}
100
AcDbDictionary
280
     0
281
     1
  3
Standard
350
1C
  0
MLINESTYLE
  5
1C
102
{ACAD_REACTORS
330
1B
102
}
100
AcDbMlineStyle
  2
Standard
 70
     0
  3

 62
     0
 51
90.0
 52
90.0
 71
     2
 49
0.5
 62
   256
  6
ByLayer
 49
-0.5
 62
   256
  6
ByLayer
  0
ACDBDICTIONARYWDFLT
  5
1F
102
{ACAD_REACTORS
330
19
102
}
100
AcDbDictionary
281
     1
  3
Normal
350
1D
100
AcDbDictionaryWithDefault
340
1D
  0
ACDBPLACEHOLDER
  5
1D
102
{ACAD_REACTORS
330
1F
102
}
  0
LAYOUT
  5
20
102
{ACAD_REACTORS
330
1E
102
}
100
AcDbPlotSettings
  1

  2

  4

  6

 40
0.0
 41
0.0
 42
0.0
 43
0.0
 44
0.0
 45
0.0
 46
0.0
 47
0.0
 48
0.0
 49
0.0
140
0.0
141
0.0
142
1.0
143
1.0
 70
  1024
 72
     0
 73
     0
 74
     0
  7

 75
     0
147
1.0
148
0.0
149
0.0
100
AcDbLayout
  1
Model
 70
     0
 71
     0
 10
0.0
 20
0.0
 11
0.0
 21
0.0
 12
0.0
 22
0.0
 32
0.0
 14
0.0
 24
0.0
 34
0.0
 15
0.0
 25
0.0
 35
0.0
146
0.0
 13
0.0
 23
0.0
 33
0.0
 16
0.0
 26
0.0
 36
0.0
 17
0.0
 27
0.0
 37
0.0
 76
     0
330
A
331
0
345
0
346
0
  0
LAYOUT
  5
21
102
{ACAD_REACTORS
330
1E
102
}
100
AcDbPlotSettings
  1

  2

  4

  6

 40
0.0
 41
0.0
 42
0.0
 43
0.0
 44
0.0
 45
0.0
 46
0.0
 47
0.0
 48
0.0
 49
0.0
140
0.0
141
0.0
142
1.0
143
1.0
 70
     0
 72
     0
 73
     0
 74
     0
  7

 75
     0
147
1.0
148
0.0
149
0.0
100
AcDbLayout
  1
Layout1
 70
     0
 71
     0
 10
0.0
 20
0.0
 11
0.0
 21
0.0
 12
0.0
 22
0.0
 32
0.0
 14
0.0
 24
0.0
 34
0.0
 15
0.0
 25
0.0
 35
0.0
146
0.0
 13
0.0
 23
0.0
 33
0.0
 16
0.0
 26
0.0
 36
0.0
 17
0.0
 27
0.0
 37
0.0
 76
     0
330
B
331
0
345
0
346
0
  0
DICTIONARY
  5
1E
102
{ACAD_REACTORS
330
19
102
}
100
AcDbDictionary
280
     0
281
     1
  3
Layout1
350
21
  3
Model
350
20
  0
DICTIONARY
  5
22
102
{ACAD_REACTORS
330
19
102
}
100
AcDbDictionary
280
     0
281
     1
  0
WIPEOUTVARIABLES
  5
23
100
AcDbWipeoutVariables
 70
     1
  0
ENDSEC
  0
EOF
