  0
SECTION
  2
HEADER
  9
$ACADVER
  1
AC1015
  9
$ACADMAINTVER
 70
     6
  9
$DWGCODEPAGE
  3
ANSI_1252
  9
$INSBASE
 10
0.0
 20
0.0
 30
0.0
  9
$EXTMIN
 10
36.99173
 20
4.131874
 30
0.0
  9
$EXTMAX
 10
293.034637
 20
200.531586
 30
0.0
  9
$LIMMIN
 10
0.0
 20
0.0
  9
$LIMMAX
 10
0.0
 20
0.0
  9
$ORTHOMODE
 70
     0
  9
$REGENMODE
 70
     1
  9
$FILLMODE
 70
     1
  9
$QTEXTMODE
 70
     0
  9
$MIRRTEXT
 70
     1
  9
$LTSCALE
 40
1.0
  9
$ATTMODE
 70
     1
  9
$TEXTSIZE
 40
0.2
  9
$TRACEWID
 40
0.05
  9
$TEXTSTYLE
  7
Standard
  9
$CLAYER
  8
0
  9
$CELTYPE
  6
Continuous
  9
$CECOLOR
 62
   256
  9
$CELTSCALE
 40
1.0
  9
$DISPSILH
 70
     0
  9
$DIMSCALE
 40
1.0
  9
$DIMASZ
 40
0.18
  9
$DIMEXO
 40
0.0625
  9
$DIMDLI
 40
0.38
  9
$DIMRND
 40
0.0
  9
$DIMDLE
 40
0.0
  9
$DIMEXE
 40
0.18
  9
$DIMTP
 40
0.0
  9
$DIMTM
 40
0.0
  9
$DIMTXT
 40
0.18
  9
$DIMCEN
 40
0.09
  9
$DIMTSZ
 40
0.0
  9
$DIMTOL
 70
     0
  9
$DIMLIM
 70
     0
  9
$DIMTIH
 70
     1
  9
$DIMTOH
 70
     1
  9
$DIMSE1
 70
     0
  9
$DIMSE2
 70
     0
  9
$DIMTAD
 70
     0
  9
$DIMZIN
 70
     0
  9
$DIMBLK
  1

  9
$DIMASO
 70
     1
  9
$DIMSHO
 70
     1
  9
$DIMPOST
  1

  9
$DIMAPOST
  1

  9
$DIMALT
 70
     0
  9
$DIMALTD
 70
     2
  9
$DIMALTF
 40
25.4
  9
$DIMLFAC
 40
1.0
  9
$DIMTOFL
 70
     0
  9
$DIMTVP
 40
0.0
  9
$DIMTIX
 70
     0
  9
$DIMSOXD
 70
     0
  9
$DIMSAH
 70
     0
  9
$DIMBLK1
  1

  9
$DIMBLK2
  1

  9
$DIMSTYLE
  2
Standard
  9
$DIMCLRD
 70
     0
  9
$DIMCLRE
 70
     0
  9
$DIMCLRT
 70
     0
  9
$DIMTFAC
 40
1.0
  9
$DIMGAP
 40
0.09
  9
$DIMJUST
 70
     0
  9
$DIMSD1
 70
     0
  9
$DIMSD2
 70
     0
  9
$DIMTOLJ
 70
     1
  9
$DIMTZIN
 70
     0
  9
$DIMALTZ
 70
     0
  9
$DIMALTTZ
 70
     0
  9
$DIMUPT
 70
     0
  9
$DIMDEC
 70
     4
  9
$DIMTDEC
 70
     4
  9
$DIMALTU
 70
     2
  9
$DIMALTTD
 70
     2
  9
$DIMTXSTY
  7
Standard
  9
$DIMAUNIT
 70
     0
  9
$DIMADEC
 70
     0
  9
$DIMALTRND
 40
0.0
  9
$DIMAZIN
 70
     0
  9
$DIMDSEP
 70
     0
  9
$DIMATFIT
 70
     3
  9
$DIMFRAC
 70
     0
  9
$DIMLDRBLK
  1

  9
$DIMLUNIT
 70
     2
  9
$DIMLWD
 70
     0
  9
$DIMLWE
 70
     0
  9
$DIMTMOVE
 70
     0
  9
$LUNITS
 70
     2
  9
$LUPREC
 70
     4
  9
$SKETCHINC
 40
0.1
  9
$FILLETRAD
 40
0.0
  9
$AUNITS
 70
     0
  9
$AUPREC
 70
     0
  9
$MENU
  1
acad
  9
$ELEVATION
 40
0.0
  9
$PELEVATION
 40
0.0
  9
$THICKNESS
 40
0.0
  9
$LIMCHECK
 70
     0
  9
$CHAMFERA
 40
0.0
  9
$CHAMFERB
 40
0.0
  9
$CHAMFERC
 40
0.0
  9
$CHAMFERD
 40
0.0
  9
$SKPOLY
 70
     0
  9
$TDCREATE
 40
0.000000000
  9
$TDUCREATE
 40
0.000000000
  9
$TDUPDATE
 40
0.000000000
  9
$TDUUPDATE
 40
0.000000000
  9
$TDINDWG
 40
0.0000000000
  9
$TDUSRTIMER
 40
0.0000000000
  9
$USRTIMER
 70
     1
  9
$ANGBASE
 50
0.0
  9
$ANGDIR
 70
     0
  9
$PDMODE
 70
     0
  9
$PDSIZE
 40
0.0
  9
$PLINEWID
 40
0.0
  9
$SPLFRAME
 70
     0
  9
$SPLINETYPE
 70
     6
  9
$SPLINESEGS
 70
     8
  9
$HANDSEED
  5
276
  9
$SURFTAB1
 70
     6
  9
$SURFTAB2
 70
     6
  9
$SURFTYPE
 70
     6
  9
$SURFU
 70
     6
  9
$SURFV
 70
     6
  9
$UCSBASE
  2

  9
$UCSNAME
  2

  9
$UCSORG
 10
0.0
 20
0.0
 30
0.0
  9
$UCSXDIR
 10
1.0
 20
0.0
 30
0.0
  9
$UCSYDIR
 10
0.0
 20
1.0
 30
0.0
  9
$UCSORTHOREF
  2

  9
$UCSORTHOVIEW
 70
     0
  9
$UCSORGTOP
 10
0.0
 20
0.0
 30
0.0
  9
$UCSORGBOTTOM
 10
0.0
 20
0.0
 30
0.0
  9
$UCSORGLEFT
 10
0.0
 20
0.0
 30
0.0
  9
$UCSORGRIGHT
 10
0.0
 20
0.0
 30
0.0
  9
$UCSORGFRONT
 10
0.0
 20
0.0
 30
0.0
  9
$UCSORGBACK
 10
0.0
 20
0.0
 30
0.0
  9
$PUCSBASE
  2

  9
$PUCSNAME
  2

  9
$PUCSORG
 10
0.0
 20
0.0
 30
0.0
  9
$PUCSXDIR
 10
1.0
 20
0.0
 30
0.0
  9
$PUCSYDIR
 10
0.0
 20
1.0
 30
0.0
  9
$PUCSORTHOREF
  2

  9
$PUCSORTHOVIEW
 70
     0
  9
$PUCSORGTOP
 10
0.0
 20
0.0
 30
0.0
  9
$PUCSORGBOTTOM
 10
0.0
 20
0.0
 30
0.0
  9
$PUCSORGLEFT
 10
0.0
 20
0.0
 30
0.0
  9
$PUCSORGRIGHT
 10
0.0
 20
0.0
 30
0.0
  9
$PUCSORGFRONT
 10
0.0
 20
0.0
 30
0.0
  9
$PUCSORGBACK
 10
0.0
 20
0.0
 30
0.0
  9
$USERI1
 70
     0
  9
$USERI2
 70
     0
  9
$USERI3
 70
     0
  9
$USERI4
 70
     0
  9
$USERI5
 70
     0
  9
$USERR1
 40
0.0
  9
$USERR2
 40
0.0
  9
$USERR3
 40
0.0
  9
$USERR4
 40
0.0
  9
$USERR5
 40
0.0
  9
$WORLDVIEW
 70
     1
  9
$SHADEDGE
 70
     3
  9
$SHADEDIF
 70
    70
  9
$TILEMODE
 70
     1
  9
$MAXACTVP
 70
    16
  9
$PINSBASE
 10
0.0
 20
0.0
 30
0.0
  9
$PLIMCHECK
 70
     0
  9
$PEXTMIN
 10
1.000000E+20
 20
1.000000E+20
 30
1.000000E+20
  9
$PEXTMAX
 10
-1.000000E+20
 20
-1.000000E+20
 30
-1.000000E+20
  9
$PLIMMIN
 10
0.0
 20
0.0
  9
$PLIMMAX
 10
12.0
 20
9.0
  9
$UNITMODE
 70
     0
  9
$VISRETAIN
 70
     0
  9
$PLINEGEN
 70
     1
  9
$PSLTSCALE
 70
     0
  9
$TREEDEPTH
 70
  3020
  9
$CMLSTYLE
  2
Standard
  9
$CMLJUST
 70
     0
  9
$CMLSCALE
 40
1.0
  9
$PROXYGRAPHICS
 70
     0
  9
$MEASUREMENT
 70
     0
  9
$CELWEIGHT
370
     0
  9
$ENDCAPS
280
     0
  9
$JOINSTYLE
280
     0
  9
$LWDISPLAY
290
     0
  9
$INSUNITS
 70
     0
  9
$HYPERLINKBASE
  1

  9
$STYLESHEET
  1

  9
$XEDIT
290
     1
  9
$CEPSNTYPE
380
     0
  9
$PSTYLEMODE
290
     1
  9
$FINGERPRINTGUID
  2

  9
$VERSIONGUID
  2

  9
$EXTNAMES
290
     1
  9
$PSVPSCALE
 40
0.0
  0
ENDSEC
  0
SECTION
  2
CLASSES
  0
CLASS
  1
LWPOLYLINE
  2
AcDbPolyline
  3
AutoCAD 2000
 90
        0
280
     0
281
     1
  0
CLASS
  1
IMAGE
  2
AcDbRasterImage
  3
ISM
 90
      127
280
     0
281
     1
  0
CLASS
  1
OLE2FRAME
  2
AcDbOle2Frame
  3
AutoCAD 2000
 90
        0
280
     0
281
     1
  0
CLASS
  1
HATCH
  2
AcDbHatch
  3
AutoCAD 2000
 90
        0
280
     0
281
     1
  0
CLASS
  1
DICTIONARYVAR
  2
AcDbDictionaryVar
  3
AutoCAD 2000
 90
        0
280
     0
281
     0
  0
CLASS
  1
RASTERVARIABLES
  2
AcDbRasterVariables
  3
ISM
 90
        0
280
     0
281
     0
  0
CLASS
  1
IMAGEDEF
  2
AcDbRasterImageDef
  3
ISM
 90
        0
280
     0
281
     0
  0
CLASS
  1
IMAGEDEF_REACTOR
  2
AcDbRasterImageDefReactor
  3
ISM
 90
        1
280
     0
281
     0
  0
CLASS
  1
IDBUFFER
  2
AcDbIdBuffer
  3
AutoCAD 2000
 90
        0
280
     0
281
     0
  0
CLASS
  1
SPATIAL_FILTER
  2
AcDbSpatialFilter
  3
AutoCAD 2000
 90
        0
280
     0
281
     0
  0
CLASS
  1
XRECORD
  2
AcDbXrecord
  3
AutoCAD 2000
 90
        0
280
     0
281
     0
  0
CLASS
  1
SORTENTSTABLE
  2
AcDbSortentsTable
  3
AutoCAD 2000
 90
        0
280
     0
281
     0
  0
CLASS
  1
LAYER_INDEX
  2
AcDbLayerIndex
  3
AutoCAD 2000
 90
        0
280
     0
281
     0
  0
CLASS
  1
SPATIAL_INDEX
  2
AcDbSpatialIndex
  3
AutoCAD 2000
 90
        0
280
     0
281
     0
  0
CLASS
  1
OBJECT_PTR
  2
CAseDLPNTableRecord
  3
"ASE-LPNTableRecord"
 90
        1
280
     0
281
     0
  0
CLASS
  1
LAYOUT
  2
AcDbLayout
  3
AutoCAD 2000
 90
        0
280
     0
281
     0
  0
CLASS
  1
PLOTSETTINGS
  2
AcDbPlotSettings
  3
AutoCAD 2000
 90
        0
280
     0
281
     0
  0
CLASS
  1
ACDBDICTIONARYWDFLT
  2
AcDbDictionaryWithDefault
  3
AutoCAD 2000
 90
        0
280
     0
281
     0
  0
CLASS
  1
ACDBPLACEHOLDER
  2
AcDbPlaceHolder
  3
AutoCAD 2000
 90
        0
280
     0
281
     0
  0
CLASS
  1
VBA_PROJECT
  2
AcDbVbaProject
  3
acadvba
 90
        0
280
     0
281
     0
  0
CLASS
  1
WIPEOUT
  2
AcDbWipeout
  3
WipeOut|AutoCAD Express Tool|expresstools@autodesk.com
 90
      127
280
     0
281
     1
  0
CLASS
  1
WIPEOUTVARIABLES
  2
AcDbWipeoutVariables
  3
WipeOut|AutoCAD Express Tool|expresstools@autodesk.com
 90
        0
280
     0
281
     0
  0
CLASS
  1
RTEXT
  2
RText
  3
RText|AutoCAD Express Tool|expresstools@autodesk.com
 90
        0
280
     0
281
     1
  0
CLASS
  1
ARCALIGNEDTEXT
  2
AcDbArcAlignedText
  3
ATEXT|AutoCAD Express Tool|expresstools@autodesk.com
 90
        0
280
     0
281
     1
  0
ENDSEC
  0
SECTION
  2
TABLES
  0
TABLE
  2
VPORT
  5
7
100
AcDbSymbolTable
 70
     1
  0
VPORT
  5
15
100
AcDbSymbolTableRecord
100
AcDbViewportTableRecord
  2
*ACTIVE
 70
     0
 10
0.0
 20
0.0
 11
1.0
 21
1.0
 12
6.591288
 22
4.579184
 13
0.0
 23
0.0
 14
1.0
 24
1.0
 15
0.0
 25
0.0
 16
0.0
 26
0.0
 36
1.0
 17
0.0
 27
0.0
 37
0.0
 40
9.158369
 41
0.688564
 42
50.0
 43
0.0
 44
0.0
 50
0.0
 51
0.0
 71
     0
 72
   100
 73
     1
 74
     1
 75
     0
 76
     0
 77
     0
 78
     0
281
     0
 65
     0
110
0.0
120
0.0
130
0.0
111
1.0
121
0.0
131
0.0
112
0.0
122
1.0
132
0.0
345
0
346
0
 79
     0
146
0.0
  0
ENDTAB
  0
TABLE
  2
LTYPE
  5
4
100
AcDbSymbolTable
 70
   204
  0
LTYPE
  5
11
100
AcDbSymbolTableRecord
100
AcDbLinetypeTableRecord
  2
ByBlock
 70
    64
  3

 72
    65
 73
     0
 40
0.0
  0
LTYPE
  5
12
100
AcDbSymbolTableRecord
100
AcDbLinetypeTableRecord
  2
ByLayer
 70
    64
  3

 72
    65
 73
     0
 40
0.0
  0
LTYPE
  5
13
100
AcDbSymbolTableRecord
100
AcDbLinetypeTableRecord
  2
Continuous
 70
    64
  3
Solid line
 72
    65
 73
     0
 40
0.0
  0
LTYPE
  5
25
100
AcDbSymbolTableRecord
100
AcDbLinetypeTableRecord
  2
DURCHGEHEND
 70
    64
  3

 72
    65
 73
     0
 40
0.0
  0
LTYPE
  5
26
100
AcDbSymbolTableRecord
100
AcDbLinetypeTableRecord
  2
GESTRICHELT
 70
    64
  3

 72
    65
 73
     2
 40
10.0
 49
5.0
 74
     0
 49
-5.0
 74
     0
  0
LTYPE
  5
27
100
AcDbSymbolTableRecord
100
AcDbLinetypeTableRecord
  2
MITTELLINIE
 70
    64
  3

 72
    65
 73
     4
 40
20.0
 49
10.0
 74
     0
 49
-2.0
 74
     0
 49
5.0
 74
     0
 49
-3.0
 74
     0
  0
LTYPE
  5
28
100
AcDbSymbolTableRecord
100
AcDbLinetypeTableRecord
  2
PUNKTIERT
 70
    64
  3

 72
    65
 73
     2
 40
0.25
 49
0.0
 74
     0
 49
-0.25
 74
     0
  0
LTYPE
  5
29
100
AcDbSymbolTableRecord
100
AcDbLinetypeTableRecord
  2
STRICHPUNKTIERT
 70
    64
  3

 72
    65
 73
     4
 40
8.0
 49
5.0
 74
     0
 49
-1.0
 74
     0
 49
1.0
 74
     0
 49
-1.0
 74
     0
  0
LTYPE
  5
2A
100
AcDbSymbolTableRecord
100
AcDbLinetypeTableRecord
  2
STRICH-PUNKT-PUNKT
 70
    64
  3

 72
    65
 73
     6
 40
10.0
 49
5.0
 74
     0
 49
-1.0
 74
     0
 49
1.0
 74
     0
 49
-1.0
 74
     0
 49
1.0
 74
     0
 49
-1.0
 74
     0
  0
LTYPE
  5
2B
100
AcDbSymbolTableRecord
100
AcDbLinetypeTableRecord
  2
STARTPFEIL
 70
    64
  3

 72
    65
 73
     0
 40
0.0
  0
LTYPE
  5
2C
100
AcDbSymbolTableRecord
100
AcDbLinetypeTableRecord
  2
ENDPFEIL
 70
    64
  3

 72
    65
 73
     0
 40
0.0
  0
LTYPE
  5
2D
100
AcDbSymbolTableRecord
100
AcDbLinetypeTableRecord
  2
ENDPUNKT
 70
    64
  3

 72
    65
 73
     0
 40
0.0
  0
LTYPE
  5
2E
100
AcDbSymbolTableRecord
100
AcDbLinetypeTableRecord
  2
PFEIL
 70
    64
  3

 72
    65
 73
     0
 40
0.0
  0
LTYPE
  5
2F
100
AcDbSymbolTableRecord
100
AcDbLinetypeTableRecord
  2
STITCHLINE
 70
    64
  3

 72
    65
 73
     2
 40
2.0
 49
1.0
 74
     0
 49
-1.0
 74
     0
  0
LTYPE
  5
30
100
AcDbSymbolTableRecord
100
AcDbLinetypeTableRecord
  2
MITTELLINIE_2
 70
    64
  3

 72
    65
 73
     4
 40
17.0
 49
10.0
 74
     0
 49
-2.0
 74
     0
 49
3.0
 74
     0
 49
-2.0
 74
     0
  0
LTYPE
  5
31
100
AcDbSymbolTableRecord
100
AcDbLinetypeTableRecord
  2
VERDECKTE_LINIE
 70
    64
  3

 72
    65
 73
     2
 40
4.0
 49
2.0
 74
     0
 49
-2.0
 74
     0
  0
LTYPE
  5
32
100
AcDbSymbolTableRecord
100
AcDbLinetypeTableRecord
  2
PHANTOMLINIE
 70
    64
  3

 72
    65
 73
     6
 40
21.0
 49
10.0
 74
     0
 49
-2.0
 74
     0
 49
3.0
 74
     0
 49
-1.0
 74
     0
 49
3.0
 74
     0
 49
-2.0
 74
     0
  0
LTYPE
  5
33
100
AcDbSymbolTableRecord
100
AcDbLinetypeTableRecord
  2
BRUCHLINIE_1
 70
    64
  3

 72
    65
 73
     0
 40
0.0
  0
LTYPE
  5
34
100
AcDbSymbolTableRecord
100
AcDbLinetypeTableRecord
  2
BRUCHLINIE_2
 70
    64
  3

 72
    65
 73
     0
 40
0.0
  0
LTYPE
  5
35
100
AcDbSymbolTableRecord
100
AcDbLinetypeTableRecord
  2
_DURCHGEHEND
 70
    64
  3

 72
    65
 73
     0
 40
0.0
  0
LTYPE
  5
36
100
AcDbSymbolTableRecord
100
AcDbLinetypeTableRecord
  2
_GESTRICHELT
 70
    64
  3

 72
    65
 73
     2
 40
10.0
 49
5.0
 74
     0
 49
-5.0
 74
     0
  0
LTYPE
  5
37
100
AcDbSymbolTableRecord
100
AcDbLinetypeTableRecord
  2
_MITTELLINIE
 70
    64
  3

 72
    65
 73
     4
 40
20.0
 49
10.0
 74
     0
 49
-2.0
 74
     0
 49
5.0
 74
     0
 49
-3.0
 74
     0
  0
LTYPE
  5
38
100
AcDbSymbolTableRecord
100
AcDbLinetypeTableRecord
  2
_PUNKTIERT
 70
    64
  3

 72
    65
 73
     2
 40
0.25
 49
0.0
 74
     0
 49
-0.25
 74
     0
  0
LTYPE
  5
39
100
AcDbSymbolTableRecord
100
AcDbLinetypeTableRecord
  2
_STRICHPUNKTIERT
 70
    64
  3

 72
    65
 73
     4
 40
8.0
 49
5.0
 74
     0
 49
-1.0
 74
     0
 49
1.0
 74
     0
 49
-1.0
 74
     0
  0
LTYPE
  5
3A
100
AcDbSymbolTableRecord
100
AcDbLinetypeTableRecord
  2
_STRICH-PUNKT-PUNKT
 70
    64
  3

 72
    65
 73
     6
 40
10.0
 49
5.0
 74
     0
 49
-1.0
 74
     0
 49
1.0
 74
     0
 49
-1.0
 74
     0
 49
1.0
 74
     0
 49
-1.0
 74
     0
  0
LTYPE
  5
3B
100
AcDbSymbolTableRecord
100
AcDbLinetypeTableRecord
  2
_STARTPFEIL
 70
    64
  3

 72
    65
 73
     0
 40
0.0
  0
LTYPE
  5
3C
100
AcDbSymbolTableRecord
100
AcDbLinetypeTableRecord
  2
_ENDPFEIL
 70
    64
  3

 72
    65
 73
     0
 40
0.0
  0
LTYPE
  5
3D
100
AcDbSymbolTableRecord
100
AcDbLinetypeTableRecord
  2
_ENDPUNKT
 70
    64
  3

 72
    65
 73
     0
 40
0.0
  0
LTYPE
  5
3E
100
AcDbSymbolTableRecord
100
AcDbLinetypeTableRecord
  2
_PFEIL
 70
    64
  3

 72
    65
 73
     0
 40
0.0
  0
LTYPE
  5
3F
100
AcDbSymbolTableRecord
100
AcDbLinetypeTableRecord
  2
_STITCHLINE
 70
    64
  3

 72
    65
 73
     2
 40
6.0
 49
3.0
 74
     0
 49
-3.0
 74
     0
  0
LTYPE
  5
40
100
AcDbSymbolTableRecord
100
AcDbLinetypeTableRecord
  2
_MITTELLINIE_2
 70
    64
  3

 72
    65
 73
     4
 40
17.0
 49
10.0
 74
     0
 49
-2.0
 74
     0
 49
3.0
 74
     0
 49
-2.0
 74
     0
  0
LTYPE
  5
41
100
AcDbSymbolTableRecord
100
AcDbLinetypeTableRecord
  2
_VERDECKTE_LINIE
 70
    64
  3

 72
    65
 73
     2
 40
4.0
 49
2.0
 74
     0
 49
-2.0
 74
     0
  0
LTYPE
  5
42
100
AcDbSymbolTableRecord
100
AcDbLinetypeTableRecord
  2
_PHANTOMLINIE
 70
    64
  3

 72
    65
 73
     6
 40
21.0
 49
10.0
 74
     0
 49
-2.0
 74
     0
 49
3.0
 74
     0
 49
-1.0
 74
     0
 49
3.0
 74
     0
 49
-2.0
 74
     0
  0
LTYPE
  5
43
100
AcDbSymbolTableRecord
100
AcDbLinetypeTableRecord
  2
_BRUCHLINIE_1
 70
    64
  3

 72
    65
 73
     0
 40
0.0
  0
LTYPE
  5
44
100
AcDbSymbolTableRecord
100
AcDbLinetypeTableRecord
  2
_BRUCHLINIE_2
 70
    64
  3

 72
    65
 73
     0
 40
0.0
  0
LTYPE
  5
45
100
AcDbSymbolTableRecord
100
AcDbLinetypeTableRecord
  2
CONTINUOUS
 70
    64
  3

 72
    65
 73
     0
 40
0.0
  0
LTYPE
  5
46
100
AcDbSymbolTableRecord
100
AcDbLinetypeTableRecord
  2
_DURCHGEHEND
 70
    64
  3

 72
    65
 73
     0
 40
0.0
  0
LTYPE
  5
47
100
AcDbSymbolTableRecord
100
AcDbLinetypeTableRecord
  2
_GESTRICHELT
 70
    64
  3

 72
    65
 73
     2
 40
10.0
 49
5.0
 74
     0
 49
-5.0
 74
     0
  0
LTYPE
  5
48
100
AcDbSymbolTableRecord
100
AcDbLinetypeTableRecord
  2
_MITTELLINIE
 70
    64
  3

 72
    65
 73
     4
 40
20.0
 49
10.0
 74
     0
 49
-2.0
 74
     0
 49
5.0
 74
     0
 49
-3.0
 74
     0
  0
LTYPE
  5
49
100
AcDbSymbolTableRecord
100
AcDbLinetypeTableRecord
  2
_PUNKTIERT
 70
    64
  3

 72
    65
 73
     2
 40
0.25
 49
0.0
 74
     0
 49
-0.25
 74
     0
  0
LTYPE
  5
4A
100
AcDbSymbolTableRecord
100
AcDbLinetypeTableRecord
  2
_STRICHPUNKTIERT
 70
    64
  3

 72
    65
 73
     4
 40
8.0
 49
5.0
 74
     0
 49
-1.0
 74
     0
 49
1.0
 74
     0
 49
-1.0
 74
     0
  0
LTYPE
  5
4B
100
AcDbSymbolTableRecord
100
AcDbLinetypeTableRecord
  2
_STRICH-PUNKT-PUNKT
 70
    64
  3

 72
    65
 73
     6
 40
10.0
 49
5.0
 74
     0
 49
-1.0
 74
     0
 49
1.0
 74
     0
 49
-1.0
 74
     0
 49
1.0
 74
     0
 49
-1.0
 74
     0
  0
LTYPE
  5
4C
100
AcDbSymbolTableRecord
100
AcDbLinetypeTableRecord
  2
_STARTPFEIL
 70
    64
  3

 72
    65
 73
     0
 40
0.0
  0
LTYPE
  5
4D
100
AcDbSymbolTableRecord
100
AcDbLinetypeTableRecord
  2
_ENDPFEIL
 70
    64
  3

 72
    65
 73
     0
 40
0.0
  0
LTYPE
  5
4E
100
AcDbSymbolTableRecord
100
AcDbLinetypeTableRecord
  2
_ENDPUNKT
 70
    64
  3

 72
    65
 73
     0
 40
0.0
  0
LTYPE
  5
4F
100
AcDbSymbolTableRecord
100
AcDbLinetypeTableRecord
  2
_PFEIL
 70
    64
  3

 72
    65
 73
     0
 40
0.0
  0
LTYPE
  5
50
100
AcDbSymbolTableRecord
100
AcDbLinetypeTableRecord
  2
_STITCHLINE
 70
    64
  3

 72
    65
 73
     2
 40
6.0
 49
3.0
 74
     0
 49
-3.0
 74
     0
  0
LTYPE
  5
51
100
AcDbSymbolTableRecord
100
AcDbLinetypeTableRecord
  2
_MITTELLINIE_2
 70
    64
  3

 72
    65
 73
     4
 40
17.0
 49
10.0
 74
     0
 49
-2.0
 74
     0
 49
3.0
 74
     0
 49
-2.0
 74
     0
  0
LTYPE
  5
52
100
AcDbSymbolTableRecord
100
AcDbLinetypeTableRecord
  2
_VERDECKTE_LINIE
 70
    64
  3

 72
    65
 73
     2
 40
4.0
 49
2.0
 74
     0
 49
-2.0
 74
     0
  0
LTYPE
  5
53
100
AcDbSymbolTableRecord
100
AcDbLinetypeTableRecord
  2
_PHANTOMLINIE
 70
    64
  3

 72
    65
 73
     6
 40
21.0
 49
10.0
 74
     0
 49
-2.0
 74
     0
 49
3.0
 74
     0
 49
-1.0
 74
     0
 49
3.0
 74
     0
 49
-2.0
 74
     0
  0
LTYPE
  5
54
100
AcDbSymbolTableRecord
100
AcDbLinetypeTableRecord
  2
_BRUCHLINIE_1
 70
    64
  3

 72
    65
 73
     0
 40
0.0
  0
LTYPE
  5
55
100
AcDbSymbolTableRecord
100
AcDbLinetypeTableRecord
  2
_BRUCHLINIE_2
 70
    64
  3

 72
    65
 73
     0
 40
0.0
  0
LTYPE
  5
56
100
AcDbSymbolTableRecord
100
AcDbLinetypeTableRecord
  2
_DURCHGEHEND
 70
    64
  3

 72
    65
 73
     0
 40
0.0
  0
LTYPE
  5
57
100
AcDbSymbolTableRecord
100
AcDbLinetypeTableRecord
  2
_GESTRICHELT
 70
    64
  3

 72
    65
 73
     2
 40
10.0
 49
5.0
 74
     0
 49
-5.0
 74
     0
  0
LTYPE
  5
58
100
AcDbSymbolTableRecord
100
AcDbLinetypeTableRecord
  2
_MITTELLINIE
 70
    64
  3

 72
    65
 73
     4
 40
20.0
 49
10.0
 74
     0
 49
-2.0
 74
     0
 49
5.0
 74
     0
 49
-3.0
 74
     0
  0
LTYPE
  5
59
100
AcDbSymbolTableRecord
100
AcDbLinetypeTableRecord
  2
_PUNKTIERT
 70
    64
  3

 72
    65
 73
     2
 40
0.25
 49
0.0
 74
     0
 49
-0.25
 74
     0
  0
LTYPE
  5
5A
100
AcDbSymbolTableRecord
100
AcDbLinetypeTableRecord
  2
_STRICHPUNKTIERT
 70
    64
  3

 72
    65
 73
     4
 40
8.0
 49
5.0
 74
     0
 49
-1.0
 74
     0
 49
1.0
 74
     0
 49
-1.0
 74
     0
  0
LTYPE
  5
5B
100
AcDbSymbolTableRecord
100
AcDbLinetypeTableRecord
  2
_STRICH-PUNKT-PUNKT
 70
    64
  3

 72
    65
 73
     6
 40
10.0
 49
5.0
 74
     0
 49
-1.0
 74
     0
 49
1.0
 74
     0
 49
-1.0
 74
     0
 49
1.0
 74
     0
 49
-1.0
 74
     0
  0
LTYPE
  5
5C
100
AcDbSymbolTableRecord
100
AcDbLinetypeTableRecord
  2
_STARTPFEIL
 70
    64
  3

 72
    65
 73
     0
 40
0.0
  0
LTYPE
  5
5D
100
AcDbSymbolTableRecord
100
AcDbLinetypeTableRecord
  2
_ENDPFEIL
 70
    64
  3

 72
    65
 73
     0
 40
0.0
  0
LTYPE
  5
5E
100
AcDbSymbolTableRecord
100
AcDbLinetypeTableRecord
  2
_ENDPUNKT
 70
    64
  3

 72
    65
 73
     0
 40
0.0
  0
LTYPE
  5
5F
100
AcDbSymbolTableRecord
100
AcDbLinetypeTableRecord
  2
_PFEIL
 70
    64
  3

 72
    65
 73
     0
 40
0.0
  0
LTYPE
  5
60
100
AcDbSymbolTableRecord
100
AcDbLinetypeTableRecord
  2
_STITCHLINE
 70
    64
  3

 72
    65
 73
     2
 40
6.0
 49
3.0
 74
     0
 49
-3.0
 74
     0
  0
LTYPE
  5
61
100
AcDbSymbolTableRecord
100
AcDbLinetypeTableRecord
  2
_MITTELLINIE_2
 70
    64
  3

 72
    65
 73
     4
 40
17.0
 49
10.0
 74
     0
 49
-2.0
 74
     0
 49
3.0
 74
     0
 49
-2.0
 74
     0
  0
LTYPE
  5
62
100
AcDbSymbolTableRecord
100
AcDbLinetypeTableRecord
  2
_VERDECKTE_LINIE
 70
    64
  3

 72
    65
 73
     2
 40
4.0
 49
2.0
 74
     0
 49
-2.0
 74
     0
  0
LTYPE
  5
63
100
AcDbSymbolTableRecord
100
AcDbLinetypeTableRecord
  2
_PHANTOMLINIE
 70
    64
  3

 72
    65
 73
     6
 40
21.0
 49
10.0
 74
     0
 49
-2.0
 74
     0
 49
3.0
 74
     0
 49
-1.0
 74
     0
 49
3.0
 74
     0
 49
-2.0
 74
     0
  0
LTYPE
  5
64
100
AcDbSymbolTableRecord
100
AcDbLinetypeTableRecord
  2
_BRUCHLINIE_1
 70
    64
  3

 72
    65
 73
     0
 40
0.0
  0
LTYPE
  5
65
100
AcDbSymbolTableRecord
100
AcDbLinetypeTableRecord
  2
_BRUCHLINIE_2
 70
    64
  3

 72
    65
 73
     0
 40
0.0
  0
LTYPE
  5
66
100
AcDbSymbolTableRecord
100
AcDbLinetypeTableRecord
  2
SLDCENTERLINES0
 70
    64
  3

 72
    65
 73
     4
 40
19.05
 49
15.24
 74
     0
 49
-1.27
 74
     0
 49
1.27
 74
     0
 49
-1.27
 74
     0
  0
LTYPE
  5
67
100
AcDbSymbolTableRecord
100
AcDbLinetypeTableRecord
  2
SLDTANVISIBLE0
 70
    64
  3

 72
    65
 73
     6
 40
12.7
 49
6.35
 74
     0
 49
-1.27
 74
     0
 49
1.27
 74
     0
 49
-1.27
 74
     0
 49
1.27
 74
     0
 49
-1.27
 74
     0
  0
LTYPE
  5
68
100
AcDbSymbolTableRecord
100
AcDbLinetypeTableRecord
  2
_DURCHGEHEND
 70
    64
  3

 72
    65
 73
     0
 40
0.0
  0
LTYPE
  5
69
100
AcDbSymbolTableRecord
100
AcDbLinetypeTableRecord
  2
_GESTRICHELT
 70
    64
  3

 72
    65
 73
     2
 40
10.0
 49
5.0
 74
     0
 49
-5.0
 74
     0
  0
LTYPE
  5
6A
100
AcDbSymbolTableRecord
100
AcDbLinetypeTableRecord
  2
_MITTELLINIE
 70
    64
  3

 72
    65
 73
     4
 40
20.0
 49
10.0
 74
     0
 49
-2.0
 74
     0
 49
5.0
 74
     0
 49
-3.0
 74
     0
  0
LTYPE
  5
6B
100
AcDbSymbolTableRecord
100
AcDbLinetypeTableRecord
  2
_PUNKTIERT
 70
    64
  3

 72
    65
 73
     2
 40
0.25
 49
0.0
 74
     0
 49
-0.25
 74
     0
  0
LTYPE
  5
6C
100
AcDbSymbolTableRecord
100
AcDbLinetypeTableRecord
  2
_STRICHPUNKTIERT
 70
    64
  3

 72
    65
 73
     4
 40
8.0
 49
5.0
 74
     0
 49
-1.0
 74
     0
 49
1.0
 74
     0
 49
-1.0
 74
     0
  0
LTYPE
  5
6D
100
AcDbSymbolTableRecord
100
AcDbLinetypeTableRecord
  2
_STRICH-PUNKT-PUNKT
 70
    64
  3

 72
    65
 73
     6
 40
10.0
 49
5.0
 74
     0
 49
-1.0
 74
     0
 49
1.0
 74
     0
 49
-1.0
 74
     0
 49
1.0
 74
     0
 49
-1.0
 74
     0
  0
LTYPE
  5
6E
100
AcDbSymbolTableRecord
100
AcDbLinetypeTableRecord
  2
_STARTPFEIL
 70
    64
  3

 72
    65
 73
     0
 40
0.0
  0
LTYPE
  5
6F
100
AcDbSymbolTableRecord
100
AcDbLinetypeTableRecord
  2
_ENDPFEIL
 70
    64
  3

 72
    65
 73
     0
 40
0.0
  0
LTYPE
  5
70
100
AcDbSymbolTableRecord
100
AcDbLinetypeTableRecord
  2
_ENDPUNKT
 70
    64
  3

 72
    65
 73
     0
 40
0.0
  0
LTYPE
  5
71
100
AcDbSymbolTableRecord
100
AcDbLinetypeTableRecord
  2
_PFEIL
 70
    64
  3

 72
    65
 73
     0
 40
0.0
  0
LTYPE
  5
72
100
AcDbSymbolTableRecord
100
AcDbLinetypeTableRecord
  2
_STITCHLINE
 70
    64
  3

 72
    65
 73
     2
 40
6.0
 49
3.0
 74
     0
 49
-3.0
 74
     0
  0
LTYPE
  5
73
100
AcDbSymbolTableRecord
100
AcDbLinetypeTableRecord
  2
_MITTELLINIE_2
 70
    64
  3

 72
    65
 73
     4
 40
17.0
 49
10.0
 74
     0
 49
-2.0
 74
     0
 49
3.0
 74
     0
 49
-2.0
 74
     0
  0
LTYPE
  5
74
100
AcDbSymbolTableRecord
100
AcDbLinetypeTableRecord
  2
_VERDECKTE_LINIE
 70
    64
  3

 72
    65
 73
     2
 40
4.0
 49
2.0
 74
     0
 49
-2.0
 74
     0
  0
LTYPE
  5
75
100
AcDbSymbolTableRecord
100
AcDbLinetypeTableRecord
  2
_PHANTOMLINIE
 70
    64
  3

 72
    65
 73
     6
 40
21.0
 49
10.0
 74
     0
 49
-2.0
 74
     0
 49
3.0
 74
     0
 49
-1.0
 74
     0
 49
3.0
 74
     0
 49
-2.0
 74
     0
  0
LTYPE
  5
76
100
AcDbSymbolTableRecord
100
AcDbLinetypeTableRecord
  2
_BRUCHLINIE_1
 70
    64
  3

 72
    65
 73
     0
 40
0.0
  0
LTYPE
  5
77
100
AcDbSymbolTableRecord
100
AcDbLinetypeTableRecord
  2
_BRUCHLINIE_2
 70
    64
  3

 72
    65
 73
     0
 40
0.0
  0
LTYPE
  5
78
100
AcDbSymbolTableRecord
100
AcDbLinetypeTableRecord
  2
_DURCHGEHEND
 70
    64
  3

 72
    65
 73
     0
 40
0.0
  0
LTYPE
  5
79
100
AcDbSymbolTableRecord
100
AcDbLinetypeTableRecord
  2
_GESTRICHELT
 70
    64
  3

 72
    65
 73
     2
 40
10.0
 49
5.0
 74
     0
 49
-5.0
 74
     0
  0
LTYPE
  5
7A
100
AcDbSymbolTableRecord
100
AcDbLinetypeTableRecord
  2
_MITTELLINIE
 70
    64
  3

 72
    65
 73
     4
 40
20.0
 49
10.0
 74
     0
 49
-2.0
 74
     0
 49
5.0
 74
     0
 49
-3.0
 74
     0
  0
LTYPE
  5
7B
100
AcDbSymbolTableRecord
100
AcDbLinetypeTableRecord
  2
_PUNKTIERT
 70
    64
  3

 72
    65
 73
     2
 40
0.25
 49
0.0
 74
     0
 49
-0.25
 74
     0
  0
LTYPE
  5
7C
100
AcDbSymbolTableRecord
100
AcDbLinetypeTableRecord
  2
_STRICHPUNKTIERT
 70
    64
  3

 72
    65
 73
     4
 40
8.0
 49
5.0
 74
     0
 49
-1.0
 74
     0
 49
1.0
 74
     0
 49
-1.0
 74
     0
  0
LTYPE
  5
7D
100
AcDbSymbolTableRecord
100
AcDbLinetypeTableRecord
  2
_STRICH-PUNKT-PUNKT
 70
    64
  3

 72
    65
 73
     6
 40
10.0
 49
5.0
 74
     0
 49
-1.0
 74
     0
 49
1.0
 74
     0
 49
-1.0
 74
     0
 49
1.0
 74
     0
 49
-1.0
 74
     0
  0
LTYPE
  5
7E
100
AcDbSymbolTableRecord
100
AcDbLinetypeTableRecord
  2
_STARTPFEIL
 70
    64
  3

 72
    65
 73
     0
 40
0.0
  0
LTYPE
  5
7F
100
AcDbSymbolTableRecord
100
AcDbLinetypeTableRecord
  2
_ENDPFEIL
 70
    64
  3

 72
    65
 73
     0
 40
0.0
  0
LTYPE
  5
80
100
AcDbSymbolTableRecord
100
AcDbLinetypeTableRecord
  2
_ENDPUNKT
 70
    64
  3

 72
    65
 73
     0
 40
0.0
  0
LTYPE
  5
81
100
AcDbSymbolTableRecord
100
AcDbLinetypeTableRecord
  2
_PFEIL
 70
    64
  3

 72
    65
 73
     0
 40
0.0
  0
LTYPE
  5
82
100
AcDbSymbolTableRecord
100
AcDbLinetypeTableRecord
  2
_STITCHLINE
 70
    64
  3

 72
    65
 73
     2
 40
6.0
 49
3.0
 74
     0
 49
-3.0
 74
     0
  0
LTYPE
  5
83
100
AcDbSymbolTableRecord
100
AcDbLinetypeTableRecord
  2
_MITTELLINIE_2
 70
    64
  3

 72
    65
 73
     4
 40
17.0
 49
10.0
 74
     0
 49
-2.0
 74
     0
 49
3.0
 74
     0
 49
-2.0
 74
     0
  0
LTYPE
  5
84
100
AcDbSymbolTableRecord
100
AcDbLinetypeTableRecord
  2
_VERDECKTE_LINIE
 70
    64
  3

 72
    65
 73
     2
 40
4.0
 49
2.0
 74
     0
 49
-2.0
 74
     0
  0
LTYPE
  5
85
100
AcDbSymbolTableRecord
100
AcDbLinetypeTableRecord
  2
_PHANTOMLINIE
 70
    64
  3

 72
    65
 73
     6
 40
21.0
 49
10.0
 74
     0
 49
-2.0
 74
     0
 49
3.0
 74
     0
 49
-1.0
 74
     0
 49
3.0
 74
     0
 49
-2.0
 74
     0
  0
LTYPE
  5
86
100
AcDbSymbolTableRecord
100
AcDbLinetypeTableRecord
  2
_BRUCHLINIE_1
 70
    64
  3

 72
    65
 73
     0
 40
0.0
  0
LTYPE
  5
87
100
AcDbSymbolTableRecord
100
AcDbLinetypeTableRecord
  2
_BRUCHLINIE_2
 70
    64
  3

 72
    65
 73
     0
 40
0.0
  0
LTYPE
  5
88
100
AcDbSymbolTableRecord
100
AcDbLinetypeTableRecord
  2
_DURCHGEHEND
 70
    64
  3

 72
    65
 73
     0
 40
0.0
  0
LTYPE
  5
89
100
AcDbSymbolTableRecord
100
AcDbLinetypeTableRecord
  2
_GESTRICHELT
 70
    64
  3

 72
    65
 73
     2
 40
10.0
 49
5.0
 74
     0
 49
-5.0
 74
     0
  0
LTYPE
  5
8A
100
AcDbSymbolTableRecord
100
AcDbLinetypeTableRecord
  2
_MITTELLINIE
 70
    64
  3

 72
    65
 73
     4
 40
20.0
 49
10.0
 74
     0
 49
-2.0
 74
     0
 49
5.0
 74
     0
 49
-3.0
 74
     0
  0
LTYPE
  5
8B
100
AcDbSymbolTableRecord
100
AcDbLinetypeTableRecord
  2
_PUNKTIERT
 70
    64
  3

 72
    65
 73
     2
 40
0.25
 49
0.0
 74
     0
 49
-0.25
 74
     0
  0
LTYPE
  5
8C
100
AcDbSymbolTableRecord
100
AcDbLinetypeTableRecord
  2
_STRICHPUNKTIERT
 70
    64
  3

 72
    65
 73
     4
 40
8.0
 49
5.0
 74
     0
 49
-1.0
 74
     0
 49
1.0
 74
     0
 49
-1.0
 74
     0
  0
LTYPE
  5
8D
100
AcDbSymbolTableRecord
100
AcDbLinetypeTableRecord
  2
_STRICH-PUNKT-PUNKT
 70
    64
  3

 72
    65
 73
     6
 40
10.0
 49
5.0
 74
     0
 49
-1.0
 74
     0
 49
1.0
 74
     0
 49
-1.0
 74
     0
 49
1.0
 74
     0
 49
-1.0
 74
     0
  0
LTYPE
  5
8E
100
AcDbSymbolTableRecord
100
AcDbLinetypeTableRecord
  2
_STARTPFEIL
 70
    64
  3

 72
    65
 73
     0
 40
0.0
  0
LTYPE
  5
8F
100
AcDbSymbolTableRecord
100
AcDbLinetypeTableRecord
  2
_ENDPFEIL
 70
    64
  3

 72
    65
 73
     0
 40
0.0
  0
LTYPE
  5
90
100
AcDbSymbolTableRecord
100
AcDbLinetypeTableRecord
  2
_ENDPUNKT
 70
    64
  3

 72
    65
 73
     0
 40
0.0
  0
LTYPE
  5
91
100
AcDbSymbolTableRecord
100
AcDbLinetypeTableRecord
  2
_PFEIL
 70
    64
  3

 72
    65
 73
     0
 40
0.0
  0
LTYPE
  5
92
100
AcDbSymbolTableRecord
100
AcDbLinetypeTableRecord
  2
_STITCHLINE
 70
    64
  3

 72
    65
 73
     2
 40
6.0
 49
3.0
 74
     0
 49
-3.0
 74
     0
  0
LTYPE
  5
93
100
AcDbSymbolTableRecord
100
AcDbLinetypeTableRecord
  2
_MITTELLINIE_2
 70
    64
  3

 72
    65
 73
     4
 40
17.0
 49
10.0
 74
     0
 49
-2.0
 74
     0
 49
3.0
 74
     0
 49
-2.0
 74
     0
  0
LTYPE
  5
94
100
AcDbSymbolTableRecord
100
AcDbLinetypeTableRecord
  2
_VERDECKTE_LINIE
 70
    64
  3

 72
    65
 73
     2
 40
4.0
 49
2.0
 74
     0
 49
-2.0
 74
     0
  0
LTYPE
  5
95
100
AcDbSymbolTableRecord
100
AcDbLinetypeTableRecord
  2
_PHANTOMLINIE
 70
    64
  3

 72
    65
 73
     6
 40
21.0
 49
10.0
 74
     0
 49
-2.0
 74
     0
 49
3.0
 74
     0
 49
-1.0
 74
     0
 49
3.0
 74
     0
 49
-2.0
 74
     0
  0
LTYPE
  5
96
100
AcDbSymbolTableRecord
100
AcDbLinetypeTableRecord
  2
_BRUCHLINIE_1
 70
    64
  3

 72
    65
 73
     0
 40
0.0
  0
LTYPE
  5
97
100
AcDbSymbolTableRecord
100
AcDbLinetypeTableRecord
  2
_BRUCHLINIE_2
 70
    64
  3

 72
    65
 73
     0
 40
0.0
  0
LTYPE
  5
98
100
AcDbSymbolTableRecord
100
AcDbLinetypeTableRecord
  2
_DURCHGEHEND
 70
    64
  3

 72
    65
 73
     0
 40
0.0
  0
LTYPE
  5
99
100
AcDbSymbolTableRecord
100
AcDbLinetypeTableRecord
  2
_GESTRICHELT
 70
    64
  3

 72
    65
 73
     2
 40
10.0
 49
5.0
 74
     0
 49
-5.0
 74
     0
  0
LTYPE
  5
9A
100
AcDbSymbolTableRecord
100
AcDbLinetypeTableRecord
  2
_MITTELLINIE
 70
    64
  3

 72
    65
 73
     4
 40
20.0
 49
10.0
 74
     0
 49
-2.0
 74
     0
 49
5.0
 74
     0
 49
-3.0
 74
     0
  0
LTYPE
  5
9B
100
AcDbSymbolTableRecord
100
AcDbLinetypeTableRecord
  2
_PUNKTIERT
 70
    64
  3

 72
    65
 73
     2
 40
0.25
 49
0.0
 74
     0
 49
-0.25
 74
     0
  0
LTYPE
  5
9C
100
AcDbSymbolTableRecord
100
AcDbLinetypeTableRecord
  2
_STRICHPUNKTIERT
 70
    64
  3

 72
    65
 73
     4
 40
8.0
 49
5.0
 74
     0
 49
-1.0
 74
     0
 49
1.0
 74
     0
 49
-1.0
 74
     0
  0
LTYPE
  5
9D
100
AcDbSymbolTableRecord
100
AcDbLinetypeTableRecord
  2
_STRICH-PUNKT-PUNKT
 70
    64
  3

 72
    65
 73
     6
 40
10.0
 49
5.0
 74
     0
 49
-1.0
 74
     0
 49
1.0
 74
     0
 49
-1.0
 74
     0
 49
1.0
 74
     0
 49
-1.0
 74
     0
  0
LTYPE
  5
9E
100
AcDbSymbolTableRecord
100
AcDbLinetypeTableRecord
  2
_STARTPFEIL
 70
    64
  3

 72
    65
 73
     0
 40
0.0
  0
LTYPE
  5
9F
100
AcDbSymbolTableRecord
100
AcDbLinetypeTableRecord
  2
_ENDPFEIL
 70
    64
  3

 72
    65
 73
     0
 40
0.0
  0
LTYPE
  5
A0
100
AcDbSymbolTableRecord
100
AcDbLinetypeTableRecord
  2
_ENDPUNKT
 70
    64
  3

 72
    65
 73
     0
 40
0.0
  0
LTYPE
  5
A1
100
AcDbSymbolTableRecord
100
AcDbLinetypeTableRecord
  2
_PFEIL
 70
    64
  3

 72
    65
 73
     0
 40
0.0
  0
LTYPE
  5
A2
100
AcDbSymbolTableRecord
100
AcDbLinetypeTableRecord
  2
_STITCHLINE
 70
    64
  3

 72
    65
 73
     2
 40
6.0
 49
3.0
 74
     0
 49
-3.0
 74
     0
  0
LTYPE
  5
A3
100
AcDbSymbolTableRecord
100
AcDbLinetypeTableRecord
  2
_MITTELLINIE_2
 70
    64
  3

 72
    65
 73
     4
 40
17.0
 49
10.0
 74
     0
 49
-2.0
 74
     0
 49
3.0
 74
     0
 49
-2.0
 74
     0
  0
LTYPE
  5
A4
100
AcDbSymbolTableRecord
100
AcDbLinetypeTableRecord
  2
_VERDECKTE_LINIE
 70
    64
  3

 72
    65
 73
     2
 40
4.0
 49
2.0
 74
     0
 49
-2.0
 74
     0
  0
LTYPE
  5
A5
100
AcDbSymbolTableRecord
100
AcDbLinetypeTableRecord
  2
_PHANTOMLINIE
 70
    64
  3

 72
    65
 73
     6
 40
21.0
 49
10.0
 74
     0
 49
-2.0
 74
     0
 49
3.0
 74
     0
 49
-1.0
 74
     0
 49
3.0
 74
     0
 49
-2.0
 74
     0
  0
LTYPE
  5
A6
100
AcDbSymbolTableRecord
100
AcDbLinetypeTableRecord
  2
_BRUCHLINIE_1
 70
    64
  3

 72
    65
 73
     0
 40
0.0
  0
LTYPE
  5
A7
100
AcDbSymbolTableRecord
100
AcDbLinetypeTableRecord
  2
_BRUCHLINIE_2
 70
    64
  3

 72
    65
 73
     0
 40
0.0
  0
LTYPE
  5
A8
100
AcDbSymbolTableRecord
100
AcDbLinetypeTableRecord
  2
_DURCHGEHEND
 70
    64
  3

 72
    65
 73
     0
 40
0.0
  0
LTYPE
  5
A9
100
AcDbSymbolTableRecord
100
AcDbLinetypeTableRecord
  2
_GESTRICHELT
 70
    64
  3

 72
    65
 73
     2
 40
10.0
 49
5.0
 74
     0
 49
-5.0
 74
     0
  0
LTYPE
  5
AA
100
AcDbSymbolTableRecord
100
AcDbLinetypeTableRecord
  2
_MITTELLINIE
 70
    64
  3

 72
    65
 73
     4
 40
20.0
 49
10.0
 74
     0
 49
-2.0
 74
     0
 49
5.0
 74
     0
 49
-3.0
 74
     0
  0
LTYPE
  5
AB
100
AcDbSymbolTableRecord
100
AcDbLinetypeTableRecord
  2
_PUNKTIERT
 70
    64
  3

 72
    65
 73
     2
 40
0.25
 49
0.0
 74
     0
 49
-0.25
 74
     0
  0
LTYPE
  5
AC
100
AcDbSymbolTableRecord
100
AcDbLinetypeTableRecord
  2
_STRICHPUNKTIERT
 70
    64
  3

 72
    65
 73
     4
 40
8.0
 49
5.0
 74
     0
 49
-1.0
 74
     0
 49
1.0
 74
     0
 49
-1.0
 74
     0
  0
LTYPE
  5
AD
100
AcDbSymbolTableRecord
100
AcDbLinetypeTableRecord
  2
_STRICH-PUNKT-PUNKT
 70
    64
  3

 72
    65
 73
     6
 40
10.0
 49
5.0
 74
     0
 49
-1.0
 74
     0
 49
1.0
 74
     0
 49
-1.0
 74
     0
 49
1.0
 74
     0
 49
-1.0
 74
     0
  0
LTYPE
  5
AE
100
AcDbSymbolTableRecord
100
AcDbLinetypeTableRecord
  2
_STARTPFEIL
 70
    64
  3

 72
    65
 73
     0
 40
0.0
  0
LTYPE
  5
AF
100
AcDbSymbolTableRecord
100
AcDbLinetypeTableRecord
  2
_ENDPFEIL
 70
    64
  3

 72
    65
 73
     0
 40
0.0
  0
LTYPE
  5
B0
100
AcDbSymbolTableRecord
100
AcDbLinetypeTableRecord
  2
_ENDPUNKT
 70
    64
  3

 72
    65
 73
     0
 40
0.0
  0
LTYPE
  5
B1
100
AcDbSymbolTableRecord
100
AcDbLinetypeTableRecord
  2
_PFEIL
 70
    64
  3

 72
    65
 73
     0
 40
0.0
  0
LTYPE
  5
B2
100
AcDbSymbolTableRecord
100
AcDbLinetypeTableRecord
  2
_STITCHLINE
 70
    64
  3

 72
    65
 73
     2
 40
6.0
 49
3.0
 74
     0
 49
-3.0
 74
     0
  0
LTYPE
  5
B3
100
AcDbSymbolTableRecord
100
AcDbLinetypeTableRecord
  2
_MITTELLINIE_2
 70
    64
  3

 72
    65
 73
     4
 40
17.0
 49
10.0
 74
     0
 49
-2.0
 74
     0
 49
3.0
 74
     0
 49
-2.0
 74
     0
  0
LTYPE
  5
B4
100
AcDbSymbolTableRecord
100
AcDbLinetypeTableRecord
  2
_VERDECKTE_LINIE
 70
    64
  3

 72
    65
 73
     2
 40
4.0
 49
2.0
 74
     0
 49
-2.0
 74
     0
  0
LTYPE
  5
B5
100
AcDbSymbolTableRecord
100
AcDbLinetypeTableRecord
  2
_PHANTOMLINIE
 70
    64
  3

 72
    65
 73
     6
 40
21.0
 49
10.0
 74
     0
 49
-2.0
 74
     0
 49
3.0
 74
     0
 49
-1.0
 74
     0
 49
3.0
 74
     0
 49
-2.0
 74
     0
  0
LTYPE
  5
B6
100
AcDbSymbolTableRecord
100
AcDbLinetypeTableRecord
  2
_BRUCHLINIE_1
 70
    64
  3

 72
    65
 73
     0
 40
0.0
  0
LTYPE
  5
B7
100
AcDbSymbolTableRecord
100
AcDbLinetypeTableRecord
  2
_BRUCHLINIE_2
 70
    64
  3

 72
    65
 73
     0
 40
0.0
  0
LTYPE
  5
B8
100
AcDbSymbolTableRecord
100
AcDbLinetypeTableRecord
  2
4_2-0_7-0_7-0_7
 70
    64
  3

 72
    65
 73
     4
 40
6.35
 49
4.233334
 74
     0
 49
-0.705556
 74
     0
 49
0.705556
 74
     0
 49
-0.705556
 74
     0
  0
LTYPE
  5
B9
100
AcDbSymbolTableRecord
100
AcDbLinetypeTableRecord
  2
0_7-0_7
 70
    64
  3

 72
    65
 73
     2
 40
1.411111
 49
0.705556
 74
     0
 49
-0.705556
 74
     0
  0
LTYPE
  5
BA
100
AcDbSymbolTableRecord
100
AcDbLinetypeTableRecord
  2
_DURCHGEHEND
 70
    64
  3

 72
    65
 73
     0
 40
0.0
  0
LTYPE
  5
BB
100
AcDbSymbolTableRecord
100
AcDbLinetypeTableRecord
  2
_GESTRICHELT
 70
    64
  3

 72
    65
 73
     2
 40
10.0
 49
5.0
 74
     0
 49
-5.0
 74
     0
  0
LTYPE
  5
BC
100
AcDbSymbolTableRecord
100
AcDbLinetypeTableRecord
  2
_MITTELLINIE
 70
    64
  3

 72
    65
 73
     4
 40
20.0
 49
10.0
 74
     0
 49
-2.0
 74
     0
 49
5.0
 74
     0
 49
-3.0
 74
     0
  0
LTYPE
  5
BD
100
AcDbSymbolTableRecord
100
AcDbLinetypeTableRecord
  2
_PUNKTIERT
 70
    64
  3

 72
    65
 73
     2
 40
0.25
 49
0.0
 74
     0
 49
-0.25
 74
     0
  0
LTYPE
  5
BE
100
AcDbSymbolTableRecord
100
AcDbLinetypeTableRecord
  2
_STRICHPUNKTIERT
 70
    64
  3

 72
    65
 73
     4
 40
8.0
 49
5.0
 74
     0
 49
-1.0
 74
     0
 49
1.0
 74
     0
 49
-1.0
 74
     0
  0
LTYPE
  5
BF
100
AcDbSymbolTableRecord
100
AcDbLinetypeTableRecord
  2
_STRICH-PUNKT-PUNKT
 70
    64
  3

 72
    65
 73
     6
 40
10.0
 49
5.0
 74
     0
 49
-1.0
 74
     0
 49
1.0
 74
     0
 49
-1.0
 74
     0
 49
1.0
 74
     0
 49
-1.0
 74
     0
  0
LTYPE
  5
C0
100
AcDbSymbolTableRecord
100
AcDbLinetypeTableRecord
  2
_STARTPFEIL
 70
    64
  3

 72
    65
 73
     0
 40
0.0
  0
LTYPE
  5
C1
100
AcDbSymbolTableRecord
100
AcDbLinetypeTableRecord
  2
_ENDPFEIL
 70
    64
  3

 72
    65
 73
     0
 40
0.0
  0
LTYPE
  5
C2
100
AcDbSymbolTableRecord
100
AcDbLinetypeTableRecord
  2
_ENDPUNKT
 70
    64
  3

 72
    65
 73
     0
 40
0.0
  0
LTYPE
  5
C3
100
AcDbSymbolTableRecord
100
AcDbLinetypeTableRecord
  2
_PFEIL
 70
    64
  3

 72
    65
 73
     0
 40
0.0
  0
LTYPE
  5
C4
100
AcDbSymbolTableRecord
100
AcDbLinetypeTableRecord
  2
_STITCHLINE
 70
    64
  3

 72
    65
 73
     2
 40
6.0
 49
3.0
 74
     0
 49
-3.0
 74
     0
  0
LTYPE
  5
C5
100
AcDbSymbolTableRecord
100
AcDbLinetypeTableRecord
  2
_MITTELLINIE_2
 70
    64
  3

 72
    65
 73
     4
 40
17.0
 49
10.0
 74
     0
 49
-2.0
 74
     0
 49
3.0
 74
     0
 49
-2.0
 74
     0
  0
LTYPE
  5
C6
100
AcDbSymbolTableRecord
100
AcDbLinetypeTableRecord
  2
_VERDECKTE_LINIE
 70
    64
  3

 72
    65
 73
     2
 40
4.0
 49
2.0
 74
     0
 49
-2.0
 74
     0
  0
LTYPE
  5
C7
100
AcDbSymbolTableRecord
100
AcDbLinetypeTableRecord
  2
_PHANTOMLINIE
 70
    64
  3

 72
    65
 73
     6
 40
21.0
 49
10.0
 74
     0
 49
-2.0
 74
     0
 49
3.0
 74
     0
 49
-1.0
 74
     0
 49
3.0
 74
     0
 49
-2.0
 74
     0
  0
LTYPE
  5
C8
100
AcDbSymbolTableRecord
100
AcDbLinetypeTableRecord
  2
_BRUCHLINIE_1
 70
    64
  3

 72
    65
 73
     0
 40
0.0
  0
LTYPE
  5
C9
100
AcDbSymbolTableRecord
100
AcDbLinetypeTableRecord
  2
_BRUCHLINIE_2
 70
    64
  3

 72
    65
 73
     0
 40
0.0
  0
LTYPE
  5
CA
100
AcDbSymbolTableRecord
100
AcDbLinetypeTableRecord
  2
_DURCHGEHEND
 70
    64
  3

 72
    65
 73
     0
 40
0.0
  0
LTYPE
  5
CB
100
AcDbSymbolTableRecord
100
AcDbLinetypeTableRecord
  2
_GESTRICHELT
 70
    64
  3

 72
    65
 73
     2
 40
10.0
 49
5.0
 74
     0
 49
-5.0
 74
     0
  0
LTYPE
  5
CC
100
AcDbSymbolTableRecord
100
AcDbLinetypeTableRecord
  2
_MITTELLINIE
 70
    64
  3

 72
    65
 73
     4
 40
20.0
 49
10.0
 74
     0
 49
-2.0
 74
     0
 49
5.0
 74
     0
 49
-3.0
 74
     0
  0
LTYPE
  5
CD
100
AcDbSymbolTableRecord
100
AcDbLinetypeTableRecord
  2
_PUNKTIERT
 70
    64
  3

 72
    65
 73
     2
 40
0.25
 49
0.0
 74
     0
 49
-0.25
 74
     0
  0
LTYPE
  5
CE
100
AcDbSymbolTableRecord
100
AcDbLinetypeTableRecord
  2
_STRICHPUNKTIERT
 70
    64
  3

 72
    65
 73
     4
 40
8.0
 49
5.0
 74
     0
 49
-1.0
 74
     0
 49
1.0
 74
     0
 49
-1.0
 74
     0
  0
LTYPE
  5
CF
100
AcDbSymbolTableRecord
100
AcDbLinetypeTableRecord
  2
_STRICH-PUNKT-PUNKT
 70
    64
  3

 72
    65
 73
     6
 40
10.0
 49
5.0
 74
     0
 49
-1.0
 74
     0
 49
1.0
 74
     0
 49
-1.0
 74
     0
 49
1.0
 74
     0
 49
-1.0
 74
     0
  0
LTYPE
  5
D0
100
AcDbSymbolTableRecord
100
AcDbLinetypeTableRecord
  2
_STARTPFEIL
 70
    64
  3

 72
    65
 73
     0
 40
0.0
  0
LTYPE
  5
D1
100
AcDbSymbolTableRecord
100
AcDbLinetypeTableRecord
  2
_ENDPFEIL
 70
    64
  3

 72
    65
 73
     0
 40
0.0
  0
LTYPE
  5
D2
100
AcDbSymbolTableRecord
100
AcDbLinetypeTableRecord
  2
_ENDPUNKT
 70
    64
  3

 72
    65
 73
     0
 40
0.0
  0
LTYPE
  5
D3
100
AcDbSymbolTableRecord
100
AcDbLinetypeTableRecord
  2
_PFEIL
 70
    64
  3

 72
    65
 73
     0
 40
0.0
  0
LTYPE
  5
D4
100
AcDbSymbolTableRecord
100
AcDbLinetypeTableRecord
  2
_STITCHLINE
 70
    64
  3

 72
    65
 73
     2
 40
6.0
 49
3.0
 74
     0
 49
-3.0
 74
     0
  0
LTYPE
  5
D5
100
AcDbSymbolTableRecord
100
AcDbLinetypeTableRecord
  2
_MITTELLINIE_2
 70
    64
  3

 72
    65
 73
     4
 40
17.0
 49
10.0
 74
     0
 49
-2.0
 74
     0
 49
3.0
 74
     0
 49
-2.0
 74
     0
  0
LTYPE
  5
D6
100
AcDbSymbolTableRecord
100
AcDbLinetypeTableRecord
  2
_VERDECKTE_LINIE
 70
    64
  3

 72
    65
 73
     2
 40
4.0
 49
2.0
 74
     0
 49
-2.0
 74
     0
  0
LTYPE
  5
D7
100
AcDbSymbolTableRecord
100
AcDbLinetypeTableRecord
  2
_PHANTOMLINIE
 70
    64
  3

 72
    65
 73
     6
 40
21.0
 49
10.0
 74
     0
 49
-2.0
 74
     0
 49
3.0
 74
     0
 49
-1.0
 74
     0
 49
3.0
 74
     0
 49
-2.0
 74
     0
  0
LTYPE
  5
D8
100
AcDbSymbolTableRecord
100
AcDbLinetypeTableRecord
  2
_BRUCHLINIE_1
 70
    64
  3

 72
    65
 73
     0
 40
0.0
  0
LTYPE
  5
D9
100
AcDbSymbolTableRecord
100
AcDbLinetypeTableRecord
  2
_BRUCHLINIE_2
 70
    64
  3

 72
    65
 73
     0
 40
0.0
  0
LTYPE
  5
DA
100
AcDbSymbolTableRecord
100
AcDbLinetypeTableRecord
  2
1_3-1_3
 70
    64
  3

 72
    65
 73
     2
 40
2.822222
 49
1.411111
 74
     0
 49
-1.411111
 74
     0
  0
LTYPE
  5
DB
100
AcDbSymbolTableRecord
100
AcDbLinetypeTableRecord
  2
_DURCHGEHEND
 70
    64
  3

 72
    65
 73
     0
 40
0.0
  0
LTYPE
  5
DC
100
AcDbSymbolTableRecord
100
AcDbLinetypeTableRecord
  2
_GESTRICHELT
 70
    64
  3

 72
    65
 73
     2
 40
10.0
 49
5.0
 74
     0
 49
-5.0
 74
     0
  0
LTYPE
  5
DD
100
AcDbSymbolTableRecord
100
AcDbLinetypeTableRecord
  2
_MITTELLINIE
 70
    64
  3

 72
    65
 73
     4
 40
20.0
 49
10.0
 74
     0
 49
-2.0
 74
     0
 49
5.0
 74
     0
 49
-3.0
 74
     0
  0
LTYPE
  5
DE
100
AcDbSymbolTableRecord
100
AcDbLinetypeTableRecord
  2
_PUNKTIERT
 70
    64
  3

 72
    65
 73
     2
 40
0.25
 49
0.0
 74
     0
 49
-0.25
 74
     0
  0
LTYPE
  5
DF
100
AcDbSymbolTableRecord
100
AcDbLinetypeTableRecord
  2
_STRICHPUNKTIERT
 70
    64
  3

 72
    65
 73
     4
 40
8.0
 49
5.0
 74
     0
 49
-1.0
 74
     0
 49
1.0
 74
     0
 49
-1.0
 74
     0
  0
LTYPE
  5
E0
100
AcDbSymbolTableRecord
100
AcDbLinetypeTableRecord
  2
_STRICH-PUNKT-PUNKT
 70
    64
  3

 72
    65
 73
     6
 40
10.0
 49
5.0
 74
     0
 49
-1.0
 74
     0
 49
1.0
 74
     0
 49
-1.0
 74
     0
 49
1.0
 74
     0
 49
-1.0
 74
     0
  0
LTYPE
  5
E1
100
AcDbSymbolTableRecord
100
AcDbLinetypeTableRecord
  2
_STARTPFEIL
 70
    64
  3

 72
    65
 73
     0
 40
0.0
  0
LTYPE
  5
E2
100
AcDbSymbolTableRecord
100
AcDbLinetypeTableRecord
  2
_ENDPFEIL
 70
    64
  3

 72
    65
 73
     0
 40
0.0
  0
LTYPE
  5
E3
100
AcDbSymbolTableRecord
100
AcDbLinetypeTableRecord
  2
_ENDPUNKT
 70
    64
  3

 72
    65
 73
     0
 40
0.0
  0
LTYPE
  5
E4
100
AcDbSymbolTableRecord
100
AcDbLinetypeTableRecord
  2
_PFEIL
 70
    64
  3

 72
    65
 73
     0
 40
0.0
  0
LTYPE
  5
E5
100
AcDbSymbolTableRecord
100
AcDbLinetypeTableRecord
  2
_STITCHLINE
 70
    64
  3

 72
    65
 73
     2
 40
6.0
 49
3.0
 74
     0
 49
-3.0
 74
     0
  0
LTYPE
  5
E6
100
AcDbSymbolTableRecord
100
AcDbLinetypeTableRecord
  2
_MITTELLINIE_2
 70
    64
  3

 72
    65
 73
     4
 40
17.0
 49
10.0
 74
     0
 49
-2.0
 74
     0
 49
3.0
 74
     0
 49
-2.0
 74
     0
  0
LTYPE
  5
E7
100
AcDbSymbolTableRecord
100
AcDbLinetypeTableRecord
  2
_VERDECKTE_LINIE
 70
    64
  3

 72
    65
 73
     2
 40
4.0
 49
2.0
 74
     0
 49
-2.0
 74
     0
  0
LTYPE
  5
E8
100
AcDbSymbolTableRecord
100
AcDbLinetypeTableRecord
  2
_PHANTOMLINIE
 70
    64
  3

 72
    65
 73
     6
 40
21.0
 49
10.0
 74
     0
 49
-2.0
 74
     0
 49
3.0
 74
     0
 49
-1.0
 74
     0
 49
3.0
 74
     0
 49
-2.0
 74
     0
  0
LTYPE
  5
E9
100
AcDbSymbolTableRecord
100
AcDbLinetypeTableRecord
  2
_BRUCHLINIE_1
 70
    64
  3

 72
    65
 73
     0
 40
0.0
  0
LTYPE
  5
EA
100
AcDbSymbolTableRecord
100
AcDbLinetypeTableRecord
  2
_BRUCHLINIE_2
 70
    64
  3

 72
    65
 73
     0
 40
0.0
  0
LTYPE
  5
EB
100
AcDbSymbolTableRecord
100
AcDbLinetypeTableRecord
  2
SLDUSER-DASHED0
 70
    64
  3

 72
    65
 73
     2
 40
1.905
 49
1.27
 74
     0
 49
-0.635
 74
     0
  0
LTYPE
  5
EC
100
AcDbSymbolTableRecord
100
AcDbLinetypeTableRecord
  2
CONTINUOUS
 70
    64
  3

 72
    65
 73
     0
 40
0.0
  0
LTYPE
  5
ED
100
AcDbSymbolTableRecord
100
AcDbLinetypeTableRecord
  2
SLD-DURCHGEHEND
 70
    64
  3

 72
    65
 73
     0
 40
0.0
  0
ENDTAB
  0
TABLE
  2
LAYER
  5
2
100
AcDbSymbolTable
 70
     6
  0
LAYER
  5
14
100
AcDbSymbolTableRecord
100
AcDbLayerTableRecord
  2
0
 70
     0
 62
     7
  6
Continuous
290
     1
370
    -3
390
1D
  0
LAYER
  5
EE
100
AcDbSymbolTableRecord
100
AcDbLayerTableRecord
  2
ARMATUR
 70
     0
 62
     7
  6
Continuous
290
     1
370
    -3
390
1D
  0
LAYER
  5
EF
100
AcDbSymbolTableRecord
100
AcDbLayerTableRecord
  2
ACHSEN
 70
     0
 62
     7
  6
Continuous
290
     1
370
    -3
390
1D
  0
LAYER
  5
F0
100
AcDbSymbolTableRecord
100
AcDbLayerTableRecord
  2
TEXT
 70
     0
 62
     7
  6
Continuous
290
     1
370
    -3
390
1D
  0
LAYER
  5
F1
100
AcDbSymbolTableRecord
100
AcDbLayerTableRecord
  2
BEMASSUNG
 70
     0
 62
     7
  6
Continuous
290
     1
370
    -3
390
1D
  0
LAYER
  5
F2
100
AcDbSymbolTableRecord
100
AcDbLayerTableRecord
  2
WAND
 70
     0
 62
     7
  6
Continuous
290
     1
370
    -3
390
1D
  0
ENDTAB
  0
TABLE
  2
STYLE
  5
3
100
AcDbSymbolTable
 70
     1
  0
STYLE
  5
17
100
AcDbSymbolTableRecord
100
AcDbTextStyleTableRecord
  2
Standard
 70
     0
 40
0.0
 41
1.0
 50
0.0
 71
     0
 42
0.0
  3
txt
  4

  0
ENDTAB
  0
TABLE
  2
VIEW
  5
5
100
AcDbSymbolTable
 70
     0
  0
ENDTAB
  0
TABLE
  2
UCS
  5
6
100
AcDbSymbolTable
 70
     1
  0
UCS
  5
24
100
AcDbSymbolTableRecord
100
AcDbUCSTableRecord
  2
ISODRAW_6_1
 70
     0
 10
0.0
 20
0.0
 30
0.0
 11
0.0
 21
1.0
 31
0.0
 12
0.0
 22
0.0
 32
1.0
 79
     0
146
0.0
  0
ENDTAB
  0
TABLE
  2
APPID
  5
8
100
AcDbSymbolTable
 70
     1
  0
APPID
  5
16
100
AcDbSymbolTableRecord
100
AcDbRegAppTableRecord
  2
ACAD
 70
     0
  0
ENDTAB
  0
TABLE
  2
DIMSTYLE
  5
9
100
AcDbSymbolTable
 70
     1
100
AcDbDimStyleTable
 71
     0
  0
DIMSTYLE
105
18
100
AcDbSymbolTableRecord
100
AcDbDimStyleTableRecord
  2
Standard
 70
     0
  3

  4

 40
1.0
 41
0.18
 42
0.0625
 43
0.38
 44
0.18
 45
0.0
 46
0.0
 47
0.0
 48
0.0
 71
     0
 72
     0
 73
     1
 74
     1
 75
     0
 76
     0
 77
     0
 78
     0
 79
     0
140
0.18
141
0.09
142
0.0
143
25.4
144
1.0
145
0.0
146
1.0
147
0.09
148
0.0
170
     0
171
     2
172
     0
173
     0
174
     0
175
     0
176
     0
177
     0
178
     0
179
     0
271
     4
272
     4
273
     2
274
     2
275
     0
276
     0
277
     2
278
    46
279
     0
280
     0
281
     0
282
     0
283
     1
284
     0
285
     0
286
     0
288
     0
289
     3
340
17
341
0
342
0
343
0
344
0
371
    -2
372
    -2
  0
ENDTAB
  0
TABLE
  2
BLOCK_RECORD
  5
1
100
AcDbSymbolTable
 70
     0
  0
BLOCK_RECORD
  5
A
100
AcDbSymbolTableRecord
100
AcDbBlockTableRecord
  2
*MODEL_SPACE
340
20
  0
BLOCK_RECORD
  5
B
100
AcDbSymbolTableRecord
100
AcDbBlockTableRecord
  2
*PAPER_SPACE
340
21
  0
ENDTAB
  0
ENDSEC
  0
SECTION
  2
BLOCKS
  0
BLOCK
  5
D
100
AcDbEntity
  8
0
390
0
100
AcDbBlockBegin
  2
*MODEL_SPACE
 70
     0
 10
0.0
 20
0.0
 30
0.0
  3
*MODEL_SPACE
  1

  0
ENDBLK
  5
E
100
AcDbEntity
  8
0
390
0
100
AcDbBlockEnd
  0
BLOCK
  5
F
100
AcDbEntity
 67
     1
  8
0
390
0
100
AcDbBlockBegin
  2
*PAPER_SPACE
 70
     0
 10
0.0
 20
0.0
 30
0.0
  3
*PAPER_SPACE
  1

  0
ENDBLK
  5
10
100
AcDbEntity
 67
     1
  8
0
390
0
100
AcDbBlockEnd
  0
ENDSEC
  0
SECTION
  2
ENTITIES
  0
CIRCLE
  5
F3
100
AcDbEntity
  8
ARMATUR
390
0
  6
DURCHGEHEND
 62
     3
100
AcDbCircle
 10
93.664932
 20
30.572868
 30
0.0
 40
4.375
  0
LINE
  5
F4
100
AcDbEntity
  8
ARMATUR
390
0
  6
DURCHGEHEND
 62
     1
100
AcDbLine
 10
87.550064
 20
114.16629
 30
0.0
 11
87.550064
 21
113.91629
 31
0.0
  0
LINE
  5
F5
100
AcDbEntity
  8
ARMATUR
390
0
  6
DURCHGEHEND
 62
     1
100
AcDbLine
 10
93.550064
 20
113.91629
 30
0.0
 11
93.550064
 21
114.16629
 31
0.0
  0
LINE
  5
F6
100
AcDbEntity
  8
ARMATUR
390
0
  6
DURCHGEHEND
 62
     1
100
AcDbLine
 10
110.455109
 20
96.102631
 30
0.0
 11
111.615265
 21
96.118835
 31
0.0
  0
LINE
  5
F7
100
AcDbEntity
  8
ARMATUR
390
0
  6
DURCHGEHEND
 62
     1
100
AcDbLine
 10
108.532242
 20
96.120041
 30
0.0
 11
109.171188
 21
96.084702
 31
0.0
  0
LINE
  5
F8
100
AcDbEntity
  8
ARMATUR
390
0
  6
DURCHGEHEND
 62
     1
100
AcDbLine
 10
106.432327
 20
106.786133
 30
0.0
 11
106.138611
 21
106.790237
 31
0.0
  0
ARC
  5
F9
100
AcDbEntity
  8
ARMATUR
390
0
  6
DURCHGEHEND
 62
     1
100
AcDbCircle
 10
111.605576
 20
96.329727
 30
0.0
 40
0.207428
100
AcDbArc
 50
0.0
 51
5.741
  0
ARC
  5
FA
100
AcDbEntity
  8
ARMATUR
390
0
  6
DURCHGEHEND
 62
     1
100
AcDbCircle
 10
111.605576
 20
96.329727
 30
0.0
 40
0.207428
100
AcDbArc
 50
272.721985
 51
360.0
  0
ARC
  5
FB
100
AcDbEntity
  8
ARMATUR
390
0
  6
DURCHGEHEND
 62
     1
100
AcDbCircle
 10
106.137558
 20
106.71524
 30
0.0
 40
0.074997
100
AcDbArc
 50
89.197998
 51
179.998001
  0
LINE
  5
FC
100
AcDbEntity
  8
ARMATUR
390
0
  6
DURCHGEHEND
 62
     1
100
AcDbLine
 10
111.812561
 20
96.334457
 30
0.0
 11
111.812561
 21
125.632599
 31
0.0
  0
ARC
  5
FD
100
AcDbEntity
  8
ARMATUR
390
0
  6
DURCHGEHEND
 62
     1
100
AcDbCircle
 10
106.437561
 20
107.161102
 30
0.0
 40
0.375
100
AcDbArc
 50
269.197998
 51
360.0
  0
ARC
  5
FE
100
AcDbEntity
  8
ARMATUR
390
0
  6
DURCHGEHEND
 62
     1
100
AcDbCircle
 10
111.612564
 20
125.632477
 30
0.0
 40
0.199997
100
AcDbArc
 50
0.036
 51
89.001999
  0
LINE
  5
FF
100
AcDbEntity
  8
ARMATUR
390
0
  6
DURCHGEHEND
 62
     1
100
AcDbLine
 10
105.425064
 20
106.79129
 30
0.0
 11
102.800064
 21
106.79129
 31
0.0
  0
LINE
  5
100
100
AcDbEntity
  8
ARMATUR
390
0
  6
DURCHGEHEND
 62
     1
100
AcDbLine
 10
102.800064
 20
96.04129
 30
0.0
 11
105.425064
 21
96.04129
 31
0.0
  0
ARC
  5
101
100
AcDbEntity
  8
ARMATUR
390
0
  6
DURCHGEHEND
 62
     1
100
AcDbCircle
 10
105.425064
 20
106.641296
 30
0.0
 40
0.149994
100
AcDbArc
 50
0.0
 51
90.0
  0
ARC
  5
102
100
AcDbEntity
  8
ARMATUR
390
0
  6
DURCHGEHEND
 62
     1
100
AcDbCircle
 10
105.425064
 20
96.191299
 30
0.0
 40
0.149994
100
AcDbArc
 50
270.0
 51
360.0
  0
ARC
  5
103
100
AcDbEntity
  8
ARMATUR
390
0
  6
DURCHGEHEND
 62
     1
100
AcDbCircle
 10
105.725067
 20
106.253799
 30
0.0
 40
0.149994
100
AcDbArc
 50
180.0
 51
270.0
  0
ARC
  5
104
100
AcDbEntity
  8
ARMATUR
390
0
  6
DURCHGEHEND
 62
     1
100
AcDbCircle
 10
105.725067
 20
96.578796
 30
0.0
 40
0.149994
100
AcDbArc
 50
90.0
 51
180.0
  0
LINE
  5
105
100
AcDbEntity
  8
ARMATUR
390
0
  6
DURCHGEHEND
 62
     1
100
AcDbLine
 10
106.062561
 20
106.10379
 30
0.0
 11
105.725067
 21
106.10379
 31
0.0
  0
LINE
  5
106
100
AcDbEntity
  8
ARMATUR
390
0
  6
DURCHGEHEND
 62
     1
100
AcDbLine
 10
105.725067
 20
96.72879
 30
0.0
 11
106.200058
 21
96.72879
 31
0.0
  0
ARC
  5
107
100
AcDbEntity
  8
ARMATUR
390
0
  6
DURCHGEHEND
 62
     1
100
AcDbCircle
 10
106.200058
 20
101.41629
 30
0.0
 40
4.6875
100
AcDbArc
 50
270.0
 51
293.47699
  0
LINE
  5
108
100
AcDbEntity
  8
ARMATUR
390
0
  6
DURCHGEHEND
 62
     1
100
AcDbLine
 10
95.675064
 20
157.737442
 30
0.0
 11
85.425064
 21
157.737442
 31
0.0
  0
LINE
  5
109
100
AcDbEntity
  8
ARMATUR
390
0
  6
DURCHGEHEND
 62
     1
100
AcDbLine
 10
85.425064
 20
158.095154
 30
0.0
 11
85.425064
 21
157.737442
 31
0.0
  0
LINE
  5
10A
100
AcDbEntity
  8
ARMATUR
390
0
  6
DURCHGEHEND
 62
     1
100
AcDbLine
 10
95.675064
 20
158.095154
 30
0.0
 11
85.425064
 21
158.095154
 31
0.0
  0
LINE
  5
10B
100
AcDbEntity
  8
ARMATUR
390
0
  6
DURCHGEHEND
 62
     1
100
AcDbLine
 10
95.675064
 20
158.095154
 30
0.0
 11
95.675064
 21
157.737442
 31
0.0
  0
LINE
  5
10C
100
AcDbEntity
  8
ARMATUR
390
0
  6
DURCHGEHEND
 62
     1
100
AcDbLine
 10
85.425064
 20
167.339523
 30
0.0
 11
85.425064
 21
158.095154
 31
0.0
  0
LINE
  5
10D
100
AcDbEntity
  8
ARMATUR
390
0
  6
DURCHGEHEND
 62
     1
100
AcDbLine
 10
95.675064
 20
167.339523
 30
0.0
 11
85.425064
 21
167.339523
 31
0.0
  0
LINE
  5
10E
100
AcDbEntity
  8
ARMATUR
390
0
  6
DURCHGEHEND
 62
     1
100
AcDbLine
 10
95.675064
 20
158.095154
 30
0.0
 11
95.675064
 21
167.339523
 31
0.0
  0
LINE
  5
10F
100
AcDbEntity
  8
ARMATUR
390
0
  6
DURCHGEHEND
 62
     1
100
AcDbLine
 10
85.425064
 20
146.175919
 30
0.0
 11
85.425064
 21
157.737442
 31
0.0
  0
LINE
  5
110
100
AcDbEntity
  8
ARMATUR
390
0
  6
DURCHGEHEND
 62
     1
100
AcDbLine
 10
95.675064
 20
146.175919
 30
0.0
 11
95.675064
 21
157.737442
 31
0.0
  0
LINE
  5
111
100
AcDbEntity
  8
ARMATUR
390
0
  6
DURCHGEHEND
 62
     1
100
AcDbLine
 10
85.425064
 20
114.16629
 30
0.0
 11
95.675064
 21
114.16629
 31
0.0
  0
LINE
  5
112
100
AcDbEntity
  8
ARMATUR
390
0
  6
DURCHGEHEND
 62
     1
100
AcDbLine
 10
85.425064
 20
146.175919
 30
0.0
 11
85.425064
 21
114.16629
 31
0.0
  0
LINE
  5
113
100
AcDbEntity
  8
ARMATUR
390
0
  6
DURCHGEHEND
 62
     1
100
AcDbLine
 10
95.675064
 20
146.175919
 30
0.0
 11
95.675064
 21
114.16629
 31
0.0
  0
LINE
  5
114
100
AcDbEntity
  8
ARMATUR
390
0
  6
DURCHGEHEND
 62
     1
100
AcDbLine
 10
109.360458
 20
96.107849
 30
0.0
 11
109.297455
 21
96.100845
 31
0.0
  0
ARC
  5
115
100
AcDbEntity
  8
ARMATUR
390
0
  6
DURCHGEHEND
 62
     1
100
AcDbCircle
 10
109.886353
 20
90.810966
 30
0.0
 40
5.323044
100
AcDbArc
 50
83.865997
 51
97.721001
  0
LINE
  5
116
100
AcDbEntity
  8
ARMATUR
390
0
  6
DURCHGEHEND
 62
     1
100
AcDbLine
 10
108.532242
 20
96.120041
 30
0.0
 11
106.062561
 21
101.41629
 31
0.0
  0
LINE
  5
117
100
AcDbEntity
  8
ARMATUR
390
0
  6
DURCHGEHEND
 62
     1
100
AcDbLine
 10
111.81192
 20
96.350479
 30
0.0
 11
111.812241
 21
96.334656
 31
0.0
  0
LINE
  5
118
100
AcDbEntity
  8
ARMATUR
390
0
  6
DURCHGEHEND
 62
     1
100
AcDbLine
 10
106.062561
 20
101.41629
 30
0.0
 11
106.062561
 21
101.41629
 31
0.0
  0
LINE
  5
119
100
AcDbEntity
  8
ARMATUR
390
0
  6
DURCHGEHEND
 62
     1
100
AcDbLine
 10
106.062561
 20
101.41629
 30
0.0
 11
106.062561
 21
106.71524
 31
0.0
  0
LINE
  5
11A
100
AcDbEntity
  8
ARMATUR
390
0
  6
DURCHGEHEND
 62
     1
100
AcDbLine
 10
111.810013
 20
106.387207
 30
0.0
 11
111.811356
 21
106.825958
 31
0.0
  0
LINE
  5
11B
100
AcDbEntity
  8
ARMATUR
390
0
  6
DURCHGEHEND
 62
     1
100
AcDbLine
 10
111.811356
 20
125.632507
 30
0.0
 11
111.811356
 21
106.825958
 31
0.0
  0
LINE
  5
11C
100
AcDbEntity
  8
ARMATUR
390
0
  6
DURCHGEHEND
 62
     1
100
AcDbLine
 10
106.062561
 20
106.10379
 30
0.0
 11
106.062561
 21
106.459763
 31
0.0
  0
ARC
  5
11D
100
AcDbEntity
  8
ARMATUR
390
0
  6
DURCHGEHEND
 62
     1
100
AcDbCircle
 10
107.012558
 20
125.712769
 30
0.0
 40
0.199997
100
AcDbArc
 50
89.003998
 51
180.003998
  0
LINE
  5
11E
100
AcDbEntity
  8
ARMATUR
390
0
  6
DURCHGEHEND
 62
     1
100
AcDbLine
 10
106.812561
 20
107.096512
 30
0.0
 11
106.812561
 21
125.712769
 31
0.0
  0
LINE
  5
11F
100
AcDbEntity
  8
ARMATUR
390
0
  6
DURCHGEHEND
 62
     1
100
AcDbLine
 10
107.016052
 20
125.91275
 30
0.0
 11
111.614838
 21
125.832474
 31
0.0
  0
POLYLINE
  5
120
100
AcDbEntity
  8
ARMATUR
390
0
  6
DURCHGEHEND
 62
     1
100
AcDb2dPolyline
 66
     1
 10
0.0
 20
0.0
 30
0.0
 75
     5
  0
VERTEX
  5
121
100
AcDbEntity
  8
0
390
0
100
AcDbVertex
100
AcDb2dVertex
 10
111.811356
 20
125.632507
 30
0.0
  0
VERTEX
  5
122
100
AcDbEntity
  8
0
390
0
100
AcDbVertex
100
AcDb2dVertex
 10
111.807587
 20
125.671097
 30
0.0
  0
VERTEX
  5
123
100
AcDbEntity
  8
0
390
0
100
AcDbVertex
100
AcDb2dVertex
 10
111.796463
 20
125.708237
 30
0.0
  0
VERTEX
  5
124
100
AcDbEntity
  8
0
390
0
100
AcDbVertex
100
AcDb2dVertex
 10
111.778366
 20
125.742523
 30
0.0
  0
VERTEX
  5
125
100
AcDbEntity
  8
0
390
0
100
AcDbVertex
100
AcDb2dVertex
 10
111.753998
 20
125.77269
 30
0.0
  0
VERTEX
  5
126
100
AcDbEntity
  8
0
390
0
100
AcDbVertex
100
AcDb2dVertex
 10
111.724274
 20
125.797577
 30
0.0
  0
VERTEX
  5
127
100
AcDbEntity
  8
0
390
0
100
AcDbVertex
100
AcDb2dVertex
 10
111.690292
 20
125.816269
 30
0.0
  0
VERTEX
  5
128
100
AcDbEntity
  8
0
390
0
100
AcDbVertex
100
AcDb2dVertex
 10
111.653366
 20
125.828049
 30
0.0
  0
VERTEX
  5
129
100
AcDbEntity
  8
0
390
0
100
AcDbVertex
100
AcDb2dVertex
 10
111.614838
 20
125.832474
 30
0.0
  0
SEQEND
  5
12A
100
AcDbEntity
  8
0
390
0
  0
LINE
  5
12B
100
AcDbEntity
  8
ARMATUR
390
0
  6
DURCHGEHEND
 62
     1
100
AcDbLine
 10
111.614838
 20
125.832474
 30
0.0
 11
111.616058
 21
125.832458
 31
0.0
  0
LINE
  5
12C
100
AcDbEntity
  8
ARMATUR
390
0
  6
DURCHGEHEND
 62
     1
100
AcDbLine
 10
105.575058
 20
96.191299
 30
0.0
 11
105.575058
 21
106.641296
 31
0.0
  0
LINE
  5
12D
100
AcDbEntity
  8
ARMATUR
390
0
  6
DURCHGEHEND
 62
     1
100
AcDbLine
 10
84.050064
 20
113.91629
 30
0.0
 11
84.050064
 21
82.666298
 31
0.0
  0
LINE
  5
12E
100
AcDbEntity
  8
ARMATUR
390
0
  6
DURCHGEHEND
 62
     1
100
AcDbLine
 10
84.050072
 20
82.666298
 30
0.0
 11
102.800064
 21
82.666298
 31
0.0
  0
LINE
  5
12F
100
AcDbEntity
  8
ARMATUR
390
0
  6
DURCHGEHEND
 62
     1
100
AcDbLine
 10
102.800064
 20
113.91629
 30
0.0
 11
84.050064
 21
113.91629
 31
0.0
  0
LINE
  5
130
100
AcDbEntity
  8
ARMATUR
390
0
  6
DURCHGEHEND
 62
     1
100
AcDbLine
 10
102.800064
 20
82.666298
 30
0.0
 11
102.800064
 21
113.91629
 31
0.0
  0
LINE
  5
131
100
AcDbEntity
  8
ARMATUR
390
0
  6
DURCHGEHEND
 62
     1
100
AcDbLine
 10
111.811844
 20
96.354156
 30
0.0
 11
111.81192
 21
96.350479
 31
0.0
  0
LINE
  5
132
100
AcDbEntity
  8
ARMATUR
390
0
  6
DURCHGEHEND
 62
     1
100
AcDbLine
 10
111.812561
 20
125.632599
 30
0.0
 11
111.811356
 21
125.632507
 31
0.0
  0
LINE
  5
133
100
AcDbEntity
  8
ARMATUR
390
0
  6
DURCHGEHEND
 62
     1
100
AcDbLine
 10
155.417694
 20
114.16629
 30
0.0
 11
155.417694
 21
113.91629
 31
0.0
  0
LINE
  5
134
100
AcDbEntity
  8
ARMATUR
390
0
  6
DURCHGEHEND
 62
     1
100
AcDbLine
 10
161.417694
 20
113.91629
 30
0.0
 11
161.417694
 21
114.16629
 31
0.0
  0
LINE
  5
135
100
AcDbEntity
  8
ARMATUR
390
0
  6
DURCHGEHEND
 62
     1
100
AcDbLine
 10
155.167694
 20
146.175919
 30
0.0
 11
155.167694
 21
114.16629
 31
0.0
  0
ARC
  5
136
100
AcDbEntity
  8
ARMATUR
390
0
  6
DURCHGEHEND
 62
     1
100
AcDbCircle
 10
174.667709
 20
146.175919
 30
0.0
 40
19.5
100
AcDbArc
 50
92.0
 51
180.0
  0
LINE
  5
137
100
AcDbEntity
  8
ARMATUR
390
0
  6
DURCHGEHEND
 62
     1
100
AcDbLine
 10
173.987167
 20
165.664032
 30
0.0
 11
221.966751
 21
167.339523
 31
0.0
  0
LINE
  5
138
100
AcDbEntity
  8
ARMATUR
390
0
  6
DURCHGEHEND
 62
     1
100
AcDbLine
 10
221.966751
 20
167.339523
 30
0.0
 11
222.289581
 21
158.095154
 31
0.0
  0
LINE
  5
139
100
AcDbEntity
  8
ARMATUR
390
0
  6
DURCHGEHEND
 62
     1
100
AcDbLine
 10
222.289581
 20
158.095154
 30
0.0
 11
212.045822
 21
157.737442
 31
0.0
  0
LINE
  5
13A
100
AcDbEntity
  8
ARMATUR
390
0
  6
DURCHGEHEND
 62
     1
100
AcDbLine
 10
212.045822
 20
157.737442
 30
0.0
 11
212.019653
 21
158.486984
 31
0.0
  0
ARC
  5
13B
100
AcDbEntity
  8
ARMATUR
390
0
  6
DURCHGEHEND
 62
     1
100
AcDbCircle
 10
210.020859
 20
158.417175
 30
0.0
 40
2.0
100
AcDbArc
 50
2.0
 51
92.0
  0
LINE
  5
13C
100
AcDbEntity
  8
ARMATUR
390
0
  6
DURCHGEHEND
 62
     1
100
AcDbLine
 10
174.214005
 20
159.167999
 30
0.0
 11
209.951065
 21
160.415955
 31
0.0
  0
ARC
  5
13D
100
AcDbEntity
  8
ARMATUR
390
0
  6
DURCHGEHEND
 62
     1
100
AcDbCircle
 10
174.667709
 20
146.175919
 30
0.0
 40
13.0
100
AcDbArc
 50
92.0
 51
180.0
  0
LINE
  5
13E
100
AcDbEntity
  8
ARMATUR
390
0
  6
DURCHGEHEND
 62
     1
100
AcDbLine
 10
161.667694
 20
146.175919
 30
0.0
 11
161.667694
 21
114.16629
 31
0.0
  0
LINE
  5
13F
100
AcDbEntity
  8
ARMATUR
390
0
  6
DURCHGEHEND
 62
     1
100
AcDbLine
 10
155.167694
 20
114.16629
 30
0.0
 11
161.667694
 21
114.16629
 31
0.0
  0
LINE
  5
140
100
AcDbEntity
  8
ARMATUR
390
0
  6
DURCHGEHEND
 62
     1
100
AcDbLine
 10
151.917694
 20
113.91629
 30
0.0
 11
151.917694
 21
82.666298
 31
0.0
  0
LINE
  5
141
100
AcDbEntity
  8
ARMATUR
390
0
  6
DURCHGEHEND
 62
     1
100
AcDbLine
 10
164.917694
 20
113.91629
 30
0.0
 11
164.917694
 21
82.666298
 31
0.0
  0
LINE
  5
142
100
AcDbEntity
  8
ARMATUR
390
0
  6
DURCHGEHEND
 62
     1
100
AcDbLine
 10
151.917694
 20
82.666298
 30
0.0
 11
164.917694
 21
82.666298
 31
0.0
  0
LINE
  5
143
100
AcDbEntity
  8
ARMATUR
390
0
  6
DURCHGEHEND
 62
     1
100
AcDbLine
 10
151.917694
 20
113.91629
 30
0.0
 11
164.917694
 21
113.91629
 31
0.0
  0
LINE
  5
144
100
AcDbEntity
  8
ARMATUR
390
0
  6
DURCHGEHEND
 62
     1
100
AcDbLine
 10
95.254547
 20
55.287689
 30
0.0
 11
95.254547
 21
66.865036
 31
0.0
  0
LINE
  5
145
100
AcDbEntity
  8
ARMATUR
390
0
  6
DURCHGEHEND
 62
     1
100
AcDbLine
 10
92.754547
 20
66.865036
 30
0.0
 11
92.754547
 21
54.950882
 31
0.0
  0
LINE
  5
146
100
AcDbEntity
  8
ARMATUR
390
0
  6
DURCHGEHEND
 62
     1
100
AcDbLine
 10
97.879547
 20
67.115036
 30
0.0
 11
97.879547
 21
69.022308
 31
0.0
  0
LINE
  5
147
100
AcDbEntity
  8
ARMATUR
390
0
  6
DURCHGEHEND
 62
     1
100
AcDbLine
 10
89.379547
 20
69.022293
 30
0.0
 11
89.379547
 21
67.115036
 31
0.0
  0
LINE
  5
148
100
AcDbEntity
  8
ARMATUR
390
0
  6
DURCHGEHEND
 62
     1
100
AcDbLine
 10
89.379547
 20
67.115036
 30
0.0
 11
89.629547
 21
66.865036
 31
0.0
  0
LINE
  5
149
100
AcDbEntity
  8
ARMATUR
390
0
  6
DURCHGEHEND
 62
     1
100
AcDbLine
 10
97.629547
 20
66.865036
 30
0.0
 11
97.879547
 21
67.115036
 31
0.0
  0
LINE
  5
14A
100
AcDbEntity
  8
ARMATUR
390
0
  6
DURCHGEHEND
 62
     1
100
AcDbLine
 10
92.061111
 20
68.990013
 30
0.0
 11
92.061111
 21
67.115036
 31
0.0
  0
LINE
  5
14B
100
AcDbEntity
  8
ARMATUR
390
0
  6
DURCHGEHEND
 62
     1
100
AcDbLine
 10
92.061111
 20
67.115036
 30
0.0
 11
89.379547
 21
67.115036
 31
0.0
  0
LINE
  5
14C
100
AcDbEntity
  8
ARMATUR
390
0
  6
DURCHGEHEND
 62
     1
100
AcDbLine
 10
97.879547
 20
67.115036
 30
0.0
 11
95.197983
 21
67.115036
 31
0.0
  0
LINE
  5
14D
100
AcDbEntity
  8
ARMATUR
390
0
  6
DURCHGEHEND
 62
     1
100
AcDbLine
 10
95.197983
 20
67.115036
 30
0.0
 11
95.197983
 21
68.990013
 31
0.0
  0
LINE
  5
14E
100
AcDbEntity
  8
ARMATUR
390
0
  6
DURCHGEHEND
 62
     1
100
AcDbLine
 10
92.999069
 20
66.865036
 30
0.0
 11
89.629547
 21
66.865036
 31
0.0
  0
POLYLINE
  5
14F
100
AcDbEntity
  8
ARMATUR
390
0
  6
DURCHGEHEND
 62
     1
100
AcDb2dPolyline
 66
     1
 10
0.0
 20
0.0
 30
0.0
 75
     5
  0
VERTEX
  5
150
100
AcDbEntity
  8
0
390
0
100
AcDbVertex
100
AcDb2dVertex
 10
92.061111
 20
67.115036
 30
0.0
  0
VERTEX
  5
151
100
AcDbEntity
  8
0
390
0
100
AcDbVertex
100
AcDb2dVertex
 10
92.269814
 20
67.042519
 30
0.0
  0
VERTEX
  5
152
100
AcDbEntity
  8
0
390
0
100
AcDbVertex
100
AcDb2dVertex
 10
92.999062
 20
66.865036
 30
0.0
  0
SEQEND
  5
153
100
AcDbEntity
  8
0
390
0
  0
LINE
  5
154
100
AcDbEntity
  8
ARMATUR
390
0
  6
DURCHGEHEND
 62
     1
100
AcDbLine
 10
94.260025
 20
66.865036
 30
0.0
 11
95.197983
 21
67.115036
 31
0.0
  0
LINE
  5
155
100
AcDbEntity
  8
ARMATUR
390
0
  6
DURCHGEHEND
 62
     1
100
AcDbLine
 10
97.629547
 20
66.865036
 30
0.0
 11
94.260025
 21
66.865036
 31
0.0
  0
LINE
  5
156
100
AcDbEntity
  8
ARMATUR
390
0
  6
DURCHGEHEND
 62
     1
100
AcDbLine
 10
92.999069
 20
66.865036
 30
0.0
 11
94.260025
 21
66.865036
 31
0.0
  0
LINE
  5
157
100
AcDbEntity
  8
ARMATUR
390
0
  6
DURCHGEHEND
 62
     3
100
AcDbLine
 10
89.830124
 20
68.996689
 30
0.0
 11
89.830124
 21
66.897034
 31
0.0
  0
LINE
  5
158
100
AcDbEntity
  8
ARMATUR
390
0
  6
DURCHGEHEND
 62
     3
100
AcDbLine
 10
97.491966
 20
69.00293
 30
0.0
 11
97.491966
 21
66.903275
 31
0.0
  0
POLYLINE
  5
159
100
AcDbEntity
  8
ARMATUR
390
0
  6
DURCHGEHEND
 62
     3
100
AcDb2dPolyline
 66
     1
 10
0.0
 20
0.0
 30
0.0
 75
     5
  0
VERTEX
  5
15A
100
AcDbEntity
  8
0
390
0
100
AcDbVertex
100
AcDb2dVertex
 10
92.754547
 20
54.950882
 30
0.0
  0
VERTEX
  5
15B
100
AcDbEntity
  8
0
390
0
100
AcDbVertex
100
AcDb2dVertex
 10
92.757545
 20
54.942699
 30
0.0
  0
VERTEX
  5
15C
100
AcDbEntity
  8
0
390
0
100
AcDbVertex
100
AcDb2dVertex
 10
92.767227
 20
54.920052
 30
0.0
  0
VERTEX
  5
15D
100
AcDbEntity
  8
0
390
0
100
AcDbVertex
100
AcDb2dVertex
 10
92.784622
 20
54.885792
 30
0.0
  0
VERTEX
  5
15E
100
AcDbEntity
  8
0
390
0
100
AcDbVertex
100
AcDb2dVertex
 10
92.810753
 20
54.842762
 30
0.0
  0
VERTEX
  5
15F
100
AcDbEntity
  8
0
390
0
100
AcDbVertex
100
AcDb2dVertex
 10
92.846649
 20
54.793819
 30
0.0
  0
VERTEX
  5
160
100
AcDbEntity
  8
0
390
0
100
AcDbVertex
100
AcDb2dVertex
 10
92.893333
 20
54.74181
 30
0.0
  0
VERTEX
  5
161
100
AcDbEntity
  8
0
390
0
100
AcDbVertex
100
AcDb2dVertex
 10
92.951828
 20
54.689587
 30
0.0
  0
VERTEX
  5
162
100
AcDbEntity
  8
0
390
0
100
AcDbVertex
100
AcDb2dVertex
 10
93.02317
 20
54.639996
 30
0.0
  0
VERTEX
  5
163
100
AcDbEntity
  8
0
390
0
100
AcDbVertex
100
AcDb2dVertex
 10
93.108376
 20
54.59589
 30
0.0
  0
VERTEX
  5
164
100
AcDbEntity
  8
0
390
0
100
AcDbVertex
100
AcDb2dVertex
 10
93.208481
 20
54.560116
 30
0.0
  0
VERTEX
  5
165
100
AcDbEntity
  8
0
390
0
100
AcDbVertex
100
AcDb2dVertex
 10
93.324509
 20
54.535526
 30
0.0
  0
VERTEX
  5
166
100
AcDbEntity
  8
0
390
0
100
AcDbVertex
100
AcDb2dVertex
 10
93.457481
 20
54.524971
 30
0.0
  0
VERTEX
  5
167
100
AcDbEntity
  8
0
390
0
100
AcDbVertex
100
AcDb2dVertex
 10
93.608429
 20
54.531296
 30
0.0
  0
VERTEX
  5
168
100
AcDbEntity
  8
0
390
0
100
AcDbVertex
100
AcDb2dVertex
 10
93.778374
 20
54.557354
 30
0.0
  0
VERTEX
  5
169
100
AcDbEntity
  8
0
390
0
100
AcDbVertex
100
AcDb2dVertex
 10
93.968346
 20
54.605995
 30
0.0
  0
VERTEX
  5
16A
100
AcDbEntity
  8
0
390
0
100
AcDbVertex
100
AcDb2dVertex
 10
94.179375
 20
54.680073
 30
0.0
  0
VERTEX
  5
16B
100
AcDbEntity
  8
0
390
0
100
AcDbVertex
100
AcDb2dVertex
 10
94.412483
 20
54.782429
 30
0.0
  0
VERTEX
  5
16C
100
AcDbEntity
  8
0
390
0
100
AcDbVertex
100
AcDb2dVertex
 10
94.668694
 20
54.915916
 30
0.0
  0
VERTEX
  5
16D
100
AcDbEntity
  8
0
390
0
100
AcDbVertex
100
AcDb2dVertex
 10
94.949043
 20
55.083385
 30
0.0
  0
VERTEX
  5
16E
100
AcDbEntity
  8
0
390
0
100
AcDbVertex
100
AcDb2dVertex
 10
95.254547
 20
55.287689
 30
0.0
  0
SEQEND
  5
16F
100
AcDbEntity
  8
0
390
0
  0
LINE
  5
170
100
AcDbEntity
  8
ARMATUR
390
0
  6
DURCHGEHEND
 62
     1
100
AcDbLine
 10
157.706329
 20
55.091042
 30
0.0
 11
157.706329
 21
66.701805
 31
0.0
  0
LINE
  5
171
100
AcDbEntity
  8
ARMATUR
390
0
  6
DURCHGEHEND
 62
     1
100
AcDbLine
 10
155.206329
 20
66.701805
 30
0.0
 11
155.206329
 21
55.338745
 31
0.0
  0
LINE
  5
172
100
AcDbEntity
  8
ARMATUR
390
0
  6
DURCHGEHEND
 62
     1
100
AcDbLine
 10
161.956329
 20
55.407394
 30
0.0
 11
161.956329
 21
66.701805
 31
0.0
  0
LINE
  5
173
100
AcDbEntity
  8
ARMATUR
390
0
  6
DURCHGEHEND
 62
     1
100
AcDbLine
 10
159.456329
 20
66.701805
 30
0.0
 11
159.456329
 21
55.121052
 31
0.0
  0
LINE
  5
174
100
AcDbEntity
  8
ARMATUR
390
0
  6
DURCHGEHEND
 62
     1
100
AcDbLine
 10
162.531326
 20
69.355591
 30
0.0
 11
162.531326
 21
66.951805
 31
0.0
  0
LINE
  5
175
100
AcDbEntity
  8
ARMATUR
390
0
  6
DURCHGEHEND
 62
     1
100
AcDbLine
 10
162.531326
 20
66.951805
 30
0.0
 11
154.631332
 21
66.951805
 31
0.0
  0
LINE
  5
176
100
AcDbEntity
  8
ARMATUR
390
0
  6
DURCHGEHEND
 62
     1
100
AcDbLine
 10
154.631332
 20
66.951805
 30
0.0
 11
154.631332
 21
69.372559
 31
0.0
  0
LINE
  5
177
100
AcDbEntity
  8
ARMATUR
390
0
  6
DURCHGEHEND
 62
     1
100
AcDbLine
 10
162.531326
 20
66.701805
 30
0.0
 11
154.631332
 21
66.701805
 31
0.0
  0
LINE
  5
178
100
AcDbEntity
  8
ARMATUR
390
0
  6
DURCHGEHEND
 62
     1
100
AcDbLine
 10
154.631332
 20
66.701805
 30
0.0
 11
154.631332
 21
66.951805
 31
0.0
  0
LINE
  5
179
100
AcDbEntity
  8
ARMATUR
390
0
  6
DURCHGEHEND
 62
     1
100
AcDbLine
 10
162.531326
 20
66.951805
 30
0.0
 11
162.531326
 21
66.701805
 31
0.0
  0
LINE
  5
17A
100
AcDbEntity
  8
ARMATUR
390
0
  6
DURCHGEHEND
 62
     1
100
AcDbLine
 10
158.369949
 20
69.747849
 30
0.0
 11
158.587296
 21
69.747849
 31
0.0
  0
ARC
  5
17B
100
AcDbEntity
  8
ARMATUR
390
0
  6
DURCHGEHEND
 62
     1
100
AcDbCircle
 10
160.877365
 20
76.534607
 30
0.0
 40
7.162727
100
AcDbArc
 50
251.354004
 51
269.209991
  0
LINE
  5
17C
100
AcDbEntity
  8
ARMATUR
390
0
  6
DURCHGEHEND
 62
     1
100
AcDbLine
 10
160.77861
 20
69.372559
 30
0.0
 11
156.178635
 21
69.372559
 31
0.0
  0
ARC
  5
17D
100
AcDbEntity
  8
ARMATUR
390
0
  6
DURCHGEHEND
 62
     1
100
AcDbCircle
 10
156.091202
 20
76.468506
 30
0.0
 40
7.096474
100
AcDbArc
 50
270.705994
 51
288.730011
  0
ARC
  5
17E
100
AcDbEntity
  8
ARMATUR
390
0
  6
DURCHGEHEND
 62
     1
100
AcDbCircle
 10
156.27739
 20
76.534607
 30
0.0
 40
7.162727
100
AcDbArc
 50
251.354004
 51
269.209991
  0
ARC
  5
17F
100
AcDbEntity
  8
ARMATUR
390
0
  6
DURCHGEHEND
 62
     1
100
AcDbCircle
 10
160.691177
 20
76.468506
 30
0.0
 40
7.096474
100
AcDbArc
 50
270.705994
 51
288.730011
  0
LINE
  5
180
100
AcDbEntity
  8
ARMATUR
390
0
  6
DURCHGEHEND
 62
     1
100
AcDbLine
 10
153.878616
 20
69.747849
 30
0.0
 11
153.987289
 21
69.747849
 31
0.0
  0
LINE
  5
181
100
AcDbEntity
  8
ARMATUR
390
0
  6
DURCHGEHEND
 62
     1
100
AcDbLine
 10
153.878616
 20
69.747849
 30
0.0
 11
153.878616
 21
69.372559
 31
0.0
  0
LINE
  5
182
100
AcDbEntity
  8
ARMATUR
390
0
  6
DURCHGEHEND
 62
     1
100
AcDbLine
 10
156.178635
 20
69.372559
 30
0.0
 11
153.878616
 21
69.372559
 31
0.0
  0
LINE
  5
183
100
AcDbEntity
  8
ARMATUR
390
0
  6
DURCHGEHEND
 62
     1
100
AcDbLine
 10
162.969955
 20
69.747849
 30
0.0
 11
163.078629
 21
69.747849
 31
0.0
  0
LINE
  5
184
100
AcDbEntity
  8
ARMATUR
390
0
  6
DURCHGEHEND
 62
     1
100
AcDbLine
 10
163.078629
 20
69.372559
 30
0.0
 11
163.078629
 21
69.747849
 31
0.0
  0
LINE
  5
185
100
AcDbEntity
  8
ARMATUR
390
0
  6
DURCHGEHEND
 62
     1
100
AcDbLine
 10
163.078629
 20
69.372559
 30
0.0
 11
160.77861
 21
69.372559
 31
0.0
  0
POLYLINE
  5
186
100
AcDbEntity
  8
ARMATUR
390
0
  6
DURCHGEHEND
 62
     3
100
AcDb2dPolyline
 66
     1
 10
0.0
 20
0.0
 30
0.0
 75
     5
  0
VERTEX
  5
187
100
AcDbEntity
  8
0
390
0
100
AcDbVertex
100
AcDb2dVertex
 10
155.198654
 20
55.340214
 30
0.0
  0
VERTEX
  5
188
100
AcDbEntity
  8
0
390
0
100
AcDbVertex
100
AcDb2dVertex
 10
155.306381
 20
55.321461
 30
0.0
  0
VERTEX
  5
189
100
AcDbEntity
  8
0
390
0
100
AcDbVertex
100
AcDb2dVertex
 10
155.415939
 20
55.303192
 30
0.0
  0
VERTEX
  5
18A
100
AcDbEntity
  8
0
390
0
100
AcDbVertex
100
AcDb2dVertex
 10
155.527344
 20
55.285439
 30
0.0
  0
VERTEX
  5
18B
100
AcDbEntity
  8
0
390
0
100
AcDbVertex
100
AcDb2dVertex
 10
155.640579
 20
55.268227
 30
0.0
  0
VERTEX
  5
18C
100
AcDbEntity
  8
0
390
0
100
AcDbVertex
100
AcDb2dVertex
 10
155.755661
 20
55.251587
 30
0.0
  0
VERTEX
  5
18D
100
AcDbEntity
  8
0
390
0
100
AcDbVertex
100
AcDb2dVertex
 10
155.872604
 20
55.23555
 30
0.0
  0
VERTEX
  5
18E
100
AcDbEntity
  8
0
390
0
100
AcDbVertex
100
AcDb2dVertex
 10
155.991394
 20
55.220146
 30
0.0
  0
VERTEX
  5
18F
100
AcDbEntity
  8
0
390
0
100
AcDbVertex
100
AcDb2dVertex
 10
156.11203
 20
55.205406
 30
0.0
  0
VERTEX
  5
190
100
AcDbEntity
  8
0
390
0
100
AcDbVertex
100
AcDb2dVertex
 10
156.234528
 20
55.191357
 30
0.0
  0
VERTEX
  5
191
100
AcDbEntity
  8
0
390
0
100
AcDbVertex
100
AcDb2dVertex
 10
156.358887
 20
55.178032
 30
0.0
  0
VERTEX
  5
192
100
AcDbEntity
  8
0
390
0
100
AcDbVertex
100
AcDb2dVertex
 10
156.485107
 20
55.165459
 30
0.0
  0
VERTEX
  5
193
100
AcDbEntity
  8
0
390
0
100
AcDbVertex
100
AcDb2dVertex
 10
156.613205
 20
55.153671
 30
0.0
  0
VERTEX
  5
194
100
AcDbEntity
  8
0
390
0
100
AcDbVertex
100
AcDb2dVertex
 10
156.743164
 20
55.142693
 30
0.0
  0
VERTEX
  5
195
100
AcDbEntity
  8
0
390
0
100
AcDbVertex
100
AcDb2dVertex
 10
156.874985
 20
55.132557
 30
0.0
  0
VERTEX
  5
196
100
AcDbEntity
  8
0
390
0
100
AcDbVertex
100
AcDb2dVertex
 10
157.008698
 20
55.123291
 30
0.0
  0
VERTEX
  5
197
100
AcDbEntity
  8
0
390
0
100
AcDbVertex
100
AcDb2dVertex
 10
157.144287
 20
55.114929
 30
0.0
  0
VERTEX
  5
198
100
AcDbEntity
  8
0
390
0
100
AcDbVertex
100
AcDb2dVertex
 10
157.281769
 20
55.107502
 30
0.0
  0
VERTEX
  5
199
100
AcDbEntity
  8
0
390
0
100
AcDbVertex
100
AcDb2dVertex
 10
157.421127
 20
55.101032
 30
0.0
  0
VERTEX
  5
19A
100
AcDbEntity
  8
0
390
0
100
AcDbVertex
100
AcDb2dVertex
 10
157.562363
 20
55.095558
 30
0.0
  0
VERTEX
  5
19B
100
AcDbEntity
  8
0
390
0
100
AcDbVertex
100
AcDb2dVertex
 10
157.705505
 20
55.091103
 30
0.0
  0
SEQEND
  5
19C
100
AcDbEntity
  8
0
390
0
  0
POLYLINE
  5
19D
100
AcDbEntity
  8
ARMATUR
390
0
  6
DURCHGEHEND
 62
     3
100
AcDb2dPolyline
 66
     1
 10
0.0
 20
0.0
 30
0.0
 75
     5
  0
VERTEX
  5
19E
100
AcDbEntity
  8
0
390
0
100
AcDbVertex
100
AcDb2dVertex
 10
159.455215
 20
55.120979
 30
0.0
  0
VERTEX
  5
19F
100
AcDbEntity
  8
0
390
0
100
AcDbVertex
100
AcDb2dVertex
 10
159.571045
 20
55.128181
 30
0.0
  0
VERTEX
  5
1A0
100
AcDbEntity
  8
0
390
0
100
AcDbVertex
100
AcDb2dVertex
 10
159.687805
 20
55.136066
 30
0.0
  0
VERTEX
  5
1A1
100
AcDbEntity
  8
0
390
0
100
AcDbVertex
100
AcDb2dVertex
 10
159.805511
 20
55.14465
 30
0.0
  0
VERTEX
  5
1A2
100
AcDbEntity
  8
0
390
0
100
AcDbVertex
100
AcDb2dVertex
 10
159.924149
 20
55.153931
 30
0.0
  0
VERTEX
  5
1A3
100
AcDbEntity
  8
0
390
0
100
AcDbVertex
100
AcDb2dVertex
 10
160.043732
 20
55.163929
 30
0.0
  0
VERTEX
  5
1A4
100
AcDbEntity
  8
0
390
0
100
AcDbVertex
100
AcDb2dVertex
 10
160.164246
 20
55.174652
 30
0.0
  0
VERTEX
  5
1A5
100
AcDbEntity
  8
0
390
0
100
AcDbVertex
100
AcDb2dVertex
 10
160.285706
 20
55.186108
 30
0.0
  0
VERTEX
  5
1A6
100
AcDbEntity
  8
0
390
0
100
AcDbVertex
100
AcDb2dVertex
 10
160.408112
 20
55.198307
 30
0.0
  0
VERTEX
  5
1A7
100
AcDbEntity
  8
0
390
0
100
AcDbVertex
100
AcDb2dVertex
 10
160.531464
 20
55.211262
 30
0.0
  0
VERTEX
  5
1A8
100
AcDbEntity
  8
0
390
0
100
AcDbVertex
100
AcDb2dVertex
 10
160.655762
 20
55.224983
 30
0.0
  0
VERTEX
  5
1A9
100
AcDbEntity
  8
0
390
0
100
AcDbVertex
100
AcDb2dVertex
 10
160.781006
 20
55.239475
 30
0.0
  0
VERTEX
  5
1AA
100
AcDbEntity
  8
0
390
0
100
AcDbVertex
100
AcDb2dVertex
 10
160.907181
 20
55.254753
 30
0.0
  0
VERTEX
  5
1AB
100
AcDbEntity
  8
0
390
0
100
AcDbVertex
100
AcDb2dVertex
 10
161.034317
 20
55.270828
 30
0.0
  0
VERTEX
  5
1AC
100
AcDbEntity
  8
0
390
0
100
AcDbVertex
100
AcDb2dVertex
 10
161.162415
 20
55.287704
 30
0.0
  0
VERTEX
  5
1AD
100
AcDbEntity
  8
0
390
0
100
AcDbVertex
100
AcDb2dVertex
 10
161.291443
 20
55.305397
 30
0.0
  0
VERTEX
  5
1AE
100
AcDbEntity
  8
0
390
0
100
AcDbVertex
100
AcDb2dVertex
 10
161.421432
 20
55.323917
 30
0.0
  0
VERTEX
  5
1AF
100
AcDbEntity
  8
0
390
0
100
AcDbVertex
100
AcDb2dVertex
 10
161.552368
 20
55.343269
 30
0.0
  0
VERTEX
  5
1B0
100
AcDbEntity
  8
0
390
0
100
AcDbVertex
100
AcDb2dVertex
 10
161.684265
 20
55.363468
 30
0.0
  0
VERTEX
  5
1B1
100
AcDbEntity
  8
0
390
0
100
AcDbVertex
100
AcDb2dVertex
 10
161.817108
 20
55.384521
 30
0.0
  0
VERTEX
  5
1B2
100
AcDbEntity
  8
0
390
0
100
AcDbVertex
100
AcDb2dVertex
 10
161.950912
 20
55.406441
 30
0.0
  0
SEQEND
  5
1B3
100
AcDbEntity
  8
0
390
0
  0
LINE
  5
1B4
100
AcDbEntity
  8
ACHSEN
390
0
  6
STRICHPUNKTIERT
 62
     4
100
AcDbLine
 10
158.488754
 20
53.79847
 30
0.0
 11
158.488754
 21
144.664063
 31
0.0
  0
LINE
  5
1B5
100
AcDbEntity
  8
ACHSEN
390
0
  6
STRICHPUNKTIERT
 62
     4
100
AcDbLine
 10
90.746033
 20
110.676186
 30
0.0
 11
90.746033
 21
168.765213
 31
0.0
  0
LINE
  5
1B6
100
AcDbEntity
  8
ACHSEN
390
0
  6
STRICHPUNKTIERT
 62
     4
100
AcDbLine
 10
88.530449
 20
30.572868
 30
0.0
 11
99.002327
 21
30.572868
 31
0.0
  0
LINE
  5
1B7
100
AcDbEntity
  8
ACHSEN
390
0
  6
STRICHPUNKTIERT
 62
     4
100
AcDbLine
 10
217.062286
 20
155.606613
 30
0.0
 11
216.81691
 21
162.632996
 31
0.0
  0
LINE
  5
1B8
100
AcDbEntity
  8
ACHSEN
390
0
  6
STRICHPUNKTIERT
 62
     4
100
AcDbLine
 10
93.664932
 20
24.393532
 30
0.0
 11
93.664932
 21
116.450096
 31
0.0
  0
TEXT
  5
1B9
100
AcDbEntity
  8
TEXT
390
0
100
AcDbText
 10
66.902069
 20
41.835152
 30
0.0
 40
7.055555
  1
max. 45
 50
90.0
100
AcDbText
  0
LINE
  5
1BA
100
AcDbEntity
  8
TEXT
390
0
  6
DURCHGEHEND
 62
     9
100
AcDbLine
 10
105.874527
 20
29.010719
 30
0.0
 11
101.874527
 21
25.010689
 31
0.0
  0
CIRCLE
  5
1BB
100
AcDbEntity
  8
TEXT
390
0
  6
DURCHGEHEND
 62
     9
100
AcDbCircle
 10
103.89299
 20
27.029182
 30
0.0
 40
1.875
  0
TEXT
  5
1BC
100
AcDbEntity
  8
TEXT
390
0
100
AcDbText
 10
106.99086
 20
24.061913
 30
0.0
 40
7.055555
  1
35
100
AcDbText
  0
TEXT
  5
1BD
100
AcDbEntity
  8
TEXT
390
0
100
AcDbText
 10
73.528473
 20
137.089783
 30
0.0
 40
7.055555
  1
75
100
AcDbText
  0
TEXT
  5
1BE
100
AcDbEntity
  8
TEXT
390
0
100
AcDbText
 10
181.026962
 20
182.235535
 30
0.0
 40
7.055555
  1
235
100
AcDbText
  0
TEXT
  5
1BF
100
AcDbEntity
  8
TEXT
390
0
100
AcDbText
 10
97.212372
 20
182.236389
 30
0.0
 40
7.055555
  1
84
100
AcDbText
  0
TEXT
  5
1C0
100
AcDbEntity
  8
TEXT
390
0
100
AcDbText
 10
230.527908
 20
112.6418
 30
0.0
 40
7.055555
  1
301
 50
90.0
100
AcDbText
  0
TEXT
  5
1C1
100
AcDbEntity
  8
TEXT
390
0
100
AcDbText
 10
245.109299
 20
118.826653
 30
0.0
 40
7.055555
  1
339
 50
90.0
100
AcDbText
  0
TEXT
  5
1C2
100
AcDbEntity
  8
TEXT
390
0
100
AcDbText
 10
140.530823
 20
137.089783
 30
0.0
 40
7.055555
  1
52
100
AcDbText
  0
LINE
  5
1C3
100
AcDbEntity
  8
TEXT
390
0
  6
DURCHGEHEND
 62
     1
100
AcDbLine
 10
93.692307
 20
70.990036
 30
0.0
 11
99.317299
 21
70.990036
 31
0.0
  0
LINE
  5
1C4
100
AcDbEntity
  8
TEXT
390
0
  6
DURCHGEHEND
 62
     1
100
AcDbLine
 10
88.067322
 20
70.990036
 30
0.0
 11
93.692307
 21
70.990036
 31
0.0
  0
LINE
  5
1C5
100
AcDbEntity
  8
TEXT
390
0
  6
DURCHGEHEND
 62
     3
100
AcDbLine
 10
90.106842
 20
82.654282
 30
0.0
 11
90.106842
 21
77.515022
 31
0.0
  0
LINE
  5
1C6
100
AcDbEntity
  8
TEXT
390
0
  6
DURCHGEHEND
 62
     3
100
AcDbLine
 10
97.19812
 20
82.666298
 30
0.0
 11
97.19812
 21
77.515007
 31
0.0
  0
LINE
  5
1C7
100
AcDbEntity
  8
TEXT
390
0
  6
STITCHLINE
 62
     5
100
AcDbLine
 10
99.192299
 20
72.940033
 30
0.0
 11
99.192299
 21
76.190033
 31
0.0
  0
LINE
  5
1C8
100
AcDbEntity
  8
TEXT
390
0
  6
STITCHLINE
 62
     5
100
AcDbLine
 10
88.192322
 20
76.190033
 30
0.0
 11
88.192322
 21
72.940033
 31
0.0
  0
LINE
  5
1C9
100
AcDbEntity
  8
TEXT
390
0
  6
STITCHLINE
 62
     5
100
AcDbLine
 10
82.567307
 20
77.51503
 30
0.0
 11
82.567307
 21
76.190033
 31
0.0
  0
LINE
  5
1CA
100
AcDbEntity
  8
TEXT
390
0
  6
STITCHLINE
 62
     5
100
AcDbLine
 10
104.817299
 20
76.190033
 30
0.0
 11
104.817299
 21
77.51503
 31
0.0
  0
LINE
  5
1CB
100
AcDbEntity
  8
TEXT
390
0
  6
DURCHGEHEND
 62
     1
100
AcDbLine
 10
99.067299
 20
72.190033
 30
0.0
 11
99.067299
 21
72.940033
 31
0.0
  0
LINE
  5
1CC
100
AcDbEntity
  8
TEXT
390
0
  6
DURCHGEHEND
 62
     1
100
AcDbLine
 10
88.317322
 20
72.940033
 30
0.0
 11
88.317322
 21
72.190033
 31
0.0
  0
LINE
  5
1CD
100
AcDbEntity
  8
TEXT
390
0
  6
DURCHGEHEND
 62
     1
100
AcDbLine
 10
88.192322
 20
72.190033
 30
0.0
 11
88.192322
 21
71.740036
 31
0.0
  0
LINE
  5
1CE
100
AcDbEntity
  8
TEXT
390
0
  6
DURCHGEHEND
 62
     1
100
AcDbLine
 10
99.192299
 20
71.740036
 30
0.0
 11
99.192299
 21
72.190033
 31
0.0
  0
LINE
  5
1CF
100
AcDbEntity
  8
TEXT
390
0
  6
DURCHGEHEND
 62
     1
100
AcDbLine
 10
88.067322
 20
71.740036
 30
0.0
 11
88.067322
 21
70.990036
 31
0.0
  0
LINE
  5
1D0
100
AcDbEntity
  8
TEXT
390
0
  6
DURCHGEHEND
 62
     1
100
AcDbLine
 10
99.317299
 20
70.990036
 30
0.0
 11
99.317299
 21
71.740036
 31
0.0
  0
LINE
  5
1D1
100
AcDbEntity
  8
TEXT
390
0
  6
DURCHGEHEND
 62
     1
100
AcDbLine
 10
98.292313
 20
68.990021
 30
0.0
 11
98.942299
 21
69.365311
 31
0.0
  0
LINE
  5
1D2
100
AcDbEntity
  8
TEXT
390
0
  6
DURCHGEHEND
 62
     1
100
AcDbLine
 10
88.442322
 20
69.365311
 30
0.0
 11
89.092316
 21
68.990021
 31
0.0
  0
LINE
  5
1D3
100
AcDbEntity
  8
TEXT
390
0
  6
DURCHGEHEND
 62
     1
100
AcDbLine
 10
98.942299
 20
69.365311
 30
0.0
 11
98.942299
 21
70.990036
 31
0.0
  0
LINE
  5
1D4
100
AcDbEntity
  8
TEXT
390
0
  6
DURCHGEHEND
 62
     1
100
AcDbLine
 10
88.442322
 20
70.990036
 30
0.0
 11
88.442322
 21
69.365311
 31
0.0
  0
LINE
  5
1D5
100
AcDbEntity
  8
TEXT
390
0
  6
DURCHGEHEND
 62
     1
100
AcDbLine
 10
89.442307
 20
82.654282
 30
0.0
 11
89.442307
 21
77.515022
 31
0.0
  0
LINE
  5
1D6
100
AcDbEntity
  8
TEXT
390
0
  6
DURCHGEHEND
 62
     1
100
AcDbLine
 10
97.757301
 20
77.51503
 30
0.0
 11
97.757301
 21
82.67321
 31
0.0
  0
LINE
  5
1D7
100
AcDbEntity
  8
TEXT
390
0
  6
STITCHLINE
 62
     5
100
AcDbLine
 10
87.424591
 20
77.51503
 30
0.0
 11
87.424591
 21
76.190033
 31
0.0
  0
LINE
  5
1D8
100
AcDbEntity
  8
TEXT
390
0
  6
STITCHLINE
 62
     5
100
AcDbLine
 10
99.96003
 20
77.51503
 30
0.0
 11
99.96003
 21
76.190033
 31
0.0
  0
LINE
  5
1D9
100
AcDbEntity
  8
TEXT
390
0
  6
STITCHLINE
 62
     5
100
AcDbLine
 10
87.424591
 20
76.190033
 30
0.0
 11
99.96003
 21
76.190033
 31
0.0
  0
LINE
  5
1DA
100
AcDbEntity
  8
TEXT
390
0
  6
STITCHLINE
 62
     5
100
AcDbLine
 10
87.424591
 20
77.51503
 30
0.0
 11
99.96003
 21
77.51503
 31
0.0
  0
LINE
  5
1DB
100
AcDbEntity
  8
TEXT
390
0
  6
STITCHLINE
 62
     5
100
AcDbLine
 10
94.317307
 20
76.190033
 30
0.0
 11
94.317307
 21
74.724548
 31
0.0
  0
LINE
  5
1DC
100
AcDbEntity
  8
TEXT
390
0
  6
STITCHLINE
 62
     5
100
AcDbLine
 10
93.067307
 20
76.190033
 30
0.0
 11
93.067307
 21
74.724548
 31
0.0
  0
ARC
  5
1DD
100
AcDbEntity
  8
TEXT
390
0
  6
STITCHLINE
 62
     5
100
AcDbCircle
 10
93.692307
 20
69.765091
 30
0.0
 40
4.827682
100
AcDbArc
 50
82.561996
 51
97.439003
  0
LINE
  5
1DE
100
AcDbEntity
  8
TEXT
390
0
  6
STITCHLINE
 62
     5
100
AcDbLine
 10
94.317307
 20
74.724548
 30
0.0
 11
94.317307
 21
74.552155
 31
0.0
  0
LINE
  5
1DF
100
AcDbEntity
  8
TEXT
390
0
  6
STITCHLINE
 62
     5
100
AcDbLine
 10
93.067307
 20
74.552155
 30
0.0
 11
93.067307
 21
74.724548
 31
0.0
  0
LINE
  5
1E0
100
AcDbEntity
  8
TEXT
390
0
  6
DURCHGEHEND
 62
     1
100
AcDbLine
 10
88.192322
 20
72.940033
 30
0.0
 11
99.192299
 21
72.940033
 31
0.0
  0
LINE
  5
1E1
100
AcDbEntity
  8
TEXT
390
0
  6
STITCHLINE
 62
     5
100
AcDbLine
 10
104.546333
 20
77.51503
 30
0.0
 11
104.546333
 21
76.190033
 31
0.0
  0
LINE
  5
1E2
100
AcDbEntity
  8
TEXT
390
0
  6
STITCHLINE
 62
     5
100
AcDbLine
 10
99.96003
 20
76.190033
 30
0.0
 11
104.546333
 21
76.190033
 31
0.0
  0
LINE
  5
1E3
100
AcDbEntity
  8
TEXT
390
0
  6
STITCHLINE
 62
     5
100
AcDbLine
 10
99.96003
 20
77.51503
 30
0.0
 11
104.546333
 21
77.51503
 31
0.0
  0
LINE
  5
1E4
100
AcDbEntity
  8
TEXT
390
0
  6
STITCHLINE
 62
     5
100
AcDbLine
 10
82.838287
 20
77.51503
 30
0.0
 11
82.838287
 21
76.190033
 31
0.0
  0
LINE
  5
1E5
100
AcDbEntity
  8
TEXT
390
0
  6
STITCHLINE
 62
     5
100
AcDbLine
 10
82.838287
 20
76.190033
 30
0.0
 11
87.424591
 21
76.190033
 31
0.0
  0
LINE
  5
1E6
100
AcDbEntity
  8
TEXT
390
0
  6
STITCHLINE
 62
     5
100
AcDbLine
 10
82.838287
 20
77.51503
 30
0.0
 11
87.424591
 21
77.51503
 31
0.0
  0
LINE
  5
1E7
100
AcDbEntity
  8
TEXT
390
0
  6
STITCHLINE
 62
     5
100
AcDbLine
 10
83.237167
 20
76.190033
 30
0.0
 11
88.192322
 21
74.80751
 31
0.0
  0
LINE
  5
1E8
100
AcDbEntity
  8
TEXT
390
0
  6
STITCHLINE
 62
     5
100
AcDbLine
 10
99.192299
 20
74.27037
 30
0.0
 11
104.147469
 21
76.190033
 31
0.0
  0
LINE
  5
1E9
100
AcDbEntity
  8
TEXT
390
0
  6
STITCHLINE
 62
     5
100
AcDbLine
 10
82.567307
 20
76.190033
 30
0.0
 11
82.838287
 21
76.190033
 31
0.0
  0
LINE
  5
1EA
100
AcDbEntity
  8
TEXT
390
0
  6
STITCHLINE
 62
     5
100
AcDbLine
 10
82.567307
 20
77.51503
 30
0.0
 11
82.838287
 21
77.51503
 31
0.0
  0
LINE
  5
1EB
100
AcDbEntity
  8
TEXT
390
0
  6
STITCHLINE
 62
     5
100
AcDbLine
 10
104.546333
 20
76.190033
 30
0.0
 11
104.817299
 21
76.190033
 31
0.0
  0
LINE
  5
1EC
100
AcDbEntity
  8
TEXT
390
0
  6
STITCHLINE
 62
     5
100
AcDbLine
 10
104.546333
 20
77.51503
 30
0.0
 11
104.817299
 21
77.51503
 31
0.0
  0
LINE
  5
1ED
100
AcDbEntity
  8
TEXT
390
0
  6
DURCHGEHEND
 62
     1
100
AcDbLine
 10
93.692307
 20
72.190033
 30
0.0
 11
99.192299
 21
72.190033
 31
0.0
  0
LINE
  5
1EE
100
AcDbEntity
  8
TEXT
390
0
  6
DURCHGEHEND
 62
     1
100
AcDbLine
 10
88.192322
 20
72.190033
 30
0.0
 11
93.692307
 21
72.190033
 31
0.0
  0
LINE
  5
1EF
100
AcDbEntity
  8
TEXT
390
0
  6
DURCHGEHEND
 62
     1
100
AcDbLine
 10
93.692307
 20
71.740036
 30
0.0
 11
99.317299
 21
71.740036
 31
0.0
  0
LINE
  5
1F0
100
AcDbEntity
  8
TEXT
390
0
  6
DURCHGEHEND
 62
     1
100
AcDbLine
 10
88.067322
 20
71.740036
 30
0.0
 11
93.692307
 21
71.740036
 31
0.0
  0
LINE
  5
1F1
100
AcDbEntity
  8
TEXT
390
0
  6
DURCHGEHEND
 62
     1
100
AcDbLine
 10
96.410873
 20
70.940033
 30
0.0
 11
96.410873
 21
69.365311
 31
0.0
  0
LINE
  5
1F2
100
AcDbEntity
  8
TEXT
390
0
  6
DURCHGEHEND
 62
     1
100
AcDbLine
 10
96.222626
 20
69.365311
 30
0.0
 11
96.410873
 21
69.365311
 31
0.0
  0
LINE
  5
1F3
100
AcDbEntity
  8
TEXT
390
0
  6
DURCHGEHEND
 62
     1
100
AcDbLine
 10
96.222626
 20
69.365311
 30
0.0
 11
96.222626
 21
70.940033
 31
0.0
  0
LINE
  5
1F4
100
AcDbEntity
  8
TEXT
390
0
  6
DURCHGEHEND
 62
     1
100
AcDbLine
 10
91.162003
 20
70.940033
 30
0.0
 11
91.162003
 21
69.365311
 31
0.0
  0
LINE
  5
1F5
100
AcDbEntity
  8
TEXT
390
0
  6
DURCHGEHEND
 62
     1
100
AcDbLine
 10
90.973755
 20
69.365311
 30
0.0
 11
91.162003
 21
69.365311
 31
0.0
  0
LINE
  5
1F6
100
AcDbEntity
  8
TEXT
390
0
  6
DURCHGEHEND
 62
     1
100
AcDbLine
 10
90.973755
 20
69.365311
 30
0.0
 11
90.973755
 21
70.940033
 31
0.0
  0
ARC
  5
1F7
100
AcDbEntity
  8
TEXT
390
0
  6
DURCHGEHEND
 62
     1
100
AcDbCircle
 10
93.643997
 20
78.033737
 30
0.0
 40
9.043854
100
AcDbArc
 50
270.306
 51
286.56601
  0
ARC
  5
1F8
100
AcDbEntity
  8
TEXT
390
0
  6
DURCHGEHEND
 62
     1
100
AcDbCircle
 10
93.800797
 20
78.439423
 30
0.0
 40
9.450012
100
AcDbArc
 50
253.785004
 51
269.34201
  0
LINE
  5
1F9
100
AcDbEntity
  8
TEXT
390
0
  6
DURCHGEHEND
 62
     1
100
AcDbLine
 10
97.676025
 20
68.990021
 30
0.0
 11
93.692307
 21
68.990021
 31
0.0
  0
ARC
  5
1FA
100
AcDbEntity
  8
TEXT
390
0
  6
DURCHGEHEND
 62
     1
100
AcDbCircle
 10
97.768127
 20
71.620758
 30
0.0
 40
2.632355
100
AcDbArc
 50
238.962006
 51
267.994995
  0
LINE
  5
1FB
100
AcDbEntity
  8
TEXT
390
0
  6
DURCHGEHEND
 62
     1
100
AcDbLine
 10
93.692307
 20
68.990021
 30
0.0
 11
89.708603
 21
68.990021
 31
0.0
  0
ARC
  5
1FC
100
AcDbEntity
  8
TEXT
390
0
  6
DURCHGEHEND
 62
     1
100
AcDbCircle
 10
89.62706
 20
71.585159
 30
0.0
 40
2.59642
100
AcDbArc
 50
271.799988
 51
301.243988
  0
POLYLINE
  5
1FD
100
AcDbEntity
  8
TEXT
390
0
  6
DURCHGEHEND
 62
     1
100
AcDb2dPolyline
 66
     1
 10
0.0
 20
0.0
 30
0.0
 75
     5
  0
VERTEX
  5
1FE
100
AcDbEntity
  8
0
390
0
100
AcDbVertex
100
AcDb2dVertex
 10
98.9412
 20
69.365311
 30
0.0
  0
VERTEX
  5
1FF
100
AcDbEntity
  8
0
390
0
100
AcDbVertex
100
AcDb2dVertex
 10
98.32048
 20
69.092316
 30
0.0
  0
VERTEX
  5
200
100
AcDbEntity
  8
0
390
0
100
AcDbVertex
100
AcDb2dVertex
 10
97.676025
 20
68.990021
 30
0.0
  0
SEQEND
  5
201
100
AcDbEntity
  8
0
390
0
  0
LINE
  5
202
100
AcDbEntity
  8
TEXT
390
0
  6
DURCHGEHEND
 62
     1
100
AcDbLine
 10
98.9412
 20
69.365311
 30
0.0
 11
98.9412
 21
70.940033
 31
0.0
  0
ARC
  5
203
100
AcDbEntity
  8
TEXT
390
0
  6
DURCHGEHEND
 62
     1
100
AcDbCircle
 10
89.800705
 20
71.620758
 30
0.0
 40
2.632339
100
AcDbArc
 50
238.962006
 51
267.994995
  0
LINE
  5
204
100
AcDbEntity
  8
TEXT
390
0
  6
DURCHGEHEND
 62
     1
100
AcDbLine
 10
88.443451
 20
70.940033
 30
0.0
 11
88.443451
 21
69.365311
 31
0.0
  0
LINE
  5
205
100
AcDbEntity
  8
TEXT
390
0
  6
DURCHGEHEND
 62
     1
100
AcDbLine
 10
98.9412
 20
69.365311
 30
0.0
 11
98.942299
 21
69.365311
 31
0.0
  0
LINE
  5
206
100
AcDbEntity
  8
TEXT
390
0
  6
DURCHGEHEND
 62
     1
100
AcDbLine
 10
98.292313
 20
68.990021
 30
0.0
 11
97.676025
 21
68.990021
 31
0.0
  0
LINE
  5
207
100
AcDbEntity
  8
TEXT
390
0
  6
DURCHGEHEND
 62
     1
100
AcDbLine
 10
88.442322
 20
69.365311
 30
0.0
 11
88.443451
 21
69.365311
 31
0.0
  0
LINE
  5
208
100
AcDbEntity
  8
TEXT
390
0
  6
DURCHGEHEND
 62
     1
100
AcDbLine
 10
89.708603
 20
68.990021
 30
0.0
 11
89.092316
 21
68.990021
 31
0.0
  0
LINE
  5
209
100
AcDbEntity
  8
TEXT
390
0
  6
DURCHGEHEND
 62
     1
100
AcDbLine
 10
151.450974
 20
82.666298
 30
0.0
 11
165.200974
 21
82.666298
 31
0.0
  0
LINE
  5
20A
100
AcDbEntity
  8
TEXT
390
0
  6
DURCHGEHEND
 62
     1
100
AcDbLine
 10
158.323639
 20
72.566299
 30
0.0
 11
159.323639
 21
72.566299
 31
0.0
  0
LINE
  5
20B
100
AcDbEntity
  8
TEXT
390
0
  6
DURCHGEHEND
 62
     1
100
AcDbLine
 10
158.478622
 20
71.372574
 30
0.0
 11
164.103607
 21
71.372574
 31
0.0
  0
LINE
  5
20C
100
AcDbEntity
  8
TEXT
390
0
  6
DURCHGEHEND
 62
     1
100
AcDbLine
 10
152.853622
 20
71.372574
 30
0.0
 11
158.478622
 21
71.372574
 31
0.0
  0
LINE
  5
20D
100
AcDbEntity
  8
TEXT
390
0
  6
DURCHGEHEND
 62
     3
100
AcDbLine
 10
154.893143
 20
82.529068
 30
0.0
 11
154.893143
 21
77.89756
 31
0.0
  0
LINE
  5
20E
100
AcDbEntity
  8
TEXT
390
0
  6
DURCHGEHEND
 62
     3
100
AcDbLine
 10
161.984421
 20
82.597687
 30
0.0
 11
161.984421
 21
77.897568
 31
0.0
  0
LINE
  5
20F
100
AcDbEntity
  8
TEXT
390
0
  6
DURCHGEHEND
 62
     1
100
AcDbLine
 10
152.978622
 20
72.572571
 30
0.0
 11
152.978622
 21
72.122574
 31
0.0
  0
LINE
  5
210
100
AcDbEntity
  8
TEXT
390
0
  6
DURCHGEHEND
 62
     1
100
AcDbLine
 10
163.978607
 20
72.122574
 30
0.0
 11
163.978607
 21
72.572571
 31
0.0
  0
LINE
  5
211
100
AcDbEntity
  8
TEXT
390
0
  6
DURCHGEHEND
 62
     1
100
AcDbLine
 10
152.853622
 20
72.122574
 30
0.0
 11
152.853622
 21
71.372574
 31
0.0
  0
LINE
  5
212
100
AcDbEntity
  8
TEXT
390
0
  6
DURCHGEHEND
 62
     1
100
AcDbLine
 10
164.103607
 20
71.372574
 30
0.0
 11
164.103607
 21
72.122574
 31
0.0
  0
LINE
  5
213
100
AcDbEntity
  8
TEXT
390
0
  6
DURCHGEHEND
 62
     1
100
AcDbLine
 10
154.228622
 20
82.66629
 30
0.0
 11
154.228622
 21
77.897598
 31
0.0
  0
LINE
  5
214
100
AcDbEntity
  8
TEXT
390
0
  6
DURCHGEHEND
 62
     1
100
AcDbLine
 10
162.728607
 20
77.897598
 30
0.0
 11
162.728607
 21
82.66629
 31
0.0
  0
LINE
  5
215
100
AcDbEntity
  8
TEXT
390
0
  6
DURCHGEHEND
 62
     1
100
AcDbLine
 10
158.478622
 20
72.572571
 30
0.0
 11
163.978607
 21
72.572571
 31
0.0
  0
LINE
  5
216
100
AcDbEntity
  8
TEXT
390
0
  6
DURCHGEHEND
 62
     1
100
AcDbLine
 10
152.978622
 20
72.572571
 30
0.0
 11
158.478622
 21
72.572571
 31
0.0
  0
LINE
  5
217
100
AcDbEntity
  8
TEXT
390
0
  6
DURCHGEHEND
 62
     1
100
AcDbLine
 10
158.478622
 20
72.122574
 30
0.0
 11
164.103607
 21
72.122574
 31
0.0
  0
LINE
  5
218
100
AcDbEntity
  8
TEXT
390
0
  6
DURCHGEHEND
 62
     1
100
AcDbLine
 10
152.853622
 20
72.122574
 30
0.0
 11
158.478622
 21
72.122574
 31
0.0
  0
LINE
  5
219
100
AcDbEntity
  8
TEXT
390
0
  6
STITCHLINE
 62
     5
100
AcDbLine
 10
165.728638
 20
76.572571
 30
0.0
 11
165.728638
 21
77.897568
 31
0.0
  0
LINE
  5
21A
100
AcDbEntity
  8
TEXT
390
0
  6
STITCHLINE
 62
     5
100
AcDbLine
 10
163.978622
 20
73.322571
 30
0.0
 11
163.978622
 21
74.975327
 31
0.0
  0
LINE
  5
21B
100
AcDbEntity
  8
TEXT
390
0
  6
STITCHLINE
 62
     5
100
AcDbLine
 10
152.978622
 20
76.146927
 30
0.0
 11
152.978622
 21
73.322571
 31
0.0
  0
ARC
  5
21C
100
AcDbEntity
  8
TEXT
390
0
  6
STITCHLINE
 62
     5
100
AcDbCircle
 10
164.228622
 20
74.975327
 30
0.0
 40
0.25
100
AcDbArc
 50
137.492004
 51
185.626007
  0
LINE
  5
21D
100
AcDbEntity
  8
TEXT
390
0
  6
DURCHGEHEND
 62
     1
100
AcDbLine
 10
163.853622
 20
72.572571
 30
0.0
 11
163.853622
 21
73.322571
 31
0.0
  0
LINE
  5
21E
100
AcDbEntity
  8
TEXT
390
0
  6
DURCHGEHEND
 62
     1
100
AcDbLine
 10
153.103622
 20
73.322571
 30
0.0
 11
153.103622
 21
72.572571
 31
0.0
  0
LINE
  5
21F
100
AcDbEntity
  8
TEXT
390
0
  6
DURCHGEHEND
 62
     1
100
AcDbLine
 10
152.978622
 20
72.572571
 30
0.0
 11
152.978622
 21
72.122574
 31
0.0
  0
LINE
  5
220
100
AcDbEntity
  8
TEXT
390
0
  6
DURCHGEHEND
 62
     1
100
AcDbLine
 10
163.978622
 20
72.122574
 30
0.0
 11
163.978622
 21
72.572571
 31
0.0
  0
LINE
  5
221
100
AcDbEntity
  8
TEXT
390
0
  6
DURCHGEHEND
 62
     1
100
AcDbLine
 10
152.853622
 20
72.122574
 30
0.0
 11
152.853622
 21
71.372574
 31
0.0
  0
LINE
  5
222
100
AcDbEntity
  8
TEXT
390
0
  6
DURCHGEHEND
 62
     1
100
AcDbLine
 10
164.103622
 20
71.372574
 30
0.0
 11
164.103622
 21
72.122574
 31
0.0
  0
LINE
  5
223
100
AcDbEntity
  8
TEXT
390
0
  6
DURCHGEHEND
 62
     1
100
AcDbLine
 10
154.228622
 20
80.647568
 30
0.0
 11
154.228622
 21
77.897568
 31
0.0
  0
LINE
  5
224
100
AcDbEntity
  8
TEXT
390
0
  6
DURCHGEHEND
 62
     1
100
AcDbLine
 10
162.728622
 20
77.897568
 30
0.0
 11
162.728622
 21
80.647568
 31
0.0
  0
LINE
  5
225
100
AcDbEntity
  8
TEXT
390
0
  6
STITCHLINE
 62
     5
100
AcDbLine
 10
151.228622
 20
77.897568
 30
0.0
 11
151.228622
 21
76.572571
 31
0.0
  0
LINE
  5
226
100
AcDbEntity
  8
TEXT
390
0
  6
STITCHLINE
 62
     5
100
AcDbLine
 10
153.184402
 20
76.572571
 30
0.0
 11
156.199173
 21
75.11058
 31
0.0
  0
LINE
  5
227
100
AcDbEntity
  8
TEXT
390
0
  6
STITCHLINE
 62
     5
100
AcDbLine
 10
152.100906
 20
76.572571
 30
0.0
 11
155.115677
 21
75.11058
 31
0.0
  0
LINE
  5
228
100
AcDbEntity
  8
TEXT
390
0
  6
STITCHLINE
 62
     5
100
AcDbLine
 10
156.295303
 20
74.866806
 30
0.0
 11
156.295303
 21
76.572571
 31
0.0
  0
ARC
  5
229
100
AcDbEntity
  8
TEXT
390
0
  6
STITCHLINE
 62
     5
100
AcDbCircle
 10
156.017227
 20
74.89798
 30
0.0
 40
0.279823
100
AcDbArc
 50
0.0
 51
49.443001
  0
ARC
  5
22A
100
AcDbEntity
  8
TEXT
390
0
  6
STITCHLINE
 62
     5
100
AcDbCircle
 10
156.017227
 20
74.89798
 30
0.0
 40
0.279823
100
AcDbArc
 50
353.602997
 51
360.0
  0
LINE
  5
22B
100
AcDbEntity
  8
TEXT
390
0
  6
STITCHLINE
 62
     5
100
AcDbLine
 10
151.227341
 20
77.897568
 30
0.0
 11
165.728638
 21
77.897568
 31
0.0
  0
LINE
  5
22C
100
AcDbEntity
  8
TEXT
390
0
  6
STITCHLINE
 62
     5
100
AcDbLine
 10
151.20314
 20
76.572571
 30
0.0
 11
165.728638
 21
76.572571
 31
0.0
  0
ARC
  5
22D
100
AcDbEntity
  8
TEXT
390
0
  6
STITCHLINE
 62
     5
100
AcDbCircle
 10
155.753586
 20
58.958462
 30
0.0
 40
15.917572
100
AcDbArc
 50
88.050003
 51
91.950996
  0
LINE
  5
22E
100
AcDbEntity
  8
TEXT
390
0
  6
STITCHLINE
 62
     5
100
AcDbLine
 10
163.943008
 20
74.934692
 30
0.0
 11
163.943008
 21
76.572571
 31
0.0
  0
LINE
  5
22F
100
AcDbEntity
  8
TEXT
390
0
  6
DURCHGEHEND
 62
     1
100
AcDbLine
 10
152.978622
 20
73.322571
 30
0.0
 11
163.978622
 21
73.322571
 31
0.0
  0
ARC
  5
230
100
AcDbEntity
  8
TEXT
390
0
  6
STITCHLINE
 62
     5
100
AcDbCircle
 10
154.935989
 20
74.898865
 30
0.0
 40
0.277702
100
AcDbArc
 50
0.0
 51
49.675999
  0
ARC
  5
231
100
AcDbEntity
  8
TEXT
390
0
  6
STITCHLINE
 62
     5
100
AcDbCircle
 10
154.935989
 20
74.898865
 30
0.0
 40
0.277702
100
AcDbArc
 50
353.372986
 51
360.0
  0
LINE
  5
232
100
AcDbEntity
  8
TEXT
390
0
  6
STITCHLINE
 62
     5
100
AcDbLine
 10
165.353622
 20
76.572571
 30
0.0
 11
164.010269
 21
75.107086
 31
0.0
  0
ARC
  5
233
100
AcDbEntity
  8
TEXT
390
0
  6
STITCHLINE
 62
     5
100
AcDbCircle
 10
164.198868
 20
74.934174
 30
0.0
 40
0.255875
100
AcDbArc
 50
137.483002
 51
179.882996
  0
LINE
  5
234
100
AcDbEntity
  8
TEXT
390
0
  6
STITCHLINE
 62
     5
100
AcDbLine
 10
152.978622
 20
75.981567
 30
0.0
 11
152.100906
 21
76.572571
 31
0.0
  0
LINE
  5
235
100
AcDbEntity
  8
TEXT
390
0
  6
DURCHGEHEND
 62
     1
100
AcDbLine
 10
152.978622
 20
72.572571
 30
0.0
 11
163.978622
 21
72.572571
 31
0.0
  0
LINE
  5
236
100
AcDbEntity
  8
TEXT
390
0
  6
DURCHGEHEND
 62
     1
100
AcDbLine
 10
152.853622
 20
72.122574
 30
0.0
 11
164.103622
 21
72.122574
 31
0.0
  0
LINE
  5
237
100
AcDbEntity
  8
TEXT
390
0
  6
DURCHGEHEND
 62
     1
100
AcDbLine
 10
152.853622
 20
71.372574
 30
0.0
 11
164.103622
 21
71.372574
 31
0.0
  0
LINE
  5
238
100
AcDbEntity
  8
TEXT
390
0
  6
DURCHGEHEND
 62
     1
100
AcDbLine
 10
158.587296
 20
71.322571
 30
0.0
 11
158.587296
 21
69.747849
 31
0.0
  0
LINE
  5
239
100
AcDbEntity
  8
TEXT
390
0
  6
DURCHGEHEND
 62
     1
100
AcDbLine
 10
158.369949
 20
69.747849
 30
0.0
 11
158.369949
 21
71.322571
 31
0.0
  0
LINE
  5
23A
100
AcDbEntity
  8
TEXT
390
0
  6
DURCHGEHEND
 62
     1
100
AcDbLine
 10
153.987289
 20
71.322571
 30
0.0
 11
153.987289
 21
69.747849
 31
0.0
  0
LINE
  5
23B
100
AcDbEntity
  8
TEXT
390
0
  6
DURCHGEHEND
 62
     1
100
AcDbLine
 10
162.969955
 20
69.747849
 30
0.0
 11
162.969955
 21
71.322571
 31
0.0
  0
LINE
  5
23C
100
AcDbEntity
  8
TEXT
390
0
  6
DURCHGEHEND
 62
     1
100
AcDbLine
 10
163.078629
 20
71.322571
 30
0.0
 11
163.078629
 21
69.747849
 31
0.0
  0
LINE
  5
23D
100
AcDbEntity
  8
TEXT
390
0
  6
DURCHGEHEND
 62
     1
100
AcDbLine
 10
153.878616
 20
69.747849
 30
0.0
 11
153.878616
 21
71.322571
 31
0.0
  0
LINE
  5
23E
100
AcDbEntity
  8
TEXT
390
0
  6
STITCHLINE
 62
     5
100
AcDbLine
 10
163.978622
 20
74.975327
 30
0.0
 11
163.943008
 21
74.934692
 31
0.0
  0
TEXT
  5
23F
100
AcDbEntity
  8
TEXT
390
0
100
AcDbText
 10
165.604126
 20
24.394457
 30
0.0
 40
7.055555
  1
M34x1
100
AcDbText
  0
LINE
  5
240
100
AcDbEntity
  8
TEXT
390
0
  6
DURCHGEHEND
 62
     3
100
AcDbLine
 10
153.29776
 20
22.698359
 30
0.0
 11
189.47522
 21
22.698359
 31
0.0
  0
LINE
  5
241
100
AcDbEntity
  8
TEXT
390
0
  6
_DURCHGEHEND
 62
     3
100
AcDbLine
 10
154.328949
 20
22.698359
 30
0.0
 11
153.24054
 21
21.473627
 31
0.0
  0
LINE
  5
242
100
AcDbEntity
  8
TEXT
390
0
  6
_DURCHGEHEND
 62
     3
100
AcDbLine
 10
155.417358
 20
23.923052
 30
0.0
 11
154.328949
 21
22.698359
 31
0.0
  0
LINE
  5
243
100
AcDbEntity
  8
TEXT
390
0
  6
_DURCHGEHEND
 62
     3
100
AcDbLine
 10
162.829224
 20
22.698359
 30
0.0
 11
161.740814
 21
21.473627
 31
0.0
  0
LINE
  5
244
100
AcDbEntity
  8
TEXT
390
0
  6
_DURCHGEHEND
 62
     3
100
AcDbLine
 10
163.917633
 20
23.923052
 30
0.0
 11
162.829224
 21
22.698359
 31
0.0
  0
LINE
  5
245
100
AcDbEntity
  8
TEXT
390
0
  6
DURCHGEHEND
 62
     3
100
AcDbLine
 10
154.303314
 20
77.308594
 30
0.0
 11
154.303314
 21
21.400501
 31
0.0
  0
LINE
  5
246
100
AcDbEntity
  8
TEXT
390
0
  6
DURCHGEHEND
 62
     3
100
AcDbLine
 10
162.829102
 20
77.356949
 30
0.0
 11
162.829102
 21
21.277676
 31
0.0
  0
TEXT
  5
247
100
AcDbEntity
  8
TEXT
390
0
100
AcDbText
 10
72.665825
 20
182.236389
 30
0.0
 40
7.055555
  1
26
100
AcDbText
  0
TEXT
  5
248
100
AcDbEntity
  8
TEXT
390
0
100
AcDbText
 10
65.773796
 20
103.712128
 30
0.0
 40
7.055555
  1
11,5
100
AcDbText
  0
LINE
  5
249
100
AcDbEntity
  8
BEMASSUNG
390
0
  6
DURCHGEHEND
 62
     3
100
AcDbLine
 10
67.933907
 20
83.834824
 30
0.0
 11
67.933907
 21
42.729053
 31
0.0
  0
LINE
  5
24A
100
AcDbEntity
  8
BEMASSUNG
390
0
  6
DURCHGEHEND
 62
     3
100
AcDbLine
 10
77.466125
 20
82.666298
 30
0.0
 11
66.683899
 21
82.666298
 31
0.0
  0
LINE
  5
24B
100
AcDbEntity
  8
BEMASSUNG
390
0
  6
DURCHGEHEND
 62
     3
100
AcDbLine
 10
68.817863
 20
71.592514
 30
0.0
 11
67.050102
 21
73.360275
 31
0.0
  0
LINE
  5
24C
100
AcDbEntity
  8
BEMASSUNG
390
0
  6
DURCHGEHEND
 62
     3
100
AcDbLine
 10
68.817863
 20
81.928482
 30
0.0
 11
67.050102
 21
83.696243
 31
0.0
  0
LINE
  5
24D
100
AcDbEntity
  8
BEMASSUNG
390
0
  6
DURCHGEHEND
 62
     3
100
AcDbLine
 10
171.300415
 20
82.666298
 30
0.0
 11
247.371063
 21
82.666298
 31
0.0
  0
LINE
  5
24E
100
AcDbEntity
  8
BEMASSUNG
390
0
  6
DURCHGEHEND
 62
     3
100
AcDbLine
 10
101.620102
 20
22.698357
 30
0.0
 11
89.333168
 21
34.985306
 31
0.0
  0
LINE
  5
24F
100
AcDbEntity
  8
BEMASSUNG
390
0
  6
DURCHGEHEND
 62
     3
100
AcDbLine
 10
101.620102
 20
22.698357
 30
0.0
 11
115.583328
 21
22.698357
 31
0.0
  0
LINE
  5
250
100
AcDbEntity
  8
BEMASSUNG
390
0
  6
DURCHGEHEND
 62
     3
100
AcDbLine
 10
89.187187
 20
33.656425
 30
0.0
 11
92.459648
 21
33.656425
 31
0.0
  0
LINE
  5
251
100
AcDbEntity
  8
BEMASSUNG
390
0
  6
DURCHGEHEND
 62
     3
100
AcDbLine
 10
95.157074
 20
27.526075
 30
0.0
 11
98.429535
 21
27.526075
 31
0.0
  0
LINE
  5
252
100
AcDbEntity
  8
BEMASSUNG
390
0
  6
DURCHGEHEND
 62
     3
100
AcDbLine
 10
233.07933
 20
157.90979
 30
0.0
 11
223.153961
 21
157.90979
 31
0.0
  0
LINE
  5
253
100
AcDbEntity
  8
BEMASSUNG
390
0
  6
DURCHGEHEND
 62
     3
100
AcDbLine
 10
232.129196
 20
159.247635
 30
0.0
 11
232.129196
 21
81.641586
 31
0.0
  0
LINE
  5
254
100
AcDbEntity
  8
BEMASSUNG
390
0
  6
DURCHGEHEND
 62
     3
100
AcDbLine
 10
217.092728
 20
168.800415
 30
0.0
 11
217.092728
 21
182.288513
 31
0.0
  0
LINE
  5
255
100
AcDbEntity
  8
BEMASSUNG
390
0
  6
DURCHGEHEND
 62
     3
100
AcDbLine
 10
158.513748
 20
159.133484
 30
0.0
 11
158.513748
 21
182.180359
 31
0.0
  0
LINE
  5
256
100
AcDbEntity
  8
BEMASSUNG
390
0
  6
DURCHGEHEND
 62
     3
100
AcDbLine
 10
157.595993
 20
181.248657
 30
0.0
 11
218.064484
 21
181.248657
 31
0.0
  0
LINE
  5
257
100
AcDbEntity
  8
BEMASSUNG
390
0
  6
DURCHGEHEND
 62
     3
100
AcDbLine
 10
90.746033
 20
170.677246
 30
0.0
 11
90.746033
 21
182.477844
 31
0.0
  0
LINE
  5
258
100
AcDbEntity
  8
BEMASSUNG
390
0
  6
DURCHGEHEND
 62
     3
100
AcDbLine
 10
111.761642
 20
127.427116
 30
0.0
 11
111.761642
 21
182.238586
 31
0.0
  0
LINE
  5
259
100
AcDbEntity
  8
BEMASSUNG
390
0
  6
DURCHGEHEND
 62
     3
100
AcDbLine
 10
112.778488
 20
181.273895
 30
0.0
 11
72.346924
 21
181.273895
 31
0.0
  0
LINE
  5
25A
100
AcDbEntity
  8
BEMASSUNG
390
0
  6
DURCHGEHEND
 62
     3
100
AcDbLine
 10
247.180923
 20
167.339523
 30
0.0
 11
222.915802
 21
167.339523
 31
0.0
  0
LINE
  5
25B
100
AcDbEntity
  8
BEMASSUNG
390
0
  6
DURCHGEHEND
 62
     3
100
AcDbLine
 10
246.963089
 20
166.493973
 30
0.0
 11
245.195328
 21
168.261734
 31
0.0
  0
LINE
  5
25C
100
AcDbEntity
  8
BEMASSUNG
390
0
  6
DURCHGEHEND
 62
     3
100
AcDbLine
 10
83.155914
 20
180.421997
 30
0.0
 11
84.859039
 21
182.125122
 31
0.0
  0
LINE
  5
25D
100
AcDbEntity
  8
BEMASSUNG
390
0
  6
DURCHGEHEND
 62
     3
100
AcDbLine
 10
110.918579
 20
180.421997
 30
0.0
 11
112.621704
 21
182.125122
 31
0.0
  0
LINE
  5
25E
100
AcDbEntity
  8
BEMASSUNG
390
0
  6
DURCHGEHEND
 62
     3
100
AcDbLine
 10
159.365311
 20
182.099976
 30
0.0
 11
157.662186
 21
180.396851
 31
0.0
  0
LINE
  5
25F
100
AcDbEntity
  8
BEMASSUNG
390
0
  6
DURCHGEHEND
 62
     3
100
AcDbLine
 10
217.979416
 20
182.084595
 30
0.0
 11
216.276291
 21
180.38147
 31
0.0
  0
LINE
  5
260
100
AcDbEntity
  8
BEMASSUNG
390
0
  6
DURCHGEHEND
 62
     3
100
AcDbLine
 10
232.82515
 20
157.100601
 30
0.0
 11
231.057388
 21
158.868362
 31
0.0
  0
LINE
  5
261
100
AcDbEntity
  8
BEMASSUNG
390
0
  6
DURCHGEHEND
 62
     3
100
AcDbLine
 10
232.965469
 20
81.73468
 30
0.0
 11
231.197708
 21
83.502441
 31
0.0
  0
LINE
  5
262
100
AcDbEntity
  8
BEMASSUNG
390
0
  6
DURCHGEHEND
 62
     3
100
AcDbLine
 10
246.147781
 20
168.35199
 30
0.0
 11
246.147781
 21
81.53569
 31
0.0
  0
LINE
  5
263
100
AcDbEntity
  8
BEMASSUNG
390
0
  6
DURCHGEHEND
 62
     3
100
AcDbLine
 10
246.946426
 20
81.73468
 30
0.0
 11
245.178665
 21
83.502441
 31
0.0
  0
LINE
  5
264
100
AcDbEntity
  8
BEMASSUNG
390
0
  6
DURCHGEHEND
 62
     3
100
AcDbLine
 10
84.050064
 20
114.684639
 30
0.0
 11
84.050064
 21
182.38147
 31
0.0
  0
LINE
  5
265
100
AcDbEntity
  8
BEMASSUNG
390
0
  6
DURCHGEHEND
 62
     3
100
AcDbLine
 10
102.800064
 20
114.531433
 30
0.0
 11
102.800064
 21
136.821899
 31
0.0
  0
LINE
  5
266
100
AcDbEntity
  8
BEMASSUNG
390
0
  6
DURCHGEHEND
 62
     3
100
AcDbLine
 10
72.55452
 20
135.865387
 30
0.0
 11
103.8741
 21
135.865387
 31
0.0
  0
LINE
  5
267
100
AcDbEntity
  8
BEMASSUNG
390
0
  6
DURCHGEHEND
 62
     3
100
AcDbLine
 10
84.927643
 20
136.72464
 30
0.0
 11
83.224518
 21
135.021515
 31
0.0
  0
LINE
  5
268
100
AcDbEntity
  8
BEMASSUNG
390
0
  6
DURCHGEHEND
 62
     3
100
AcDbLine
 10
103.573746
 20
136.701935
 30
0.0
 11
101.870621
 21
134.99881
 31
0.0
  0
LINE
  5
269
100
AcDbEntity
  8
BEMASSUNG
390
0
  6
DURCHGEHEND
 62
     3
100
AcDbLine
 10
66.945442
 20
72.547218
 30
0.0
 11
86.894516
 21
72.547218
 31
0.0
  0
LINE
  5
26A
100
AcDbEntity
  8
BEMASSUNG
390
0
  6
DURCHGEHEND
 62
     3
100
AcDbLine
 10
151.917694
 20
114.780327
 30
0.0
 11
151.917694
 21
137.07077
 31
0.0
  0
LINE
  5
26B
100
AcDbEntity
  8
BEMASSUNG
390
0
  6
DURCHGEHEND
 62
     3
100
AcDbLine
 10
164.917694
 20
114.780327
 30
0.0
 11
164.917694
 21
137.070801
 31
0.0
  0
LINE
  5
26C
100
AcDbEntity
  8
BEMASSUNG
390
0
  6
DURCHGEHEND
 62
     3
100
AcDbLine
 10
140.192078
 20
135.865387
 30
0.0
 11
165.98082
 21
135.865387
 31
0.0
  0
LINE
  5
26D
100
AcDbEntity
  8
BEMASSUNG
390
0
  6
DURCHGEHEND
 62
     3
100
AcDbLine
 10
152.739136
 20
136.72464
 30
0.0
 11
151.036011
 21
135.021515
 31
0.0
  0
LINE
  5
26E
100
AcDbEntity
  8
BEMASSUNG
390
0
  6
DURCHGEHEND
 62
     3
100
AcDbLine
 10
165.680466
 20
136.701935
 30
0.0
 11
163.977341
 21
134.99881
 31
0.0
  0
LINE
  5
26F
100
AcDbEntity
  8
BEMASSUNG
390
0
  6
DURCHGEHEND
 62
     3
100
AcDbLine
 10
89.89447
 20
180.421997
 30
0.0
 11
91.597595
 21
182.125122
 31
0.0
  0
LINE
  5
270
100
AcDbEntity
  8
BEMASSUNG
390
0
  6
DURCHGEHEND
 62
     3
100
AcDbLine
 10
90.746033
 20
100.969887
 30
0.0
 11
90.746033
 21
109.517647
 31
0.0
  0
LINE
  5
271
100
AcDbEntity
  8
BEMASSUNG
390
0
  6
DURCHGEHEND
 62
     3
100
AcDbLine
 10
66.665268
 20
102.074577
 30
0.0
 11
94.685081
 21
102.074577
 31
0.0
  0
LINE
  5
272
100
AcDbEntity
  8
BEMASSUNG
390
0
  6
DURCHGEHEND
 62
     3
100
AcDbLine
 10
94.533264
 20
102.970261
 30
0.0
 11
92.830139
 21
101.267136
 31
0.0
  0
LINE
  5
273
100
AcDbEntity
  8
BEMASSUNG
390
0
  6
DURCHGEHEND
 62
     3
100
AcDbLine
 10
91.568382
 20
102.970261
 30
0.0
 11
89.865257
 21
101.267136
 31
0.0
  0
LINE
  5
274
100
AcDbEntity
  8
WAND
390
0
  6
DURCHGEHEND
 62
     6
100
AcDbLine
 10
78.454224
 20
82.666298
 30
0.0
 11
107.88755
 21
82.666298
 31
0.0
  0
LINE
  5
275
100
AcDbEntity
  8
WAND
390
0
  6
DURCHGEHEND
 62
     6
100
AcDbLine
 10
147.138229
 20
82.666298
 30
0.0
 11
170.377853
 21
82.666298
 31
0.0
  0
ENDSEC
  0
SECTION
  2
OBJECTS
  0
DICTIONARY
  5
19
100
AcDbDictionary
280
     0
281
     1
  3
ACAD_GROUP
350
1A
  3
ACAD_MLINESTYLE
350
1B
  3
ACAD_LAYOUT
350
1E
  3
ACAD_PLOTSETTINGS
350
22
  3
ACAD_PLOTSTYLENAME
350
1F
  3
ACAD_WIPEOUT_VARS
350
23
  0
DICTIONARY
  5
1A
102
{ACAD_REACTORS
330
19
102
}
100
AcDbDictionary
280
     0
281
     1
  0
DICTIONARY
  5
1B
102
{ACAD_REACTORS
330
19
102
}
100
AcDbDictionary
280
     0
281
     1
  3
Standard
350
1C
  0
MLINESTYLE
  5
1C
102
{ACAD_REACTORS
330
1B
102
}
100
AcDbMlineStyle
  2
Standard
 70
     0
  3

 62
     0
 51
90.0
 52
90.0
 71
     2
 49
0.5
 62
   256
  6
ByLayer
 49
-0.5
 62
   256
  6
ByLayer
  0
ACDBDICTIONARYWDFLT
  5
1F
102
{ACAD_REACTORS
330
19
102
}
100
AcDbDictionary
281
     1
  3
Normal
350
1D
100
AcDbDictionaryWithDefault
340
1D
  0
ACDBPLACEHOLDER
  5
1D
102
{ACAD_REACTORS
330
1F
102
}
  0
LAYOUT
  5
20
102
{ACAD_REACTORS
330
1E
102
}
100
AcDbPlotSettings
  1

  2

  4

  6

 40
0.0
 41
0.0
 42
0.0
 43
0.0
 44
0.0
 45
0.0
 46
0.0
 47
0.0
 48
0.0
 49
0.0
140
0.0
141
0.0
142
1.0
143
1.0
 70
  1024
 72
     0
 73
     0
 74
     0
  7

 75
     0
147
1.0
148
0.0
149
0.0
100
AcDbLayout
  1
Model
 70
     0
 71
     0
 10
0.0
 20
0.0
 11
0.0
 21
0.0
 12
0.0
 22
0.0
 32
0.0
 14
0.0
 24
0.0
 34
0.0
 15
0.0
 25
0.0
 35
0.0
146
0.0
 13
0.0
 23
0.0
 33
0.0
 16
0.0
 26
0.0
 36
0.0
 17
0.0
 27
0.0
 37
0.0
 76
     0
330
A
331
0
345
0
346
0
  0
LAYOUT
  5
21
102
{ACAD_REACTORS
330
1E
102
}
100
AcDbPlotSettings
  1

  2

  4

  6

 40
0.0
 41
0.0
 42
0.0
 43
0.0
 44
0.0
 45
0.0
 46
0.0
 47
0.0
 48
0.0
 49
0.0
140
0.0
141
0.0
142
1.0
143
1.0
 70
     0
 72
     0
 73
     0
 74
     0
  7

 75
     0
147
1.0
148
0.0
149
0.0
100
AcDbLayout
  1
Layout1
 70
     0
 71
     0
 10
0.0
 20
0.0
 11
0.0
 21
0.0
 12
0.0
 22
0.0
 32
0.0
 14
0.0
 24
0.0
 34
0.0
 15
0.0
 25
0.0
 35
0.0
146
0.0
 13
0.0
 23
0.0
 33
0.0
 16
0.0
 26
0.0
 36
0.0
 17
0.0
 27
0.0
 37
0.0
 76
     0
330
B
331
0
345
0
346
0
  0
DICTIONARY
  5
1E
102
{ACAD_REACTORS
330
19
102
}
100
AcDbDictionary
280
     0
281
     1
  3
Layout1
350
21
  3
Model
350
20
  0
DICTIONARY
  5
22
102
{ACAD_REACTORS
330
19
102
}
100
AcDbDictionary
280
     0
281
     1
  0
WIPEOUTVARIABLES
  5
23
100
AcDbWipeoutVariables
 70
     1
  0
ENDSEC
  0
EOF
