  0
SECTION
  2
HEADER
  9
$ACADVER
  1
AC1015
  9
$ACADMAINTVER
 70
    20
  9
$DWGCODEPAGE
  3
ANSI_1252
  9
$INSBASE
 10
0.0
 20
0.0
 30
0.0
  9
$EXTMIN
 10
7.050937893819907
 20
4.42816822979502
 30
0.0
  9
$EXTMAX
 10
113.5068922874225
 20
69.2008876737167
 30
0.0
  9
$LIMMIN
 10
0.0
 20
0.0
  9
$LIMMAX
 10
2000.0
 20
1000.0
  9
$ORTHOMODE
 70
     0
  9
$REGENMODE
 70
     1
  9
$FILLMODE
 70
     1
  9
$QTEXTMODE
 70
     0
  9
$MIRRTEXT
 70
     1
  9
$LTSCALE
 40
0.5
  9
$ATTMODE
 70
     1
  9
$TEXTSIZE
 40
6.0
  9
$TRACEWID
 40
1.0
  9
$TEXTSTYLE
  7
\U+68071
  9
$CLAYER
  8
\U+6807\U+6CE8
  9
$CELTYPE
  6
BYBLOCK
  9
$CECOLOR
 62
     7
  9
$CELTSCALE
 40
1.0
  9
$DISPSILH
 70
     0
  9
$DIMSCALE
 40
12.0
  9
$DIMASZ
 40
2.5
  9
$DIMEXO
 40
0.625
  9
$DIMDLI
 40
3.75
  9
$DIMRND
 40
0.0
  9
$DIMDLE
 40
0.0
  9
$DIMEXE
 40
1.25
  9
$DIMTP
 40
0.0
  9
$DIMTM
 40
0.0
  9
$DIMTXT
 40
2.5
  9
$DIMCEN
 40
2.5
  9
$DIMTSZ
 40
0.0
  9
$DIMTOL
 70
     0
  9
$DIMLIM
 70
     0
  9
$DIMTIH
 70
     0
  9
$DIMTOH
 70
     0
  9
$DIMSE1
 70
     0
  9
$DIMSE2
 70
     0
  9
$DIMTAD
 70
     1
  9
$DIMZIN
 70
     8
  9
$DIMBLK
  1

  9
$DIMASO
 70
     1
  9
$DIMSHO
 70
     1
  9
$DIMPOST
  1

  9
$DIMAPOST
  1

  9
$DIMALT
 70
     0
  9
$DIMALTD
 70
     4
  9
$DIMALTF
 40
0.0394
  9
$DIMLFAC
 40
1.0
  9
$DIMTOFL
 70
     1
  9
$DIMTVP
 40
0.0
  9
$DIMTIX
 70
     0
  9
$DIMSOXD
 70
     0
  9
$DIMSAH
 70
     1
  9
$DIMBLK1
  1
OPEN
  9
$DIMBLK2
  1
OPEN
  9
$DIMSTYLE
  2
P1
  9
$DIMCLRD
 70
     0
  9
$DIMCLRE
 70
     0
  9
$DIMCLRT
 70
     0
  9
$DIMTFAC
 40
1.0
  9
$DIMGAP
 40
0.625
  9
$DIMJUST
 70
     0
  9
$DIMSD1
 70
     0
  9
$DIMSD2
 70
     0
  9
$DIMTOLJ
 70
     1
  9
$DIMTZIN
 70
     0
  9
$DIMALTZ
 70
     0
  9
$DIMALTTZ
 70
     0
  9
$DIMUPT
 70
     0
  9
$DIMDEC
 70
     0
  9
$DIMTDEC
 70
     0
  9
$DIMALTU
 70
     8
  9
$DIMALTTD
 70
     4
  9
$DIMTXSTY
  7
STANDARD
  9
$DIMAUNIT
 70
     0
  9
$DIMADEC
 70
     0
  9
$DIMALTRND
 40
0.0
  9
$DIMAZIN
 70
     0
  9
$DIMDSEP
 70
    46
  9
$DIMATFIT
 70
     3
  9
$DIMFRAC
 70
     0
  9
$DIMLDRBLK
  1

  9
$DIMLUNIT
 70
     6
  9
$DIMLWD
 70
    -2
  9
$DIMLWE
 70
    -2
  9
$DIMTMOVE
 70
     1
  9
$LUNITS
 70
     2
  9
$LUPREC
 70
     4
  9
$SKETCHINC
 40
1.0
  9
$FILLETRAD
 40
80.0
  9
$AUNITS
 70
     0
  9
$AUPREC
 70
     0
  9
$MENU
  1
.
  9
$ELEVATION
 40
0.0
  9
$PELEVATION
 40
0.0
  9
$THICKNESS
 40
0.0
  9
$LIMCHECK
 70
     0
  9
$CHAMFERA
 40
2.0
  9
$CHAMFERB
 40
2.0
  9
$CHAMFERC
 40
20.0
  9
$CHAMFERD
 40
0.0
  9
$SKPOLY
 70
     0
  9
$TDCREATE
 40
2451592.921998148
  9
$TDUCREATE
 40
2451593.213664815
  9
$TDUPDATE
 40
2454922.433898010
  9
$TDUUPDATE
 40
2454922.725564676
  9
$TDINDWG
 40
1.3091641667
  9
$TDUSRTIMER
 40
1.3091641667
  9
$USRTIMER
 70
     1
  9
$ANGBASE
 50
0.0
  9
$ANGDIR
 70
     0
  9
$PDMODE
 70
     0
  9
$PDSIZE
 40
0.0
  9
$PLINEWID
 40
0.0
  9
$SPLFRAME
 70
     0
  9
$SPLINETYPE
 70
     6
  9
$SPLINESEGS
 70
     8
  9
$HANDSEED
  5
BEF1
  9
$SURFTAB1
 70
     6
  9
$SURFTAB2
 70
     6
  9
$SURFTYPE
 70
     6
  9
$SURFU
 70
     6
  9
$SURFV
 70
     6
  9
$UCSBASE
  2

  9
$UCSNAME
  2

  9
$UCSORG
 10
0.0
 20
0.0
 30
0.0
  9
$UCSXDIR
 10
1.0
 20
0.0
 30
0.0
  9
$UCSYDIR
 10
0.0
 20
1.0
 30
0.0
  9
$UCSORTHOREF
  2

  9
$UCSORTHOVIEW
 70
     0
  9
$UCSORGTOP
 10
0.0
 20
0.0
 30
0.0
  9
$UCSORGBOTTOM
 10
0.0
 20
0.0
 30
0.0
  9
$UCSORGLEFT
 10
0.0
 20
0.0
 30
0.0
  9
$UCSORGRIGHT
 10
0.0
 20
0.0
 30
0.0
  9
$UCSORGFRONT
 10
0.0
 20
0.0
 30
0.0
  9
$UCSORGBACK
 10
0.0
 20
0.0
 30
0.0
  9
$PUCSBASE
  2

  9
$PUCSNAME
  2

  9
$PUCSORG
 10
0.0
 20
0.0
 30
0.0
  9
$PUCSXDIR
 10
1.0
 20
0.0
 30
0.0
  9
$PUCSYDIR
 10
0.0
 20
1.0
 30
0.0
  9
$PUCSORTHOREF
  2

  9
$PUCSORTHOVIEW
 70
     0
  9
$PUCSORGTOP
 10
0.0
 20
0.0
 30
0.0
  9
$PUCSORGBOTTOM
 10
0.0
 20
0.0
 30
0.0
  9
$PUCSORGLEFT
 10
0.0
 20
0.0
 30
0.0
  9
$PUCSORGRIGHT
 10
0.0
 20
0.0
 30
0.0
  9
$PUCSORGFRONT
 10
0.0
 20
0.0
 30
0.0
  9
$PUCSORGBACK
 10
0.0
 20
0.0
 30
0.0
  9
$USERI1
 70
     0
  9
$USERI2
 70
     0
  9
$USERI3
 70
     0
  9
$USERI4
 70
     0
  9
$USERI5
 70
     0
  9
$USERR1
 40
0.0
  9
$USERR2
 40
0.0
  9
$USERR3
 40
0.0
  9
$USERR4
 40
0.0
  9
$USERR5
 40
0.0
  9
$WORLDVIEW
 70
     1
  9
$SHADEDGE
 70
     3
  9
$SHADEDIF
 70
    70
  9
$TILEMODE
 70
     0
  9
$MAXACTVP
 70
    48
  9
$PINSBASE
 10
0.0
 20
0.0
 30
0.0
  9
$PLIMCHECK
 70
     0
  9
$PEXTMIN
 10
1.074768547797084
 20
0.8247909505127708
 30
-0.0000000349181948
  9
$PEXTMAX
 10
9.728103927321456
 20
7.912231239228308
 30
0.0000000814935746
  9
$PLIMMIN
 10
-0.1249995194082185
 20
-0.1249999981226884
  9
$PLIMMAX
 10
10.87500024029589
 20
8.37499976158142
  9
$UNITMODE
 70
     0
  9
$VISRETAIN
 70
     1
  9
$PLINEGEN
 70
     0
  9
$PSLTSCALE
 70
     1
  9
$TREEDEPTH
 70
  3020
  9
$CMLSTYLE
  2
STANDARD
  9
$CMLJUST
 70
     0
  9
$CMLSCALE
 40
20.0
  9
$PROXYGRAPHICS
 70
     1
  9
$MEASUREMENT
 70
     0
  9
$CELWEIGHT
370
    -1
  9
$ENDCAPS
280
     0
  9
$JOINSTYLE
280
     0
  9
$LWDISPLAY
290
     0
  9
$INSUNITS
 70
     0
  9
$HYPERLINKBASE
  1

  9
$STYLESHEET
  1
monochrome.ctb
  9
$XEDIT
290
     1
  9
$CEPSNTYPE
380
     0
  9
$PSTYLEMODE
290
     1
  9
$FINGERPRINTGUID
  2
{FEFAC99C-D8F2-4110-8713-76FB1FD3DB0B}
  9
$VERSIONGUID
  2
{7C81802D-C549-4781-8569-7A3A5AECBB02}
  9
$EXTNAMES
290
     1
  9
$PSVPSCALE
 40
0.0
  9
$OLESTARTUP
290
     0
  0
ENDSEC
  0
SECTION
  2
CLASSES
  0
CLASS
  1
DICTIONARYVAR
  2
AcDbDictionaryVar
  3
ObjectDBX Classes
 90
        0
280
     0
281
     0
  0
CLASS
  1
ACDBDICTIONARYWDFLT
  2
AcDbDictionaryWithDefault
  3
ObjectDBX Classes
 90
        0
280
     0
281
     0
  0
CLASS
  1
MATERIAL
  2
AcDbMaterial
  3
ObjectDBX Classes
 90
     1024
280
     0
281
     0
  0
CLASS
  1
VISUALSTYLE
  2
AcDbVisualStyle
  3
ObjectDBX Classes
 90
     4095
280
     0
281
     0
  0
CLASS
  1
TABLESTYLE
  2
AcDbTableStyle
  3
ObjectDBX Classes
 90
     4095
280
     0
281
     0
  0
CLASS
  1
ACDBPLACEHOLDER
  2
AcDbPlaceHolder
  3
ObjectDBX Classes
 90
        0
280
     0
281
     0
  0
CLASS
  1
LAYOUT
  2
AcDbLayout
  3
ObjectDBX Classes
 90
        0
280
     0
281
     0
  0
ENDSEC
  0
SECTION
  2
TABLES
  0
TABLE
  2
VPORT
  5
8
102
{ACAD_XDICTIONARY
360
BE65
102
}
330
0
100
AcDbSymbolTable
 70
     1
  0
VPORT
  5
BE29
330
8
100
AcDbSymbolTableRecord
100
AcDbViewportTableRecord
  2
*Active
 70
     0
 10
0.0
 20
0.0
 11
1.0
 21
1.0
 12
60.28747914858126
 22
36.8194597969059
 13
0.0
 23
0.0
 14
10.0
 24
10.0
 15
10.0
 25
10.0
 16
0.0
 26
0.0
 36
1.0
 17
0.0
 27
0.0
 37
0.0
 40
65.39633994741908
 41
1.646976090014064
 42
50.0
 43
0.0
 44
0.0
 50
0.0
 51
0.0
 71
     0
 72
   100
 73
     1
 74
     1
 75
     0
 76
     0
 77
     0
 78
     0
281
     0
 65
     1
110
0.0
120
0.0
130
0.0
111
1.0
121
0.0
131
0.0
112
0.0
122
1.0
132
0.0
 79
     0
146
0.0
  0
ENDTAB
  0
TABLE
  2
LTYPE
  5
5
330
0
100
AcDbSymbolTable
 70
     3
  0
LTYPE
  5
12
330
5
100
AcDbSymbolTableRecord
100
AcDbLinetypeTableRecord
  2
BYBLOCK
 70
     0
  3

 72
    65
 73
     0
 40
0.0
  0
LTYPE
  5
13
330
5
100
AcDbSymbolTableRecord
100
AcDbLinetypeTableRecord
  2
BYLAYER
 70
     0
  3

 72
    65
 73
     0
 40
0.0
  0
LTYPE
  5
14
330
5
100
AcDbSymbolTableRecord
100
AcDbLinetypeTableRecord
  2
CONTINUOUS
 70
     0
  3
Solid line
 72
    65
 73
     0
 40
0.0
  0
LTYPE
  5
42
330
5
100
AcDbSymbolTableRecord
100
AcDbLinetypeTableRecord
  2
CENTERX2
 70
     0
  3
Center (2x) ________  __  ________  __  _____
 72
    65
 73
     4
 40
101.6
 49
63.5
 74
     0
 49
-12.7
 74
     0
 49
12.7
 74
     0
 49
-12.7
 74
     0
  0
LTYPE
  5
7EB
330
5
100
AcDbSymbolTableRecord
100
AcDbLinetypeTableRecord
  2
DASHED
 70
     0
  3
-- -- -- -- -- -- -- -- -- -- 
 72
    65
 73
     2
 40
3.0
 49
2.0
 74
     0
 49
-1.0
 74
     0
  0
ENDTAB
  0
TABLE
  2
LAYER
  5
2
102
{ACAD_XDICTIONARY
360
9B33
102
}
330
0
100
AcDbSymbolTable
 70
     3
  0
LAYER
  5
E
330
2
100
AcDbSymbolTableRecord
100
AcDbLayerTableRecord
  2
0
 70
     0
 62
     7
  6
CONTINUOUS
370
    -3
390
995E
  0
LAYER
  5
F1
330
2
100
AcDbSymbolTableRecord
100
AcDbLayerTableRecord
  2
\U+6807\U+6CE8
 70
     0
 62
   200
  6
CONTINUOUS
370
    -3
390
995E
1001
AcadStringInfo
1000
MIFCodePage
1070
     5
  0
LAYER
  5
3594
330
2
100
AcDbSymbolTableRecord
100
AcDbLayerTableRecord
  2
\U+9762\U+76C6
 70
     0
 62
     1
  6
CONTINUOUS
370
    -3
390
995E
1001
AcadStringInfo
1000
MIFCodePage
1070
     5
  0
ENDTAB
  0
TABLE
  2
STYLE
  5
3
330
0
100
AcDbSymbolTable
 70
     2
  0
STYLE
  5
F
330
3
100
AcDbSymbolTableRecord
100
AcDbTextStyleTableRecord
  2
STANDARD
 70
     0
 40
0.0
 41
0.6600000000000001
 50
0.0
 71
     0
 42
5.0
  3
txt.shx
  4
hztxt.shx
  0
STYLE
  5
F5
330
3
100
AcDbSymbolTableRecord
100
AcDbTextStyleTableRecord
  2
\U+68071
 70
     0
 40
0.0
 41
0.6600000000000001
 50
0.0
 71
     0
 42
6.0
  3
TIMES.TTF
  4

1001
ACAD
1000
Times New Roman
1071
       18
1001
AcadStringInfo
1000
MIFCodePage
1070
     5
  0
ENDTAB
  0
TABLE
  2
VIEW
  5
6
330
0
100
AcDbSymbolTable
 70
     2
  0
ENDTAB
  0
TABLE
  2
UCS
  5
7
330
0
100
AcDbSymbolTable
 70
     0
  0
ENDTAB
  0
TABLE
  2
APPID
  5
9
330
0
100
AcDbSymbolTable
 70
     5
  0
APPID
  5
10
330
9
100
AcDbSymbolTableRecord
100
AcDbRegAppTableRecord
  2
ACAD
 70
     0
  0
APPID
  5
7C0
330
9
100
AcDbSymbolTableRecord
100
AcDbRegAppTableRecord
  2
RAK
 70
     0
  0
APPID
  5
BE41
330
9
100
AcDbSymbolTableRecord
100
AcDbRegAppTableRecord
  2
AcadStringInfo
 70
     0
  0
APPID
  5
BE54
330
9
100
AcDbSymbolTableRecord
100
AcDbRegAppTableRecord
  2
ACAD_EXEMPT_FROM_CAD_STANDARDS
 70
     0
  0
APPID
  5
BE7B
330
9
100
AcDbSymbolTableRecord
100
AcDbRegAppTableRecord
  2
ACAD_PSEXT
 70
     0
  0
ENDTAB
  0
TABLE
  2
DIMSTYLE
  5
A
330
0
100
AcDbSymbolTable
 70
     1
100
AcDbDimStyleTable
 71
     1
340
76
  0
DIMSTYLE
105
76
330
A
100
AcDbSymbolTableRecord
100
AcDbDimStyleTableRecord
  2
P1
 70
     0
 41
2.5
 42
0.625
 43
3.75
 44
1.25
 73
     0
 74
     0
 77
     1
 78
     8
140
2.5
141
2.5
143
0.0394
147
0.625
171
     4
172
     1
273
     8
274
     4
277
     6
340
F
  0
ENDTAB
  0
TABLE
  2
BLOCK_RECORD
  5
1
330
0
100
AcDbSymbolTable
 70
     2
  0
BLOCK_RECORD
  5
18
330
1
100
AcDbSymbolTableRecord
100
AcDbBlockTableRecord
  2
*MODEL_SPACE
340
9963
  0
BLOCK_RECORD
  5
BE4D
330
1
100
AcDbSymbolTableRecord
100
AcDbBlockTableRecord
  2
*Paper_Space
340
BE4E
  0
BLOCK_RECORD
  5
1EA8
330
1
100
AcDbSymbolTableRecord
100
AcDbBlockTableRecord
  2
_OPEN
340
0
  0
BLOCK_RECORD
  5
BDAF
330
1
100
AcDbSymbolTableRecord
100
AcDbBlockTableRecord
  2
ASQW
340
0
310
2800000020000000200000000100080000000000000400000000000000000000000000000000000000000000000080000080000000808000800000008000800080800000C0C0C000C0DCC000F0CAA6000020400000206000002080000020A0000020C0000020E00000400000004020000040400000406000004080000040A0
310
000040C0000040E00000600000006020000060400000606000006080000060A0000060C0000060E00000800000008020000080400000806000008080000080A0000080C0000080E00000A0000000A0200000A0400000A0600000A0800000A0A00000A0C00000A0E00000C0000000C0200000C0400000C0600000C0800000C0
310
A00000C0C00000C0E00000E0000000E0200000E0400000E0600000E0800000E0A00000E0C00000E0E00040000000400020004000400040006000400080004000A0004000C0004000E00040200000402020004020400040206000402080004020A0004020C0004020E000404000004040200040404000404060004040800040
310
40A0004040C0004040E00040600000406020004060400040606000406080004060A0004060C0004060E00040800000408020004080400040806000408080004080A0004080C0004080E00040A0000040A0200040A0400040A0600040A0800040A0A00040A0C00040A0E00040C0000040C0200040C0400040C0600040C08000
310
40C0A00040C0C00040C0E00040E0000040E0200040E0400040E0600040E0800040E0A00040E0C00040E0E00080000000800020008000400080006000800080008000A0008000C0008000E00080200000802020008020400080206000802080008020A0008020C0008020E00080400000804020008040400080406000804080
310
008040A0008040C0008040E00080600000806020008060400080606000806080008060A0008060C0008060E00080800000808020008080400080806000808080008080A0008080C0008080E00080A0000080A0200080A0400080A0600080A0800080A0A00080A0C00080A0E00080C0000080C0200080C0400080C0600080C0
310
800080C0A00080C0C00080C0E00080E0000080E0200080E0400080E0600080E0800080E0A00080E0C00080E0E000C0000000C0002000C0004000C0006000C0008000C000A000C000C000C000E000C0200000C0202000C0204000C0206000C0208000C020A000C020C000C020E000C0400000C0402000C0404000C0406000C0
310
408000C040A000C040C000C040E000C0600000C0602000C0604000C0606000C0608000C060A000C060C000C060E000C0800000C0802000C0804000C0806000C0808000C080A000C080C000C080E000C0A00000C0A02000C0A04000C0A06000C0A08000C0A0A000C0A0C000C0A0E000C0C00000C0C02000C0C04000C0C06000
310
C0C08000C0C0A000F0FBFF00A4A0A000808080000000FF0000FF000000FFFF00FF000000FF00FF00FFFF0000FFFFFF0000000000000000000000000000000000000000000000000000000000000000000000000000000000000000000000000000000000000000000000000000000000000000000000000000000000000000
310
00000000000000000000000000000000000000000000000000000000000000000000000000000000000000000000000000000000000000000000000000000000000000000000000000000000000000000000000000000000000000000000000000000000000000000000000000000000000000000000000000000000000000
310
00000000000000000000000000000000000000000000000000000000000000000000000000000000000000000000000000000000000000000000000000000000000000000000000000000000000000000000000000000000000000000000000000000000000000000000000000000000000000000000000000000000000000
310
0000000000000000000000000000000000000000000000000000000000000000000000000000000000000000000000000000000000000000000000000000FFFF00000000000000000000000000FFFF00000000000000FFFFFFFF000000FFFFFFFF000000FFFFFFFFFF000000FFFFFFFF00000000000000FFFF000000FFFF00
310
00FFFFFF0000FF00FF0000FFFFFF0000FFFF000000000000FFFF000000FFFF0000FF00FF0000FF00FF0000FF00FF0000FF00FF0000FFFF00FFFF00FFFF00FF0000FF00FFFF00FF00FF00FFFF00FF0000FF00FF0000FFFF00FFFF00FFFFFFFF0000FF00FFFFFFFF00FFFFFFFF00FF0000FFFF000000FFFFFFFFFFFFFFFF00FF
310
FFFFFFFF00FFFFFFFFFFFFFF00FFFFFFFFFF0000000000000000000000000000FFFF00000000000000000000000000FFFF000000000000000000000000000000000000000000000000000000000000000000000000000000000000000000000000000000000000000000000000000000000000000000000000000000000000
310
00000000000000000000000000000000000000000000000000000000000000000000000000000000000000000000000000000000000000000000000000000000000000000000000000000000000000000000000000000000000000000000000000000000000000000000000000000000000000000000000000000000000000
310
00000000000000000000000000000000000000000000000000000000000000000000000000000000000000000000000000000000000000000000000000000000000000000000000000000000000000000000000000000000000000000000000000000000000000000000000000000000000000000000000000000000000000
310
0000000000000000000000000000000000000000000000000000000000000000000000000000000000000000000000000000000000000000
102
{BLKREFS
331
BE1B
102
}
  0
ENDTAB
  0
ENDSEC
  0
SECTION
  2
BLOCKS
  0
BLOCK
  5
19
330
18
100
AcDbEntity
  8
0
100
AcDbBlockBegin
  2
*MODEL_SPACE
 70
     0
 10
0.0
 20
0.0
 30
0.0
  3
*MODEL_SPACE
  1

  0
ENDBLK
  5
1A
330
18
100
AcDbEntity
  8
0
100
AcDbBlockEnd
  0
BLOCK
  5
BE4F
330
BE4D
100
AcDbEntity
 67
     1
  8
0
100
AcDbBlockBegin
  2
*Paper_Space
 70
     0
 10
0.0
 20
0.0
 30
0.0
  3
*Paper_Space
  1

  0
ENDBLK
  5
BE50
330
BE4D
100
AcDbEntity
 67
     1
  8
0
100
AcDbBlockEnd
  0
BLOCK
  5
1EAC
330
1EA8
100
AcDbEntity
  8
0
100
AcDbBlockBegin
  2
_OPEN
 70
     0
 10
0.0
 20
0.0
 30
0.0
  3
_OPEN
  1

  0
LINE
  5
1EA9
330
1EA8
100
AcDbEntity
  8
0
  6
ByBlock
 62
     0
100
AcDbLine
 10
-1.0
 20
0.1666666666666666
 30
0.0
 11
0.0
 21
0.0
 31
0.0
  0
LINE
  5
1EAA
330
1EA8
100
AcDbEntity
  8
0
  6
ByBlock
 62
     0
100
AcDbLine
 10
0.0
 20
0.0
 30
0.0
 11
-1.0
 21
-0.1666666666666666
 31
0.0
  0
LINE
  5
1EAB
330
1EA8
100
AcDbEntity
  8
0
  6
ByBlock
 62
     0
100
AcDbLine
 10
0.0
 20
0.0
 30
0.0
 11
-1.0
 21
0.0
 31
0.0
  0
ENDBLK
  5
1EAD
330
1EA8
100
AcDbEntity
  8
0
100
AcDbBlockEnd
  0
BLOCK
  5
BDB0
330
BDAF
100
AcDbEntity
  8
0
100
AcDbBlockBegin
  2
ASQW
 70
     0
 10
0.0
 20
0.0
 30
0.0
  3
ASQW
  1

  0
ARC
  5
BDB2
330
BDAF
100
AcDbEntity
  8
0
  6
ByBlock
 62
     0
370
     5
100
AcDbCircle
 10
12580.56673684412
 20
5679.481731498682
 30
0.0
 40
5.060384866009128
100
AcDbArc
 50
0.0
 51
20.25021674657236
  0
ARC
  5
BDB3
330
BDAF
100
AcDbEntity
  8
0
  6
ByBlock
 62
     0
370
     5
100
AcDbCircle
 10
12576.47735390162
 20
5679.481731498682
 30
0.0
 40
7.155604750000054
100
AcDbArc
 50
347.7536671402987
 51
12.24633285970133
  0
LINE
  5
BDB4
330
BDAF
100
AcDbEntity
  8
0
  6
ByBlock
 62
     0
370
     5
100
AcDbLine
 10
12591.70682540162
 20
5677.068060123682
 30
0.0
 11
12591.70682540162
 21
5682.727823430616
 31
0.0
  0
LINE
  5
BDB5
330
BDAF
100
AcDbEntity
  8
0
  6
ByBlock
 62
     0
370
     5
100
AcDbLine
 10
12590.16236690162
 20
5677.068060123682
 30
0.0
 11
12590.16236690162
 21
5682.725402873682
 31
0.0
  0
ARC
  5
BDB6
330
BDAF
100
AcDbEntity
  8
0
  6
ByBlock
 62
     0
370
     5
100
AcDbCircle
 10
12595.97272602662
 20
5679.481731498682
 30
0.0
 40
7.155604750000054
100
AcDbArc
 50
347.7536671402987
 51
12.24633285970133
  0
ARC
  5
BDB7
330
BDAF
100
AcDbEntity
  8
0
  6
ByBlock
 62
     0
370
     5
100
AcDbCircle
 10
12605.39183840162
 20
5679.481731498682
 30
0.0
 40
7.155604749999144
100
AcDbArc
 50
167.7536671402986
 51
192.2463328597013
  0
ARC
  5
BDB8
330
BDAF
100
AcDbEntity
  8
0
  6
ByBlock
 62
     0
370
     5
100
AcDbCircle
 10
12601.30138689549
 20
5679.481731498682
 30
0.0
 40
5.060384866010414
100
AcDbArc
 50
159.7497832534276
 51
180.0
  0
ARC
  5
BDB9
330
BDAF
100
AcDbEntity
  8
0
  6
ByBlock
 62
     0
370
     5
100
AcDbCircle
 10
12581.18691008912
 20
5678.459502248681
 30
0.0
 40
2.336385713394631
100
AcDbArc
 50
280.0304238417806
 51
347.7536671402987
  0
ARC
  5
BDBA
330
BDAF
100
AcDbEntity
  8
0
  6
ByBlock
 62
     0
370
     5
100
AcDbCircle
 10
12581.18637580731
 20
5681.340648388236
 30
0.0
 40
5.98984331078744
100
AcDbArc
 50
273.9515281528202
 51
286.6992442339437
  0
ARC
  5
BDBB
330
BDAF
100
AcDbEntity
  8
0
  6
ByBlock
 62
     0
370
     5
100
AcDbCircle
 10
12581.60254947172
 20
5676.109591468117
 30
0.0
 40
0.05
100
AcDbArc
 50
100.0304238418832
 51
180.0
  0
ARC
  5
BDBC
330
BDAF
100
AcDbEntity
  8
0
  6
ByBlock
 62
     0
370
     5
100
AcDbCircle
 10
12581.60254947172
 20
5675.414929060317
 30
0.0
 40
0.05
100
AcDbArc
 50
180.0
 51
274.020368063706
  0
LINE
  5
BDBD
330
BDAF
100
AcDbEntity
  8
0
  6
ByBlock
 62
     0
370
     5
100
AcDbLine
 10
12581.55254947172
 20
5676.109591468117
 30
0.0
 11
12581.55254947172
 21
5675.414929060317
 31
0.0
  0
ARC
  5
BDBE
330
BDAF
100
AcDbEntity
  8
0
  6
ByBlock
 62
     0
370
     5
100
AcDbCircle
 10
12580.75254947172
 20
5676.112979794703
 30
0.0
 40
0.05
100
AcDbArc
 50
0.0
 51
79.51278607664987
  0
ARC
  5
BDBF
330
BDAF
100
AcDbEntity
  8
0
  6
ByBlock
 62
     0
370
     5
100
AcDbCircle
 10
12580.75254947172
 20
5675.416197085625
 30
0.0
 40
0.05
100
AcDbArc
 50
265.8031498192778
 51
0.0
  0
LINE
  5
BDC0
330
BDAF
100
AcDbEntity
  8
0
  6
ByBlock
 62
     0
370
     5
100
AcDbLine
 10
12580.80254947172
 20
5676.112979794703
 30
0.0
 11
12580.80254947172
 21
5675.416197085625
 31
0.0
  0
ARC
  5
BDC1
330
BDAF
100
AcDbEntity
  8
0
  6
ByBlock
 62
     0
370
     5
100
AcDbCircle
 10
12580.56673684412
 20
5679.481731498682
 30
0.0
 40
5.060384866009777
100
AcDbArc
 50
335.8578005514428
 51
0.0
  0
ARC
  5
BDC2
330
BDAF
100
AcDbEntity
  8
0
  6
ByBlock
 62
     0
370
     5
100
AcDbCircle
 10
12581.72657628776
 20
5679.427818879781
 30
0.0
 40
4.002589221644941
100
AcDbArc
 50
287.1606012322138
 51
329.7599751170486
  0
ARC
  5
BDC3
330
BDAF
100
AcDbEntity
  8
0
  6
ByBlock
 62
     0
370
     5
100
AcDbCircle
 10
12592.53682540162
 20
5677.068060123682
 30
0.0
 40
0.8299999999999998
100
AcDbArc
 50
180.0
 51
270.0
  0
ARC
  5
BDC4
330
BDAF
100
AcDbEntity
  8
0
  6
ByBlock
 62
     0
370
     5
100
AcDbCircle
 10
12589.33236690162
 20
5677.068060123682
 30
0.0
 40
0.8299999999999998
100
AcDbArc
 50
270.0
 51
0.0
  0
LINE
  5
BDC5
330
BDAF
100
AcDbEntity
  8
0
  6
ByBlock
 62
     0
370
     5
100
AcDbLine
 10
12588.40997390162
 20
5676.238060123682
 30
0.0
 11
12589.33236690162
 21
5676.238060123682
 31
0.0
  0
LINE
  5
BDC6
330
BDAF
100
AcDbEntity
  8
0
  6
ByBlock
 62
     0
370
     5
100
AcDbLine
 10
12588.40997390162
 20
5675.715830873682
 30
0.0
 11
12588.40997390162
 21
5676.238060123682
 31
0.0
  0
LINE
  5
BDC7
330
BDAF
100
AcDbEntity
  8
0
  6
ByBlock
 62
     0
370
     5
100
AcDbLine
 10
12593.45921840162
 20
5676.238060123682
 30
0.0
 11
12592.53682540162
 21
5676.238060123682
 31
0.0
  0
LINE
  5
BDC8
330
BDAF
100
AcDbEntity
  8
0
  6
ByBlock
 62
     0
370
     5
100
AcDbLine
 10
12593.45921840162
 20
5675.715830873682
 30
0.0
 11
12588.40997390162
 21
5675.715830873682
 31
0.0
  0
LINE
  5
BDC9
330
BDAF
100
AcDbEntity
  8
0
  6
ByBlock
 62
     0
370
     5
100
AcDbLine
 10
12593.45921840162
 20
5676.238060123682
 30
0.0
 11
12593.45921840162
 21
5675.715830873682
 31
0.0
  0
ARC
  5
BDCA
330
BDAF
100
AcDbEntity
  8
0
  6
ByBlock
 62
     0
370
     5
100
AcDbCircle
 10
12601.30138689549
 20
5679.481731498682
 30
0.0
 40
5.060384866010105
100
AcDbArc
 50
180.0
 51
204.1421994485572
  0
ARC
  5
BDCB
330
BDAF
100
AcDbEntity
  8
0
  6
ByBlock
 62
     0
370
     5
100
AcDbCircle
 10
12600.14154745185
 20
5679.427818879781
 30
0.0
 40
4.002589221645123
100
AcDbArc
 50
210.2400248829514
 51
252.8393987677862
  0
LINE
  5
BDCC
330
BDAF
100
AcDbEntity
  8
0
  6
ByBlock
 62
     0
370
     5
100
AcDbLine
 10
12600.29792159672
 20
5676.112979794703
 30
0.0
 11
12600.29792159672
 21
5675.416197085626
 31
0.0
  0
ARC
  5
BDCD
330
BDAF
100
AcDbEntity
  8
0
  6
ByBlock
 62
     0
370
     5
100
AcDbCircle
 10
12600.24792159672
 20
5675.416197085626
 30
0.0
 40
0.05
100
AcDbArc
 50
265.8031498192778
 51
0.0
  0
ARC
  5
BDCE
330
BDAF
100
AcDbEntity
  8
0
  6
ByBlock
 62
     0
370
     5
100
AcDbCircle
 10
12600.24792159672
 20
5676.112979794703
 30
0.0
 40
0.05
100
AcDbArc
 50
0.0
 51
79.51278607664987
  0
LINE
  5
BDCF
330
BDAF
100
AcDbEntity
  8
0
  6
ByBlock
 62
     0
370
     5
100
AcDbLine
 10
12601.04792159672
 20
5676.109591468117
 30
0.0
 11
12601.04792159672
 21
5675.414929060317
 31
0.0
  0
ARC
  5
BDD0
330
BDAF
100
AcDbEntity
  8
0
  6
ByBlock
 62
     0
370
     5
100
AcDbCircle
 10
12601.09792159672
 20
5675.414929060317
 30
0.0
 40
0.05
100
AcDbArc
 50
180.0
 51
274.020368063706
  0
ARC
  5
BDD1
330
BDAF
100
AcDbEntity
  8
0
  6
ByBlock
 62
     0
370
     5
100
AcDbCircle
 10
12601.09792159672
 20
5676.109591468117
 30
0.0
 40
0.05
100
AcDbArc
 50
100.0304238418832
 51
180.0
  0
ARC
  5
BDD2
330
BDAF
100
AcDbEntity
  8
0
  6
ByBlock
 62
     0
370
     5
100
AcDbCircle
 10
12600.68174793231
 20
5681.340648388236
 30
0.0
 40
5.98984331078744
100
AcDbArc
 50
273.9515281528202
 51
286.6992442339437
  0
ARC
  5
BDD3
330
BDAF
100
AcDbEntity
  8
0
  6
ByBlock
 62
     0
370
     5
100
AcDbCircle
 10
12600.68174793231
 20
5681.340648388236
 30
0.0
 40
5.98984331078749
100
AcDbArc
 50
253.3007557659565
 51
265.8776428378498
  0
ARC
  5
BDD4
330
BDAF
100
AcDbEntity
  8
0
  6
ByBlock
 62
     0
370
     5
100
AcDbCircle
 10
12600.68228221412
 20
5678.459502248681
 30
0.0
 40
2.336385713394631
100
AcDbArc
 50
280.0304238417806
 51
347.7536671402987
  0
ARC
  5
BDD5
330
BDAF
100
AcDbEntity
  8
0
  6
ByBlock
 62
     0
370
     5
100
AcDbCircle
 10
12600.68228221412
 20
5678.459502248681
 30
0.0
 40
2.336385713395296
100
AcDbArc
 50
192.2463328597013
 51
259.5127860765379
  0
ARC
  5
BDD6
330
BDAF
100
AcDbEntity
  8
\U+6807\U+6CE8
 62
     0
370
     5
100
AcDbCircle
 10
12589.76633415162
 20
5680.796026248682
 30
0.0
 40
2.440491250002651
100
AcDbArc
 50
151.4992214889386
 51
180.0
  0
LINE
  5
BDD7
330
BDAF
100
AcDbEntity
  8
0
  6
ByBlock
 62
     0
370
     5
100
AcDbLine
 10
12587.32584290162
 20
5680.680944373682
 30
0.0
 11
12586.80361365162
 21
5680.680944373682
 31
0.0
  0
LINE
  5
BDD8
330
BDAF
100
AcDbEntity
  8
0
  6
ByBlock
 62
     0
370
     5
100
AcDbLine
 10
12586.80361365162
 20
5683.247632123682
 30
0.0
 11
12595.06557865162
 21
5683.247632123682
 31
0.0
  0
LINE
  5
BDD9
330
BDAF
100
AcDbEntity
  8
0
  6
ByBlock
 62
     0
370
     5
100
AcDbLine
 10
12586.80361365162
 20
5680.680944373682
 30
0.0
 11
12586.80361365162
 21
5683.247632123682
 31
0.0
  0
LINE
  5
BDDA
330
BDAF
100
AcDbEntity
  8
0
  6
ByBlock
 62
     0
370
     5
100
AcDbLine
 10
12580.80254947172
 20
5682.850483202661
 30
0.0
 11
12580.80254947172
 21
5683.547265911738
 31
0.0
  0
ARC
  5
BDDB
330
BDAF
100
AcDbEntity
  8
0
  6
ByBlock
 62
     0
370
     5
100
AcDbCircle
 10
12580.75254947172
 20
5683.547265911738
 30
0.0
 40
0.05
100
AcDbArc
 50
0.0
 51
94.19685018072225
  0
ARC
  5
BDDC
330
BDAF
100
AcDbEntity
  8
0
  6
ByBlock
 62
     0
370
     5
100
AcDbCircle
 10
12580.75254947172
 20
5682.850483202661
 30
0.0
 40
0.05
100
AcDbArc
 50
280.4872139233502
 51
0.0
  0
ARC
  5
BDDD
330
BDAF
100
AcDbEntity
  8
0
  6
ByBlock
 62
     0
370
     5
100
AcDbCircle
 10
12581.19970553611
 20
5677.816878716638
 30
0.0
 40
5.795794531796138
100
AcDbArc
 50
68.79077895122709
 51
85.97963193650185
  0
LINE
  5
BDDE
330
BDAF
100
AcDbEntity
  8
0
  6
ByBlock
 62
     0
370
     5
100
AcDbLine
 10
12581.55254947172
 20
5682.853871529247
 30
0.0
 11
12581.55254947172
 21
5683.548533937046
 31
0.0
  0
ARC
  5
BDDF
330
BDAF
100
AcDbEntity
  8
0
  6
ByBlock
 62
     0
370
     5
100
AcDbCircle
 10
12581.60254947172
 20
5683.548533937046
 30
0.0
 40
0.05
100
AcDbArc
 50
85.97963193629395
 51
180.0
  0
ARC
  5
BDE0
330
BDAF
100
AcDbEntity
  8
0
  6
ByBlock
 62
     0
370
     5
100
AcDbCircle
 10
12581.18691008912
 20
5680.503960748682
 30
0.0
 40
2.336385713395258
100
AcDbArc
 50
12.24633285970133
 51
79.96957615821944
  0
ARC
  5
BDE1
330
BDAF
100
AcDbEntity
  8
0
  6
ByBlock
 62
     0
370
     5
100
AcDbCircle
 10
12581.80601477049
 20
5679.688277819743
 30
0.0
 40
3.833436410616458
100
AcDbArc
 50
23.76720121404107
 51
67.11979055595094
  0
ARC
  5
BDE2
330
BDAF
100
AcDbEntity
  8
\U+6807\U+6CE8
 62
     0
370
     5
100
AcDbCircle
 10
12592.10285815162
 20
5680.796026248682
 30
0.0
 40
2.440491250002651
100
AcDbArc
 50
0.0
 51
28.50077851106139
  0
LINE
  5
BDE3
330
BDAF
100
AcDbEntity
  8
0
  6
ByBlock
 62
     0
370
     5
100
AcDbLine
 10
12588.96981953709
 20
5682.725402873682
 30
0.0
 11
12590.16236690162
 21
5682.725402873682
 31
0.0
  0
LINE
  5
BDE4
330
BDAF
100
AcDbEntity
  8
0
  6
ByBlock
 62
     0
370
     5
100
AcDbLine
 10
12595.06557865162
 20
5683.247632123682
 30
0.0
 11
12595.06557865162
 21
5680.680944373682
 31
0.0
  0
LINE
  5
BDE5
330
BDAF
100
AcDbEntity
  8
0
  6
ByBlock
 62
     0
370
     5
100
AcDbLine
 10
12595.06557865162
 20
5680.680944373682
 30
0.0
 11
12594.54334940162
 21
5680.680944373682
 31
0.0
  0
LINE
  5
BDE6
330
BDAF
100
AcDbEntity
  8
0
  6
ByBlock
 62
     0
370
     5
100
AcDbLine
 10
12594.54334940162
 20
5680.796026248682
 30
0.0
 11
12594.54334940162
 21
5680.680944373682
 31
0.0
  0
ARC
  5
BDE7
330
BDAF
100
AcDbEntity
  8
\U+6807\U+6CE8
 62
     0
370
     5
100
AcDbCircle
 10
12592.89832187462
 20
5681.157823430617
 30
0.0
 40
1.569999999999043
100
AcDbArc
 50
30.7501526167589
 51
90.0
  0
LINE
  5
BDE8
330
BDAF
100
AcDbEntity
  8
\U+6807\U+6CE8
 62
     0
370
     5
100
AcDbLine
 10
12592.89832187466
 20
5682.727823430616
 30
0.0
 11
12591.70682540162
 21
5682.727823430616
 31
0.0
  0
ARC
  5
BDE9
330
BDAF
100
AcDbEntity
  8
\U+6807\U+6CE8
 62
     0
370
     5
100
AcDbCircle
 10
12588.97087042863
 20
5681.157823430617
 30
0.0
 40
1.569999999999043
100
AcDbArc
 50
90.0
 51
149.2498473832411
  0
LINE
  5
BDEA
330
BDAF
100
AcDbEntity
  8
0
  6
ByBlock
 62
     0
370
     5
100
AcDbLine
 10
12587.32584290162
 20
5680.680944373682
 30
0.0
 11
12587.32584290162
 21
5680.796026248682
 31
0.0
  0
ARC
  5
BDEB
330
BDAF
100
AcDbEntity
  8
0
  6
ByBlock
 62
     0
370
     5
100
AcDbCircle
 10
12600.06210896912
 20
5679.688277819744
 30
0.0
 40
3.83343641061578
100
AcDbArc
 50
112.880209444049
 51
156.2327987859589
  0
ARC
  5
BDEC
330
BDAF
100
AcDbEntity
  8
0
  6
ByBlock
 62
     0
370
     5
100
AcDbCircle
 10
12601.09792159672
 20
5682.853871529247
 30
0.0
 40
0.05
100
AcDbArc
 50
180.0
 51
259.9695761581169
  0
ARC
  5
BDED
330
BDAF
100
AcDbEntity
  8
0
  6
ByBlock
 62
     0
370
     5
100
AcDbCircle
 10
12600.68228221412
 20
5680.503960748683
 30
0.0
 40
2.336385713395258
100
AcDbArc
 50
12.24633285970133
 51
79.96957615821944
  0
ARC
  5
BDEE
330
BDAF
100
AcDbEntity
  8
0
  6
ByBlock
 62
     0
370
     5
100
AcDbCircle
 10
12601.09792159672
 20
5683.548533937046
 30
0.0
 40
0.05
100
AcDbArc
 50
85.97963193629395
 51
180.0
  0
LINE
  5
BDEF
330
BDAF
100
AcDbEntity
  8
0
  6
ByBlock
 62
     0
370
     5
100
AcDbLine
 10
12601.04792159672
 20
5682.853871529247
 30
0.0
 11
12601.04792159672
 21
5683.548533937046
 31
0.0
  0
ARC
  5
BDF0
330
BDAF
100
AcDbEntity
  8
0
  6
ByBlock
 62
     0
370
     5
100
AcDbCircle
 10
12600.69507766111
 20
5677.81687871664
 30
0.0
 40
5.795794531796138
100
AcDbArc
 50
68.79077895122709
 51
85.97963193650185
  0
ARC
  5
BDF1
330
BDAF
100
AcDbEntity
  8
0
  6
ByBlock
 62
     0
370
     5
100
AcDbCircle
 10
12600.24792159672
 20
5682.850483202661
 30
0.0
 40
0.05
100
AcDbArc
 50
280.4872139233502
 51
0.0
  0
ARC
  5
BDF2
330
BDAF
100
AcDbEntity
  8
0
  6
ByBlock
 62
     0
370
     5
100
AcDbCircle
 10
12600.68228221412
 20
5680.503960748683
 30
0.0
 40
2.336385713394631
100
AcDbArc
 50
100.4872139234621
 51
167.7536671402986
  0
ARC
  5
BDF3
330
BDAF
100
AcDbEntity
  8
0
  6
ByBlock
 62
     0
370
     5
100
AcDbCircle
 10
12600.24792159672
 20
5683.547265911738
 30
0.0
 40
0.05
100
AcDbArc
 50
0.0
 51
94.19685018072225
  0
LINE
  5
BDF4
330
BDAF
100
AcDbEntity
  8
0
  6
ByBlock
 62
     0
370
     5
100
AcDbLine
 10
12600.29792159672
 20
5682.850483202661
 30
0.0
 11
12600.29792159672
 21
5683.547265911738
 31
0.0
  0
ARC
  5
BDF5
330
BDAF
100
AcDbEntity
  8
0
  6
ByBlock
 62
     0
370
     5
100
AcDbCircle
 10
12600.6684182035
 20
5677.81687871664
 30
0.0
 40
5.795794531795778
100
AcDbArc
 50
94.19685018051056
 51
111.2092210487729
  0
ARC
  5
BDF6
330
BDAF
100
AcDbEntity
  8
0
  6
ByBlock
 62
     0
370
     5
100
AcDbCircle
 10
12581.60254947172
 20
5682.853871529247
 30
0.0
 40
0.05
100
AcDbArc
 50
180.0
 51
259.9695761581169
  0
LINE
  5
BDF7
330
BDAF
100
AcDbEntity
  8
0
  6
ByBlock
 62
     0
370
     5
100
AcDbLine
 10
12570.66699477662
 20
5677.068060123682
 30
0.0
 11
12570.66699477662
 21
5682.725402873682
 31
0.0
  0
LINE
  5
BDF8
330
BDAF
100
AcDbEntity
  8
0
  6
ByBlock
 62
     0
370
     5
100
AcDbLine
 10
12572.21145327662
 20
5677.068060123682
 30
0.0
 11
12572.21145327662
 21
5682.727823430616
 31
0.0
  0
ARC
  5
BDF9
330
BDAF
100
AcDbEntity
  8
0
  6
ByBlock
 62
     0
370
     5
100
AcDbCircle
 10
12581.80601477049
 20
5679.481731498682
 30
0.0
 40
5.060384866010414
100
AcDbArc
 50
159.7497832534276
 51
180.0
  0
ARC
  5
BDFA
330
BDAF
100
AcDbEntity
  8
0
  6
ByBlock
 62
     0
370
     5
100
AcDbCircle
 10
12585.89646627662
 20
5679.481731498682
 30
0.0
 40
7.155604749999144
100
AcDbArc
 50
167.7536671402986
 51
192.2463328597013
  0
LINE
  5
BDFB
330
BDAF
100
AcDbEntity
  8
0
  6
ByBlock
 62
     0
370
     5
100
AcDbLine
 10
12573.96384627662
 20
5675.715830873682
 30
0.0
 11
12568.91460177662
 21
5675.715830873682
 31
0.0
  0
LINE
  5
BDFC
330
BDAF
100
AcDbEntity
  8
0
  6
ByBlock
 62
     0
370
     5
100
AcDbLine
 10
12568.91460177662
 20
5675.715830873682
 30
0.0
 11
12568.91460177662
 21
5676.238060123682
 31
0.0
  0
LINE
  5
BDFD
330
BDAF
100
AcDbEntity
  8
0
  6
ByBlock
 62
     0
370
     5
100
AcDbLine
 10
12568.91460177662
 20
5676.238060123682
 30
0.0
 11
12569.83699477662
 21
5676.238060123682
 31
0.0
  0
ARC
  5
BDFE
330
BDAF
100
AcDbEntity
  8
0
  6
ByBlock
 62
     0
370
     5
100
AcDbCircle
 10
12569.83699477662
 20
5677.068060123682
 30
0.0
 40
0.8299999999999998
100
AcDbArc
 50
270.0
 51
0.0
  0
LINE
  5
BDFF
330
BDAF
100
AcDbEntity
  8
0
  6
ByBlock
 62
     0
370
     5
100
AcDbLine
 10
12573.96384627662
 20
5676.238060123682
 30
0.0
 11
12573.96384627662
 21
5675.715830873682
 31
0.0
  0
LINE
  5
BE00
330
BDAF
100
AcDbEntity
  8
0
  6
ByBlock
 62
     0
370
     5
100
AcDbLine
 10
12573.96384627662
 20
5676.238060123682
 30
0.0
 11
12573.04145327662
 21
5676.238060123682
 31
0.0
  0
ARC
  5
BE01
330
BDAF
100
AcDbEntity
  8
0
  6
ByBlock
 62
     0
370
     5
100
AcDbCircle
 10
12573.04145327662
 20
5677.068060123682
 30
0.0
 40
0.8299999999999998
100
AcDbArc
 50
180.0
 51
270.0
  0
ARC
  5
BE02
330
BDAF
100
AcDbEntity
  8
0
  6
ByBlock
 62
     0
370
     5
100
AcDbCircle
 10
12580.64617532685
 20
5679.427818879781
 30
0.0
 40
4.002589221645123
100
AcDbArc
 50
210.2400248829514
 51
252.8393987677862
  0
ARC
  5
BE03
330
BDAF
100
AcDbEntity
  8
0
  6
ByBlock
 62
     0
370
     5
100
AcDbCircle
 10
12581.80601477049
 20
5679.481731498682
 30
0.0
 40
5.060384866010105
100
AcDbArc
 50
180.0
 51
204.1421994485572
  0
LINE
  5
BE04
330
BDAF
100
AcDbEntity
  8
0
  6
ByBlock
 62
     0
370
     5
100
AcDbLine
 10
12567.30824152662
 20
5683.247632123682
 30
0.0
 11
12575.57020652662
 21
5683.247632123682
 31
0.0
  0
LINE
  5
BE05
330
BDAF
100
AcDbEntity
  8
0
  6
ByBlock
 62
     0
370
     5
100
AcDbLine
 10
12567.30824152662
 20
5680.680944373682
 30
0.0
 11
12567.30824152662
 21
5683.247632123682
 31
0.0
  0
LINE
  5
BE06
330
BDAF
100
AcDbEntity
  8
0
  6
ByBlock
 62
     0
370
     5
100
AcDbLine
 10
12567.83047077662
 20
5680.680944373682
 30
0.0
 11
12567.83047077662
 21
5680.796026248682
 31
0.0
  0
LINE
  5
BE07
330
BDAF
100
AcDbEntity
  8
0
  6
ByBlock
 62
     0
370
     5
100
AcDbLine
 10
12567.83047077662
 20
5680.680944373682
 30
0.0
 11
12567.30824152662
 21
5680.680944373682
 31
0.0
  0
ARC
  5
BE08
330
BDAF
100
AcDbEntity
  8
\U+6807\U+6CE8
 62
     0
370
     5
100
AcDbCircle
 10
12570.27096202662
 20
5680.796026248682
 30
0.0
 40
2.440491250002651
100
AcDbArc
 50
151.4992214889386
 51
180.0
  0
ARC
  5
BE09
330
BDAF
100
AcDbEntity
  8
\U+6807\U+6CE8
 62
     0
370
     5
100
AcDbCircle
 10
12569.47549830363
 20
5681.157823430617
 30
0.0
 40
1.569999999999043
100
AcDbArc
 50
90.0
 51
149.2498473832411
  0
LINE
  5
BE0A
330
BDAF
100
AcDbEntity
  8
0
  6
ByBlock
 62
     0
370
     5
100
AcDbLine
 10
12569.47444741209
 20
5682.725402873682
 30
0.0
 11
12570.66699477662
 21
5682.725402873682
 31
0.0
  0
LINE
  5
BE0B
330
BDAF
100
AcDbEntity
  8
\U+6807\U+6CE8
 62
     0
370
     5
100
AcDbLine
 10
12573.40294974966
 20
5682.727823430616
 30
0.0
 11
12572.21145327662
 21
5682.727823430616
 31
0.0
  0
ARC
  5
BE0C
330
BDAF
100
AcDbEntity
  8
\U+6807\U+6CE8
 62
     0
370
     5
100
AcDbCircle
 10
12573.40294974962
 20
5681.157823430617
 30
0.0
 40
1.569999999999043
100
AcDbArc
 50
30.7501526167589
 51
90.0
  0
LINE
  5
BE0D
330
BDAF
100
AcDbEntity
  8
0
  6
ByBlock
 62
     0
370
     5
100
AcDbLine
 10
12575.04797727662
 20
5680.796026248682
 30
0.0
 11
12575.04797727662
 21
5680.680944373682
 31
0.0
  0
LINE
  5
BE0E
330
BDAF
100
AcDbEntity
  8
0
  6
ByBlock
 62
     0
370
     5
100
AcDbLine
 10
12575.57020652662
 20
5680.680944373682
 30
0.0
 11
12575.04797727662
 21
5680.680944373682
 31
0.0
  0
LINE
  5
BE0F
330
BDAF
100
AcDbEntity
  8
0
  6
ByBlock
 62
     0
370
     5
100
AcDbLine
 10
12575.57020652662
 20
5683.247632123682
 30
0.0
 11
12575.57020652662
 21
5680.680944373682
 31
0.0
  0
ARC
  5
BE10
330
BDAF
100
AcDbEntity
  8
\U+6807\U+6CE8
 62
     0
370
     5
100
AcDbCircle
 10
12572.60748602662
 20
5680.796026248682
 30
0.0
 40
2.440491250002651
100
AcDbArc
 50
0.0
 51
28.50077851106139
  0
ARC
  5
BE11
330
BDAF
100
AcDbEntity
  8
0
  6
ByBlock
 62
     0
370
     5
100
AcDbCircle
 10
12580.56673684412
 20
5679.688277819743
 30
0.0
 40
3.83343641061578
100
AcDbArc
 50
112.880209444049
 51
156.2327987859589
  0
ARC
  5
BE12
330
BDAF
100
AcDbEntity
  8
0
  6
ByBlock
 62
     0
370
     5
100
AcDbCircle
 10
12581.18691008912
 20
5678.459502248681
 30
0.0
 40
2.336385713395296
100
AcDbArc
 50
192.2463328597013
 51
259.5127860765379
  0
ARC
  5
BE13
330
BDAF
100
AcDbEntity
  8
0
  6
ByBlock
 62
     0
370
     5
100
AcDbCircle
 10
12581.18637580731
 20
5681.340648388236
 30
0.0
 40
5.98984331078749
100
AcDbArc
 50
253.3007557659565
 51
265.8776428378498
  0
ARC
  5
BE14
330
BDAF
100
AcDbEntity
  8
0
  6
ByBlock
 62
     0
370
     5
100
AcDbCircle
 10
12581.1730460785
 20
5677.816878716638
 30
0.0
 40
5.795794531795778
100
AcDbArc
 50
94.19685018051056
 51
111.2092210487729
  0
ARC
  5
BE15
330
BDAF
100
AcDbEntity
  8
0
  6
ByBlock
 62
     0
370
     5
100
AcDbCircle
 10
12581.18691008912
 20
5680.503960748682
 30
0.0
 40
2.336385713394631
100
AcDbArc
 50
100.4872139234621
 51
167.7536671402986
  0
ARC
  5
BE16
330
BDAF
100
AcDbEntity
  8
0
  6
ByBlock
 62
     0
370
     5
100
AcDbCircle
 10
12600.06210896912
 20
5679.481731498682
 30
0.0
 40
5.060384866009128
100
AcDbArc
 50
0.0
 51
20.25021674657236
  0
ARC
  5
BE17
330
BDAF
100
AcDbEntity
  8
0
  6
ByBlock
 62
     0
370
     5
100
AcDbCircle
 10
12601.22194841276
 20
5679.427818879781
 30
0.0
 40
4.002589221644941
100
AcDbArc
 50
287.1606012322138
 51
329.7599751170486
  0
ARC
  5
BE18
330
BDAF
100
AcDbEntity
  8
0
  6
ByBlock
 62
     0
370
     5
100
AcDbCircle
 10
12600.06210896912
 20
5679.481731498682
 30
0.0
 40
5.060384866009777
100
AcDbArc
 50
335.8578005514428
 51
0.0
  0
ARC
  5
BE19
330
BDAF
100
AcDbEntity
  8
0
  6
ByBlock
 62
     0
370
     5
100
AcDbCircle
 10
12601.30138689549
 20
5679.688277819744
 30
0.0
 40
3.833436410616458
100
AcDbArc
 50
23.76720121404107
 51
67.11979055595094
  0
ENDBLK
  5
BDB1
330
BDAF
100
AcDbEntity
  8
0
100
AcDbBlockEnd
  0
ENDSEC
  0
SECTION
  2
ENTITIES
  0
MTEXT
  5
1174
330
18
100
AcDbEntity
  8
\U+6807\U+6CE8
  6
DASHED
100
AcDbMText
 10
1563.755827897638
 20
1611.233430954657
 30
0.0
 40
20.0
 41
0.0
 71
     4
 72
     1
  1
\A1;
 73
     1
 44
1.0
1001
ACAD
1000
MTEXTBEGIN
1070
    73
1070
     1
1070
    44
1040
1.0
1070
    74
1070
     0
1000
MTEXTEND
  0
ARC
  5
566D
330
18
100
AcDbEntity
  8
0
  6
ByBlock
100
AcDbCircle
 10
20.83028760494134
 20
16.01678940716652
 30
0.0
 40
3.1496
100
AcDbArc
 50
184.8645144377704
 51
270.0
  0
LINE
  5
566E
330
18
100
AcDbEntity
  8
0
  6
ByBlock
100
AcDbLine
 10
68.84545386605726
 20
8.142789407166526
 30
0.0
 11
9.433432820523643
 21
8.142789407166562
 31
0.0
  0
LINE
  5
566F
330
18
100
AcDbEntity
  8
\U+6807\U+6CE8
  6
DASHED
 48
0.1
100
AcDbLine
 10
34.35464282052365
 20
19.36323940716652
 30
0.0
 11
19.25579899221711
 21
19.36323940716652
 31
0.0
  0
ARC
  5
5670
330
18
100
AcDbEntity
  8
0
  6
ByBlock
100
AcDbCircle
 10
21.48065282052364
 20
45.43880201267306
 30
0.0
 40
4.92125
100
AcDbArc
 50
243.1220673313917
 51
259.0578409646676
  0
ARC
  5
5671
330
18
100
AcDbEntity
  8
0
  6
ByBlock
100
AcDbCircle
 10
21.48065282052364
 20
57.64350201267307
 30
0.0
 40
4.92125
100
AcDbArc
 50
100.9421590353324
 51
116.8779326686082
  0
LINE
  5
5672
330
18
100
AcDbEntity
  8
\U+6807\U+6CE8
  6
DASHED
 48
0.1
100
AcDbLine
 10
13.22703770144841
 20
23.26840470842014
 30
0.0
 11
20.52119677936748
 21
11.56459491521379
 31
0.0
  0
LINE
  5
5673
330
18
100
AcDbEntity
  8
\U+6807\U+6CE8
  6
DASHED
 48
0.1
100
AcDbLine
 10
13.46092347835871
 20
23.41416921527644
 30
0.0
 11
20.75508255627771
 21
11.71035942207004
 31
0.0
  0
LINE
  5
5674
330
18
100
AcDbEntity
  8
0
  6
ByBlock
100
AcDbLine
 10
68.35676580604371
 20
24.08763940716653
 30
0.0
 11
11.37011717730964
 21
24.08763940716653
 31
0.0
  0
LINE
  5
5675
330
18
100
AcDbEntity
  8
0
  6
ByBlock
100
AcDbLine
 10
69.00024282052365
 20
24.48133940716653
 30
0.0
 11
9.275952820523643
 21
24.48133940716653
 31
0.0
  0
LINE
  5
5676
330
18
100
AcDbEntity
  8
\U+6807\U+6CE8
  6
DASHED
 48
0.1
100
AcDbLine
 10
60.25216848424443
 20
35.77346701267307
 30
0.0
 11
18.02402715680286
 21
35.77346701267307
 31
0.0
  0
LINE
  5
5677
330
18
100
AcDbEntity
  8
\U+6807\U+6CE8
  6
CENTERX2
 48
0.1
100
AcDbLine
 10
70.87583766925132
 20
51.54115201267306
 30
0.0
 11
7.050937893819907
 21
51.54115201267306
 31
0.0
  0
LINE
  5
5678
330
18
100
AcDbEntity
  8
0
  6
ByBlock
100
AcDbLine
 10
68.17347282052364
 20
67.1119870126731
 30
0.0
 11
10.10272282052364
 21
67.11198701267306
 31
0.0
  0
ARC
  5
5679
330
18
100
AcDbEntity
  8
0
  6
ByBlock
100
AcDbCircle
 10
27.98169874642342
 20
93.72016307764447
 30
0.0
 40
55.118
100
AcDbArc
 50
261.1480457056393
 51
267.9833563334408
  0
ARC
  5
567A
330
18
100
AcDbEntity
  8
0
  6
ByBlock
100
AcDbCircle
 10
27.98169874642342
 20
9.362140947701661
 30
0.0
 40
55.118
100
AcDbArc
 50
92.01664366655913
 51
98.85195429436071
  0
LINE
  5
567B
330
18
100
AcDbEntity
  8
0
  6
ByBlock
100
AcDbLine
 10
68.60654282052364
 20
67.54505701267309
 30
0.0
 11
9.669652820523642
 21
67.54505701267307
 31
0.0
  0
LINE
  5
567C
330
18
100
AcDbEntity
  8
0
  6
ByBlock
100
AcDbLine
 10
69.00024282052365
 20
35.53724701267306
 30
0.0
 11
9.275952820523643
 21
35.53724701267306
 31
0.0
  0
LINE
  5
567D
330
18
100
AcDbEntity
  8
0
  6
ByBlock
100
AcDbLine
 10
113.4478372874225
 20
23.65456940716653
 30
0.0
 11
83.87472145051047
 21
22.55293760335097
 31
0.0
  0
LINE
  5
567E
330
18
100
AcDbEntity
  8
0
  6
ByBlock
100
AcDbLine
 10
113.5068922874225
 20
24.48133940716653
 30
0.0
 11
82.28648228742249
 21
24.48133940716653
 31
0.0
  0
ARC
  5
567F
330
18
100
AcDbEntity
  8
\U+6807\U+6CE8
  6
DASHED
 48
0.1
100
AcDbCircle
 10
112.8634152729425
 20
24.56007940716653
 30
0.0
 40
0.4724400000000001
100
AcDbArc
 50
270.0
 51
318.0127875041601
  0
LINE
  5
5680
330
18
100
AcDbEntity
  8
0
  6
ByBlock
100
AcDbLine
 10
112.6998072874225
 20
23.81204940716653
 30
0.0
 11
113.4478372874225
 21
23.65456940716653
 31
0.0
  0
LINE
  5
5682
330
18
100
AcDbEntity
  8
0
  6
ByBlock
100
AcDbLine
 10
113.5068922874225
 20
24.48133940716656
 30
0.0
 11
113.5068922874225
 21
23.85141940716653
 31
0.0
  0
LINE
  5
5683
330
18
100
AcDbEntity
  8
0
  6
ByBlock
100
AcDbLine
 10
113.5068922874225
 20
23.85141940716653
 30
0.0
 11
113.4478372874225
 21
23.65456940716653
 31
0.0
  0
ARC
  5
5684
330
18
100
AcDbEntity
  8
\U+6807\U+6CE8
  6
DASHED
 48
0.1
100
AcDbCircle
 10
113.4807540410424
 20
24.36322940716657
 30
0.0
 40
0.11811
100
AcDbArc
 50
90.0
 51
138.0127875041601
  0
LINE
  5
5685
330
18
100
AcDbEntity
  8
\U+6807\U+6CE8
  6
DASHED
 48
0.1
100
AcDbLine
 10
113.3929635694292
 20
24.4422408316185
 30
0.0
 11
113.2145771593956
 21
24.24403370935883
 31
0.0
  0
LINE
  5
5688
330
18
100
AcDbEntity
  8
\U+6807\U+6CE8
  6
DASHED
 48
0.1
100
AcDbLine
 10
66.45780556647496
 20
23.12037816584338
 30
0.0
 11
65.342663373248
 21
10.9311501660839
 31
0.0
  0
ARC
  5
5689
330
18
100
AcDbEntity
  8
\U+6807\U+6CE8
  6
DASHED
 48
0.1
100
AcDbCircle
 10
67.16351842999891
 20
23.0558154067881
 30
0.0
 40
0.7086600000000001
100
AcDbArc
 50
100.2989739848282
 51
174.7727963665836
  0
ARC
  5
568A
330
18
100
AcDbEntity
  8
\U+6807\U+6CE8
  6
DASHED
 48
0.1
100
AcDbCircle
 10
67.16351842999891
 20
23.0558154067881
 30
0.0
 40
0.9842500000000001
100
AcDbArc
 50
100.2989739848282
 51
174.7727963665836
  0
ARC
  5
568C
330
18
100
AcDbEntity
  8
0
  6
Continuous
100
AcDbCircle
 10
89.73683949982167
 20
7.945939407166526
 30
0.0
 40
0.19685
100
AcDbArc
 50
270.0
 51
357.0000001831025
  0
ARC
  5
568D
330
18
100
AcDbEntity
  8
0
  6
ByBlock
100
AcDbCircle
 10
91.5686638682609
 20
11.39425895767173
 30
0.0
 40
2.63779
100
AcDbArc
 50
187.2225764086401
 51
267.0611897662368
  0
LINE
  5
568E
330
18
100
AcDbEntity
  8
0
  6
ByBlock
100
AcDbLine
 10
112.6998072874225
 20
23.81204940716653
 30
0.0
 11
82.56207228742249
 21
23.81204940716653
 31
0.0
  0
LINE
  5
568F
330
18
100
AcDbEntity
  8
\U+6807\U+6CE8
  6
DASHED
 48
0.1
100
AcDbLine
 10
112.1441249740892
 20
24.08763940716653
 30
0.0
 11
82.28648228742249
 21
24.08763940716653
 31
0.0
  0
LINE
  5
5690
330
18
100
AcDbEntity
  8
0
  6
ByBlock
100
AcDbLine
 10
107.4446520401873
 20
22.03464939697612
 30
0.0
 11
106.0541704731263
 21
11.06262505356488
 31
0.0
  0
LINE
  5
5691
330
18
100
AcDbEntity
  8
0
  6
ByBlock
100
AcDbLine
 10
109.4409459222258
 20
19.26033855561019
 30
0.0
 11
108.5096275911403
 21
11.91148356738472
 31
0.0
  0
LINE
  5
5692
330
18
100
AcDbEntity
  8
0
  6
ByBlock
100
AcDbLine
 10
109.4409459222258
 20
19.26033855561019
 30
0.0
 11
108.5096275911403
 21
11.91148356738472
 31
0.0
  0
LINE
  5
5693
330
18
100
AcDbEntity
  8
\U+6807\U+6CE8
  6
CENTERX2
 48
0.1
100
AcDbLine
 10
97.50298728742251
 20
25.1820792600656
 30
0.0
 11
97.50298728742251
 21
7.303129652769224
 31
0.0
  0
ARC
  5
5696
330
18
100
AcDbEntity
  8
0
  6
ByBlock
100
AcDbCircle
 10
97.50298728742251
 20
126.9898341774732
 30
0.0
 40
118.38559
100
AcDbArc
 50
271.0408561168241
 51
272.9388102337631
  0
ARC
  5
5697
330
18
100
AcDbEntity
  8
0
  6
ByBlock
100
AcDbCircle
 10
105.8927678245983
 20
12.24311747149165
 30
0.0
 40
2.63779
100
AcDbArc
 50
274.156631333577
 51
352.7774235913599
  0
LINE
  5
5698
330
18
100
AcDbEntity
  8
\U+6807\U+6CE8
  6
ByBlock
 48
0.1
100
AcDbLine
 10
105.8697051695329
 20
7.049808709544786
 30
0.0
 11
105.8670438165879
 21
10.18876789118691
 31
0.0
  0
ARC
  5
5699
330
18
100
AcDbEntity
  8
0
  6
Continuous
100
AcDbCircle
 10
105.2676363031941
 20
7.945939407166526
 30
0.0
 40
0.19685
100
AcDbArc
 50
183.0652812162606
 51
270.0
  0
ARC
  5
569A
330
18
100
AcDbEntity
  8
0
  6
Continuous
100
AcDbCircle
 10
106.4690894998216
 20
7.945939407166526
 30
0.0
 40
0.19685
100
AcDbArc
 50
270.0
 51
357.0000001831025
  0
LINE
  5
569B
330
18
100
AcDbEntity
  8
0
  6
Continuous
100
AcDbLine
 10
105.0710679450638
 20
7.93541310288067
 30
0.0
 11
104.9996574665299
 21
9.268933409482327
 31
0.0
  0
LINE
  5
569C
330
18
100
AcDbEntity
  8
0
  6
Continuous
100
AcDbLine
 10
106.6656697237709
 20
7.93563707480835
 30
0.0
 11
106.7608753706593
 21
9.752269147612434
 31
0.0
  0
LINE
  5
569D
330
18
100
AcDbEntity
  8
0
  6
Continuous
100
AcDbLine
 10
105.2676363031941
 20
7.749089407166526
 30
0.0
 11
106.4690894998216
 21
7.749089407166526
 31
0.0
  0
LINE
  5
569E
330
18
100
AcDbEntity
  8
0
  6
Continuous
100
AcDbLine
 10
106.0012135440359
 20
7.749089407166526
 30
0.0
 11
106.0989176735495
 21
9.613395371368259
 31
0.0
  0
LINE
  5
569F
330
18
100
AcDbEntity
  8
0
  6
Continuous
100
AcDbLine
 10
105.6417816919351
 20
9.542542133382015
 30
0.0
 11
105.7357725668899
 21
7.749089407166526
 31
0.0
  0
ARC
  5
56A0
330
18
100
AcDbEntity
  8
0
  6
ByBlock
100
AcDbCircle
 10
103.4373107065841
 20
11.39425895767173
 30
0.0
 40
2.63779
100
AcDbArc
 50
272.9388102337631
 51
352.7774235913599
  0
ARC
  5
56A1
330
18
100
AcDbEntity
  8
0
  6
ByBlock
100
AcDbCircle
 10
97.50298728742251
 20
127.6864576318405
 30
0.0
 40
118.38559
100
AcDbArc
 50
273.7923227923433
 51
274.156631333577
  0
ARC
  5
56A3
330
18
100
AcDbEntity
  8
0
100
AcDbCircle
 10
95.33901805237745
 20
7.99400189371849
 30
0.0
 40
0.6299200078740001
100
AcDbArc
 50
21.17394910999699
 51
88.77639270000662
  0
ARC
  5
56A4
330
18
100
AcDbEntity
  8
0
  6
ByBlock
100
AcDbCircle
 10
97.50298728742251
 20
126.9898341774732
 30
0.0
 40
118.38559
100
AcDbArc
 50
270.7108436952281
 51
270.8201414434247
  0
ARC
  5
56A5
330
18
100
AcDbEntity
  8
0
  6
ByBlock
100
AcDbCircle
 10
97.50298728742251
 20
126.9983536140081
 30
0.0
 40
118.38559
100
AcDbArc
 50
269.2604086479885
 51
270.7108436952281
  0
ARC
  5
56A6
330
18
100
AcDbEntity
  8
0
100
AcDbCircle
 10
99.66695652246755
 20
7.99400189371849
 30
0.0
 40
0.6299200078740001
100
AcDbArc
 50
158.826050890003
 51
165.4314953800113
  0
ARC
  5
56A7
330
18
100
AcDbEntity
  8
0
100
AcDbCircle
 10
98.94297748223952
 20
8.182159399292503
 30
0.0
 40
0.11811
100
AcDbArc
 50
270.0
 51
345.4314953800113
  0
ARC
  5
56A8
330
18
100
AcDbEntity
  8
0
100
AcDbCircle
 10
99.66695652246755
 20
7.99400189371849
 30
0.0
 40
0.6299200078740001
100
AcDbArc
 50
91.22360729999334
 51
158.826050890003
  0
LINE
  5
56A9
330
18
100
AcDbEntity
  8
0
  6
Continuous
100
AcDbLine
 10
96.06299709260548
 20
8.064049399292501
 30
0.0
 11
98.94297748223952
 21
8.064049399292501
 31
0.0
  0
ARC
  5
56AA
330
18
100
AcDbEntity
  8
0
100
AcDbCircle
 10
96.06299709260548
 20
8.182159399292503
 30
0.0
 40
0.11811
100
AcDbArc
 50
194.5685046199887
 51
270.0
  0
ARC
  5
56AB
330
18
100
AcDbEntity
  8
0
100
AcDbCircle
 10
95.33901805237745
 20
7.99400189371849
 30
0.0
 40
0.6299200078740001
100
AcDbArc
 50
14.56850461998867
 51
21.17394910999699
  0
LINE
  5
56AC
330
18
100
AcDbEntity
  8
0
  6
Continuous
100
AcDbLine
 10
89.93341972377089
 20
7.93563707480835
 30
0.0
 11
90.00340709026419
 21
9.271075662938294
 31
0.0
  0
ARC
  5
56AD
330
18
100
AcDbEntity
  8
0
  6
ByBlock
100
AcDbCircle
 10
97.50298728742251
 20
126.9898341774732
 30
0.0
 40
118.38559
100
AcDbArc
 50
267.0611897662368
 51
268.9591438831759
  0
LINE
  5
56B0
330
18
100
AcDbEntity
  8
0
  6
ByBlock
100
AcDbLine
 10
110.6608520861563
 20
23.22510503399751
 30
0.0
 11
109.4597990665493
 21
19.34741957069474
 31
0.0
  0
LINE
  5
56B1
330
18
100
AcDbEntity
  8
0
  6
ByBlock
100
AcDbLine
 10
110.6608520861563
 20
23.22510503399751
 30
0.0
 11
109.4597990665493
 21
19.34741957069474
 31
0.0
  0
ARC
  5
56B2
330
18
100
AcDbEntity
  8
0
  6
ByBlock
100
AcDbCircle
 10
109.9486948321519
 20
19.19599167869393
 30
0.0
 40
0.51181
100
AcDbArc
 50
162.7904424794503
 51
172.7774235913599
  0
ARC
  5
56B3
330
18
100
AcDbEntity
  8
\U+6807\U+6CE8
  6
DASHED
 48
0.1
100
AcDbCircle
 10
111.3377846846831
 20
23.0154356450733
 30
0.0
 40
0.7086600000000001
100
AcDbArc
 50
102.4501647932385
 51
127.2698218806573
  0
ARC
  5
56B4
330
18
100
AcDbEntity
  8
0
  6
DASHED
 48
20.0
100
AcDbCircle
 10
111.3377846846831
 20
23.0154356450733
 30
0.0
 40
0.7086600000000001
100
AcDbArc
 50
129.9079881125967
 51
162.7904424794503
  0
ARC
  5
56B5
330
18
100
AcDbEntity
  8
\U+6807\U+6CE8
  6
DASHED
 48
0.1
100
AcDbCircle
 10
112.1441249740892
 20
19.36323940716652
 30
0.0
 40
4.448809999999999
100
AcDbArc
 50
90.0
 51
102.4501647932385
  0
LINE
  5
56B6
330
18
100
AcDbEntity
  8
\U+6807\U+6CE8
  6
DASHED
 48
0.1
100
AcDbLine
 10
112.8634152729425
 20
24.08763940716653
 30
0.0
 11
112.1441249740892
 21
24.08763940716653
 31
0.0
  0
LINE
  5
56BA
330
18
100
AcDbEntity
  8
\U+6807\U+6CE8
  6
CENTERX2
 48
0.1
100
AcDbLine
 10
99.97633952576432
 20
21.33173940716653
 30
0.0
 11
95.2740501693214
 21
21.33173940716653
 31
0.0
  0
LINE
  5
56BD
330
18
100
AcDbEntity
  8
0
  6
ByBlock
100
AcDbLine
 10
69.00024282052372
 20
24.48133940716653
 30
0.0
 11
68.84545386605726
 21
8.142789407166526
 31
0.0
  0
LINE
  5
56BE
330
18
100
AcDbEntity
  8
\U+6807\U+6CE8
  6
ByBlock
 48
0.1
100
AcDbLine
 10
69.00024282052372
 20
23.58329635965997
 30
0.0
 11
69.00024282052365
 21
4.42816822979502
 31
0.0
  0
LINE
  5
56BF
330
18
100
AcDbEntity
  8
0
  6
ByBlock
100
AcDbLine
 10
87.56132253465763
 20
22.03464939697612
 30
0.0
 11
88.95180410171866
 21
11.06262505356488
 31
0.0
  0
LINE
  5
56C0
330
18
100
AcDbEntity
  8
0
  6
ByBlock
100
AcDbLine
 10
85.56502865261911
 20
19.26033855561019
 30
0.0
 11
86.49634698370466
 21
11.91148356738472
 31
0.0
  0
LINE
  5
56C1
330
18
100
AcDbEntity
  8
0
  6
ByBlock
100
AcDbLine
 10
85.56502865261911
 20
19.26033855561019
 30
0.0
 11
86.49634698370466
 21
11.91148356738472
 31
0.0
  0
LINE
  5
56C2
330
18
100
AcDbEntity
  8
0
  6
ByBlock
100
AcDbLine
 10
81.7746722874225
 20
23.02464940716653
 30
0.0
 11
81.7746722874225
 21
8.142789407166562
 31
0.0
  0
LINE
  5
56C3
330
18
100
AcDbEntity
  8
0
  6
ByBlock
100
AcDbLine
 10
82.73935736630454
 20
21.43727709676504
 30
0.0
 11
82.01089228742249
 21
8.142789407166526
 31
0.0
  0
LINE
  5
56C4
330
18
100
AcDbEntity
  8
0
  6
ByBlock
100
AcDbLine
 10
81.49908228742249
 20
23.69393940716653
 30
0.0
 11
81.49908228742249
 21
8.142789407166562
 31
0.0
  0
LINE
  5
56C5
330
18
100
AcDbEntity
  8
\U+6807\U+6CE8
  6
ByBlock
 48
0.1
100
AcDbLine
 10
89.13745516953296
 20
7.049808709544786
 30
0.0
 11
89.13479381658788
 21
10.18876789118691
 31
0.0
  0
LINE
  5
56C6
330
18
100
AcDbEntity
  8
0
  6
Continuous
100
AcDbLine
 10
88.90581330641817
 20
9.613493155442487
 30
0.0
 11
89.00352256688989
 21
7.749089407166526
 31
0.0
  0
LINE
  5
56C7
330
18
100
AcDbEntity
  8
0
  6
Continuous
100
AcDbLine
 10
89.26896354403588
 20
7.749089407166526
 30
0.0
 11
89.36496515774015
 21
9.58090943250783
 31
0.0
  0
LINE
  5
56C8
330
18
100
AcDbEntity
  8
0
  6
Continuous
100
AcDbLine
 10
88.53538630319411
 20
7.749089407166526
 30
0.0
 11
89.73683949982167
 21
7.749089407166526
 31
0.0
  0
ARC
  5
56C9
330
18
100
AcDbEntity
  8
0
  6
Continuous
100
AcDbCircle
 10
88.53538630319411
 20
7.945939407166526
 30
0.0
 40
0.19685
100
AcDbArc
 50
183.0652812162606
 51
270.0
  0
LINE
  5
56CA
330
18
100
AcDbEntity
  8
0
  6
Continuous
100
AcDbLine
 10
88.33881794506378
 20
7.93541310288067
 30
0.0
 11
88.24145652432072
 21
9.753541678771515
 31
0.0
  0
ARC
  5
56CB
330
18
100
AcDbEntity
  8
0
  6
ByBlock
100
AcDbCircle
 10
97.50298728742251
 20
127.6864576318405
 30
0.0
 40
118.38559
100
AcDbArc
 50
265.843368666423
 51
266.2076772076567
  0
ARC
  5
56CC
330
18
100
AcDbEntity
  8
0
  6
ByBlock
100
AcDbCircle
 10
89.1132067502466
 20
12.24311747149165
 30
0.0
 40
2.63779
100
AcDbArc
 50
187.2225764086401
 51
265.843368666423
  0
LINE
  5
56CD
330
18
100
AcDbEntity
  8
0
  6
ByBlock
100
AcDbLine
 10
82.01089228742249
 20
8.142789407166562
 30
0.0
 11
81.49908228742249
 21
8.142789407166526
 31
0.0
  0
LINE
  5
56CE
330
18
100
AcDbEntity
  8
0
  6
ByBlock
100
AcDbLine
 10
84.54557565255001
 20
22.57792767638779
 30
0.0
 11
85.54617550829567
 21
19.34741957069474
 31
0.0
  0
LINE
  5
56CF
330
18
100
AcDbEntity
  8
0
  6
ByBlock
100
AcDbLine
 10
84.54557565255001
 20
22.57792767638779
 30
0.0
 11
85.54617550829567
 21
19.34741957069474
 31
0.0
  0
ARC
  5
56D0
330
18
100
AcDbEntity
  8
0
  6
ByBlock
100
AcDbCircle
 10
85.05727974269305
 20
19.19599167869393
 30
0.0
 40
0.51181
100
AcDbArc
 50
7.222576408640124
 51
17.20955752054966
  0
ARC
  5
56D3
330
18
100
AcDbEntity
  8
0
  6
ByBlock
100
AcDbCircle
 10
82.28648228742249
 20
23.69393940716653
 30
0.0
 40
0.7874000000000001
100
AcDbArc
 50
90.0
 51
180.0
  0
ARC
  5
56D4
330
18
100
AcDbEntity
  8
\U+6807\U+6CE8
  6
DASHED
 48
0.1
100
AcDbCircle
 10
82.28648228742249
 20
23.30023940716653
 30
0.0
 40
0.7874000000000001
100
AcDbArc
 50
90.0
 51
180.0
  0
ARC
  5
56D5
330
18
100
AcDbEntity
  8
0
  6
ByBlock
100
AcDbCircle
 10
82.56207228742249
 20
23.02464940716653
 30
0.0
 40
0.7874000000000001
100
AcDbArc
 50
90.0
 51
180.0
  0
ARC
  5
56D6
330
18
100
AcDbEntity
  8
0
  6
ByBlock
100
AcDbCircle
 10
83.91868825840273
 20
21.37265622596516
 30
0.0
 40
1.1811
100
AcDbArc
 50
92.13334577333691
 51
176.8636416316695
  0
ARC
  5
56D7
330
18
100
AcDbEntity
  8
\U+6807\U+6CE8
  6
DASHED
 48
0.1
100
AcDbCircle
 10
67.69142464678634
 20
20.15063940716653
 30
0.0
 40
3.66141
100
AcDbArc
 50
90.0
 51
100.2989739848282
  0
ARC
  5
56D8
330
18
100
AcDbEntity
  8
0
  6
ByBlock
100
AcDbCircle
 10
68.35676580604371
 20
24.56007940716653
 30
0.0
 40
0.4724400000000001
100
AcDbArc
 50
270.0
 51
318.0127875041601
  0
LINE
  5
56D9
330
18
100
AcDbEntity
  8
0
  6
ByBlock
100
AcDbLine
 10
68.88631410253037
 20
24.4422408316185
 30
0.0
 11
68.70792769249675
 21
24.24403370935883
 31
0.0
  0
ARC
  5
56DA
330
18
100
AcDbEntity
  8
0
  6
ByBlock
100
AcDbCircle
 10
68.97410457414363
 20
24.36322940716657
 30
0.0
 40
0.11811
100
AcDbArc
 50
90.0
 51
138.0127875041601
  0
LINE
  5
56DB
330
18
100
AcDbEntity
  8
\U+6807\U+6CE8
  6
DASHED
 48
0.1
100
AcDbLine
 10
69.00024282052365
 20
23.85141940716653
 30
0.0
 11
68.94118782052365
 21
23.65456940716653
 31
0.0
  0
LINE
  5
56DC
330
18
100
AcDbEntity
  8
\U+6807\U+6CE8
  6
DASHED
 48
0.1
100
AcDbLine
 10
68.19315782052365
 20
23.81204940716653
 30
0.0
 11
68.94118782052365
 21
23.65456940716653
 31
0.0
  0
ARC
  5
56DD
330
18
100
AcDbEntity
  8
0
  6
ByBlock
100
AcDbCircle
 10
67.69142464678634
 20
20.15063940716653
 30
0.0
 40
3.937
100
AcDbArc
 50
90.0
 51
100.2989739848282
  0
LINE
  5
56DE
330
18
100
AcDbEntity
  8
\U+6807\U+6CE8
  6
DASHED
 48
0.1
100
AcDbLine
 10
68.19315782052365
 20
23.81204940716653
 30
0.0
 11
67.69142464678634
 21
23.81204940716653
 31
0.0
  0
LINE
  5
56DF
330
18
100
AcDbEntity
  8
0
  6
ByBlock
100
AcDbLine
 10
69.00024282052372
 20
24.48133940716649
 30
0.0
 11
69.00024282052372
 21
23.85141940716653
 31
0.0
  0
LINE
  5
56F1
330
18
100
AcDbEntity
  8
0
  6
ByBlock
100
AcDbLine
 10
57.44590803610602
 20
12.86718940716653
 30
0.0
 11
20.83028760494134
 21
12.86718940716653
 31
0.0
  0
ARC
  5
56F2
330
18
100
AcDbEntity
  8
\U+6807\U+6CE8
  6
DASHED
 48
0.1
100
AcDbCircle
 10
33.21807985874488
 20
137.46777075391
 30
0.0
 40
118.11
100
AcDbArc
 50
270.5513611543053
 51
284.0807760630664
  0
LINE
  5
56F3
330
18
100
AcDbEntity
  8
\U+6807\U+6CE8
  6
DASHED
 48
0.1
100
AcDbLine
 10
23.98226757476322
 20
9.581663414470996
 30
0.0
 11
58.97852580230872
 21
8.633921215731
 31
0.0
  0
LINE
  5
56F4
330
18
100
AcDbEntity
  8
\U+6807\U+6CE8
  6
DASHED
 48
0.1
100
AcDbLine
 10
23.98972815945142
 20
9.857152412030092
 30
0.0
 11
62.65189540137541
 21
8.810132837775313
 31
0.0
  0
LINE
  5
56F6
330
18
100
AcDbEntity
  8
\U+6807\U+6CE8
  6
CENTERX2
 48
0.1
100
AcDbLine
 10
61.12624282052364
 20
7.061902178987471
 30
0.0
 11
61.12624282052364
 21
25.11870468568798
 31
0.0
  0
ARC
  5
56F7
330
18
100
AcDbEntity
  8
0
  6
ByBlock
100
AcDbCircle
 10
57.44590803610602
 20
16.01678940716652
 30
0.0
 40
3.1496
100
AcDbArc
 50
270.0
 51
355.1354855622295
  0
LINE
  5
56F8
330
18
100
AcDbEntity
  8
\U+6807\U+6CE8
  6
DASHED
 48
0.1
100
AcDbLine
 10
66.18336167510449
 20
23.14548590547602
 30
0.0
 11
65.06821948187739
 21
10.95625790571649
 31
0.0
  0
LINE
  5
56FA
330
18
100
AcDbEntity
  8
\U+6807\U+6CE8
  6
CENTERX2
 48
0.1
100
AcDbLine
 10
56.12716057998174
 20
6.678423492253253
 30
0.0
 11
56.12449922703675
 21
9.817382673895377
 31
0.0
  0
LINE
  5
56FD
330
18
100
AcDbEntity
  8
\U+6807\U+6CE8
  6
DASHED
 48
0.1
100
AcDbLine
 10
59.6887786245917
 20
8.064049399292501
 30
0.0
 11
62.56875901422559
 21
8.064049399292501
 31
0.0
  0
ARC
  5
56FE
330
18
100
AcDbEntity
  8
\U+6807\U+6CE8
  6
DASHED
 48
0.1
100
AcDbCircle
 10
63.44679823058462
 20
7.234385609804482
 30
0.0
 40
1.574800019685
100
AcDbArc
 50
141.1828137799854
 51
141.8184160400195
  0
ARC
  5
56FF
330
18
100
AcDbEntity
  8
\U+6807\U+6CE8
  6
DASHED
 48
0.1
100
AcDbCircle
 10
63.23694217391948
 20
7.867199395355902
 30
0.0
 40
0.9842500118105615
100
AcDbArc
 50
96.44529539083455
 51
136.0000000000073
  0
LINE
  5
5700
330
18
100
AcDbEntity
  8
\U+6807\U+6CE8
  6
DASHED
 48
0.1
100
AcDbLine
 10
62.31192035467561
 20
8.326194804134457
 30
0.0
 11
62.52893196395866
 21
8.550916905870472
 31
0.0
  0
ARC
  5
5701
330
18
100
AcDbEntity
  8
\U+6807\U+6CE8
  6
DASHED
 48
0.1
100
AcDbCircle
 10
63.28282562152264
 20
7.959319144186484
 30
0.0
 40
0.6299200078740001
100
AcDbArc
 50
101.8301609900378
 51
155.4013351400095
  0
ARC
  5
5702
330
18
100
AcDbEntity
  8
\U+6807\U+6CE8
  6
DASHED
 48
0.1
100
AcDbCircle
 10
63.44679823058462
 20
7.234385609804482
 30
0.0
 40
1.574800019685
100
AcDbArc
 50
135.8905436899946
 51
141.1828137799854
  0
ARC
  5
5703
330
18
100
AcDbEntity
  8
\U+6807\U+6CE8
  6
DASHED
 48
0.1
100
AcDbCircle
 10
62.56875901422559
 20
8.182159399292503
 30
0.0
 40
0.11811
100
AcDbArc
 50
270.0
 51
342.6683146200087
  0
ARC
  5
5704
330
18
100
AcDbEntity
  8
\U+6807\U+6CE8
  6
DASHED
 48
0.1
100
AcDbCircle
 10
63.28282562152264
 20
7.959319144186484
 30
0.0
 40
0.6299200078740001
100
AcDbArc
 50
155.4013351400095
 51
162.6683146200087
  0
LINE
  5
5705
330
18
100
AcDbEntity
  8
\U+6807\U+6CE8
  6
DASHED
 48
0.1
100
AcDbLine
 10
62.20891782052365
 20
8.064049395355473
 30
0.0
 11
62.20891782052365
 21
8.207857336085487
 31
0.0
  0
ARC
  5
5706
330
18
100
AcDbEntity
  8
\U+6807\U+6CE8
  6
DASHED
 48
0.1
100
AcDbCircle
 10
62.71584327013095
 20
11.1714671025675
 30
0.0
 40
2.63779
100
AcDbArc
 50
279.5748348660644
 51
354.7727963665836
  0
ARC
  5
5707
330
18
100
AcDbEntity
  8
\U+6807\U+6CE8
  6
DASHED
 48
0.1
100
AcDbCircle
 10
62.71584327013095
 20
11.1714671025675
 30
0.0
 40
2.3622
100
AcDbArc
 50
268.4487381847162
 51
354.7727963665836
  0
ARC
  5
5708
330
18
100
AcDbEntity
  8
\U+6807\U+6CE8
  6
DASHED
 48
0.1
100
AcDbCircle
 10
58.96479958436366
 20
7.99400189371849
 30
0.0
 40
0.6299200078740001
100
AcDbArc
 50
21.17394910999699
 51
88.77639270000662
  0
LINE
  5
5709
330
18
100
AcDbEntity
  8
\U+6807\U+6CE8
  6
DASHED
 48
0.1
100
AcDbLine
 10
55.31470183915345
 20
8.193516298817005
 30
0.0
 11
55.28576271971471
 21
8.73392583281225
 31
0.0
  0
LINE
  5
570A
330
18
100
AcDbEntity
  8
0
  6
Continuous
100
AcDbLine
 10
55.97256012405603
 20
8.143455539332144
 30
0.0
 11
55.99322797733869
 21
7.749089407166526
 31
0.0
  0
LINE
  5
570B
330
18
100
AcDbEntity
  8
\U+6807\U+6CE8
  6
DASHED
 48
0.1
100
AcDbLine
 10
56.2822366162424
 20
8.198787210069353
 30
0.0
 11
56.3088300348999
 21
8.706219897496305
 31
0.0
  0
LINE
  5
570C
330
18
100
AcDbEntity
  8
\U+6807\U+6CE8
  6
DASHED
 48
0.1
100
AcDbLine
 10
56.93613561957707
 20
8.183891939463391
 30
0.0
 11
56.96258181741487
 21
8.688515486134328
 31
0.0
  0
ARC
  5
570D
330
18
100
AcDbEntity
  8
\U+6807\U+6CE8
  6
DASHED
 48
0.1
100
AcDbCircle
 10
59.00696585436168
 20
7.914343297130487
 30
0.0
 40
0.9842500118109999
100
AcDbArc
 50
44.00000000003011
 51
88.77639271001395
  0
ARC
  5
570E
330
18
100
AcDbEntity
  8
\U+6807\U+6CE8
  6
DASHED
 48
0.1
100
AcDbCircle
 10
58.96479958436366
 20
7.99400189371849
 30
0.0
 40
0.6299200078740001
100
AcDbArc
 50
14.56850461998867
 51
21.17394910999699
  0
ARC
  5
570F
330
18
100
AcDbEntity
  8
\U+6807\U+6CE8
  6
DASHED
 48
0.1
100
AcDbCircle
 10
58.72480443049663
 20
7.356399877586473
 30
0.0
 40
1.574800019685
100
AcDbArc
 50
33.13170343003017
 51
33.32300336997388
  0
ARC
  5
5710
330
18
100
AcDbEntity
  8
\U+6807\U+6CE8
  6
DASHED
 48
0.1
100
AcDbCircle
 10
58.72480443049663
 20
7.356399877586473
 30
0.0
 40
1.574800019685
100
AcDbArc
 50
33.32300336997388
 51
44.00000000998127
  0
LINE
  5
5711
330
18
100
AcDbEntity
  8
\U+6807\U+6CE8
  6
DASHED
 48
0.1
100
AcDbLine
 10
59.85762076722169
 20
8.450347894410489
 30
0.0
 11
59.71497606432265
 21
8.598060807645488
 31
0.0
  0
ARC
  5
5712
330
18
100
AcDbEntity
  8
\U+6807\U+6CE8
  6
DASHED
 48
0.1
100
AcDbCircle
 10
59.6887786245917
 20
8.182159399292503
 30
0.0
 40
0.11811
100
AcDbArc
 50
194.5685046199887
 51
270.0
  0
LINE
  5
5713
330
18
100
AcDbEntity
  8
\U+6807\U+6CE8
  6
DASHED
 48
0.1
100
AcDbLine
 10
60.04356782052365
 20
8.064049395355473
 30
0.0
 11
60.04356782052365
 21
8.217131101002475
 31
0.0
  0
ARC
  5
5714
330
18
100
AcDbEntity
  8
0
  6
Continuous
100
AcDbCircle
 10
55.52509171364297
 20
7.945939407166526
 30
0.0
 40
0.19685
100
AcDbArc
 50
183.0652812162606
 51
270.0
  0
ARC
  5
5715
330
18
100
AcDbEntity
  8
0
  6
Continuous
100
AcDbCircle
 10
56.72654491027046
 20
7.945939407166526
 30
0.0
 40
0.19685
100
AcDbArc
 50
270.0
 51
357.0000001831025
  0
LINE
  5
5716
330
18
100
AcDbEntity
  8
0
  6
Continuous
100
AcDbLine
 10
55.32852335551257
 20
7.93541310288067
 30
0.0
 11
55.31741828193228
 21
8.142789407166562
 31
0.0
  0
LINE
  5
5717
330
18
100
AcDbEntity
  8
0
  6
Continuous
100
AcDbLine
 10
56.92312513421984
 20
7.93563707480835
 30
0.0
 11
56.93398152726821
 21
8.142789407166491
 31
0.0
  0
LINE
  5
5718
330
18
100
AcDbEntity
  8
0
  6
Continuous
100
AcDbLine
 10
55.52509171364297
 20
7.749089407166526
 30
0.0
 11
56.72654491027046
 21
7.749089407166526
 31
0.0
  0
LINE
  5
5719
330
18
100
AcDbEntity
  8
0
  6
Continuous
100
AcDbLine
 10
56.25866895448482
 20
7.749089407166526
 30
0.0
 11
56.279301895927
 21
8.142789407166526
 31
0.0
  0
LINE
  5
571A
330
18
100
AcDbEntity
  8
\U+6807\U+6CE8
  6
DASHED
 48
0.1
100
AcDbLine
 10
55.94254704000477
 20
8.71613929655572
 30
0.0
 11
55.97020228723149
 21
8.188445745912904
 31
0.0
  0
LINE
  5
571B
330
18
100
AcDbEntity
  8
0
  6
ByBlock
100
AcDbLine
 10
61.12624282052364
 20
22.11913940716653
 30
0.0
 11
60.58416319960201
 21
15.7497038613371
 31
0.0
  0
LINE
  5
571F
330
18
100
AcDbEntity
  8
0
  6
Continuous
100
AcDbLine
 10
25.50021503456365
 20
8.142789407166597
 30
0.0
 11
25.5208479773387
 21
7.749089407166526
 31
0.0
  0
LINE
  5
5720
330
18
100
AcDbEntity
  8
0
  6
Continuous
100
AcDbLine
 10
25.05271171364297
 20
7.749089407166526
 30
0.0
 11
26.25416491027046
 21
7.749089407166526
 31
0.0
  0
LINE
  5
5721
330
18
100
AcDbEntity
  8
\U+6807\U+6CE8
  6
DASHED
 48
0.1
100
AcDbLine
 10
25.80922994410587
 20
8.186829592643213
 30
0.0
 11
25.87963720716374
 21
9.530280285007776
 31
0.0
  0
LINE
  5
5722
330
18
100
AcDbEntity
  8
\U+6807\U+6CE8
  6
DASHED
 48
0.1
100
AcDbLine
 10
26.46416504863073
 20
8.191704311678448
 30
0.0
 11
26.53338898967865
 21
9.512575873645799
 31
0.0
  0
LINE
  5
5723
330
18
100
AcDbEntity
  8
0
  6
Continuous
100
AcDbLine
 10
25.78628895448483
 20
7.749089407166526
 30
0.0
 11
25.80692189592693
 21
8.142789407166562
 31
0.0
  0
LINE
  5
5724
330
18
100
AcDbEntity
  8
0
  6
Continuous
100
AcDbLine
 10
26.45074513421984
 20
7.93563707480835
 30
0.0
 11
26.46165133166244
 21
8.143739731680183
 31
0.0
  0
ARC
  5
5725
330
18
100
AcDbEntity
  8
0
  6
Continuous
100
AcDbCircle
 10
26.25416491027046
 20
7.945939407166526
 30
0.0
 40
0.19685
100
AcDbArc
 50
270.0
 51
357.0000001831025
  0
LINE
  5
5726
330
18
100
AcDbEntity
  8
\U+6807\U+6CE8
  6
CENTERX2
 48
0.1
100
AcDbLine
 10
25.65478057998174
 20
7.049808709544786
 30
0.0
 11
25.65211922703675
 21
10.18876789118691
 31
0.0
  0
LINE
  5
5727
330
18
100
AcDbEntity
  8
\U+6807\U+6CE8
  6
DASHED
 48
0.1
100
AcDbLine
 10
24.84337738904858
 20
8.173804944844532
 30
0.0
 11
24.7691271876333
 21
9.560354277512651
 31
0.0
  0
LINE
  5
5728
330
18
100
AcDbEntity
  8
\U+6807\U+6CE8
  6
DASHED
 48
0.1
100
AcDbLine
 10
25.426857102384
 20
9.542542133382015
 30
0.0
 11
25.49833839175444
 21
8.178597884999524
 31
0.0
  0
LINE
  5
5729
330
18
100
AcDbEntity
  8
0
  6
Continuous
100
AcDbLine
 10
24.85614335551258
 20
7.93541310288067
 30
0.0
 11
24.84503828193228
 21
8.142789407166562
 31
0.0
  0
ARC
  5
572A
330
18
100
AcDbEntity
  8
0
  6
Continuous
100
AcDbCircle
 10
25.05271171364297
 20
7.945939407166526
 30
0.0
 40
0.19685
100
AcDbArc
 50
183.0652812162606
 51
270.0
  0
ARC
  5
572B
330
18
100
AcDbEntity
  8
\U+6807\U+6CE8
  6
DASHED
 48
0.1
100
AcDbCircle
 10
24.09630794071084
 20
13.79270952001704
 30
0.0
 40
4.21259
100
AcDbArc
 50
211.9323763929334
 51
268.4487381847162
  0
ARC
  5
572C
330
18
100
AcDbEntity
  8
\U+6807\U+6CE8
  6
DASHED
 48
0.1
100
AcDbCircle
 10
24.09630794071084
 20
13.79270952001704
 30
0.0
 40
3.937
100
AcDbArc
 50
211.9323763929334
 51
268.4487381847162
  0
LINE
  5
5732
330
18
100
AcDbEntity
  8
0
  6
ByBlock
100
AcDbLine
 10
68.56717282052365
 20
66.7182870126731
 30
0.0
 11
68.56717282052365
 21
35.53724701267306
 31
0.0
  0
LINE
  5
5733
330
18
100
AcDbEntity
  8
0
  6
ByBlock
100
AcDbLine
 10
69.00024282052365
 20
67.1513570126731
 30
0.0
 11
69.00024282052365
 21
35.53724701267306
 31
0.0
  0
ARC
  5
5739
330
18
100
AcDbEntity
  8
0
  6
ByBlock
100
AcDbCircle
 10
68.17347282052364
 20
66.7182870126731
 30
0.0
 40
0.3937
100
AcDbArc
 50
0.0
 51
90.0
  0
ARC
  5
573A
330
18
100
AcDbEntity
  8
0
  6
ByBlock
100
AcDbCircle
 10
68.60654282052364
 20
67.1513570126731
 30
0.0
 40
0.3937
100
AcDbArc
 50
0.0
 51
90.0
  0
ARC
  5
574B
330
18
100
AcDbEntity
  8
0
  6
ByBlock
100
AcDbCircle
 10
41.60382559231262
 20
52.86361758799109
 30
0.0
 40
19.685
100
AcDbArc
 50
162.3306577840083
 51
176.1478887828297
  0
ARC
  5
574C
330
18
100
AcDbEntity
  8
0
  6
ByBlock
100
AcDbCircle
 10
49.05530303207374
 20
54.35971966072823
 30
0.0
 40
15.748
100
AcDbArc
 50
2.564547344993735
 51
12.34371289799289
  0
ARC
  5
574D
330
18
100
AcDbEntity
  8
0
  6
ByBlock
100
AcDbCircle
 10
-12.49565717947636
 20
51.54115201267306
 30
0.0
 40
78.74000000000001
100
AcDbArc
 50
355.2930689512635
 51
4.706931048736433
  0
LINE
  5
574E
330
18
100
AcDbEntity
  8
\U+6807\U+6CE8
  6
CENTERX2
 48
0.1
100
AcDbLine
 10
34.35464282052365
 20
69.2008876737167
 30
0.0
 11
34.35464282052365
 21
33.2352615136484
 31
0.0
  0
ARC
  5
5756
330
18
100
AcDbEntity
  8
0
  6
ByBlock
100
AcDbCircle
 10
38.11754108209651
 20
276.0579743141513
 30
0.0
 40
236.22
100
AcDbArc
 50
266.2077515915155
 51
275.7912118374733
  0
ARC
  5
5757
330
18
100
AcDbEntity
  8
0
  6
ByBlock
100
AcDbCircle
 10
34.35464282052372
 20
274.709997012673
 30
0.0
 40
236.22
100
AcDbArc
 50
267.9833563334408
 51
275.8749331853486
  0
ARC
  5
5758
330
18
100
AcDbEntity
  8
0
  6
ByBlock
100
AcDbCircle
 10
34.35464282052372
 20
277.2690470126731
 30
0.0
 40
236.22
100
AcDbArc
 50
269.6889358138188
 51
275.0753815426076
  0
ARC
  5
5759
330
18
100
AcDbEntity
  8
0
  6
ByBlock
100
AcDbCircle
 10
62.54356282052365
 20
43.47030201267306
 30
0.0
 40
3.1496
100
AcDbArc
 50
280.064403908307
 51
346.6835198672549
  0
LINE
  5
575A
330
18
100
AcDbEntity
  8
\U+6807\U+6CE8
  6
ByBlock
 48
0.1
100
AcDbLine
 10
61.12624282052364
 20
35.53724701267306
 30
0.0
 11
60.42186177806564
 21
35.74856132541041
 31
0.0
  0
ARC
  5
575B
330
18
100
AcDbEntity
  8
0
  6
ByBlock
100
AcDbCircle
 10
52.08580115772624
 20
102.3918435638243
 30
0.0
 40
62.992
100
AcDbArc
 50
275.8749331853486
 51
280.064403908307
  0
ARC
  5
575C
330
18
100
AcDbEntity
  8
\U+6807\U+6CE8
  6
ByBlock
 48
0.1
100
AcDbCircle
 10
60.25216848424443
 20
35.18291701267307
 30
0.0
 40
0.59055
100
AcDbArc
 50
73.30075576595648
 51
90.0
  0
ARC
  5
5766
330
18
100
AcDbEntity
  8
0
  6
ByBlock
100
AcDbCircle
 10
-13.87360717947636
 20
51.54115201267306
 30
0.0
 40
78.74000000000001
100
AcDbArc
 50
357.4354526550063
 51
2.564547344993735
  0
ARC
  5
5768
330
18
100
AcDbEntity
  8
0
  6
ByBlock
100
AcDbCircle
 10
49.67948590969521
 20
104.7202447325882
 30
0.0
 40
62.992
100
AcDbArc
 50
275.0753815426076
 51
281.2581063241836
  0
ARC
  5
5769
330
18
100
AcDbEntity
  8
0
  6
ByBlock
100
AcDbCircle
 10
49.05530303207374
 20
48.7225843646179
 30
0.0
 40
15.748
100
AcDbArc
 50
347.6562871020071
 51
357.4354526550063
  0
ARC
  5
576A
330
18
100
AcDbEntity
  8
0
  6
ByBlock
100
AcDbCircle
 10
50.2839002504824
 20
46.37208701999696
 30
0.0
 40
15.748
100
AcDbArc
 50
346.6835198672549
 51
355.2930689512635
  0
ARC
  5
576B
330
18
100
AcDbEntity
  8
0
  6
ByBlock
100
AcDbCircle
 10
61.36246282052365
 20
46.02935201267306
 30
0.0
 40
3.1496
100
AcDbArc
 50
281.2581063241836
 51
347.6562871020071
  0
CIRCLE
  5
576E
330
18
100
AcDbEntity
  8
0
  6
ByBlock
100
AcDbCircle
 10
61.12624282052364
 20
51.54115201267306
 30
0.0
 40
1.791335
  0
CIRCLE
  5
576F
330
18
100
AcDbEntity
  8
0
  6
ByBlock
100
AcDbCircle
 10
61.12624282052364
 20
51.54115201267306
 30
0.0
 40
1.082675
  0
LINE
  5
5771
330
18
100
AcDbEntity
  8
\U+6807\U+6CE8
  6
CENTERX2
 48
0.1
100
AcDbLine
 10
61.12624282052364
 20
48.6591629204264
 30
0.0
 11
61.12624282052364
 21
54.42314110491973
 31
0.0
  0
ARC
  5
57B0
330
18
100
AcDbEntity
  8
0
  6
ByBlock
100
AcDbCircle
 10
33.37142782676897
 20
96.1697160026569
 30
0.0
 40
55.118
100
AcDbArc
 50
262.3958656086827
 51
269.6889358138188
  0
ARC
  5
57B1
330
18
100
AcDbEntity
  8
0
  6
ByBlock
100
AcDbCircle
 10
26.59875282052365
 20
45.43880201267306
 30
0.0
 40
3.937
100
AcDbArc
 50
197.6693422159916
 51
262.3958656086827
  0
ARC
  5
57B7
330
18
100
AcDbEntity
  8
0
  6
ByBlock
100
AcDbCircle
 10
38.11754108209651
 20
276.0579743141513
 30
0.0
 40
236.22
100
AcDbArc
 50
265.9629034262692
 51
266.0018693185811
  0
ARC
  5
57B8
330
18
100
AcDbEntity
  8
0
  6
ByBlock
100
AcDbCircle
 10
23.53576410147639
 20
56.06871420338082
 30
0.0
 40
15.748
100
AcDbArc
 50
259.0578409646676
 51
266.2077515915155
  0
ARC
  5
57CD
330
18
100
AcDbEntity
  8
0
  6
ByBlock
100
AcDbCircle
 10
41.60382559231262
 20
50.21868643735504
 30
0.0
 40
19.685
100
AcDbArc
 50
183.8521112171702
 51
197.6693422159916
  0
ARC
  5
57CF
330
18
100
AcDbEntity
  8
0
  6
ByBlock
100
AcDbCircle
 10
61.24435282052364
 20
51.54115201267306
 30
0.0
 40
39.37000000000001
100
AcDbArc
 50
176.1478887828297
 51
183.8521112171702
  0
ARC
  5
57D1
330
18
100
AcDbEntity
  8
0
  6
ByBlock
100
AcDbCircle
 10
38.11754108209651
 20
-172.9756702888052
 30
0.0
 40
236.22
100
AcDbArc
 50
84.20878816252677
 51
93.79224840848449
  0
ARC
  5
57D2
330
18
100
AcDbEntity
  8
0
  6
ByBlock
100
AcDbCircle
 10
34.35464282052372
 20
-174.1867429873269
 30
0.0
 40
236.22
100
AcDbArc
 50
84.9246184573923
 51
90.31106418618117
  0
ARC
  5
57D3
330
18
100
AcDbEntity
  8
0
  6
ByBlock
100
AcDbCircle
 10
34.35464282052372
 20
-171.6276929873269
 30
0.0
 40
236.22
100
AcDbArc
 50
84.12506681465137
 51
92.01664366655913
  0
ARC
  5
57D5
330
18
100
AcDbEntity
  8
0
  6
ByBlock
100
AcDbCircle
 10
62.54356282052365
 20
59.61200201267306
 30
0.0
 40
3.1496
100
AcDbArc
 50
13.31648013274512
 51
79.93559609169301
  0
ARC
  5
57D6
330
18
100
AcDbEntity
  8
0
  6
ByBlock
100
AcDbCircle
 10
49.67948590969521
 20
-1.637940707242099
 30
0.0
 40
62.992
100
AcDbArc
 50
78.74189367581634
 51
84.9246184573923
  0
ARC
  5
57D7
330
18
100
AcDbEntity
  8
0
  6
ByBlock
100
AcDbCircle
 10
61.36246282052365
 20
57.05295201267307
 30
0.0
 40
3.1496
100
AcDbArc
 50
12.34371289799289
 51
78.74189367581634
  0
ARC
  5
57D8
330
18
100
AcDbEntity
  8
0
  6
ByBlock
100
AcDbCircle
 10
50.2839002504824
 20
56.71021700534916
 30
0.0
 40
15.748
100
AcDbArc
 50
4.706931048736433
 51
13.31648013274512
  0
ARC
  5
57DA
330
18
100
AcDbEntity
  8
0
  6
ByBlock
100
AcDbCircle
 10
52.08580115772624
 20
0.690460461521798
 30
0.0
 40
62.992
100
AcDbArc
 50
79.93559609169301
 51
84.12506681465137
  0
ARC
  5
57E8
330
18
100
AcDbEntity
  8
0
  6
ByBlock
100
AcDbCircle
 10
33.37142782676897
 20
6.912588022689227
 30
0.0
 40
55.118
100
AcDbArc
 50
90.31106418618117
 51
97.60413439131731
  0
ARC
  5
57EC
330
18
100
AcDbEntity
  8
0
  6
ByBlock
100
AcDbCircle
 10
26.59875282052365
 20
57.64350201267307
 30
0.0
 40
3.937
100
AcDbArc
 50
97.60413439131731
 51
162.3306577840083
  0
ARC
  5
57ED
330
18
100
AcDbEntity
  8
0
  6
ByBlock
100
AcDbCircle
 10
23.53576410147639
 20
47.01358982196531
 30
0.0
 40
15.748
100
AcDbArc
 50
93.79224840848449
 51
100.9421590353324
  0
ARC
  5
57EE
330
18
100
AcDbEntity
  8
0
  6
ByBlock
100
AcDbCircle
 10
38.11754108209651
 20
-172.9756702888052
 30
0.0
 40
236.22
100
AcDbArc
 50
93.99813068141884
 51
94.03709657373077
  0
LINE
  5
57FF
330
18
100
AcDbEntity
  8
0
  6
ByBlock
100
AcDbLine
 10
9.275952820523643
 20
24.48133940716653
 30
0.0
 11
9.433432820523643
 21
8.142789407166562
 31
0.0
  0
LINE
  5
5800
330
18
100
AcDbEntity
  8
\U+6807\U+6CE8
  6
ByBlock
 48
0.1
100
AcDbLine
 10
9.275952820523643
 20
23.63940266275704
 30
0.0
 11
9.275952820523643
 21
6.27342012602123
 31
0.0
  0
LINE
  5
5805
330
18
100
AcDbEntity
  8
0
  6
ByBlock
100
AcDbLine
 10
17.14995282052364
 20
22.11913940716653
 30
0.0
 11
17.69203244144541
 21
15.7497038613371
 31
0.0
  0
LINE
  5
5806
330
18
100
AcDbEntity
  8
\U+6807\U+6CE8
  6
DASHED
 48
0.1
100
AcDbLine
 10
11.37011717730964
 20
23.81204940716653
 30
0.0
 11
10.08303782052364
 21
23.81204940716653
 31
0.0
  0
LINE
  5
5807
330
18
100
AcDbEntity
  8
0
  6
ByBlock
100
AcDbLine
 10
11.37011717730964
 20
24.08763940716653
 30
0.0
 11
9.919429835003578
 21
24.08763940716653
 31
0.0
  0
ARC
  5
5808
330
18
100
AcDbEntity
  8
\U+6807\U+6CE8
  6
DASHED
 48
0.1
100
AcDbCircle
 10
12.45855586302888
 20
22.78946418589236
 30
0.0
 40
0.9055099999999999
100
AcDbArc
 50
31.93237639293341
 51
77.72144955681368
  0
ARC
  5
5809
330
18
100
AcDbEntity
  8
\U+6807\U+6CE8
  6
DASHED
 48
0.1
100
AcDbCircle
 10
11.37011717730964
 20
17.78843940716653
 30
0.0
 40
6.02361
100
AcDbArc
 50
77.72144955681368
 51
90.0
  0
ARC
  5
580A
330
18
100
AcDbEntity
  8
\U+6807\U+6CE8
  6
DASHED
 48
0.1
100
AcDbCircle
 10
12.45855586302888
 20
22.78946418589236
 30
0.0
 40
1.1811
100
AcDbArc
 50
31.93237639293341
 51
77.72144955681368
  0
LINE
  5
580B
330
18
100
AcDbEntity
  8
\U+6807\U+6CE8
  6
DASHED
 48
0.1
100
AcDbLine
 10
10.08303782052364
 20
23.81204940716653
 30
0.0
 11
9.335007820523642
 21
23.65456940716653
 31
0.0
  0
LINE
  5
580C
330
18
100
AcDbEntity
  8
\U+6807\U+6CE8
  6
DASHED
 48
0.1
100
AcDbLine
 10
9.275952820523643
 20
23.85141940716653
 30
0.0
 11
9.335007820523642
 21
23.65456940716653
 31
0.0
  0
ARC
  5
580D
330
18
100
AcDbEntity
  8
0
  6
ByBlock
100
AcDbCircle
 10
9.302091066903658
 20
24.36322940716657
 30
0.0
 40
0.11811
100
AcDbArc
 50
41.9872124958399
 51
90.0
  0
ARC
  5
580E
330
18
100
AcDbEntity
  8
0
  6
ByBlock
100
AcDbCircle
 10
9.919429835003578
 20
24.56007940716653
 30
0.0
 40
0.4724400000000001
100
AcDbArc
 50
221.9872124958399
 51
270.0
  0
LINE
  5
580F
330
18
100
AcDbEntity
  8
0
  6
ByBlock
100
AcDbLine
 10
9.38988153851692
 20
24.4422408316185
 30
0.0
 11
9.568267948550536
 21
24.24403370935883
 31
0.0
  0
ARC
  5
5810
330
18
100
AcDbEntity
  8
0
  6
ByBlock
100
AcDbCircle
 10
11.37011717730964
 20
17.78843940716653
 30
0.0
 40
6.2992
100
AcDbArc
 50
77.72144955681368
 51
90.0
  0
LINE
  5
5811
330
18
100
AcDbEntity
  8
0
  6
ByBlock
100
AcDbLine
 10
9.275952820523643
 20
24.48133940716653
 30
0.0
 11
9.275952820523643
 21
23.85141940716653
 31
0.0
  0
LINE
  5
5814
330
18
100
AcDbEntity
  8
0
  6
ByBlock
100
AcDbLine
 10
9.709022820523642
 20
66.71828701267306
 30
0.0
 11
9.709022820523642
 21
35.53724701267306
 31
0.0
  0
ARC
  5
5815
330
18
100
AcDbEntity
  8
0
  6
ByBlock
100
AcDbCircle
 10
91.95295282052365
 20
51.54115201267306
 30
0.0
 40
78.74000000000001
100
AcDbArc
 50
176.6191012422212
 51
183.3808987577787
  0
LINE
  5
5816
330
18
100
AcDbEntity
  8
0
  6
ByBlock
100
AcDbLine
 10
9.275952820523643
 20
67.15135701267306
 30
0.0
 11
9.275952820523643
 21
35.53724701267306
 31
0.0
  0
ARC
  5
5817
330
18
100
AcDbEntity
  8
0
  6
ByBlock
100
AcDbCircle
 10
19.51215282052364
 20
45.24195201267306
 30
0.0
 40
5.905499999999999
100
AcDbArc
 50
191.7943166262899
 51
270.0
  0
ARC
  5
5818
330
18
100
AcDbEntity
  8
\U+6807\U+6CE8
  6
ByBlock
 48
0.1
100
AcDbCircle
 10
18.02402715680286
 20
35.18291701267307
 30
0.0
 40
0.59055
100
AcDbArc
 50
90.0
 51
106.6992442340435
  0
LINE
  5
5819
330
18
100
AcDbEntity
  8
\U+6807\U+6CE8
  6
ByBlock
 48
0.1
100
AcDbLine
 10
17.14995282052364
 20
35.53724701267306
 30
0.0
 11
17.85433386298165
 21
35.74856132541041
 31
0.0
  0
ARC
  5
581B
330
18
100
AcDbEntity
  8
0
  6
ByBlock
100
AcDbCircle
 10
33.00073545057957
 20
48.0584673920298
 30
0.0
 40
19.685
100
AcDbArc
 50
183.3808987577787
 51
191.7943166262899
  0
ARC
  5
581F
330
18
100
AcDbEntity
  8
0
  6
ByBlock
100
AcDbCircle
 10
19.51215282052364
 20
57.84035201267307
 30
0.0
 40
5.905499999999999
100
AcDbArc
 50
90.0
 51
168.2056833737101
  0
ARC
  5
5820
330
18
100
AcDbEntity
  8
0
  6
ByBlock
100
AcDbCircle
 10
33.00073545057957
 20
55.02383663331633
 30
0.0
 40
19.685
100
AcDbArc
 50
168.2056833737101
 51
176.6191012422212
  0
ARC
  5
5821
330
18
100
AcDbEntity
  8
0
  6
ByBlock
100
AcDbCircle
 10
10.10272282052364
 20
66.71828701267306
 30
0.0
 40
0.3937
100
AcDbArc
 50
90.0
 51
180.0
  0
ARC
  5
5822
330
18
100
AcDbEntity
  8
0
  6
ByBlock
100
AcDbCircle
 10
9.669652820523642
 20
67.15135701267306
 30
0.0
 40
0.3937
100
AcDbArc
 50
90.0
 51
180.0
  0
CIRCLE
  5
6234
330
18
100
AcDbEntity
  8
0
100
AcDbCircle
 10
97.50298728742251
 20
21.33173940716656
 30
0.0
 40
1.1811
  0
CIRCLE
  5
6DAB
330
18
100
AcDbEntity
  8
\U+9762\U+76C6
100
AcDbCircle
 10
55.26011282052365
 20
47.76163201267307
 30
0.0
 40
0.51181
  0
CIRCLE
  5
6DAC
330
18
100
AcDbEntity
  8
\U+9762\U+76C6
100
AcDbCircle
 10
53.13413282052365
 20
47.76163201267307
 30
0.0
 40
0.51181
  0
CIRCLE
  5
6DAD
330
18
100
AcDbEntity
  8
\U+9762\U+76C6
100
AcDbCircle
 10
59.51207282052365
 20
47.76163201267307
 30
0.0
 40
0.51181
  0
CIRCLE
  5
6DAE
330
18
100
AcDbEntity
  8
\U+9762\U+76C6
100
AcDbCircle
 10
57.38609282052364
 20
47.76163201267307
 30
0.0
 40
0.51181
  0
CIRCLE
  5
6DAF
330
18
100
AcDbEntity
  8
\U+9762\U+76C6
100
AcDbCircle
 10
48.88217282052364
 20
47.76163201267307
 30
0.0
 40
0.51181
  0
CIRCLE
  5
6DB0
330
18
100
AcDbEntity
  8
\U+9762\U+76C6
100
AcDbCircle
 10
42.50423282052365
 20
47.76163201267307
 30
0.0
 40
0.51181
  0
CIRCLE
  5
6DB1
330
18
100
AcDbEntity
  8
\U+9762\U+76C6
100
AcDbCircle
 10
44.63021282052364
 20
47.76163201267307
 30
0.0
 40
0.51181
  0
CIRCLE
  5
6DB2
330
18
100
AcDbEntity
  8
\U+9762\U+76C6
100
AcDbCircle
 10
46.75619282052364
 20
47.76163201267307
 30
0.0
 40
0.51181
  0
CIRCLE
  5
6DB3
330
18
100
AcDbEntity
  8
\U+9762\U+76C6
100
AcDbCircle
 10
51.00815282052365
 20
47.76163201267307
 30
0.0
 40
0.51181
  0
CIRCLE
  5
6DB4
330
18
100
AcDbEntity
  8
\U+9762\U+76C6
100
AcDbCircle
 10
29.74835282052364
 20
47.76163201267307
 30
0.0
 40
0.51181
  0
CIRCLE
  5
6DB5
330
18
100
AcDbEntity
  8
\U+9762\U+76C6
100
AcDbCircle
 10
34.00031282052365
 20
47.76163201267307
 30
0.0
 40
0.51181
  0
CIRCLE
  5
6DB6
330
18
100
AcDbEntity
  8
\U+9762\U+76C6
100
AcDbCircle
 10
31.87433282052364
 20
47.76163201267307
 30
0.0
 40
0.51181
  0
CIRCLE
  5
6DB7
330
18
100
AcDbEntity
  8
\U+9762\U+76C6
100
AcDbCircle
 10
38.25227282052365
 20
47.76163201267307
 30
0.0
 40
0.51181
  0
CIRCLE
  5
6DB8
330
18
100
AcDbEntity
  8
\U+9762\U+76C6
100
AcDbCircle
 10
36.12629282052365
 20
47.76163201267307
 30
0.0
 40
0.51181
  0
CIRCLE
  5
6DB9
330
18
100
AcDbEntity
  8
\U+9762\U+76C6
100
AcDbCircle
 10
25.49639282052365
 20
47.76163201267307
 30
0.0
 40
0.51181
  0
CIRCLE
  5
6DBA
330
18
100
AcDbEntity
  8
\U+9762\U+76C6
100
AcDbCircle
 10
27.62237282052364
 20
47.76163201267307
 30
0.0
 40
0.51181
  0
CIRCLE
  5
6DBB
330
18
100
AcDbEntity
  8
\U+9762\U+76C6
100
AcDbCircle
 10
40.37825282052364
 20
47.76163201267307
 30
0.0
 40
0.51181
  0
CIRCLE
  5
6DBC
330
18
100
AcDbEntity
  8
\U+9762\U+76C6
100
AcDbCircle
 10
38.25227282052365
 20
45.24195201267306
 30
0.0
 40
0.51181
  0
CIRCLE
  5
6DBD
330
18
100
AcDbEntity
  8
\U+9762\U+76C6
100
AcDbCircle
 10
38.25227282052365
 20
46.50179201267306
 30
0.0
 40
0.51181
  0
CIRCLE
  5
6DBE
330
18
100
AcDbEntity
  8
\U+9762\U+76C6
100
AcDbCircle
 10
25.49639282052365
 20
46.50179201267306
 30
0.0
 40
0.51181
  0
CIRCLE
  5
6DBF
330
18
100
AcDbEntity
  8
\U+9762\U+76C6
100
AcDbCircle
 10
24.43340282052365
 20
47.13171201267306
 30
0.0
 40
0.51181
  0
CIRCLE
  5
6DC0
330
18
100
AcDbEntity
  8
\U+9762\U+76C6
100
AcDbCircle
 10
31.87433282052364
 20
45.24195201267306
 30
0.0
 40
0.51181
  0
CIRCLE
  5
6DC1
330
18
100
AcDbEntity
  8
\U+9762\U+76C6
100
AcDbCircle
 10
31.87433282052364
 20
46.50179201267306
 30
0.0
 40
0.51181
  0
CIRCLE
  5
6DC2
330
18
100
AcDbEntity
  8
\U+9762\U+76C6
100
AcDbCircle
 10
30.81134282052365
 20
47.13171201267306
 30
0.0
 40
0.51181
  0
CIRCLE
  5
6DC3
330
18
100
AcDbEntity
  8
\U+9762\U+76C6
100
AcDbCircle
 10
30.81134282052365
 20
45.87187201267306
 30
0.0
 40
0.51181
  0
CIRCLE
  5
6DC4
330
18
100
AcDbEntity
  8
\U+9762\U+76C6
100
AcDbCircle
 10
28.68536282052364
 20
47.13171201267306
 30
0.0
 40
0.51181
  0
CIRCLE
  5
6DC5
330
18
100
AcDbEntity
  8
\U+9762\U+76C6
100
AcDbCircle
 10
29.74835282052364
 20
45.24195201267306
 30
0.0
 40
0.51181
  0
CIRCLE
  5
6DC6
330
18
100
AcDbEntity
  8
\U+9762\U+76C6
100
AcDbCircle
 10
28.68536282052364
 20
45.87187201267306
 30
0.0
 40
0.51181
  0
CIRCLE
  5
6DC7
330
18
100
AcDbEntity
  8
\U+9762\U+76C6
100
AcDbCircle
 10
29.74835282052364
 20
46.50179201267306
 30
0.0
 40
0.51181
  0
CIRCLE
  5
6DC8
330
18
100
AcDbEntity
  8
\U+9762\U+76C6
100
AcDbCircle
 10
26.55938282052364
 20
47.13171201267306
 30
0.0
 40
0.51181
  0
CIRCLE
  5
6DC9
330
18
100
AcDbEntity
  8
\U+9762\U+76C6
100
AcDbCircle
 10
26.55938282052364
 20
45.87187201267306
 30
0.0
 40
0.51181
  0
CIRCLE
  5
6DCA
330
18
100
AcDbEntity
  8
\U+9762\U+76C6
100
AcDbCircle
 10
27.62237282052364
 20
45.24195201267306
 30
0.0
 40
0.51181
  0
CIRCLE
  5
6DCB
330
18
100
AcDbEntity
  8
\U+9762\U+76C6
100
AcDbCircle
 10
27.62237282052364
 20
46.50179201267306
 30
0.0
 40
0.51181
  0
CIRCLE
  5
6DCC
330
18
100
AcDbEntity
  8
\U+9762\U+76C6
100
AcDbCircle
 10
35.06330282052365
 20
47.13171201267306
 30
0.0
 40
0.51181
  0
CIRCLE
  5
6DCD
330
18
100
AcDbEntity
  8
\U+9762\U+76C6
100
AcDbCircle
 10
35.06330282052365
 20
45.87187201267306
 30
0.0
 40
0.51181
  0
CIRCLE
  5
6DCE
330
18
100
AcDbEntity
  8
\U+9762\U+76C6
100
AcDbCircle
 10
32.93732282052365
 20
47.13171201267306
 30
0.0
 40
0.51181
  0
CIRCLE
  5
6DCF
330
18
100
AcDbEntity
  8
\U+9762\U+76C6
100
AcDbCircle
 10
34.00031282052365
 20
45.24195201267306
 30
0.0
 40
0.51181
  0
CIRCLE
  5
6DD0
330
18
100
AcDbEntity
  8
\U+9762\U+76C6
100
AcDbCircle
 10
32.93732282052365
 20
45.87187201267306
 30
0.0
 40
0.51181
  0
CIRCLE
  5
6DD1
330
18
100
AcDbEntity
  8
\U+9762\U+76C6
100
AcDbCircle
 10
34.00031282052365
 20
46.50179201267306
 30
0.0
 40
0.51181
  0
CIRCLE
  5
6DD2
330
18
100
AcDbEntity
  8
\U+9762\U+76C6
100
AcDbCircle
 10
37.18928282052365
 20
47.13171201267306
 30
0.0
 40
0.51181
  0
CIRCLE
  5
6DD3
330
18
100
AcDbEntity
  8
\U+9762\U+76C6
100
AcDbCircle
 10
36.12629282052365
 20
45.24195201267306
 30
0.0
 40
0.51181
  0
CIRCLE
  5
6DD4
330
18
100
AcDbEntity
  8
\U+9762\U+76C6
100
AcDbCircle
 10
37.18928282052365
 20
45.87187201267306
 30
0.0
 40
0.51181
  0
CIRCLE
  5
6DD5
330
18
100
AcDbEntity
  8
\U+9762\U+76C6
100
AcDbCircle
 10
36.12629282052365
 20
46.50179201267306
 30
0.0
 40
0.51181
  0
CIRCLE
  5
6DD6
330
18
100
AcDbEntity
  8
\U+9762\U+76C6
100
AcDbCircle
 10
49.94516282052365
 20
47.13171201267306
 30
0.0
 40
0.51181
  0
CIRCLE
  5
6DD7
330
18
100
AcDbEntity
  8
\U+9762\U+76C6
100
AcDbCircle
 10
49.94516282052365
 20
45.87187201267306
 30
0.0
 40
0.51181
  0
CIRCLE
  5
6DD8
330
18
100
AcDbEntity
  8
\U+9762\U+76C6
100
AcDbCircle
 10
43.56722282052365
 20
47.13171201267306
 30
0.0
 40
0.51181
  0
CIRCLE
  5
6DD9
330
18
100
AcDbEntity
  8
\U+9762\U+76C6
100
AcDbCircle
 10
43.56722282052365
 20
45.87187201267306
 30
0.0
 40
0.51181
  0
CIRCLE
  5
6DDA
330
18
100
AcDbEntity
  8
\U+9762\U+76C6
100
AcDbCircle
 10
41.44124282052365
 20
47.13171201267306
 30
0.0
 40
0.51181
  0
CIRCLE
  5
6DDB
330
18
100
AcDbEntity
  8
\U+9762\U+76C6
100
AcDbCircle
 10
41.44124282052365
 20
45.87187201267306
 30
0.0
 40
0.51181
  0
CIRCLE
  5
6DDC
330
18
100
AcDbEntity
  8
\U+9762\U+76C6
100
AcDbCircle
 10
42.50423282052365
 20
45.24195201267306
 30
0.0
 40
0.51181
  0
CIRCLE
  5
6DDD
330
18
100
AcDbEntity
  8
\U+9762\U+76C6
100
AcDbCircle
 10
42.50423282052365
 20
46.50179201267306
 30
0.0
 40
0.51181
  0
CIRCLE
  5
6DDE
330
18
100
AcDbEntity
  8
\U+9762\U+76C6
100
AcDbCircle
 10
39.31526282052364
 20
47.13171201267306
 30
0.0
 40
0.51181
  0
CIRCLE
  5
6DDF
330
18
100
AcDbEntity
  8
\U+9762\U+76C6
100
AcDbCircle
 10
39.31526282052364
 20
45.87187201267306
 30
0.0
 40
0.51181
  0
CIRCLE
  5
6DE0
330
18
100
AcDbEntity
  8
\U+9762\U+76C6
100
AcDbCircle
 10
40.37825282052364
 20
45.24195201267306
 30
0.0
 40
0.51181
  0
CIRCLE
  5
6DE1
330
18
100
AcDbEntity
  8
\U+9762\U+76C6
100
AcDbCircle
 10
40.37825282052364
 20
46.50179201267306
 30
0.0
 40
0.51181
  0
CIRCLE
  5
6DE2
330
18
100
AcDbEntity
  8
\U+9762\U+76C6
100
AcDbCircle
 10
48.88217282052364
 20
45.24195201267306
 30
0.0
 40
0.51181
  0
CIRCLE
  5
6DE3
330
18
100
AcDbEntity
  8
\U+9762\U+76C6
100
AcDbCircle
 10
48.88217282052364
 20
46.50179201267306
 30
0.0
 40
0.51181
  0
CIRCLE
  5
6DE4
330
18
100
AcDbEntity
  8
\U+9762\U+76C6
100
AcDbCircle
 10
45.69320282052364
 20
47.13171201267306
 30
0.0
 40
0.51181
  0
CIRCLE
  5
6DE5
330
18
100
AcDbEntity
  8
\U+9762\U+76C6
100
AcDbCircle
 10
45.69320282052364
 20
45.87187201267306
 30
0.0
 40
0.51181
  0
CIRCLE
  5
6DE6
330
18
100
AcDbEntity
  8
\U+9762\U+76C6
100
AcDbCircle
 10
44.63021282052364
 20
45.24195201267306
 30
0.0
 40
0.51181
  0
CIRCLE
  5
6DE7
330
18
100
AcDbEntity
  8
\U+9762\U+76C6
100
AcDbCircle
 10
44.63021282052364
 20
46.50179201267306
 30
0.0
 40
0.51181
  0
CIRCLE
  5
6DE8
330
18
100
AcDbEntity
  8
\U+9762\U+76C6
100
AcDbCircle
 10
47.81918282052364
 20
47.13171201267306
 30
0.0
 40
0.51181
  0
CIRCLE
  5
6DE9
330
18
100
AcDbEntity
  8
\U+9762\U+76C6
100
AcDbCircle
 10
46.75619282052364
 20
45.24195201267306
 30
0.0
 40
0.51181
  0
CIRCLE
  5
6DEA
330
18
100
AcDbEntity
  8
\U+9762\U+76C6
100
AcDbCircle
 10
47.81918282052364
 20
45.87187201267306
 30
0.0
 40
0.51181
  0
CIRCLE
  5
6DEB
330
18
100
AcDbEntity
  8
\U+9762\U+76C6
100
AcDbCircle
 10
46.75619282052364
 20
46.50179201267306
 30
0.0
 40
0.51181
  0
CIRCLE
  5
6DEC
330
18
100
AcDbEntity
  8
\U+9762\U+76C6
100
AcDbCircle
 10
56.32310282052364
 20
47.13171201267306
 30
0.0
 40
0.51181
  0
CIRCLE
  5
6DED
330
18
100
AcDbEntity
  8
\U+9762\U+76C6
100
AcDbCircle
 10
56.32310282052364
 20
45.87187201267306
 30
0.0
 40
0.51181
  0
CIRCLE
  5
6DEE
330
18
100
AcDbEntity
  8
\U+9762\U+76C6
100
AcDbCircle
 10
55.26011282052365
 20
45.24195201267306
 30
0.0
 40
0.51181
  0
CIRCLE
  5
6DEF
330
18
100
AcDbEntity
  8
\U+9762\U+76C6
100
AcDbCircle
 10
55.26011282052365
 20
46.50179201267306
 30
0.0
 40
0.51181
  0
CIRCLE
  5
6DF0
330
18
100
AcDbEntity
  8
\U+9762\U+76C6
100
AcDbCircle
 10
54.19712282052365
 20
47.13171201267306
 30
0.0
 40
0.51181
  0
CIRCLE
  5
6DF1
330
18
100
AcDbEntity
  8
\U+9762\U+76C6
100
AcDbCircle
 10
53.13413282052365
 20
45.24195201267306
 30
0.0
 40
0.51181
  0
CIRCLE
  5
6DF2
330
18
100
AcDbEntity
  8
\U+9762\U+76C6
100
AcDbCircle
 10
54.19712282052365
 20
45.87187201267306
 30
0.0
 40
0.51181
  0
CIRCLE
  5
6DF3
330
18
100
AcDbEntity
  8
\U+9762\U+76C6
100
AcDbCircle
 10
53.13413282052365
 20
46.50179201267306
 30
0.0
 40
0.51181
  0
CIRCLE
  5
6DF4
330
18
100
AcDbEntity
  8
\U+9762\U+76C6
100
AcDbCircle
 10
51.00815282052365
 20
45.24195201267306
 30
0.0
 40
0.51181
  0
CIRCLE
  5
6DF5
330
18
100
AcDbEntity
  8
\U+9762\U+76C6
100
AcDbCircle
 10
51.00815282052365
 20
46.50179201267306
 30
0.0
 40
0.51181
  0
CIRCLE
  5
6DF6
330
18
100
AcDbEntity
  8
\U+9762\U+76C6
100
AcDbCircle
 10
52.07114282052365
 20
47.13171201267306
 30
0.0
 40
0.51181
  0
CIRCLE
  5
6DF7
330
18
100
AcDbEntity
  8
\U+9762\U+76C6
100
AcDbCircle
 10
52.07114282052365
 20
45.87187201267306
 30
0.0
 40
0.51181
  0
CIRCLE
  5
6DF8
330
18
100
AcDbEntity
  8
\U+9762\U+76C6
100
AcDbCircle
 10
59.51207282052365
 20
45.24195201267306
 30
0.0
 40
0.51181
  0
CIRCLE
  5
6DF9
330
18
100
AcDbEntity
  8
\U+9762\U+76C6
100
AcDbCircle
 10
59.51207282052365
 20
46.50179201267306
 30
0.0
 40
0.51181
  0
CIRCLE
  5
6DFA
330
18
100
AcDbEntity
  8
\U+9762\U+76C6
100
AcDbCircle
 10
58.44908282052364
 20
47.13171201267306
 30
0.0
 40
0.51181
  0
CIRCLE
  5
6DFB
330
18
100
AcDbEntity
  8
\U+9762\U+76C6
100
AcDbCircle
 10
57.38609282052364
 20
45.24195201267306
 30
0.0
 40
0.51181
  0
CIRCLE
  5
6DFC
330
18
100
AcDbEntity
  8
\U+9762\U+76C6
100
AcDbCircle
 10
57.38609282052364
 20
46.50179201267306
 30
0.0
 40
0.51181
  0
CIRCLE
  5
6DFD
330
18
100
AcDbEntity
  8
\U+9762\U+76C6
100
AcDbCircle
 10
58.44908282052364
 20
45.87187201267306
 30
0.0
 40
0.51181
  0
CIRCLE
  5
6DFE
330
18
100
AcDbEntity
  8
\U+9762\U+76C6
100
AcDbCircle
 10
38.25227282052365
 20
57.84035201267307
 30
0.0
 40
0.51181
  0
CIRCLE
  5
6DFF
330
18
100
AcDbEntity
  8
\U+9762\U+76C6
100
AcDbCircle
 10
38.25227282052365
 20
50.28131201267306
 30
0.0
 40
0.51181
  0
CIRCLE
  5
6E00
330
18
100
AcDbEntity
  8
\U+9762\U+76C6
100
AcDbCircle
 10
38.25227282052365
 20
49.02147201267307
 30
0.0
 40
0.51181
  0
CIRCLE
  5
6E01
330
18
100
AcDbEntity
  8
\U+9762\U+76C6
100
AcDbCircle
 10
38.25227282052365
 20
54.06083201267307
 30
0.0
 40
0.51181
  0
CIRCLE
  5
6E02
330
18
100
AcDbEntity
  8
\U+9762\U+76C6
100
AcDbCircle
 10
38.25227282052365
 20
55.32067201267306
 30
0.0
 40
0.51181
  0
CIRCLE
  5
6E03
330
18
100
AcDbEntity
  8
\U+9762\U+76C6
100
AcDbCircle
 10
38.25227282052365
 20
51.54115201267306
 30
0.0
 40
0.51181
  0
CIRCLE
  5
6E04
330
18
100
AcDbEntity
  8
\U+9762\U+76C6
100
AcDbCircle
 10
38.25227282052365
 20
52.80099201267306
 30
0.0
 40
0.51181
  0
CIRCLE
  5
6E05
330
18
100
AcDbEntity
  8
\U+9762\U+76C6
100
AcDbCircle
 10
38.25227282052365
 20
56.58051201267307
 30
0.0
 40
0.51181
  0
CIRCLE
  5
6E06
330
18
100
AcDbEntity
  8
\U+9762\U+76C6
100
AcDbCircle
 10
25.49639282052365
 20
50.28131201267306
 30
0.0
 40
0.51181
  0
CIRCLE
  5
6E07
330
18
100
AcDbEntity
  8
\U+9762\U+76C6
100
AcDbCircle
 10
25.49639282052365
 20
49.02147201267307
 30
0.0
 40
0.51181
  0
CIRCLE
  5
6E08
330
18
100
AcDbEntity
  8
\U+9762\U+76C6
100
AcDbCircle
 10
25.49639282052365
 20
54.06083201267307
 30
0.0
 40
0.51181
  0
CIRCLE
  5
6E09
330
18
100
AcDbEntity
  8
\U+9762\U+76C6
100
AcDbCircle
 10
25.49639282052365
 20
55.32067201267306
 30
0.0
 40
0.51181
  0
CIRCLE
  5
6E0A
330
18
100
AcDbEntity
  8
\U+9762\U+76C6
100
AcDbCircle
 10
25.49639282052365
 20
51.54115201267306
 30
0.0
 40
0.51181
  0
CIRCLE
  5
6E0B
330
18
100
AcDbEntity
  8
\U+9762\U+76C6
100
AcDbCircle
 10
25.49639282052365
 20
52.80099201267306
 30
0.0
 40
0.51181
  0
CIRCLE
  5
6E0C
330
18
100
AcDbEntity
  8
\U+9762\U+76C6
100
AcDbCircle
 10
25.49639282052365
 20
56.58051201267307
 30
0.0
 40
0.51181
  0
CIRCLE
  5
6E0D
330
18
100
AcDbEntity
  8
\U+9762\U+76C6
100
AcDbCircle
 10
24.43340282052365
 20
54.69075201267306
 30
0.0
 40
0.51181
  0
CIRCLE
  5
6E0E
330
18
100
AcDbEntity
  8
\U+9762\U+76C6
100
AcDbCircle
 10
24.43340282052365
 20
49.65139201267306
 30
0.0
 40
0.51181
  0
CIRCLE
  5
6E0F
330
18
100
AcDbEntity
  8
\U+9762\U+76C6
100
AcDbCircle
 10
24.43340282052365
 20
48.39155201267306
 30
0.0
 40
0.51181
  0
CIRCLE
  5
6E10
330
18
100
AcDbEntity
  8
\U+9762\U+76C6
100
AcDbCircle
 10
24.43340282052365
 20
52.17107201267307
 30
0.0
 40
0.51181
  0
CIRCLE
  5
6E11
330
18
100
AcDbEntity
  8
\U+9762\U+76C6
100
AcDbCircle
 10
24.43340282052365
 20
50.91123201267307
 30
0.0
 40
0.51181
  0
CIRCLE
  5
6E12
330
18
100
AcDbEntity
  8
\U+9762\U+76C6
100
AcDbCircle
 10
24.43340282052365
 20
53.43091201267307
 30
0.0
 40
0.51181
  0
CIRCLE
  5
6E13
330
18
100
AcDbEntity
  8
\U+9762\U+76C6
100
AcDbCircle
 10
24.43340282052365
 20
55.95059201267306
 30
0.0
 40
0.51181
  0
CIRCLE
  5
6E14
330
18
100
AcDbEntity
  8
\U+9762\U+76C6
100
AcDbCircle
 10
35.06330282052365
 20
54.69075201267306
 30
0.0
 40
0.51181
  0
CIRCLE
  5
6E15
330
18
100
AcDbEntity
  8
\U+9762\U+76C6
100
AcDbCircle
 10
30.81134282052365
 20
54.69075201267306
 30
0.0
 40
0.51181
  0
CIRCLE
  5
6E16
330
18
100
AcDbEntity
  8
\U+9762\U+76C6
100
AcDbCircle
 10
28.68536282052364
 20
54.69075201267306
 30
0.0
 40
0.51181
  0
CIRCLE
  5
6E17
330
18
100
AcDbEntity
  8
\U+9762\U+76C6
100
AcDbCircle
 10
32.93732282052365
 20
54.69075201267306
 30
0.0
 40
0.51181
  0
CIRCLE
  5
6E18
330
18
100
AcDbEntity
  8
\U+9762\U+76C6
100
AcDbCircle
 10
37.18928282052365
 20
54.69075201267306
 30
0.0
 40
0.51181
  0
CIRCLE
  5
6E19
330
18
100
AcDbEntity
  8
\U+9762\U+76C6
100
AcDbCircle
 10
26.55938282052364
 20
54.69075201267306
 30
0.0
 40
0.51181
  0
CIRCLE
  5
6E1A
330
18
100
AcDbEntity
  8
\U+9762\U+76C6
100
AcDbCircle
 10
31.87433282052364
 20
50.28131201267306
 30
0.0
 40
0.51181
  0
CIRCLE
  5
6E1B
330
18
100
AcDbEntity
  8
\U+9762\U+76C6
100
AcDbCircle
 10
31.87433282052364
 20
49.02147201267307
 30
0.0
 40
0.51181
  0
CIRCLE
  5
6E1C
330
18
100
AcDbEntity
  8
\U+9762\U+76C6
100
AcDbCircle
 10
31.87433282052364
 20
54.06083201267307
 30
0.0
 40
0.51181
  0
CIRCLE
  5
6E1D
330
18
100
AcDbEntity
  8
\U+9762\U+76C6
100
AcDbCircle
 10
31.87433282052364
 20
51.54115201267306
 30
0.0
 40
0.51181
  0
CIRCLE
  5
6E1E
330
18
100
AcDbEntity
  8
\U+9762\U+76C6
100
AcDbCircle
 10
31.87433282052364
 20
52.80099201267306
 30
0.0
 40
0.51181
  0
CIRCLE
  5
6E1F
330
18
100
AcDbEntity
  8
\U+9762\U+76C6
100
AcDbCircle
 10
29.74835282052364
 20
50.28131201267306
 30
0.0
 40
0.51181
  0
CIRCLE
  5
6E20
330
18
100
AcDbEntity
  8
\U+9762\U+76C6
100
AcDbCircle
 10
28.68536282052364
 20
49.65139201267306
 30
0.0
 40
0.51181
  0
CIRCLE
  5
6E21
330
18
100
AcDbEntity
  8
\U+9762\U+76C6
100
AcDbCircle
 10
30.81134282052365
 20
49.65139201267306
 30
0.0
 40
0.51181
  0
CIRCLE
  5
6E22
330
18
100
AcDbEntity
  8
\U+9762\U+76C6
100
AcDbCircle
 10
30.81134282052365
 20
48.39155201267306
 30
0.0
 40
0.51181
  0
CIRCLE
  5
6E23
330
18
100
AcDbEntity
  8
\U+9762\U+76C6
100
AcDbCircle
 10
28.68536282052364
 20
48.39155201267306
 30
0.0
 40
0.51181
  0
CIRCLE
  5
6E24
330
18
100
AcDbEntity
  8
\U+9762\U+76C6
100
AcDbCircle
 10
29.74835282052364
 20
49.02147201267307
 30
0.0
 40
0.51181
  0
CIRCLE
  5
6E25
330
18
100
AcDbEntity
  8
\U+9762\U+76C6
100
AcDbCircle
 10
30.81134282052365
 20
50.91123201267307
 30
0.0
 40
0.51181
  0
CIRCLE
  5
6E26
330
18
100
AcDbEntity
  8
\U+9762\U+76C6
100
AcDbCircle
 10
30.81134282052365
 20
52.17107201267307
 30
0.0
 40
0.51181
  0
CIRCLE
  5
6E27
330
18
100
AcDbEntity
  8
\U+9762\U+76C6
100
AcDbCircle
 10
30.81134282052365
 20
53.43091201267307
 30
0.0
 40
0.51181
  0
CIRCLE
  5
6E28
330
18
100
AcDbEntity
  8
\U+9762\U+76C6
100
AcDbCircle
 10
29.74835282052364
 20
54.06083201267307
 30
0.0
 40
0.51181
  0
CIRCLE
  5
6E29
330
18
100
AcDbEntity
  8
\U+9762\U+76C6
100
AcDbCircle
 10
28.68536282052364
 20
50.91123201267307
 30
0.0
 40
0.51181
  0
CIRCLE
  5
6E2A
330
18
100
AcDbEntity
  8
\U+9762\U+76C6
100
AcDbCircle
 10
28.68536282052364
 20
52.17107201267307
 30
0.0
 40
0.51181
  0
CIRCLE
  5
6E2B
330
18
100
AcDbEntity
  8
\U+9762\U+76C6
100
AcDbCircle
 10
29.74835282052364
 20
51.54115201267306
 30
0.0
 40
0.51181
  0
CIRCLE
  5
6E2C
330
18
100
AcDbEntity
  8
\U+9762\U+76C6
100
AcDbCircle
 10
28.68536282052364
 20
53.43091201267307
 30
0.0
 40
0.51181
  0
CIRCLE
  5
6E2D
330
18
100
AcDbEntity
  8
\U+9762\U+76C6
100
AcDbCircle
 10
29.74835282052364
 20
52.80099201267306
 30
0.0
 40
0.51181
  0
CIRCLE
  5
6E2E
330
18
100
AcDbEntity
  8
\U+9762\U+76C6
100
AcDbCircle
 10
26.55938282052364
 20
49.65139201267306
 30
0.0
 40
0.51181
  0
CIRCLE
  5
6E2F
330
18
100
AcDbEntity
  8
\U+9762\U+76C6
100
AcDbCircle
 10
26.55938282052364
 20
48.39155201267306
 30
0.0
 40
0.51181
  0
CIRCLE
  5
6E30
330
18
100
AcDbEntity
  8
\U+9762\U+76C6
100
AcDbCircle
 10
26.55938282052364
 20
50.91123201267307
 30
0.0
 40
0.51181
  0
CIRCLE
  5
6E31
330
18
100
AcDbEntity
  8
\U+9762\U+76C6
100
AcDbCircle
 10
26.55938282052364
 20
52.17107201267307
 30
0.0
 40
0.51181
  0
CIRCLE
  5
6E32
330
18
100
AcDbEntity
  8
\U+9762\U+76C6
100
AcDbCircle
 10
26.55938282052364
 20
53.43091201267307
 30
0.0
 40
0.51181
  0
CIRCLE
  5
6E33
330
18
100
AcDbEntity
  8
\U+9762\U+76C6
100
AcDbCircle
 10
27.62237282052364
 20
54.06083201267307
 30
0.0
 40
0.51181
  0
CIRCLE
  5
6E34
330
18
100
AcDbEntity
  8
\U+9762\U+76C6
100
AcDbCircle
 10
27.62237282052364
 20
50.28131201267306
 30
0.0
 40
0.51181
  0
CIRCLE
  5
6E35
330
18
100
AcDbEntity
  8
\U+9762\U+76C6
100
AcDbCircle
 10
27.62237282052364
 20
51.54115201267306
 30
0.0
 40
0.51181
  0
CIRCLE
  5
6E36
330
18
100
AcDbEntity
  8
\U+9762\U+76C6
100
AcDbCircle
 10
27.62237282052364
 20
49.02147201267307
 30
0.0
 40
0.51181
  0
CIRCLE
  5
6E37
330
18
100
AcDbEntity
  8
\U+9762\U+76C6
100
AcDbCircle
 10
27.62237282052364
 20
52.80099201267306
 30
0.0
 40
0.51181
  0
CIRCLE
  5
6E38
330
18
100
AcDbEntity
  8
\U+9762\U+76C6
100
AcDbCircle
 10
35.06330282052365
 20
50.91123201267307
 30
0.0
 40
0.51181
  0
CIRCLE
  5
6E39
330
18
100
AcDbEntity
  8
\U+9762\U+76C6
100
AcDbCircle
 10
35.06330282052365
 20
52.17107201267307
 30
0.0
 40
0.51181
  0
CIRCLE
  5
6E3A
330
18
100
AcDbEntity
  8
\U+9762\U+76C6
100
AcDbCircle
 10
35.06330282052365
 20
48.39155201267306
 30
0.0
 40
0.51181
  0
CIRCLE
  5
6E3B
330
18
100
AcDbEntity
  8
\U+9762\U+76C6
100
AcDbCircle
 10
35.06330282052365
 20
49.65139201267306
 30
0.0
 40
0.51181
  0
CIRCLE
  5
6E3C
330
18
100
AcDbEntity
  8
\U+9762\U+76C6
100
AcDbCircle
 10
35.06330282052365
 20
53.43091201267307
 30
0.0
 40
0.51181
  0
CIRCLE
  5
6E3D
330
18
100
AcDbEntity
  8
\U+9762\U+76C6
100
AcDbCircle
 10
34.00031282052365
 20
50.28131201267306
 30
0.0
 40
0.51181
  0
CIRCLE
  5
6E3E
330
18
100
AcDbEntity
  8
\U+9762\U+76C6
100
AcDbCircle
 10
32.93732282052365
 20
49.65139201267306
 30
0.0
 40
0.51181
  0
CIRCLE
  5
6E3F
330
18
100
AcDbEntity
  8
\U+9762\U+76C6
100
AcDbCircle
 10
34.00031282052365
 20
49.02147201267307
 30
0.0
 40
0.51181
  0
CIRCLE
  5
6E40
330
18
100
AcDbEntity
  8
\U+9762\U+76C6
100
AcDbCircle
 10
32.93732282052365
 20
48.39155201267306
 30
0.0
 40
0.51181
  0
CIRCLE
  5
6E41
330
18
100
AcDbEntity
  8
\U+9762\U+76C6
100
AcDbCircle
 10
34.00031282052365
 20
54.06083201267307
 30
0.0
 40
0.51181
  0
CIRCLE
  5
6E42
330
18
100
AcDbEntity
  8
\U+9762\U+76C6
100
AcDbCircle
 10
34.00031282052365
 20
51.54115201267306
 30
0.0
 40
0.51181
  0
CIRCLE
  5
6E43
330
18
100
AcDbEntity
  8
\U+9762\U+76C6
100
AcDbCircle
 10
34.00031282052365
 20
52.80099201267306
 30
0.0
 40
0.51181
  0
CIRCLE
  5
6E44
330
18
100
AcDbEntity
  8
\U+9762\U+76C6
100
AcDbCircle
 10
32.93732282052365
 20
50.91123201267307
 30
0.0
 40
0.51181
  0
CIRCLE
  5
6E45
330
18
100
AcDbEntity
  8
\U+9762\U+76C6
100
AcDbCircle
 10
32.93732282052365
 20
52.17107201267307
 30
0.0
 40
0.51181
  0
CIRCLE
  5
6E46
330
18
100
AcDbEntity
  8
\U+9762\U+76C6
100
AcDbCircle
 10
32.93732282052365
 20
53.43091201267307
 30
0.0
 40
0.51181
  0
CIRCLE
  5
6E47
330
18
100
AcDbEntity
  8
\U+9762\U+76C6
100
AcDbCircle
 10
36.12629282052365
 20
50.28131201267306
 30
0.0
 40
0.51181
  0
CIRCLE
  5
6E48
330
18
100
AcDbEntity
  8
\U+9762\U+76C6
100
AcDbCircle
 10
37.18928282052365
 20
49.65139201267306
 30
0.0
 40
0.51181
  0
CIRCLE
  5
6E49
330
18
100
AcDbEntity
  8
\U+9762\U+76C6
100
AcDbCircle
 10
37.18928282052365
 20
48.39155201267306
 30
0.0
 40
0.51181
  0
CIRCLE
  5
6E4A
330
18
100
AcDbEntity
  8
\U+9762\U+76C6
100
AcDbCircle
 10
36.12629282052365
 20
49.02147201267307
 30
0.0
 40
0.51181
  0
CIRCLE
  5
6E4B
330
18
100
AcDbEntity
  8
\U+9762\U+76C6
100
AcDbCircle
 10
36.12629282052365
 20
54.06083201267307
 30
0.0
 40
0.51181
  0
CIRCLE
  5
6E4C
330
18
100
AcDbEntity
  8
\U+9762\U+76C6
100
AcDbCircle
 10
37.18928282052365
 20
50.91123201267307
 30
0.0
 40
0.51181
  0
CIRCLE
  5
6E4D
330
18
100
AcDbEntity
  8
\U+9762\U+76C6
100
AcDbCircle
 10
37.18928282052365
 20
52.17107201267307
 30
0.0
 40
0.51181
  0
CIRCLE
  5
6E4E
330
18
100
AcDbEntity
  8
\U+9762\U+76C6
100
AcDbCircle
 10
36.12629282052365
 20
51.54115201267306
 30
0.0
 40
0.51181
  0
CIRCLE
  5
6E4F
330
18
100
AcDbEntity
  8
\U+9762\U+76C6
100
AcDbCircle
 10
37.18928282052365
 20
53.43091201267307
 30
0.0
 40
0.51181
  0
CIRCLE
  5
6E50
330
18
100
AcDbEntity
  8
\U+9762\U+76C6
100
AcDbCircle
 10
36.12629282052365
 20
52.80099201267306
 30
0.0
 40
0.51181
  0
CIRCLE
  5
6E51
330
18
100
AcDbEntity
  8
\U+9762\U+76C6
100
AcDbCircle
 10
31.87433282052364
 20
57.84035201267307
 30
0.0
 40
0.51181
  0
CIRCLE
  5
6E52
330
18
100
AcDbEntity
  8
\U+9762\U+76C6
100
AcDbCircle
 10
31.87433282052364
 20
55.32067201267306
 30
0.0
 40
0.51181
  0
CIRCLE
  5
6E53
330
18
100
AcDbEntity
  8
\U+9762\U+76C6
100
AcDbCircle
 10
31.87433282052364
 20
56.58051201267307
 30
0.0
 40
0.51181
  0
CIRCLE
  5
6E54
330
18
100
AcDbEntity
  8
\U+9762\U+76C6
100
AcDbCircle
 10
29.74835282052364
 20
57.84035201267307
 30
0.0
 40
0.51181
  0
CIRCLE
  5
6E55
330
18
100
AcDbEntity
  8
\U+9762\U+76C6
100
AcDbCircle
 10
27.62237282052364
 20
57.84035201267307
 30
0.0
 40
0.51181
  0
CIRCLE
  5
6E56
330
18
100
AcDbEntity
  8
\U+9762\U+76C6
100
AcDbCircle
 10
30.81134282052365
 20
55.95059201267306
 30
0.0
 40
0.51181
  0
CIRCLE
  5
6E57
330
18
100
AcDbEntity
  8
\U+9762\U+76C6
100
AcDbCircle
 10
29.74835282052364
 20
55.32067201267306
 30
0.0
 40
0.51181
  0
CIRCLE
  5
6E58
330
18
100
AcDbEntity
  8
\U+9762\U+76C6
100
AcDbCircle
 10
28.68536282052364
 20
55.95059201267306
 30
0.0
 40
0.51181
  0
CIRCLE
  5
6E59
330
18
100
AcDbEntity
  8
\U+9762\U+76C6
100
AcDbCircle
 10
26.55938282052364
 20
55.95059201267306
 30
0.0
 40
0.51181
  0
CIRCLE
  5
6E5A
330
18
100
AcDbEntity
  8
\U+9762\U+76C6
100
AcDbCircle
 10
27.62237282052364
 20
55.32067201267306
 30
0.0
 40
0.51181
  0
CIRCLE
  5
6E5B
330
18
100
AcDbEntity
  8
\U+9762\U+76C6
100
AcDbCircle
 10
28.68536282052364
 20
57.21043201267306
 30
0.0
 40
0.51181
  0
CIRCLE
  5
6E5C
330
18
100
AcDbEntity
  8
\U+9762\U+76C6
100
AcDbCircle
 10
30.81134282052365
 20
57.21043201267306
 30
0.0
 40
0.51181
  0
CIRCLE
  5
6E5D
330
18
100
AcDbEntity
  8
\U+9762\U+76C6
100
AcDbCircle
 10
26.55938282052364
 20
57.21043201267306
 30
0.0
 40
0.51181
  0
CIRCLE
  5
6E5E
330
18
100
AcDbEntity
  8
\U+9762\U+76C6
100
AcDbCircle
 10
27.62237282052364
 20
56.58051201267307
 30
0.0
 40
0.51181
  0
CIRCLE
  5
6E5F
330
18
100
AcDbEntity
  8
\U+9762\U+76C6
100
AcDbCircle
 10
29.74835282052364
 20
56.58051201267307
 30
0.0
 40
0.51181
  0
CIRCLE
  5
6E60
330
18
100
AcDbEntity
  8
\U+9762\U+76C6
100
AcDbCircle
 10
34.00031282052365
 20
57.84035201267307
 30
0.0
 40
0.51181
  0
CIRCLE
  5
6E61
330
18
100
AcDbEntity
  8
\U+9762\U+76C6
100
AcDbCircle
 10
36.12629282052365
 20
57.84035201267307
 30
0.0
 40
0.51181
  0
CIRCLE
  5
6E62
330
18
100
AcDbEntity
  8
\U+9762\U+76C6
100
AcDbCircle
 10
35.06330282052365
 20
55.95059201267306
 30
0.0
 40
0.51181
  0
CIRCLE
  5
6E63
330
18
100
AcDbEntity
  8
\U+9762\U+76C6
100
AcDbCircle
 10
34.00031282052365
 20
55.32067201267306
 30
0.0
 40
0.51181
  0
CIRCLE
  5
6E64
330
18
100
AcDbEntity
  8
\U+9762\U+76C6
100
AcDbCircle
 10
32.93732282052365
 20
55.95059201267306
 30
0.0
 40
0.51181
  0
CIRCLE
  5
6E65
330
18
100
AcDbEntity
  8
\U+9762\U+76C6
100
AcDbCircle
 10
36.12629282052365
 20
55.32067201267306
 30
0.0
 40
0.51181
  0
CIRCLE
  5
6E66
330
18
100
AcDbEntity
  8
\U+9762\U+76C6
100
AcDbCircle
 10
37.18928282052365
 20
55.95059201267306
 30
0.0
 40
0.51181
  0
CIRCLE
  5
6E67
330
18
100
AcDbEntity
  8
\U+9762\U+76C6
100
AcDbCircle
 10
35.06330282052365
 20
57.21043201267306
 30
0.0
 40
0.51181
  0
CIRCLE
  5
6E68
330
18
100
AcDbEntity
  8
\U+9762\U+76C6
100
AcDbCircle
 10
32.93732282052365
 20
57.21043201267306
 30
0.0
 40
0.51181
  0
CIRCLE
  5
6E69
330
18
100
AcDbEntity
  8
\U+9762\U+76C6
100
AcDbCircle
 10
34.00031282052365
 20
56.58051201267307
 30
0.0
 40
0.51181
  0
CIRCLE
  5
6E6A
330
18
100
AcDbEntity
  8
\U+9762\U+76C6
100
AcDbCircle
 10
37.18928282052365
 20
57.21043201267306
 30
0.0
 40
0.51181
  0
CIRCLE
  5
6E6B
330
18
100
AcDbEntity
  8
\U+9762\U+76C6
100
AcDbCircle
 10
36.12629282052365
 20
56.58051201267307
 30
0.0
 40
0.51181
  0
CIRCLE
  5
6E6C
330
18
100
AcDbEntity
  8
\U+9762\U+76C6
100
AcDbCircle
 10
49.94516282052365
 20
49.65139201267306
 30
0.0
 40
0.51181
  0
CIRCLE
  5
6E6D
330
18
100
AcDbEntity
  8
\U+9762\U+76C6
100
AcDbCircle
 10
49.94516282052365
 20
48.39155201267306
 30
0.0
 40
0.51181
  0
CIRCLE
  5
6E6E
330
18
100
AcDbEntity
  8
\U+9762\U+76C6
100
AcDbCircle
 10
49.94516282052365
 20
54.69075201267306
 30
0.0
 40
0.51181
  0
CIRCLE
  5
6E6F
330
18
100
AcDbEntity
  8
\U+9762\U+76C6
100
AcDbCircle
 10
49.94516282052365
 20
55.95059201267306
 30
0.0
 40
0.51181
  0
CIRCLE
  5
6E70
330
18
100
AcDbEntity
  8
\U+9762\U+76C6
100
AcDbCircle
 10
49.94516282052365
 20
50.91123201267307
 30
0.0
 40
0.51181
  0
CIRCLE
  5
6E71
330
18
100
AcDbEntity
  8
\U+9762\U+76C6
100
AcDbCircle
 10
49.94516282052365
 20
52.17107201267307
 30
0.0
 40
0.51181
  0
CIRCLE
  5
6E72
330
18
100
AcDbEntity
  8
\U+9762\U+76C6
100
AcDbCircle
 10
49.94516282052365
 20
53.43091201267307
 30
0.0
 40
0.51181
  0
CIRCLE
  5
6E73
330
18
100
AcDbEntity
  8
\U+9762\U+76C6
100
AcDbCircle
 10
49.94516282052365
 20
57.21043201267306
 30
0.0
 40
0.51181
  0
CIRCLE
  5
6E74
330
18
100
AcDbEntity
  8
\U+9762\U+76C6
100
AcDbCircle
 10
41.44124282052365
 20
54.69075201267306
 30
0.0
 40
0.51181
  0
CIRCLE
  5
6E75
330
18
100
AcDbEntity
  8
\U+9762\U+76C6
100
AcDbCircle
 10
45.69320282052364
 20
54.69075201267306
 30
0.0
 40
0.51181
  0
CIRCLE
  5
6E76
330
18
100
AcDbEntity
  8
\U+9762\U+76C6
100
AcDbCircle
 10
43.56722282052365
 20
54.69075201267306
 30
0.0
 40
0.51181
  0
CIRCLE
  5
6E77
330
18
100
AcDbEntity
  8
\U+9762\U+76C6
100
AcDbCircle
 10
47.81918282052364
 20
54.69075201267306
 30
0.0
 40
0.51181
  0
CIRCLE
  5
6E78
330
18
100
AcDbEntity
  8
\U+9762\U+76C6
100
AcDbCircle
 10
39.31526282052364
 20
54.69075201267306
 30
0.0
 40
0.51181
  0
CIRCLE
  5
6E79
330
18
100
AcDbEntity
  8
\U+9762\U+76C6
100
AcDbCircle
 10
43.56722282052365
 20
49.65139201267306
 30
0.0
 40
0.51181
  0
CIRCLE
  5
6E7A
330
18
100
AcDbEntity
  8
\U+9762\U+76C6
100
AcDbCircle
 10
43.56722282052365
 20
48.39155201267306
 30
0.0
 40
0.51181
  0
CIRCLE
  5
6E7B
330
18
100
AcDbEntity
  8
\U+9762\U+76C6
100
AcDbCircle
 10
43.56722282052365
 20
50.91123201267307
 30
0.0
 40
0.51181
  0
CIRCLE
  5
6E7C
330
18
100
AcDbEntity
  8
\U+9762\U+76C6
100
AcDbCircle
 10
43.56722282052365
 20
52.17107201267307
 30
0.0
 40
0.51181
  0
CIRCLE
  5
6E7D
330
18
100
AcDbEntity
  8
\U+9762\U+76C6
100
AcDbCircle
 10
43.56722282052365
 20
53.43091201267307
 30
0.0
 40
0.51181
  0
CIRCLE
  5
6E7E
330
18
100
AcDbEntity
  8
\U+9762\U+76C6
100
AcDbCircle
 10
41.44124282052365
 20
50.91123201267307
 30
0.0
 40
0.51181
  0
CIRCLE
  5
6E7F
330
18
100
AcDbEntity
  8
\U+9762\U+76C6
100
AcDbCircle
 10
41.44124282052365
 20
52.17107201267307
 30
0.0
 40
0.51181
  0
CIRCLE
  5
6E80
330
18
100
AcDbEntity
  8
\U+9762\U+76C6
100
AcDbCircle
 10
41.44124282052365
 20
48.39155201267306
 30
0.0
 40
0.51181
  0
CIRCLE
  5
6E81
330
18
100
AcDbEntity
  8
\U+9762\U+76C6
100
AcDbCircle
 10
41.44124282052365
 20
49.65139201267306
 30
0.0
 40
0.51181
  0
CIRCLE
  5
6E82
330
18
100
AcDbEntity
  8
\U+9762\U+76C6
100
AcDbCircle
 10
41.44124282052365
 20
53.43091201267307
 30
0.0
 40
0.51181
  0
CIRCLE
  5
6E83
330
18
100
AcDbEntity
  8
\U+9762\U+76C6
100
AcDbCircle
 10
42.50423282052365
 20
50.28131201267306
 30
0.0
 40
0.51181
  0
CIRCLE
  5
6E84
330
18
100
AcDbEntity
  8
\U+9762\U+76C6
100
AcDbCircle
 10
42.50423282052365
 20
49.02147201267307
 30
0.0
 40
0.51181
  0
CIRCLE
  5
6E85
330
18
100
AcDbEntity
  8
\U+9762\U+76C6
100
AcDbCircle
 10
42.50423282052365
 20
54.06083201267307
 30
0.0
 40
0.51181
  0
CIRCLE
  5
6E86
330
18
100
AcDbEntity
  8
\U+9762\U+76C6
100
AcDbCircle
 10
42.50423282052365
 20
51.54115201267306
 30
0.0
 40
0.51181
  0
CIRCLE
  5
6E87
330
18
100
AcDbEntity
  8
\U+9762\U+76C6
100
AcDbCircle
 10
42.50423282052365
 20
52.80099201267306
 30
0.0
 40
0.51181
  0
CIRCLE
  5
6E88
330
18
100
AcDbEntity
  8
\U+9762\U+76C6
100
AcDbCircle
 10
39.31526282052364
 20
49.65139201267306
 30
0.0
 40
0.51181
  0
CIRCLE
  5
6E89
330
18
100
AcDbEntity
  8
\U+9762\U+76C6
100
AcDbCircle
 10
39.31526282052364
 20
48.39155201267306
 30
0.0
 40
0.51181
  0
CIRCLE
  5
6E8A
330
18
100
AcDbEntity
  8
\U+9762\U+76C6
100
AcDbCircle
 10
39.31526282052364
 20
50.91123201267307
 30
0.0
 40
0.51181
  0
CIRCLE
  5
6E8B
330
18
100
AcDbEntity
  8
\U+9762\U+76C6
100
AcDbCircle
 10
39.31526282052364
 20
52.17107201267307
 30
0.0
 40
0.51181
  0
CIRCLE
  5
6E8C
330
18
100
AcDbEntity
  8
\U+9762\U+76C6
100
AcDbCircle
 10
39.31526282052364
 20
53.43091201267307
 30
0.0
 40
0.51181
  0
CIRCLE
  5
6E8D
330
18
100
AcDbEntity
  8
\U+9762\U+76C6
100
AcDbCircle
 10
40.37825282052364
 20
50.28131201267306
 30
0.0
 40
0.51181
  0
CIRCLE
  5
6E8E
330
18
100
AcDbEntity
  8
\U+9762\U+76C6
100
AcDbCircle
 10
40.37825282052364
 20
49.02147201267307
 30
0.0
 40
0.51181
  0
CIRCLE
  5
6E8F
330
18
100
AcDbEntity
  8
\U+9762\U+76C6
100
AcDbCircle
 10
40.37825282052364
 20
54.06083201267307
 30
0.0
 40
0.51181
  0
CIRCLE
  5
6E90
330
18
100
AcDbEntity
  8
\U+9762\U+76C6
100
AcDbCircle
 10
40.37825282052364
 20
51.54115201267306
 30
0.0
 40
0.51181
  0
CIRCLE
  5
6E91
330
18
100
AcDbEntity
  8
\U+9762\U+76C6
100
AcDbCircle
 10
40.37825282052364
 20
52.80099201267306
 30
0.0
 40
0.51181
  0
CIRCLE
  5
6E92
330
18
100
AcDbEntity
  8
\U+9762\U+76C6
100
AcDbCircle
 10
48.88217282052364
 20
54.06083201267307
 30
0.0
 40
0.51181
  0
CIRCLE
  5
6E93
330
18
100
AcDbEntity
  8
\U+9762\U+76C6
100
AcDbCircle
 10
48.88217282052364
 20
50.28131201267306
 30
0.0
 40
0.51181
  0
CIRCLE
  5
6E94
330
18
100
AcDbEntity
  8
\U+9762\U+76C6
100
AcDbCircle
 10
48.88217282052364
 20
51.54115201267306
 30
0.0
 40
0.51181
  0
CIRCLE
  5
6E95
330
18
100
AcDbEntity
  8
\U+9762\U+76C6
100
AcDbCircle
 10
48.88217282052364
 20
49.02147201267307
 30
0.0
 40
0.51181
  0
CIRCLE
  5
6E96
330
18
100
AcDbEntity
  8
\U+9762\U+76C6
100
AcDbCircle
 10
48.88217282052364
 20
52.80099201267306
 30
0.0
 40
0.51181
  0
CIRCLE
  5
6E97
330
18
100
AcDbEntity
  8
\U+9762\U+76C6
100
AcDbCircle
 10
46.75619282052364
 20
50.28131201267306
 30
0.0
 40
0.51181
  0
CIRCLE
  5
6E98
330
18
100
AcDbEntity
  8
\U+9762\U+76C6
100
AcDbCircle
 10
47.81918282052364
 20
49.65139201267306
 30
0.0
 40
0.51181
  0
CIRCLE
  5
6E99
330
18
100
AcDbEntity
  8
\U+9762\U+76C6
100
AcDbCircle
 10
44.63021282052364
 20
50.28131201267306
 30
0.0
 40
0.51181
  0
CIRCLE
  5
6E9A
330
18
100
AcDbEntity
  8
\U+9762\U+76C6
100
AcDbCircle
 10
45.69320282052364
 20
49.65139201267306
 30
0.0
 40
0.51181
  0
CIRCLE
  5
6E9B
330
18
100
AcDbEntity
  8
\U+9762\U+76C6
100
AcDbCircle
 10
45.69320282052364
 20
48.39155201267306
 30
0.0
 40
0.51181
  0
CIRCLE
  5
6E9C
330
18
100
AcDbEntity
  8
\U+9762\U+76C6
100
AcDbCircle
 10
44.63021282052364
 20
49.02147201267307
 30
0.0
 40
0.51181
  0
CIRCLE
  5
6E9D
330
18
100
AcDbEntity
  8
\U+9762\U+76C6
100
AcDbCircle
 10
47.81918282052364
 20
48.39155201267306
 30
0.0
 40
0.51181
  0
CIRCLE
  5
6E9E
330
18
100
AcDbEntity
  8
\U+9762\U+76C6
100
AcDbCircle
 10
46.75619282052364
 20
49.02147201267307
 30
0.0
 40
0.51181
  0
CIRCLE
  5
6E9F
330
18
100
AcDbEntity
  8
\U+9762\U+76C6
100
AcDbCircle
 10
45.69320282052364
 20
50.91123201267307
 30
0.0
 40
0.51181
  0
CIRCLE
  5
6EA0
330
18
100
AcDbEntity
  8
\U+9762\U+76C6
100
AcDbCircle
 10
45.69320282052364
 20
52.17107201267307
 30
0.0
 40
0.51181
  0
CIRCLE
  5
6EA1
330
18
100
AcDbEntity
  8
\U+9762\U+76C6
100
AcDbCircle
 10
45.69320282052364
 20
53.43091201267307
 30
0.0
 40
0.51181
  0
CIRCLE
  5
6EA2
330
18
100
AcDbEntity
  8
\U+9762\U+76C6
100
AcDbCircle
 10
44.63021282052364
 20
54.06083201267307
 30
0.0
 40
0.51181
  0
CIRCLE
  5
6EA3
330
18
100
AcDbEntity
  8
\U+9762\U+76C6
100
AcDbCircle
 10
44.63021282052364
 20
51.54115201267306
 30
0.0
 40
0.51181
  0
CIRCLE
  5
6EA4
330
18
100
AcDbEntity
  8
\U+9762\U+76C6
100
AcDbCircle
 10
44.63021282052364
 20
52.80099201267306
 30
0.0
 40
0.51181
  0
CIRCLE
  5
6EA5
330
18
100
AcDbEntity
  8
\U+9762\U+76C6
100
AcDbCircle
 10
46.75619282052364
 20
54.06083201267307
 30
0.0
 40
0.51181
  0
CIRCLE
  5
6EA6
330
18
100
AcDbEntity
  8
\U+9762\U+76C6
100
AcDbCircle
 10
47.81918282052364
 20
50.91123201267307
 30
0.0
 40
0.51181
  0
CIRCLE
  5
6EA7
330
18
100
AcDbEntity
  8
\U+9762\U+76C6
100
AcDbCircle
 10
47.81918282052364
 20
52.17107201267307
 30
0.0
 40
0.51181
  0
CIRCLE
  5
6EA8
330
18
100
AcDbEntity
  8
\U+9762\U+76C6
100
AcDbCircle
 10
46.75619282052364
 20
51.54115201267306
 30
0.0
 40
0.51181
  0
CIRCLE
  5
6EA9
330
18
100
AcDbEntity
  8
\U+9762\U+76C6
100
AcDbCircle
 10
47.81918282052364
 20
53.43091201267307
 30
0.0
 40
0.51181
  0
CIRCLE
  5
6EAA
330
18
100
AcDbEntity
  8
\U+9762\U+76C6
100
AcDbCircle
 10
46.75619282052364
 20
52.80099201267306
 30
0.0
 40
0.51181
  0
CIRCLE
  5
6EAB
330
18
100
AcDbEntity
  8
\U+9762\U+76C6
100
AcDbCircle
 10
43.56722282052365
 20
55.95059201267306
 30
0.0
 40
0.51181
  0
CIRCLE
  5
6EAC
330
18
100
AcDbEntity
  8
\U+9762\U+76C6
100
AcDbCircle
 10
43.56722282052365
 20
57.21043201267306
 30
0.0
 40
0.51181
  0
CIRCLE
  5
6EAD
330
18
100
AcDbEntity
  8
\U+9762\U+76C6
100
AcDbCircle
 10
42.50423282052365
 20
57.84035201267307
 30
0.0
 40
0.51181
  0
CIRCLE
  5
6EAE
330
18
100
AcDbEntity
  8
\U+9762\U+76C6
100
AcDbCircle
 10
41.44124282052365
 20
55.95059201267306
 30
0.0
 40
0.51181
  0
CIRCLE
  5
6EAF
330
18
100
AcDbEntity
  8
\U+9762\U+76C6
100
AcDbCircle
 10
42.50423282052365
 20
55.32067201267306
 30
0.0
 40
0.51181
  0
CIRCLE
  5
6EB0
330
18
100
AcDbEntity
  8
\U+9762\U+76C6
100
AcDbCircle
 10
41.44124282052365
 20
57.21043201267306
 30
0.0
 40
0.51181
  0
CIRCLE
  5
6EB1
330
18
100
AcDbEntity
  8
\U+9762\U+76C6
100
AcDbCircle
 10
42.50423282052365
 20
56.58051201267307
 30
0.0
 40
0.51181
  0
CIRCLE
  5
6EB2
330
18
100
AcDbEntity
  8
\U+9762\U+76C6
100
AcDbCircle
 10
39.31526282052364
 20
55.95059201267306
 30
0.0
 40
0.51181
  0
CIRCLE
  5
6EB3
330
18
100
AcDbEntity
  8
\U+9762\U+76C6
100
AcDbCircle
 10
39.31526282052364
 20
57.21043201267306
 30
0.0
 40
0.51181
  0
CIRCLE
  5
6EB4
330
18
100
AcDbEntity
  8
\U+9762\U+76C6
100
AcDbCircle
 10
40.37825282052364
 20
55.32067201267306
 30
0.0
 40
0.51181
  0
CIRCLE
  5
6EB5
330
18
100
AcDbEntity
  8
\U+9762\U+76C6
100
AcDbCircle
 10
40.37825282052364
 20
56.58051201267307
 30
0.0
 40
0.51181
  0
CIRCLE
  5
6EB6
330
18
100
AcDbEntity
  8
\U+9762\U+76C6
100
AcDbCircle
 10
40.37825282052364
 20
57.84035201267307
 30
0.0
 40
0.51181
  0
CIRCLE
  5
6EB7
330
18
100
AcDbEntity
  8
\U+9762\U+76C6
100
AcDbCircle
 10
48.88217282052364
 20
57.84035201267307
 30
0.0
 40
0.51181
  0
CIRCLE
  5
6EB8
330
18
100
AcDbEntity
  8
\U+9762\U+76C6
100
AcDbCircle
 10
44.63021282052364
 20
57.84035201267307
 30
0.0
 40
0.51181
  0
CIRCLE
  5
6EB9
330
18
100
AcDbEntity
  8
\U+9762\U+76C6
100
AcDbCircle
 10
46.75619282052364
 20
57.84035201267307
 30
0.0
 40
0.51181
  0
CIRCLE
  5
6EBA
330
18
100
AcDbEntity
  8
\U+9762\U+76C6
100
AcDbCircle
 10
48.88217282052364
 20
55.32067201267306
 30
0.0
 40
0.51181
  0
CIRCLE
  5
6EBB
330
18
100
AcDbEntity
  8
\U+9762\U+76C6
100
AcDbCircle
 10
45.69320282052364
 20
55.95059201267306
 30
0.0
 40
0.51181
  0
CIRCLE
  5
6EBC
330
18
100
AcDbEntity
  8
\U+9762\U+76C6
100
AcDbCircle
 10
44.63021282052364
 20
55.32067201267306
 30
0.0
 40
0.51181
  0
CIRCLE
  5
6EBD
330
18
100
AcDbEntity
  8
\U+9762\U+76C6
100
AcDbCircle
 10
46.75619282052364
 20
55.32067201267306
 30
0.0
 40
0.51181
  0
CIRCLE
  5
6EBE
330
18
100
AcDbEntity
  8
\U+9762\U+76C6
100
AcDbCircle
 10
47.81918282052364
 20
55.95059201267306
 30
0.0
 40
0.51181
  0
CIRCLE
  5
6EBF
330
18
100
AcDbEntity
  8
\U+9762\U+76C6
100
AcDbCircle
 10
48.88217282052364
 20
56.58051201267307
 30
0.0
 40
0.51181
  0
CIRCLE
  5
6EC0
330
18
100
AcDbEntity
  8
\U+9762\U+76C6
100
AcDbCircle
 10
47.81918282052364
 20
57.21043201267306
 30
0.0
 40
0.51181
  0
CIRCLE
  5
6EC1
330
18
100
AcDbEntity
  8
\U+9762\U+76C6
100
AcDbCircle
 10
45.69320282052364
 20
57.21043201267306
 30
0.0
 40
0.51181
  0
CIRCLE
  5
6EC2
330
18
100
AcDbEntity
  8
\U+9762\U+76C6
100
AcDbCircle
 10
44.63021282052364
 20
56.58051201267307
 30
0.0
 40
0.51181
  0
CIRCLE
  5
6EC3
330
18
100
AcDbEntity
  8
\U+9762\U+76C6
100
AcDbCircle
 10
46.75619282052364
 20
56.58051201267307
 30
0.0
 40
0.51181
  0
CIRCLE
  5
6EC4
330
18
100
AcDbEntity
  8
\U+9762\U+76C6
100
AcDbCircle
 10
54.19712282052365
 20
54.69075201267306
 30
0.0
 40
0.51181
  0
ARC
  5
6EC5
330
18
100
AcDbEntity
  8
\U+9762\U+76C6
100
AcDbCircle
 10
59.51207282052365
 20
54.06083201267307
 30
0.0
 40
0.51181
100
AcDbArc
 50
45.92624016768793
 51
199.3630401021331
  0
CIRCLE
  5
6EC6
330
18
100
AcDbEntity
  8
\U+9762\U+76C6
100
AcDbCircle
 10
56.32310282052364
 20
54.69075201267306
 30
0.0
 40
0.51181
  0
CIRCLE
  5
6EC7
330
18
100
AcDbEntity
  8
\U+9762\U+76C6
100
AcDbCircle
 10
58.44908282052364
 20
54.69075201267306
 30
0.0
 40
0.51181
  0
CIRCLE
  5
6EC8
330
18
100
AcDbEntity
  8
\U+9762\U+76C6
100
AcDbCircle
 10
52.07114282052365
 20
54.69075201267306
 30
0.0
 40
0.51181
  0
CIRCLE
  5
6EC9
330
18
100
AcDbEntity
  8
\U+9762\U+76C6
100
AcDbCircle
 10
56.32310282052364
 20
49.65139201267306
 30
0.0
 40
0.51181
  0
CIRCLE
  5
6ECA
330
18
100
AcDbEntity
  8
\U+9762\U+76C6
100
AcDbCircle
 10
56.32310282052364
 20
48.39155201267306
 30
0.0
 40
0.51181
  0
CIRCLE
  5
6ECB
330
18
100
AcDbEntity
  8
\U+9762\U+76C6
100
AcDbCircle
 10
56.32310282052364
 20
50.91123201267307
 30
0.0
 40
0.51181
  0
CIRCLE
  5
6ECC
330
18
100
AcDbEntity
  8
\U+9762\U+76C6
100
AcDbCircle
 10
56.32310282052364
 20
52.17107201267307
 30
0.0
 40
0.51181
  0
CIRCLE
  5
6ECD
330
18
100
AcDbEntity
  8
\U+9762\U+76C6
100
AcDbCircle
 10
56.32310282052364
 20
53.43091201267307
 30
0.0
 40
0.51181
  0
CIRCLE
  5
6ECE
330
18
100
AcDbEntity
  8
\U+9762\U+76C6
100
AcDbCircle
 10
55.26011282052365
 20
54.06083201267307
 30
0.0
 40
0.51181
  0
CIRCLE
  5
6ECF
330
18
100
AcDbEntity
  8
\U+9762\U+76C6
100
AcDbCircle
 10
55.26011282052365
 20
50.28131201267306
 30
0.0
 40
0.51181
  0
CIRCLE
  5
6ED0
330
18
100
AcDbEntity
  8
\U+9762\U+76C6
100
AcDbCircle
 10
55.26011282052365
 20
51.54115201267306
 30
0.0
 40
0.51181
  0
CIRCLE
  5
6ED1
330
18
100
AcDbEntity
  8
\U+9762\U+76C6
100
AcDbCircle
 10
55.26011282052365
 20
49.02147201267307
 30
0.0
 40
0.51181
  0
CIRCLE
  5
6ED2
330
18
100
AcDbEntity
  8
\U+9762\U+76C6
100
AcDbCircle
 10
55.26011282052365
 20
52.80099201267306
 30
0.0
 40
0.51181
  0
CIRCLE
  5
6ED3
330
18
100
AcDbEntity
  8
\U+9762\U+76C6
100
AcDbCircle
 10
53.13413282052365
 20
50.28131201267306
 30
0.0
 40
0.51181
  0
CIRCLE
  5
6ED4
330
18
100
AcDbEntity
  8
\U+9762\U+76C6
100
AcDbCircle
 10
54.19712282052365
 20
49.65139201267306
 30
0.0
 40
0.51181
  0
CIRCLE
  5
6ED5
330
18
100
AcDbEntity
  8
\U+9762\U+76C6
100
AcDbCircle
 10
54.19712282052365
 20
48.39155201267306
 30
0.0
 40
0.51181
  0
CIRCLE
  5
6ED6
330
18
100
AcDbEntity
  8
\U+9762\U+76C6
100
AcDbCircle
 10
53.13413282052365
 20
49.02147201267307
 30
0.0
 40
0.51181
  0
CIRCLE
  5
6ED7
330
18
100
AcDbEntity
  8
\U+9762\U+76C6
100
AcDbCircle
 10
53.13413282052365
 20
54.06083201267307
 30
0.0
 40
0.51181
  0
CIRCLE
  5
6ED8
330
18
100
AcDbEntity
  8
\U+9762\U+76C6
100
AcDbCircle
 10
54.19712282052365
 20
50.91123201267307
 30
0.0
 40
0.51181
  0
CIRCLE
  5
6ED9
330
18
100
AcDbEntity
  8
\U+9762\U+76C6
100
AcDbCircle
 10
54.19712282052365
 20
52.17107201267307
 30
0.0
 40
0.51181
  0
CIRCLE
  5
6EDA
330
18
100
AcDbEntity
  8
\U+9762\U+76C6
100
AcDbCircle
 10
53.13413282052365
 20
51.54115201267306
 30
0.0
 40
0.51181
  0
CIRCLE
  5
6EDB
330
18
100
AcDbEntity
  8
\U+9762\U+76C6
100
AcDbCircle
 10
54.19712282052365
 20
53.43091201267307
 30
0.0
 40
0.51181
  0
CIRCLE
  5
6EDC
330
18
100
AcDbEntity
  8
\U+9762\U+76C6
100
AcDbCircle
 10
53.13413282052365
 20
52.80099201267306
 30
0.0
 40
0.51181
  0
CIRCLE
  5
6EDD
330
18
100
AcDbEntity
  8
\U+9762\U+76C6
100
AcDbCircle
 10
51.00815282052365
 20
50.28131201267306
 30
0.0
 40
0.51181
  0
CIRCLE
  5
6EDE
330
18
100
AcDbEntity
  8
\U+9762\U+76C6
100
AcDbCircle
 10
51.00815282052365
 20
49.02147201267307
 30
0.0
 40
0.51181
  0
CIRCLE
  5
6EDF
330
18
100
AcDbEntity
  8
\U+9762\U+76C6
100
AcDbCircle
 10
51.00815282052365
 20
54.06083201267307
 30
0.0
 40
0.51181
  0
CIRCLE
  5
6EE0
330
18
100
AcDbEntity
  8
\U+9762\U+76C6
100
AcDbCircle
 10
51.00815282052365
 20
51.54115201267306
 30
0.0
 40
0.51181
  0
CIRCLE
  5
6EE1
330
18
100
AcDbEntity
  8
\U+9762\U+76C6
100
AcDbCircle
 10
51.00815282052365
 20
52.80099201267306
 30
0.0
 40
0.51181
  0
CIRCLE
  5
6EE2
330
18
100
AcDbEntity
  8
\U+9762\U+76C6
100
AcDbCircle
 10
52.07114282052365
 20
49.65139201267306
 30
0.0
 40
0.51181
  0
CIRCLE
  5
6EE3
330
18
100
AcDbEntity
  8
\U+9762\U+76C6
100
AcDbCircle
 10
52.07114282052365
 20
48.39155201267306
 30
0.0
 40
0.51181
  0
CIRCLE
  5
6EE4
330
18
100
AcDbEntity
  8
\U+9762\U+76C6
100
AcDbCircle
 10
52.07114282052365
 20
50.91123201267307
 30
0.0
 40
0.51181
  0
CIRCLE
  5
6EE5
330
18
100
AcDbEntity
  8
\U+9762\U+76C6
100
AcDbCircle
 10
52.07114282052365
 20
52.17107201267307
 30
0.0
 40
0.51181
  0
CIRCLE
  5
6EE6
330
18
100
AcDbEntity
  8
\U+9762\U+76C6
100
AcDbCircle
 10
52.07114282052365
 20
53.43091201267307
 30
0.0
 40
0.51181
  0
ARC
  5
6EE7
330
18
100
AcDbEntity
  8
\U+9762\U+76C6
100
AcDbCircle
 10
61.12624282052364
 20
51.54115201267306
 30
0.0
 40
3.1496
100
AcDbArc
 50
206.3680021705431
 51
224.0671837658323
  0
CIRCLE
  5
6EE8
330
18
100
AcDbEntity
  8
\U+9762\U+76C6
100
AcDbCircle
 10
57.38609282052364
 20
50.28131201267306
 30
0.0
 40
0.51181
  0
ARC
  5
6EE9
330
18
100
AcDbEntity
  8
\U+9762\U+76C6
100
AcDbCircle
 10
58.44908282052364
 20
49.65139201267306
 30
0.0
 40
0.51181
100
AcDbArc
 50
106.4292028061719
 51
324.0059831301682
  0
ARC
  5
6EEA
330
18
100
AcDbEntity
  8
\U+9762\U+76C6
100
AcDbCircle
 10
61.12624282052364
 20
51.54115201267306
 30
0.0
 40
3.1496
100
AcDbArc
 50
228.2556211785964
 51
246.455098551557
  0
ARC
  5
6EEB
330
18
100
AcDbEntity
  8
\U+9762\U+76C6
100
AcDbCircle
 10
59.51207282052365
 20
49.02147201267307
 30
0.0
 40
0.51181
100
AcDbArc
 50
160.6369598978668
 51
314.0737598323121
  0
CIRCLE
  5
6EEC
330
18
100
AcDbEntity
  8
\U+9762\U+76C6
100
AcDbCircle
 10
57.38609282052364
 20
49.02147201267307
 30
0.0
 40
0.51181
  0
CIRCLE
  5
6EED
330
18
100
AcDbEntity
  8
\U+9762\U+76C6
100
AcDbCircle
 10
58.44908282052364
 20
48.39155201267306
 30
0.0
 40
0.51181
  0
ARC
  5
6EEE
330
18
100
AcDbEntity
  8
\U+9762\U+76C6
100
AcDbCircle
 10
61.12624282052364
 20
51.54115201267306
 30
0.0
 40
3.1496
100
AcDbArc
 50
113.544901448443
 51
131.7443788214383
  0
ARC
  5
6EEF
330
18
100
AcDbEntity
  8
\U+9762\U+76C6
100
AcDbCircle
 10
61.12624282052364
 20
51.54115201267306
 30
0.0
 40
3.1496
100
AcDbArc
 50
187.0053004702445
 51
199.4757393601522
  0
ARC
  5
6EF0
330
18
100
AcDbEntity
  8
\U+9762\U+76C6
100
AcDbCircle
 10
61.12624282052364
 20
51.54115201267306
 30
0.0
 40
3.1496
100
AcDbArc
 50
160.5242606398477
 51
172.9946995297555
  0
ARC
  5
6EF1
330
18
100
AcDbEntity
  8
\U+9762\U+76C6
100
AcDbCircle
 10
61.12624282052364
 20
51.54115201267306
 30
0.0
 40
3.1496
100
AcDbArc
 50
135.9328162341677
 51
153.6319978294568
  0
ARC
  5
6EF2
330
18
100
AcDbEntity
  8
\U+9762\U+76C6
100
AcDbCircle
 10
58.44908282052364
 20
50.91123201267307
 30
0.0
 40
0.51181
100
AcDbArc
 50
151.2989879527805
 51
235.1820518775868
  0
ARC
  5
6EF3
330
18
100
AcDbEntity
  8
\U+9762\U+76C6
100
AcDbCircle
 10
58.44908282052364
 20
52.17107201267307
 30
0.0
 40
0.51181
100
AcDbArc
 50
124.8179481224132
 51
208.7010120472195
  0
CIRCLE
  5
6EF4
330
18
100
AcDbEntity
  8
\U+9762\U+76C6
100
AcDbCircle
 10
57.38609282052364
 20
54.06083201267307
 30
0.0
 40
0.51181
  0
CIRCLE
  5
6EF5
330
18
100
AcDbEntity
  8
\U+9762\U+76C6
100
AcDbCircle
 10
57.38609282052364
 20
51.54115201267306
 30
0.0
 40
0.51181
  0
CIRCLE
  5
6EF6
330
18
100
AcDbEntity
  8
\U+9762\U+76C6
100
AcDbCircle
 10
57.38609282052364
 20
52.80099201267306
 30
0.0
 40
0.51181
  0
ARC
  5
6EF7
330
18
100
AcDbEntity
  8
\U+9762\U+76C6
100
AcDbCircle
 10
58.44908282052364
 20
53.43091201267307
 30
0.0
 40
0.51181
100
AcDbArc
 50
35.99401686983178
 51
253.5707971938281
  0
CIRCLE
  5
6EF8
330
18
100
AcDbEntity
  8
\U+9762\U+76C6
100
AcDbCircle
 10
56.32310282052364
 20
55.95059201267306
 30
0.0
 40
0.51181
  0
CIRCLE
  5
6EF9
330
18
100
AcDbEntity
  8
\U+9762\U+76C6
100
AcDbCircle
 10
56.32310282052364
 20
57.21043201267306
 30
0.0
 40
0.51181
  0
CIRCLE
  5
6EFA
330
18
100
AcDbEntity
  8
\U+9762\U+76C6
100
AcDbCircle
 10
55.26011282052365
 20
57.84035201267307
 30
0.0
 40
0.51181
  0
CIRCLE
  5
6EFB
330
18
100
AcDbEntity
  8
\U+9762\U+76C6
100
AcDbCircle
 10
53.13413282052365
 20
57.84035201267307
 30
0.0
 40
0.51181
  0
CIRCLE
  5
6EFC
330
18
100
AcDbEntity
  8
\U+9762\U+76C6
100
AcDbCircle
 10
51.00815282052365
 20
57.84035201267307
 30
0.0
 40
0.51181
  0
CIRCLE
  5
6EFD
330
18
100
AcDbEntity
  8
\U+9762\U+76C6
100
AcDbCircle
 10
55.26011282052365
 20
55.32067201267306
 30
0.0
 40
0.51181
  0
CIRCLE
  5
6EFE
330
18
100
AcDbEntity
  8
\U+9762\U+76C6
100
AcDbCircle
 10
53.13413282052365
 20
55.32067201267306
 30
0.0
 40
0.51181
  0
CIRCLE
  5
6EFF
330
18
100
AcDbEntity
  8
\U+9762\U+76C6
100
AcDbCircle
 10
54.19712282052365
 20
55.95059201267306
 30
0.0
 40
0.51181
  0
CIRCLE
  5
6F00
330
18
100
AcDbEntity
  8
\U+9762\U+76C6
100
AcDbCircle
 10
51.00815282052365
 20
55.32067201267306
 30
0.0
 40
0.51181
  0
CIRCLE
  5
6F01
330
18
100
AcDbEntity
  8
\U+9762\U+76C6
100
AcDbCircle
 10
52.07114282052365
 20
55.95059201267306
 30
0.0
 40
0.51181
  0
CIRCLE
  5
6F02
330
18
100
AcDbEntity
  8
\U+9762\U+76C6
100
AcDbCircle
 10
54.19712282052365
 20
57.21043201267306
 30
0.0
 40
0.51181
  0
CIRCLE
  5
6F03
330
18
100
AcDbEntity
  8
\U+9762\U+76C6
100
AcDbCircle
 10
52.07114282052365
 20
57.21043201267306
 30
0.0
 40
0.51181
  0
CIRCLE
  5
6F04
330
18
100
AcDbEntity
  8
\U+9762\U+76C6
100
AcDbCircle
 10
55.26011282052365
 20
56.58051201267307
 30
0.0
 40
0.51181
  0
CIRCLE
  5
6F05
330
18
100
AcDbEntity
  8
\U+9762\U+76C6
100
AcDbCircle
 10
51.00815282052365
 20
56.58051201267307
 30
0.0
 40
0.51181
  0
CIRCLE
  5
6F06
330
18
100
AcDbEntity
  8
\U+9762\U+76C6
100
AcDbCircle
 10
53.13413282052365
 20
56.58051201267307
 30
0.0
 40
0.51181
  0
CIRCLE
  5
6F07
330
18
100
AcDbEntity
  8
\U+9762\U+76C6
100
AcDbCircle
 10
59.51207282052365
 20
57.84035201267307
 30
0.0
 40
0.51181
  0
CIRCLE
  5
6F08
330
18
100
AcDbEntity
  8
\U+9762\U+76C6
100
AcDbCircle
 10
57.38609282052364
 20
57.84035201267307
 30
0.0
 40
0.51181
  0
CIRCLE
  5
6F09
330
18
100
AcDbEntity
  8
\U+9762\U+76C6
100
AcDbCircle
 10
59.51207282052365
 20
55.32067201267306
 30
0.0
 40
0.51181
  0
CIRCLE
  5
6F0A
330
18
100
AcDbEntity
  8
\U+9762\U+76C6
100
AcDbCircle
 10
57.38609282052364
 20
55.32067201267306
 30
0.0
 40
0.51181
  0
CIRCLE
  5
6F0B
330
18
100
AcDbEntity
  8
\U+9762\U+76C6
100
AcDbCircle
 10
58.44908282052364
 20
55.95059201267306
 30
0.0
 40
0.51181
  0
CIRCLE
  5
6F0C
330
18
100
AcDbEntity
  8
\U+9762\U+76C6
100
AcDbCircle
 10
58.44908282052364
 20
57.21043201267306
 30
0.0
 40
0.51181
  0
CIRCLE
  5
6F0D
330
18
100
AcDbEntity
  8
\U+9762\U+76C6
100
AcDbCircle
 10
59.51207282052365
 20
56.58051201267307
 30
0.0
 40
0.51181
  0
CIRCLE
  5
6F0E
330
18
100
AcDbEntity
  8
\U+9762\U+76C6
100
AcDbCircle
 10
57.38609282052364
 20
56.58051201267307
 30
0.0
 40
0.51181
  0
ARC
  5
6F0F
330
18
100
AcDbEntity
  8
\U+9762\U+76C6
100
AcDbCircle
 10
60.57506282052365
 20
54.69075201267306
 30
0.0
 40
0.51181
100
AcDbArc
 50
359.9724527921913
 51
199.8800382211036
  0
ARC
  5
6F10
330
18
100
AcDbEntity
  8
\U+9762\U+76C6
100
AcDbCircle
 10
61.12624282052364
 20
51.54115201267306
 30
0.0
 40
3.1496
100
AcDbArc
 50
90.71621697239665
 51
109.1362740409643
  0
CIRCLE
  5
6F11
330
18
100
AcDbEntity
  8
\U+9762\U+76C6
100
AcDbCircle
 10
61.63805282052365
 20
55.32067201267306
 30
0.0
 40
0.51181
  0
CIRCLE
  5
6F12
330
18
100
AcDbEntity
  8
\U+9762\U+76C6
100
AcDbCircle
 10
60.57506282052365
 20
55.95059201267306
 30
0.0
 40
0.51181
  0
CIRCLE
  5
6F13
330
18
100
AcDbEntity
  8
\U+9762\U+76C6
100
AcDbCircle
 10
60.57506282052365
 20
57.21043201267306
 30
0.0
 40
0.51181
  0
CIRCLE
  5
6F14
330
18
100
AcDbEntity
  8
\U+9762\U+76C6
100
AcDbCircle
 10
61.63805282052365
 20
56.58051201267307
 30
0.0
 40
0.51181
  0
CIRCLE
  5
6F15
330
18
100
AcDbEntity
  8
\U+9762\U+76C6
100
AcDbCircle
 10
61.63805282052365
 20
47.76163201267307
 30
0.0
 40
0.51181
  0
CIRCLE
  5
6F16
330
18
100
AcDbEntity
  8
\U+9762\U+76C6
100
AcDbCircle
 10
60.57506282052365
 20
47.13171201267306
 30
0.0
 40
0.51181
  0
CIRCLE
  5
6F17
330
18
100
AcDbEntity
  8
\U+9762\U+76C6
100
AcDbCircle
 10
60.57506282052365
 20
45.87187201267306
 30
0.0
 40
0.51181
  0
CIRCLE
  5
6F18
330
18
100
AcDbEntity
  8
\U+9762\U+76C6
100
AcDbCircle
 10
61.63805282052365
 20
46.50179201267306
 30
0.0
 40
0.51181
  0
ARC
  5
6F19
330
18
100
AcDbEntity
  8
\U+9762\U+76C6
100
AcDbCircle
 10
61.12624282052364
 20
51.54115201267306
 30
0.0
 40
3.1496
100
AcDbArc
 50
250.8637259590357
 51
269.2837830276034
  0
ARC
  5
6F1A
330
18
100
AcDbEntity
  8
\U+9762\U+76C6
100
AcDbCircle
 10
60.57506282052365
 20
48.39155201267306
 30
0.0
 40
0.51181
100
AcDbArc
 50
160.1199617788964
 51
0.0275472078086726
  0
INSERT
  5
BE1B
330
18
100
AcDbEntity
  8
0
  6
ByBlock
 48
0.1
100
AcDbBlockReference
  2
ASQW
 10
-430.8067297617656
 20
-201.8271698695428
 30
0.0
 41
0.03937
 42
0.03937
 43
0.03937
  0
VIEWPORT
  5
BEA9
102
{ACAD_XDICTIONARY
360
BEED
102
}
330
BE4D
100
AcDbEntity
 67
     1
  8
0
  6
ByBlock
100
AcDbViewport
 10
5.40143623755927
 20
4.368511094870539
 30
0.0
 40
11.77121136369426
 41
7.147165909126062
 68
     1
 69
     1
 12
5.40143623755927
 22
4.368511094870539
 13
0.0
 23
0.0
 14
0.5
 24
0.5
 15
0.5
 25
0.5
 16
0.0
 26
0.0
 36
1.0
 17
0.0
 27
0.0
 37
0.0
 42
50.0
 43
0.0
 44
0.0
 45
7.147165909126062
 50
0.0
 51
0.0
 72
   100
 90
   557088
  1

281
     0
 71
     1
 74
     0
110
0.0
120
0.0
130
0.0
111
1.0
121
0.0
131
0.0
112
0.0
122
1.0
132
0.0
 79
     0
146
0.0
  0
VIEWPORT
  5
BEAB
102
{ACAD_XDICTIONARY
360
BEEF
102
}
330
BE4D
100
AcDbEntity
 67
     1
  8
\U+6807\U+6CE8
  6
ByBlock
100
AcDbViewport
 10
5.375000121086602
 20
4.124999820716737
 30
0.0
 40
8.600000193738562
 41
6.599999713146781
 68
     2
 69
     2
 12
60.27891509062119
 22
36.81452795175586
 13
0.0
 23
0.0
 14
10.0
 24
10.0
 15
10.0
 25
10.0
 16
0.0
 26
0.0
 36
1.0
 17
0.0
 27
0.0
 37
0.0
 42
50.0
 43
0.0
 44
0.0
 45
82.30920174050327
 50
0.0
 51
0.0
 72
   100
 90
   819232
  1

281
     0
 71
     1
 74
     0
110
0.0
120
0.0
130
0.0
111
1.0
121
0.0
131
0.0
112
0.0
122
1.0
132
0.0
 79
     0
146
0.0
  0
MTEXT
  5
BEAD
330
BE4D
100
AcDbEntity
 67
     1
  8
\U+6807\U+6CE8
  6
ByBlock
 62
     7
100
AcDbMText
 10
7.913692729291305
 20
7.864335809865135
 30
0.0
 40
0.15
 41
251.478558038933
 71
     1
 72
     1
  1
AD-00161, FBY1525RP, V.01
  7
\U+68071
 73
     1
 44
1.0
1001
ACAD
1000
MTEXTBEGIN
1070
    73
1070
     1
1070
    44
1040
1.0
1070
    74
1070
     0
1000
MTEXTEND
  0
ENDSEC
  0
SECTION
  2
OBJECTS
  0
DICTIONARY
  5
C
330
0
100
AcDbDictionary
281
     1
  3
ACAD_COLOR
350
9960
  3
ACAD_GROUP
350
D
  3
ACAD_LAYOUT
350
9961
  3
ACAD_MATERIAL
350
995F
  3
ACAD_MLINESTYLE
350
1B
  3
ACAD_PLOTSETTINGS
350
9962
  3
ACAD_PLOTSTYLENAME
350
995D
  3
ACAD_TABLESTYLE
350
BE3F
  3
ACAD_VISUALSTYLE
350
BE2E
  3
ACDBVARIABLEDICTIONARY
350
D7
  3
DWGPROPS
350
BEE1
  0
DICTIONARY
  5
BE65
330
8
100
AcDbDictionary
280
     1
281
     1
  0
DICTIONARY
  5
9B33
330
2
100
AcDbDictionary
280
     1
281
     1
  3
ACAD_LAYERSTATES
360
9B34
  0
DICTIONARY
  5
BEED
330
BEA9
100
AcDbDictionary
280
     1
281
     1
  3
ACAD_XREC_ROUNDTRIP
360
BEEE
  0
DICTIONARY
  5
BEEF
330
BEAB
100
AcDbDictionary
280
     1
281
     1
  3
ACAD_XREC_ROUNDTRIP
360
BEF0
  0
DICTIONARY
  5
9960
102
{ACAD_REACTORS
330
C
102
}
330
C
100
AcDbDictionary
281
     1
  0
DICTIONARY
  5
D
102
{ACAD_REACTORS
330
C
102
}
330
C
100
AcDbDictionary
281
     1
  0
DICTIONARY
  5
9961
102
{ACAD_REACTORS
330
C
102
}
330
C
100
AcDbDictionary
281
     1
  3
Layout1
350
BE4E
  3
Model
350
9963
1001
AcadStringInfo
1000
MIFCodePage
1070
     5
  0
DICTIONARY
  5
995F
102
{ACAD_REACTORS
330
C
102
}
330
C
100
AcDbDictionary
281
     1
  3
ByBlock
350
BE2C
  3
ByLayer
350
BE2B
  3
Global
350
BE2D
  0
DICTIONARY
  5
1B
102
{ACAD_REACTORS
330
C
102
}
330
C
100
AcDbDictionary
281
     1
  3
STANDARD
350
1C
  0
DICTIONARY
  5
9962
102
{ACAD_REACTORS
330
C
102
}
330
C
100
AcDbDictionary
281
     1
  0
ACDBDICTIONARYWDFLT
  5
995D
102
{ACAD_REACTORS
330
C
102
}
330
C
100
AcDbDictionary
281
     1
  3
Normal
350
995E
100
AcDbDictionaryWithDefault
340
995E
  0
DICTIONARY
  5
BE3F
102
{ACAD_REACTORS
330
C
102
}
330
C
100
AcDbDictionary
281
     1
  3
Standard
350
BE40
  0
DICTIONARY
  5
BE2E
102
{ACAD_REACTORS
330
C
102
}
330
C
100
AcDbDictionary
281
     1
  3
2dWireframe
350
BE34
  3
3D Hidden
350
BE5D
  3
3dWireframe
350
BE5C
  3
Basic
350
BE33
  3
Brighten
350
BE3A
  3
ColorChange
350
BE3E
  3
Conceptual
350
BE5E
  3
Dim
350
BE39
  3
Facepattern
350
BE3D
  3
Flat
350
BE2F
  3
FlatWithEdges
350
BE30
  3
Gouraud
350
BE31
  3
GouraudWithEdges
350
BE32
  3
Linepattern
350
BE3C
  3
Realistic
350
BE5F
  3
Thicken
350
BE3B
  0
DICTIONARY
  5
D7
102
{ACAD_REACTORS
330
C
102
}
330
C
100
AcDbDictionary
281
     1
  3
CTABLESTYLE
350
BE52
  3
DIMASSOC
350
BED8
  3
INDEXCTL
350
BED7
  3
SORTENTS
350
D8
  0
XRECORD
  5
BEE1
102
{ACAD_REACTORS
330
C
102
}
330
C
100
AcDbXrecord
280
     1
  1
DWGPROPS COOKIE
  2

  3

  4

  6

  7

  8
nnguyen
  9

300
=
301
=
302
=
303
=
304
=
305
=
306
=
307
=
308
=
309
=
 40
1.309159768518518
 41
2451592.921998148
 42
2454922.43389801
  1

 90
        0
  0
DICTIONARY
  5
9B34
102
{ACAD_REACTORS
330
9B33
102
}
330
9B33
100
AcDbDictionary
281
     1
  0
XRECORD
  5
BEEE
102
{ACAD_REACTORS
330
BEED
102
}
330
BEED
100
AcDbXrecord
280
     1
102
SHADEPLOT
 70
     0
  0
XRECORD
  5
BEF0
102
{ACAD_REACTORS
330
BEEF
102
}
330
BEEF
100
AcDbXrecord
280
     1
102
SHADEPLOT
 70
     0
  0
LAYOUT
  5
BE4E
102
{ACAD_XDICTIONARY
360
BEBD
102
}
102
{ACAD_REACTORS
330
9961
102
}
330
9961
100
AcDbPlotSettings
  1

  2
Fax
  4
Letter
  6

 40
3.174999952316284
 41
3.174999952316284
 42
3.175003051757812
 43
3.17498779296875
 44
215.8999938964844
 45
279.3999938964844
 46
0.0
 47
0.0
 48
0.0
 49
0.0
140
0.0
141
0.0
142
1.0
143
1.0
 70
   688
 72
     0
 73
     1
 74
     5
  7
monochrome.ctb
 75
    16
147
1.0
148
0.0
149
0.0
100
AcDbLayout
  1
Layout1
 70
     1
 71
     1
 10
-0.1249995194082185
 20
-0.1249999981226884
 11
10.87500024029589
 21
8.37499976158142
 12
0.0
 22
0.0
 32
0.0
 14
1.074768547797084
 24
0.8247909505127708
 34
-0.0000000349181948
 15
9.728103927321456
 25
7.912231239228308
 35
0.0000000814935746
146
0.0
 13
0.0
 23
0.0
 33
0.0
 16
1.0
 26
0.0
 36
0.0
 17
0.0
 27
1.0
 37
0.0
 76
     0
330
BE4D
331
BEA9
1001
ACAD_PSEXT
1000
Fax
1000
Microsoft Shared Fax Driver
1000
SHRFAX:
1000

1070
     0
  0
LAYOUT
  5
9963
102
{ACAD_XDICTIONARY
360
BEE2
102
}
102
{ACAD_REACTORS
330
9961
102
}
330
9961
100
AcDbPlotSettings
  1

  2
Adobe PDF
  4
Letter
  6

 40
3.174999952316284
 41
3.174999952316284
 42
3.175003051757812
 43
3.17498779296875
 44
215.8999938964844
 45
279.3999938964844
 46
21.76623073641959
 47
0.0
 48
0.0
 49
0.0
140
0.0
141
0.0
142
1.0
143
9.921761017669888
 70
 11956
 72
     0
 73
     1
 74
     1
  7
monochrome.ctb
 75
     0
147
0.1007885594320481
148
-176.7335169212175
149
-111.6211530189275
100
AcDbLayout
  1
Model
 70
     1
 71
     0
 10
0.0
 20
0.0
 11
12.0
 21
9.0
 12
0.0
 22
0.0
 32
0.0
 14
0.0
 24
0.0
 34
0.0
 15
0.0
 25
0.0
 35
0.0
146
0.0
 13
0.0
 23
0.0
 33
0.0
 16
1.0
 26
0.0
 36
0.0
 17
0.0
 27
1.0
 37
0.0
 76
     0
330
18
331
BE29
1001
ACAD_PSEXT
1000
Adobe PDF
1000
Adobe PDF Converter
1000
My Documents
1000

1070
     0
  0
MATERIAL
  5
BE2C
102
{ACAD_XDICTIONARY
360
BEE6
102
}
102
{ACAD_REACTORS
330
995F
102
}
330
995F
100
AcDbMaterial
  1
ByBlock
  0
MATERIAL
  5
BE2B
102
{ACAD_XDICTIONARY
360
BEE4
102
}
102
{ACAD_REACTORS
330
995F
102
}
330
995F
100
AcDbMaterial
  1
ByLayer
  0
MATERIAL
  5
BE2D
102
{ACAD_XDICTIONARY
360
BEE8
102
}
102
{ACAD_REACTORS
330
995F
102
}
330
995F
100
AcDbMaterial
  1
Global
  0
MLINESTYLE
  5
1C
102
{ACAD_REACTORS
330
1B
102
}
330
1B
100
AcDbMlineStyle
  2
STANDARD
 70
     0
  3

 62
   256
 51
90.0
 52
90.0
 71
     2
 49
0.5
 62
   256
  6
BYLAYER
 49
-0.5
 62
   256
  6
BYLAYER
  0
ACDBPLACEHOLDER
  5
995E
102
{ACAD_REACTORS
330
995D
102
}
330
995D
  0
TABLESTYLE
  5
BE40
102
{ACAD_XDICTIONARY
360
BEEA
102
}
102
{ACAD_REACTORS
330
BE3F
102
}
330
BE3F
100
AcDbTableStyle
  3
Standard
 70
     0
 71
     0
 40
0.06
 41
0.06
280
     0
281
     0
  7
STANDARD
140
0.18
170
     2
 62
     0
 63
     7
283
     0
274
    -2
284
     1
 64
     0
275
    -2
285
     1
 65
     0
276
    -2
286
     1
 66
     0
277
    -2
287
     1
 67
     0
278
    -2
288
     1
 68
     0
279
    -2
289
     1
 69
     0
  7
STANDARD
140
0.25
170
     5
 62
     0
 63
     7
283
     0
274
    -2
284
     1
 64
     0
275
    -2
285
     1
 65
     0
276
    -2
286
     1
 66
     0
277
    -2
287
     1
 67
     0
278
    -2
288
     1
 68
     0
279
    -2
289
     1
 69
     0
  7
STANDARD
140
0.18
170
     5
 62
     0
 63
     7
283
     0
274
    -2
284
     1
 64
     0
275
    -2
285
     1
 65
     0
276
    -2
286
     1
 66
     0
277
    -2
287
     1
 67
     0
278
    -2
288
     1
 68
     0
279
    -2
289
     1
 69
     0
  0
VISUALSTYLE
  5
BE34
102
{ACAD_REACTORS
330
BE2E
102
}
330
BE2E
100
AcDbVisualStyle
  2
2dWireframe
 70
     4
 71
     0
 72
     2
 73
     0
 90
        0
 40
-0.6
 41
-30.0
 62
     5
 63
     7
 74
     1
 91
        4
 64
     7
 65
   257
 75
     1
175
     1
 42
1.0
 92
        0
 66
   257
 43
1.0
 76
     1
 77
     6
 78
     2
 67
     7
 79
     5
170
     0
171
     0
290
     0
174
     0
 93
        1
 44
0.0
173
     0
291
     0
 45
0.0
1001
ACAD
1000
AcDbSavedByObjectVersion
1070
     0
  0
VISUALSTYLE
  5
BE5D
102
{ACAD_REACTORS
330
BE2E
102
}
330
BE2E
100
AcDbVisualStyle
  2
3D Hidden
 70
     6
 71
     1
 72
     2
 73
     2
 90
        0
 40
-0.6
 41
-30.0
 62
     5
 63
     7
 74
     2
 91
        2
 64
     7
 65
   257
 75
     2
175
     1
 42
40.0
 92
        0
 66
   257
 43
1.0
 76
     1
 77
     6
 78
     2
 67
     7
 79
     3
170
     0
171
     0
290
     0
174
     0
 93
        1
 44
0.0
173
     0
291
     0
 45
0.0
1001
ACAD
1000
AcDbSavedByObjectVersion
1070
     0
  0
VISUALSTYLE
  5
BE5C
102
{ACAD_REACTORS
330
BE2E
102
}
330
BE2E
100
AcDbVisualStyle
  2
3dWireframe
 70
     5
 71
     0
 72
     2
 73
     0
 90
        0
 40
-0.6
 41
-30.0
 62
     5
 63
     7
 74
     1
 91
        4
 64
     7
 65
   257
 75
     1
175
     1
 42
1.0
 92
        0
 66
   257
 43
1.0
 76
     1
 77
     6
 78
     2
 67
     7
 79
     5
170
     0
171
     0
290
     0
174
     0
 93
        1
 44
0.0
173
     0
291
     0
 45
0.0
1001
ACAD
1000
AcDbSavedByObjectVersion
1070
     0
  0
VISUALSTYLE
  5
BE33
102
{ACAD_REACTORS
330
BE2E
102
}
330
BE2E
100
AcDbVisualStyle
  2
Basic
 70
     7
 71
     1
 72
     0
 73
     1
 90
        0
 40
-0.6
 41
-30.0
 62
     5
 63
     7
 74
     0
 91
        4
 64
     7
 65
   257
 75
     1
175
     1
 42
1.0
 92
        8
 66
     7
 43
1.0
 76
     1
 77
     6
 78
     2
 67
     7
 79
     5
170
     0
171
     0
290
     0
174
     0
 93
        1
 44
0.0
173
     0
291
     1
 45
0.0
1001
ACAD
1000
AcDbSavedByObjectVersion
1070
     0
  0
VISUALSTYLE
  5
BE3A
102
{ACAD_REACTORS
330
BE2E
102
}
330
BE2E
100
AcDbVisualStyle
  2
Brighten
 70
    12
 71
     2
 72
     2
 73
     0
 90
        0
 40
-0.6
 41
-30.0
 62
     5
 63
     7
 74
     1
 91
        4
 64
     7
 65
   257
 75
     1
175
     1
 42
1.0
 92
        8
 66
     7
 43
1.0
 76
     1
 77
     6
 78
     2
 67
     7
 79
     5
170
     0
171
     0
290
     0
174
     0
 93
        1
 44
50.0
173
     0
291
     1
 45
0.0
1001
ACAD
1000
AcDbSavedByObjectVersion
1070
     0
  0
VISUALSTYLE
  5
BE3E
102
{ACAD_REACTORS
330
BE2E
102
}
330
BE2E
100
AcDbVisualStyle
  2
ColorChange
 70
    16
 71
     2
 72
     2
 73
     3
 90
        0
 40
-0.6
 41
-30.0
 62
     5
 63
     8
 74
     1
 91
        4
 64
     7
 65
   257
 75
     1
175
     1
 42
1.0
 92
        8
 66
     8
 43
1.0
 76
     1
 77
     6
 78
     2
 67
     7
 79
     5
170
     0
171
     0
290
     0
174
     0
 93
        1
 44
0.0
173
     0
291
     1
 45
0.0
1001
ACAD
1000
AcDbSavedByObjectVersion
1070
     0
  0
VISUALSTYLE
  5
BE5E
102
{ACAD_REACTORS
330
BE2E
102
}
330
BE2E
100
AcDbVisualStyle
  2
Conceptual
 70
     9
 71
     3
 72
     2
 73
     0
 90
        0
 40
-0.6
 41
-30.0
 62
     5
 63
     7
 74
     2
 91
        2
 64
     7
 65
   257
 75
     1
175
     1
 42
40.0
 92
        8
 66
     7
 43
1.0
 76
     1
 77
     6
 78
     2
 67
     7
 79
     3
170
     0
171
     0
290
     0
174
     0
 93
        1
 44
0.0
173
     0
291
     0
 45
0.0
1001
ACAD
1000
AcDbSavedByObjectVersion
1070
     0
  0
VISUALSTYLE
  5
BE39
102
{ACAD_REACTORS
330
BE2E
102
}
330
BE2E
100
AcDbVisualStyle
  2
Dim
 70
    11
 71
     2
 72
     2
 73
     0
 90
        0
 40
-0.6
 41
-30.0
 62
     5
 63
     7
 74
     1
 91
        4
 64
     7
 65
   257
 75
     1
175
     1
 42
1.0
 92
        8
 66
     7
 43
1.0
 76
     1
 77
     6
 78
     2
 67
     7
 79
     5
170
     0
171
     0
290
     0
174
     0
 93
        1
 44
-50.0
173
     0
291
     1
 45
0.0
1001
ACAD
1000
AcDbSavedByObjectVersion
1070
     0
  0
VISUALSTYLE
  5
BE3D
102
{ACAD_REACTORS
330
BE2E
102
}
330
BE2E
100
AcDbVisualStyle
  2
Facepattern
 70
    15
 71
     2
 72
     2
 73
     0
 90
        0
 40
-0.6
 41
-30.0
 62
     5
 63
     7
 74
     1
 91
        4
 64
     7
 65
   257
 75
     1
175
     1
 42
1.0
 92
        8
 66
     7
 43
1.0
 76
     1
 77
     6
 78
     2
 67
     7
 79
     5
170
     0
171
     0
290
     0
174
     0
 93
        1
 44
0.0
173
     0
291
     1
 45
0.0
1001
ACAD
1000
AcDbSavedByObjectVersion
1070
     0
  0
VISUALSTYLE
  5
BE2F
102
{ACAD_REACTORS
330
BE2E
102
}
330
BE2E
100
AcDbVisualStyle
  2
Flat
 70
     0
 71
     2
 72
     1
 73
     1
 90
        2
 40
-0.6
 41
30.0
 62
     5
 63
     7
 74
     0
 91
        4
 64
     7
 65
   257
 75
     1
175
     1
 42
1.0
 92
        8
 66
     7
 43
1.0
 76
     1
 77
     6
 78
     2
 67
     7
 79
     5
170
     0
171
     0
290
     0
174
     0
 93
       13
 44
0.0
173
     0
291
     1
 45
0.0
1001
ACAD
1000
AcDbSavedByObjectVersion
1070
     0
  0
VISUALSTYLE
  5
BE30
102
{ACAD_REACTORS
330
BE2E
102
}
330
BE2E
100
AcDbVisualStyle
  2
FlatWithEdges
 70
     1
 71
     2
 72
     1
 73
     1
 90
        2
 40
-0.6
 41
30.0
 62
     5
 63
     7
 74
     1
 91
        4
 64
     7
 65
   257
 75
     1
175
     1
 42
1.0
 92
        0
 66
   257
 43
1.0
 76
     1
 77
     6
 78
     2
 67
     7
 79
     5
170
     0
171
     0
290
     0
174
     0
 93
       13
 44
0.0
173
     0
291
     1
 45
0.0
1001
ACAD
1000
AcDbSavedByObjectVersion
1070
     0
  0
VISUALSTYLE
  5
BE31
102
{ACAD_REACTORS
330
BE2E
102
}
330
BE2E
100
AcDbVisualStyle
  2
Gouraud
 70
     2
 71
     2
 72
     2
 73
     1
 90
        2
 40
-0.6
 41
30.0
 62
     5
 63
     7
 74
     0
 91
        4
 64
     7
 65
   257
 75
     1
175
     1
 42
1.0
 92
        0
 66
     7
 43
1.0
 76
     1
 77
     6
 78
     2
 67
     7
 79
     5
170
     0
171
     0
290
     0
174
     0
 93
       13
 44
0.0
173
     0
291
     1
 45
0.0
1001
ACAD
1000
AcDbSavedByObjectVersion
1070
     0
  0
VISUALSTYLE
  5
BE32
102
{ACAD_REACTORS
330
BE2E
102
}
330
BE2E
100
AcDbVisualStyle
  2
GouraudWithEdges
 70
     3
 71
     2
 72
     2
 73
     1
 90
        2
 40
-0.6
 41
30.0
 62
     5
 63
     7
 74
     1
 91
        4
 64
     7
 65
   257
 75
     1
175
     1
 42
1.0
 92
        0
 66
   257
 43
1.0
 76
     1
 77
     6
 78
     2
 67
     7
 79
     5
170
     0
171
     0
290
     0
174
     0
 93
       13
 44
0.0
173
     0
291
     1
 45
0.0
1001
ACAD
1000
AcDbSavedByObjectVersion
1070
     0
  0
VISUALSTYLE
  5
BE3C
102
{ACAD_REACTORS
330
BE2E
102
}
330
BE2E
100
AcDbVisualStyle
  2
Linepattern
 70
    14
 71
     2
 72
     2
 73
     0
 90
        0
 40
-0.6
 41
-30.0
 62
     5
 63
     7
 74
     1
 91
        4
 64
     7
 65
   257
 75
     7
175
     7
 42
1.0
 92
        8
 66
     7
 43
1.0
 76
     1
 77
     6
 78
     2
 67
     7
 79
     5
170
     0
171
     0
290
     0
174
     0
 93
        1
 44
0.0
173
     0
291
     1
 45
0.0
1001
ACAD
1000
AcDbSavedByObjectVersion
1070
     0
  0
VISUALSTYLE
  5
BE5F
102
{ACAD_REACTORS
330
BE2E
102
}
330
BE2E
100
AcDbVisualStyle
  2
Realistic
 70
     8
 71
     2
 72
     2
 73
     0
 90
        0
 40
-0.6
 41
-30.0
 62
     5
 63
     7
 74
     1
 91
        0
 64
     7
 65
   257
 75
     1
175
     1
 42
1.0
 92
        8
 66
     8
 43
1.0
 76
     1
 77
     6
 78
     2
 67
     7
 79
     5
170
     0
171
     0
290
     0
174
     0
 93
       13
 44
0.0
173
     0
291
     0
 45
0.0
1001
ACAD
1000
AcDbSavedByObjectVersion
1070
     0
  0
VISUALSTYLE
  5
BE3B
102
{ACAD_REACTORS
330
BE2E
102
}
330
BE2E
100
AcDbVisualStyle
  2
Thicken
 70
    13
 71
     2
 72
     2
 73
     0
 90
        0
 40
-0.6
 41
-30.0
 62
     5
 63
     7
 74
     1
 91
        4
 64
     7
 65
   257
 75
     1
175
     1
 42
1.0
 92
       12
 66
     7
 43
1.0
 76
     1
 77
     6
 78
     2
 67
     7
 79
     5
170
     0
171
     0
290
     0
174
     0
 93
        1
 44
0.0
173
     0
291
     1
 45
0.0
1001
ACAD
1000
AcDbSavedByObjectVersion
1070
     0
  0
DICTIONARYVAR
  5
BE52
102
{ACAD_REACTORS
330
D7
102
}
330
D7
100
DictionaryVariables
280
     0
  1
STANDARD
  0
DICTIONARYVAR
  5
BED8
102
{ACAD_REACTORS
330
D7
102
}
330
D7
100
DictionaryVariables
280
     0
  1
1
  0
DICTIONARYVAR
  5
BED7
102
{ACAD_REACTORS
330
D7
102
}
330
D7
100
DictionaryVariables
280
     0
  1
0
  0
DICTIONARYVAR
  5
D8
102
{ACAD_REACTORS
330
D7
102
}
330
D7
100
DictionaryVariables
280
     0
  1
96
  0
DICTIONARY
  5
BEBD
330
BE4E
100
AcDbDictionary
280
     1
281
     1
  3
ACAD_XREC_ROUNDTRIP
360
BEEC
  3
ADSK_XREC_LAYOUTTHUMBNAIL
360
BEBE
  0
DICTIONARY
  5
BEE2
330
9963
100
AcDbDictionary
280
     1
281
     1
  3
ACAD_XREC_ROUNDTRIP
360
BEE3
  0
DICTIONARY
  5
BEE6
330
BE2C
100
AcDbDictionary
280
     1
281
     1
  3
ACAD_XREC_ROUNDTRIP
360
BEE7
  0
DICTIONARY
  5
BEE4
330
BE2B
100
AcDbDictionary
280
     1
281
     1
  3
ACAD_XREC_ROUNDTRIP
360
BEE5
  0
DICTIONARY
  5
BEE8
330
BE2D
100
AcDbDictionary
280
     1
281
     1
  3
ACAD_XREC_ROUNDTRIP
360
BEE9
  0
DICTIONARY
  5
BEEA
330
BE40
100
AcDbDictionary
280
     1
281
     1
  3
ACAD_XREC_ROUNDTRIP
360
BEEB
  0
XRECORD
  5
BEEC
102
{ACAD_REACTORS
330
BEBD
102
}
330
BEBD
100
AcDbXrecord
280
     1
102
SHADEPLOT
 70
     0
102
SHADEPLOTRESLEVEL
 70
     2
102
SHADEPLOTCUSTOMDPI
 70
   300
  0
XRECORD
  5
BEBE
102
{ACAD_REACTORS
330
BEBD
102
}
330
BEBD
100
AcDbXrecord
280
     1
310
28000000B40000008B0000000100080000000000BC61000000000000000000000001000000000000FFFFFF0000000000FFFFFF000000000000000000000000000000000000000000000000000000000000000000330000006600000099000000CC000000FF00000000330000333300006633000099330000CC330000FF3300
310
0000660000336600006666000099660000CC660000FF66000000990000339900006699000099990000CC990000FF99000000CC000033CC000066CC000099CC0000CCCC0000FFCC000000FF000033FF000066FF000099FF0000CCFF0000FFFF000000003300330033006600330099003300CC003300FF003300003333003333
310
33006633330099333300CC333300FF33330000663300336633006666330099663300CC663300FF66330000993300339933006699330099993300CC993300FF99330000CC330033CC330066CC330099CC3300CCCC3300FFCC330000FF330033FF330066FF330099FF3300CCFF3300FFFF330000006600330066006600660099
310
006600CC006600FF00660000336600333366006633660099336600CC336600FF33660000666600336666006666660099666600CC666600FF66660000996600339966006699660099996600CC996600FF99660000CC660033CC660066CC660099CC6600CCCC6600FFCC660000FF660033FF660066FF660099FF6600CCFF6600
310
FFFF660000009900330099006600990099009900CC009900FF00990000339900333399006633990099339900CC339900FF33990000669900336699006666990099669900CC669900FF66990000999900339999006699990099999900CC999900FF99990000CC990033CC990066CC990099CC9900CCCC9900FFCC990000FF99
310
0033FF990066FF990099FF9900CCFF9900FFFF99000000CC003300CC006600CC009900CC00CC00CC00FF00CC000033CC003333CC006633CC009933CC00CC33CC00FF33CC000066CC003366CC006666CC009966CC00CC66CC00FF66CC000099CC003399CC006699CC009999CC00CC99CC00FF99CC0000CCCC0033CCCC0066CC
310
CC0099CCCC00CCCCCC00FFCCCC0000FFCC0033FFCC0066FFCC0099FFCC00CCFFCC00FFFFCC000000FF003300FF006600FF009900FF00CC00FF00FF00FF000033FF003333FF006633FF009933FF00CC33FF00FF33FF000066FF003366FF006666FF009966FF00CC66FF00FF66FF000099FF003399FF006699FF009999FF00CC
310
99FF00FF99FF0000CCFF0033CCFF0066CCFF0099CCFF00CCCCFF00FFCCFF0000FFFF0033FFFF0066FFFF0099FFFF00CCFFFF00FFFFFF00000000000D0D0D001A1A1A00282828003535350043434300505050005D5D5D006B6B6B00787878008686860093939300A1A1A100AEAEAE00BBBBBB00C9C9C900D6D6D600E4E4E400
310
F1F1F100FFFFFF0000000000000000000000000000000000000000000000000000000000000000000000000000000000E2E2E2E2E2E2E2E2E2E2E2E2E2E2E2E2E2E2E2E2E2E2E2E2E2E2E2E2E2E2E2E2E2E2E2E2E2E2E2E2E2E2E2E2E2E2E2E2E2E2E2E2E2E2E2E2E2E2E2E2E2E2E2E2E2E2E2E2E2E2E2E2E2E2E2E2E2E2E2
310
E2E2E2E2E2E2E2E2E2E2E2E2E2E2E2E2E2E2E2E2E2E2E2E2E2E2E2E2E2E2E2E2E2E2E2E2E2E2E2E2E2E2E2E2E2E2E2E2E2E2E2E2E2E2E2E2E2E2E2E2E2E2E2E2E2E2E2E2E2E2E2E2E2E2E2E2E2E2E2E2E2E2E2E2E2E2E2E2E2E2E2E2E2E2E2E2E2E2E2E2E2E2F5F5F5F5F5F5F5F5F5F5F5F5F5F5F5F5F5F5F5F5F5F5F5F5F5
310
F5F5F5F5F5F5F5F5F5F5F5F5F5F5F5F5F5F5F5F5F5F5F5F5F5F5F5F5F5F5F5F5F5F5F5F5F5F5F5F5F5F5F5F5F5F5F5F5F5F5F5F5F5F5F5F5F5F5F5F5F5F5F5F5F5F5F5F5F5F5F5F5F5F5F5F5F5F5F5F5F5F5F5F5F5F5F5F5F5F5F5F5F5F5F5F5F5F5F5F5F5F5F5F5F5F5F5F5F5F5F5F5F5F5F5F5F5F5F5F5F5F5F5F5F5F5F5
310
F5F5F5F5F5F5F5F5F5F5F5F5F5F5F5F5F5F5F5F5F5F5F5F5F5E2E2E2F5E2E2E2E2E2E2E2E2F5F5F5F5F5F5F5F5F5E2E2E2E2E2E2E2E2E2E2E2E2E2E2E2E2F5F5F5F5F5F5F5F5F5E2E2E2E2E2E2E2E2E2E2E2E2E2E2E2E2F5F5F5F5F5F5F5F5F5E2E2E2E2E2E2E2E2E2E2E2E2E2E2E2E2F5F5F5F5F5F5F5F5F5E2E2E2E2E2E2
310
E2E2E2E2E2E2E2E2E2E2F5F5F5F5F5F5F5F5F5E2E2E2E2E2E2E2E2E2E2E2E2E2E2E2E2F5F5F5F5F5F5F5F5F5E2E2E2E2E2E2E2E2E2E2E2E2E2E2E2E2F5F5F5F5F5F5F5F5F5E2E2E2E2E2E2E2E2F5E2E2E2F5E2F5F5F5F5F5F5F5F5F5F5F5F5F5F5F5F5F5F5F5F5F5F5F5F5F5F5F5F5F5F5F5F5F5F5F5F5F5F5F5F5F5F5F5F5
310
F5F5F5F5F5F5F5F5F5F5F5F5F5F5F5F5F5F5F5F5F5F5F5F5F5F5F5F5F5F5F5F5F5F5F5F5F5F5F5F5F5F5F5F5F5F5F5F5F5F5F5F5F5F5F5F5F5F5F5F5F5F5F5F5F5F5F5F5F5F5F5F5F5F5F5F5F5F5F5F5F5F5F5F5F5F5F5F5F5F5F5F5F5F5F5F5F5F5F5F5F5F5F5F5F5F5F5F5F5F5F5F5F5F5F5F5F5F5F5F5F5F5F5F5F5F5F5
310
F5F5E2F5E2E2E2F5E2F5F5F5F5F5F5F5F5F5F5F5F5F5F5F5F5F5F5F5F5F5F5F5F5F5F5F5F5F5F5F5F5F5F5F5F5F5F5F5F5F5F5F5F5F5F5F5F5F5F5F5F5F5F5F5F5F5F5F5F5F5F5F5F5F5F5F5F5F5F5F5F5F5F5F5F5F5F5F5F5F5F5F5F5F5F5F5F5F5F5F5F5F5F5F5F5F5F5F5F5F5F5F5F5F5F5F5F5F5F5F5F5F5F5F5F5F5F5
310
F5F5F5F5F5F5F5F5F5F5F5F5F5F5F5F5F5F5F5F5F5F5F5F5F5F5F5F5F5F5F5F5F5F5F5F5F5F5F5F5F5F5F5F5F5F5F5F5F5F5F5F5F5F5F5E2F5E2E2E2F5E2F5F5F5F5F5F5F5F5F5F5F5F5F5F5F5F5F5F5F5F5F5F5F5F5F5F5F5F5F5F5F5F5F5F5F5F5F5F5F5F5F5F5F5F5F5F5F5F5F5F5F5F5F5F5F5F5F5F5F5F5F5F5F5F5F5
310
F5F5F5F5F5F5F5F5F5F5F5F5F5F5F5F5F5F5F5F5F5F5F5F5F5F5F5F5F5F5F5F5F5F5F5F5F5F5F5F5F5F5F5F5F5F5F5F5F5F5F5F5F5F5F5F5F5F5F5F5F5F5F5F5F5F5F5F5F5F5F5F5F5F5F5F5F5F5F5F5F5F5F5F5F5F5F5F5F5F5F5F5F5F5F5F5F5F5F5F5F5F5F5F5F5F5F5F5E2F5E2E2E2F5E2F5F5F5F5F5F5F5F5F5F5F5F5
310
F5F5F5F5F5F5F5F5F5F5F5F5F5F5F5F5F5F5F5F5F5F5F5F5F5F5F5F5F5F5F5F5F5F5F5F5F5F5F5F5F5F5F5F5F5F5F5F5F5F5F5F5F5F5F5F5F5F5F5F5F5F5F5F5F5F5F5F5F5F5F5F5F5F5F5F5F5F5F5F5F5F5F5F5F5F5F5F5F5F5F5F5F5F5F5F5F5F5F5F5F5F5F5F5F5F5F5F5F5F5F5F5F5F5F5F5F5F5F5F5F5F5F5F5F5F5F5
310
F5F5F5F5F5F5F5F5F5F5F5F5F5F5F5F5F5F5F5F5F5F5F5F5F5F5F5F5F5F5F5F5F5F5E2F5E2E2E2F5E2F5F5F5F5F5F5F5F5F5F5F5F5F5F5F5F5F5F5F5F5F5F5F5F5F5F5F5F5F5F5F5F5F5F5F5F5F5F5F5F5F5F5F5F5F5F5F5F5F5F5F5F5F5F5F5F5F5F5F5F5F5F5F5F5F5F5F5F5F5F5F5F5F5F5F5F5F5F5F5F5F5F5F5F5F5F5
310
F5F5F5F5F5F5F5F5F5F5F5F5F5F5F5F5F5F5F5F5F5F5F5F5F5F5F5F5F5F5F5F5F5F5F5F5F5F5F5F5F5F5F5F5F5F5F5F5F5F5F5F5F5F5F5F5F5F5F5F5F5F5F5F5F5F5F5F5F5F5F5F5F5F5F5F5F5F5F5F5F5F5F5F5F5F5F5E2F5E2E2E2F5E2F5F5F5F5F5F5F5F5F5F5F5F5F5F5F5F5F5F5F5F5F5F5F5F5F5F5F5F5F5F5F5F5F5
310
F5F5F5F5F5F5F5F5F5F5F5F5F5F5F5F5F5F5F5F5F5F5F5F5F5F5F5F5F5F5F5F5F5F5F5F5F5F5F5F5F5F5F5F5F5F5F5F5F5F5F5F5F5F5F5F5F5F5F5F5F5F5F5F5F5F5F5F5F5F5F5F5F5F5F5F5F5F5F5F5F5F5F5F5F5F5F5F5F5F5F5F5F5F5F5F5F5F5F5F5F5F5F5F5F5F5F5F5F5F5F5F5F5F5F5F5F5F5F5F5F5F5F5F5F5F5F5
310
F5F5F5F5F5F5F5F5F5F5F5F5F5E2F5E2E2E2F5E2F5F5F5F5F5F5F5F5F5F5F5F5F5F5F5F5F5F5F5F5F5F5F5F5F5F5F5F5F5F5F5F5F5F5F5F5F5F5F5F5F5F5F5F5F5F5F5F5F5F5F5F5F5F5F5F5F5F5F5F5F5F5F5F5F5F5F5F5F5F5F5F5F5F5F5F5F5F5F5F5F5F5F5F5F5F5F5F5F5F5F5F5F5F5F5F5F5F5F5F5F5F5F5F5F5F5F5
310
F5F5F5F5F5F5F5F5F5F5F5F5F5F5F5F5F5F5F5F5F5F5F5F5F5F5F5F5F5F5F5F5F5F5F5F5F5F5F5F5F5F5F5F5F5F5F5F5F5F5F5F5F5F5F5F5F5F5F5F5F5F5F5F5F5F5E2F5E2E2E2F5E2F5F5F5F5F5F5F5F5F5F5F5F5F5F5F5F5F5F5F5F5F5F5F5F5F5F5F5F5F5F5F5F5F5F5F5F5F5F5F5F5F5F5F5F5F5F5F5F5F5F5F5F5F5F5
310
F5F5F5F5F5F5F5F5F5F5F5F5F5F5F5F5F5F5F5F5F5F5F5F5F5F5F5F5F5F5F5F5F5F5F5F5F5F5F5F5F5F5F5F5F5F5F5F5F5F5F5F5F5F5F5F5F5F5F5F5F5F5F5F5F5F5F5F5F5F5F5F5F5F5F5F5F5F5F5F5F5F5F5F5F5F5F5F5F5F5F5F5F5F5F5F5F5F5F5F5F5F5F5F5F5F5F5F5F5F5F5F5F5F5F5F5F5F5F5E2F5E2E2E2F5F5F5
310
F5F5F5F5F5F5F5F5F5F5F5F5F5F5F5F5F5F5F5F5F5F5F5F5F5F5F5F5F5F5F5F5F5F5F5F5F5F5F5F5F5F5F5F5F5F5F5F5F5F5F5F5F5F5F5F5F5F5F5F5F5F5F5F5F5F5F5F5F5F5F5F5F5F5F5F5F5F5F5F5F5F5F5F5F5F5F5F5F5F5F5F5F5F5F5F5F5F5F5F5F5F5F5F5F5F5F5F5F5F5F5F5F5F5F5F5F5F5F5F5F5F5F5F5F5F5F5
310
F5F5F5F5F5F5F5F5F5F5F5F5F5F5F5F5F5F5F5F5F5F5F5F5F5F5F5F5F5F5F5F5F5F5F5F5F5F5F5F5F5F5F5F5F5F5F5E2E2E2F5F5F5F5F5F5F5F5F5F5F5F5F5F5F5F5F5F5F5F5F5F5F5F5F5F5F5F5F5F5F5F5F5F5F5F5F5F5F5F5F5F5F5F5F5F5F5F5F5F5F5F5F5F5F5F5F5F5F5F5F5F5F5F5F5F5F5F5F5F5F5F5F5F5F5F5F5
310
F5F5F5F5F5F5F5F5F5F5F5F5F5F5F5F5F5F5F5F5F5F5F5F5F5F5F5F5F5F5F5F5F5F5F5F5F5F5F5F5F5F5F5F5F5F5F5F5F5F5F5F5F5F5F5F5F5F5F5F5F5F5F5F5F5F5F5F5F5F5F5F5F5F5F5F5F5F5F5F5F5F5F5F5F5F5F5F5F5F5F5F5F5F5F5F5F5F5F5F5E2E2E2F5F5F5F5F5F5F5F5F5F5F5F5F5F5F5F5F5F5F5F5F5F5F5F5
310
F5F5F5F5F5F5F5F5F5F5F5F5F5F5F5F5F5F5F5F5F5F5F5F5F5F5F5F5F5F5F5F5F5F5F5F5F5F5F5F5F5F5F5F5F5F5F5F5F5F5F5F5F5F5F5F5F5F5F5F5F5F5F5F5F5F5F5F5F5F5F5F5F5F5F5F5F5F5F5F5F5F5F5F5F5F5F5F5F5F5F5F5F5F5F5F5F5F5F5F5F5F5F5F5F5F5F5F5F5F5F5F5F5F5F5F5F5F5F5F5F5F5F5F5F5F5F5
310
F5F5F5F5F5F5F5F5F5F5F5F5F5F5F5F5F5F5F5F5F5F5F5F5F5F5E2E2E2F5F5F5F5F5F5F5F5F5F5F5F5F5F5F5F5F5F5F5F5F5F5F5F5F5F5F5F5F5F5F5F5F5F5F5F5F5F5F5F5F5F5F5F5F5F5F5F5F5F5F5F5F5F5F5F5F5F5F5F5F5F5F5F5F5F5F5F5F5F5F5F5F5F5F5F5F5F5F5F5F5F5F5F5F5F5F5F5F5F5F5F5F5F5F5F5F5F5
310
F5F5F5F5F5F5F5F5F5F5F5F5F5F5F5F5F5F5F5F5F5F5F5F5F5F5F5F5F5F5F5F5F5F5F5F5F5F5F5F5F5F5F5F5F5F5F5F5F5F5F5F5F5F5F5F5F5F5F5F5F5F5F5F5F5F5F5F5F5F5F5F5F5F5F5F5F5F5F5E2E2E2F5F5F5F5F5F5F5F5F5F5F5F5F5F5F5F5F5F5F5F5F5F5F5F5F5F5F5F5F5F5F5F5F5F5F5F5F5F5F5F5F5F5F5F5F5
310
F5F5F5F5F5F5F5F5F5F5F5F5F5F5F5F5F5F5F5F5F5F5F5F5F5F5F5F5F5F5F5F5F5F5F5F5F5F5F5F5F5F5F5F5F5F5F5F5F5F5F5F5F5F5F5F5F5F5F5F5F5F5F5F5F5F5F5F5F5F5F5F5F5F5F5F5F5F5F5F5F5F5F5F5F5F5F5F5F5F5F5F5F5F5F5F5F5F5F5F5F5F5F5F5F5F5F5F5F5F5F5F5F5F5F5F5F5F5F5F5F5F5F5F5F5F5F5
310
F5F5F5F5F5E2E2E2F5F5F5F5F5F5F5F5F5F5F5F5F5F5F5F5F5F5F59F9F9F9F9F9F9F9F9F9F9F9F9F9F9F9F9F9F9F9F9F9F9F9F9F9F9F9F9F9F9F9F9F9F9F9F9F9F9F9F9F9F9F9F9F9F9F9F9F9F9F9F9F9F9F9F9F9F9F9F9F9F9F9F9F9F9F9F9F9F9F9F9F9F9F9F9F9F9F9F9F9F9F9F9F9F9F9F9F9F9F9F9F9F9F9F9F9F9F9F
310
9F9F9F9F9F9F9F9F9F9F9F9F9F9F9F9F9F9F9F9F9F9F9F9F9F9F9F9F9F9F9F9F9F9F9F9F9F9F9FF5F5F5F5F5F5F5F5F5F5F5F5F5F5F5F5F5F5F5E2E2E2F5F5F5F5F5F5F5F5F5F5F5F5F5F5F5F5F5F5F59FF5F5F5F5F5F5F5F5F5F5F5F5F5F5F5F5F5F5F5F5F5F5F5F5F5F5F5F5F5F5F5F5F5F5F5F5F5F5F5F5F5F5F5F5F5F5
310
F5F5F5F5F5F5F5F5F5F5F5F5F5F5F5F5F5F5F5F5F5F5F5F5F5F5F5F5F5F5F5F5F5F5F5F5F5F5F5F5F5F5F5F5F5F5F5F5F5F5F5F5F5F5F5F5F5F5F5F5F5F5F5F5F5F5F5F5F5F5F5F5F5F5F5F5F5F5F5F5F5F5F5F5F5F5F5F5F5F5F59FF5F5F5F5F5F5F5F5F5F5F5F5F5F5F5F5F5F5F5E2E2E2F5F5F5F5F5F5F5F5F5F5F5F5F5
310
F5F5F5F5F5F59FF5F5F5F5F5F5F5F5F5F5F5F5F5F5F5F5F5F5F5F5F5F5F5F5F5F5F5F5F5F5F5F5F5F5F5F5F5F5F5F5F5F5F5F5F5F5F5F5F5F5F5F5F5F5F5F5F5F5F5F5F5F5F5F5F5F5F5F5F5F5F5F5F5F5F5F5F5F5F5F5F5F5F5F5F5F5F5F5F5F5F5F5F5F5F5F5F5F5F5F5F5F5F5F5F5F5F5F5F5F5F5F5F5F5F5F5F5F5F5F5
310
F5F5F5F5F5F5F5F5F5F5F5F5F5F5F5F5F59FF5F5F5F5F5F5F5F5F5F5F5F5F5F5F5F5F5F5F5E2E2E2F5F5F5F5F5F5F5F5F5F5F5F5F5F5F5F5F5F5F59FF5F5F5F5F5F5F5F5F5F5F5F5F5F5F5F5F5F5F5F5F5F5F5F5F5F5F5F5F5F5F5F5F5F5F5F5F5F5F5F5F5F5F5F5F5F5F5F5F5F5F5F5F5F5F5F5F5F5F5F5F5F5F5F5F5F5F5
310
F5F5F5F5F5F5F5F5F5F5F5F5F5F5F5F5F5F5F5F5F5F5F5F5F5F5F5F5F5F5F5F5F5F5F5F5F5F5F5F5F5F5F5F5F5F5F5F5F5F5F5F5F5F5F5F5F5F5F5F5F5F5F5F5F5F5F5F5F5F59FF5F5F5F5F5F5F5F5F5F5F5F5F5F5F5F5F5F5F5E2E2E2F5F5F5F5F5F5F5F5F5F5F5F5F5F5F5F5F5F5F59FF5F5F5F5F5F5F5F5F5F5F5F5F5F5
310
F5F5F5F5F5F5F5F5F5F5F5F5F5F5F5F5F5F5F5F5F5F5F5F5F5F5F5F5F5F5F5F5F5F5F5F5F5F5F5F5F5F5F5F5F5F5F5F5F5F5F5F5F5F5F5F5F5F5F5F5F5F5F5F5F5F5F5F5F5F5F5F5F5F5F5F5F5F5F5F5F5F5F5F5F5F5F5F5F5F5F5F5F5F5F5F5F5F5F5F5F5F5F5F5F5F5F5F5F5F5F5F5F5F5F5F5F5F5F5F5F5F5F59FF5F5F5
310
F5F5F5F5F5F5F5F5F5F5F5F5F5F5F5F5E2E2E2F5E2F5F5F5F5F5F5F5F5F5F5F5F5F5F5F5F5F59FF5F5F5F5F5F5F5F5F5F5F5F5F5F5F5F5F5F5F5F5F5F5F5F5F5F5F5F5F5F5F5F5F5F5F5F5F5F5F5F5F5F5F5F5F5F5F5F5F5F5F5F5F5F5F5F5F5F5F5F5F5F5F5F5F5F5F5F5F5F5F5F5F5F5F5F5F5F5F5F5F5F5F5F5F5F5F5F5
310
F5F5F5F5F5F5F5F5F5F5F5F5F5F5F5F5F5F5F5F5F5F5F5F5F5F5F5F5F5F5F5F5F5F5F5F5F5F5F5F5F5F5F5F5F5F5F5F5F59FF5F5F5F5F5F5F5F5F5F5F5F5F5F5F5F5F5E2F5E2E2E2F5E2F5F5F5F5F5F5F5F5F5F5F5F5F5F5F5F5F59FF5F5F5F5F5F5F5F5F5F5F5F5F5F5F5F5F5F5F5F5F5F5F5F5F5F5F5F5F5F5F5F5F5F5F5
310
F5F5F5F5F5F5F5F5F5F5F5F5F5F5F5F5F5F5F5F5F5F5F5F5F5F5F5F5F5F5F5F5F5F5F5F5F5F5F5F5F5F5F5F5F5F5F5F5F5F5F5F5F5F5F5F5F5F5F5F5F5F5F5F5F5F5F5F5F5F5F5F5F5F5F5F5F5F5F5F5F5F5F5F5F5F5F5F5F5F5F5F5F5F5F5F5F5F5F5F5F5F59FF5F5F5F5F5F5F5F5F5F5F5F5F5F5F5F5F5E2F5E2E2E2F5E2
310
F5F5F5F5F5F5F5F5F5F5F5F5F5F5F5F5F59FF5F5F5F5F5F5F5F5F5F5F5F5F5F5F5F5F5F5F5F5F5F5F5F5F5F5F5F5F5F5F5F5F5F5F5F5F5F5F5F5F5F5F5F5F5F5F5F5F5F5F5F5F5F5F5F5F5F5F5F5F5F5F5F5F5F5F5F5F5F5F5F5F5F5F5F5F5F5F5F5F5F5F5F5F5F5F5F5F5F5F5F5F5F5F5F5F5F5F5F5F5F5F5F5F5F5F5F5F5
310
F5F5F5F5F5F5F5F5F5F5F5F5F5F5F5F5F5F5F5F5F5F5F5F5F5F5F5F59FF5F5F5F5F5F5F5F5F5F5F5F5F5F5F5F5F5E2F5E2E2E2F5E2F5F5F5F5F5F5F5F5F5F5F5F5F5F5F5F5F59FF5F5F5F5F5F5F5F5F5F5F5F5F5F5F5F5F5F5F5F5F5F5F5F5F5F5F5F5F5F5F5F5F5F5F5F5F5F5F5F5F5F5F5F5F5F5F5F5F5F5F5F5F5F5F5F5
310
F5F5F5F5F5F5F5F5F5F5F5F5F5F5F5F5F5F5F5F5F5F5F5F5F5F5F5F5F5F5F5F5F5F5F5F5F5F5F5F5F5F5F5F5F5F5F5F5F5F5F5F5F5F5F5F5F5F5F5F5F5F5F5F5F5F5F5F5F5F5F5F5F5F5F5F5F5F5F5F5F59FF5F5F5F5F5F5F5F5F5F5F5F5F5F5F5F5F5E2F5E2E2E2F5E2F5F5F5F5F5F5F5F5F5F5F5F5F5F5F5F5F59FF5F5F5
310
F5F5F5F5F5F5F5F5F5F5F5F5F5F5F5F5F5F5F5F5F5F5F5F5F5F5F5F5F5F5F5F5F5F5F5F5F5F5F5F5F5F5F5F5F5F5F5F5F5F5F5F5F5F5F5F5F5F5F5F5F5F5F5F5F5F5F5F5F5F5F5F5F5F5F5F5F5F5F5F5F5F5F5F5F5F5F5F5F5F5F5F5F5F5F5F5F5F5F5F5F5F5F5F5F5F5F5F5F5F5F5F5F5F5F5F5F5F5F5F5F5F5F5F5F5F5F5
310
F5F5F5F5F5F5F59FF5F5F5F5F5F5F5F5F5F5F5F5F5F5F5F5F5E2F5E2E2E2F5E2F5F5F5F5F5F5F5F5F5F5F5F5F5F5F5F5F59FF5F5F5F5F5F5F5F5F5F5F5F5F5F5F5F5F5F5F5F5F5F5F5F5F5F5F5F5F5F5F5F5F5F5F5F5F5F5F5F5F5F5F5F5F5F5F5F5F5F5F5F5F5F5F5F5F5F5F5F5F5F5F5F5F5F5F5F5F5F5F5F5F5F5F5F5F5
310
F5F5F5F5F5F5F5F5F5F5F5F5F5F5F5F5F5F5F5F5F5F5F5F5F5F5F5F5F5F5F5F5F5F5F5F5F5F5F5F5F5F5F5F5F5F5F5F5F5F5F5F5F5F5F5F5F5F5F5F59FF5F5F5F5F5F5F5F5F5F5F5F5F5F5F5F5F5E2F5E2E2E2F5E2F5F5F5F5F5F5F5F5F5F5F5F5F5F5F5F5F59FF5F5F5F5F5F5F5F5F5F5F5F5F5F5F5F5F5F5F5F5F5F5F5F5
310
F5F5F5F5F5F5F5F5F5F5F5F5F5F5F5F5F5F5F5F5F5F5F5F5F5F5F5F5F5F5F5F5F5F5F5F5F5F5F5F5F5F5F5F5F5F5F5F5F5F5F5F5F5F5F59FF5F5F5F5F5F5F5F5F5F5F5F5F5F5F5F5F5F5F5F5F5F5F5F5F5F5F5F5F5F5F5F5F5F5F5F5F5F5F5F5F5F5F5F5F5F5F5F5F5F5F5F5F5F5F5F5F59FF5F5F5F5F5F5F5F5F5F5F5F5F5
310
F5F5F5F5E2F5E2E2E2F5E2F5F5F5F5F5F5F5F5F5F5F5F5F5F5F5F5F59FF5F5F5F5F5F5F5F5F5F5F5F5F5F5F5F5F5F5F5F5F5F5F5F5F5F5F5F5F5F5F5F5F5F5F5F5F5F5F5F5F5F5F5F5F5F5F5F5F5F5F5F5F5F5F5F5F5F5F5F5F5F5F5F5F5F5F5F5F5F5F5F5F5F5F5F5F5F5F59FF5F5F5F5F5F5F5F5F5F5F5F5F5F5F5F5F5F5
310
F5F5F5F5F5F5F5F5F5F5F5F5F5F5F5F5F5F5F5F5F5F5F5F5F5F5F5F5F5F5F5F5F5F5F5F5F5F5F59FF5F5F5F5F5F5F5F5F5F5F5F5F5F5F5F5F5E2F5E2E2E2F5E2F5F5F5F5F5F5F5F5F5F5F5F5F5F5F5F5F59FF5F5F5F5F5F5F5F5F5F5F5F5F5F5F5F5F5F5F5F5F5F5F5F5F5F5F5F5F5F5F5F5F5F5F5F5F5F5F5F5F5F5F5F5F5
310
F5F5F5F5F5F5F5F5F5F5F5F5F5F5F5F5F5F5F5F5F5F5F5F5F5F5F5F5F5F5F5F5F5F59FF5F5F5F5F5F5F5F5F5F5F5F5F5F5F5F5F5F5F5F5F5F5F5F5F5F5F5F5F5F5F5F5F5F5F5F5F5F5F5F5F5F5F5F5F5F5F5F5F5F5F5F5F5F5F5F5F59FF5F5F5F5F5F5F5F5F5F5F5F5F5F5F5F5F5E2F5E2E2E2F5E2F5F5F5F5F5F5F5F5F5F5
310
F5F5F5F5F5F5F59FF5F59FF5F5F5F5F5F5F5F5F5F5F5F5F5F5F5F5F5F5F5F5F5F5F5F5F5F5F5F5F5F5F5F5F5F5F5F5F5F5F5F5F5F5F5F5F5F5F5F5F5F5F5F5F5F5F5F5F5F5F5F59FF5F5F5F5F5F5F5F5F5F5F5F5F5F5F59FF5F5F5F5F5F5F5F5F5F5F5F5F5F5F5F5F5F5F5F5F5F5F5F5F5F5F5F5F5F5F5F5F5F5F5F5F5F5F5
310
F5F5F5F5F5F5F5F5F5F5F5F5F5F5F5F5F5F59FF5F5F5F5F5F5F5F5F5F5F5F5F5F5F5F5F5E2F5E2E2E2F5E2F5F5F5F5F5F5F5F5F5F5F5F5F5F5F5F5F59FF5F59FF5F5F5F5F5F5F5F5F5F5F5F5F5F5F5F5F5F5F5F5E2E2F5F5F5F5F5F5F5F5F5F5F5F5F5F5F5F5F5F5F5F5F5F5F5F5F5F5F5F5F5F5F5F5F5F5F5F5F5E2E2F5F5
310
F5F5F59FF5F5F5F5F5F5F5F5F59FF5F5F5F5F5F5F5F5F5F5F5F5F5F5F5F5F5F5F5F5F5F5F5F5E2E2E2F5F5F5F5F5F5F5F5F59FF5F5F5F5F5F5F5F5F5E2E2E2F5F5F5F5F5F5F5F59FF5F5F5F5F5F5F5F5F5F5F5F5F5F5F5F5F5E2F5E2E2E2F5E2F5F5F5F5F5F5F5F5F5F5F5F5F5F5F5F5F59FF5F5E2E2E2E2E2E2E2E2E2E2E2
310
E2E2E2E2E2E2E2E2E2E2E2E2E2E2E2E2E2E2E2E2E2E2E2E2E2E2E2E2E2E2E2E2E2E2E2E2E2E2E2E2E2E2E2E2E2E2E2E2E2E2E2E2E2E29F9F9F9F9FE2E2E2E2E2E2E2E2F5F5F5F5F5F5F5F5F5F5F5F5F5F5F5E2E2F5F5F5F5F5F5F5E2E2E2F5F5F5F5F5F5F5E2E29FE2E2F5F5F5F5F5F5F5E2E2E2F5F5F5F5F5F5F5F59FF5F5
310
F5F5F5F5F5F5F5F5F5F5F5F5F5F5F5E2F5E2E2E2F5E2F5F5F5F5F5F5F5F5F5F5F5F5F5F5F5F5F59FF5F59FF5F5F5F5F5F5F5F5F5F5F5F5F5F5F5F5F5F5F59F9F9FF5F5F5F5F5F5F5F59F9F9F9F9F9F9F9F9F9F9F9F9F9F9F9F9F9F9F9F9F9F9F9F9F9F9F9F9F9F9F9F9F9F9F9F9F9F9F9F9FF5F5F5F5F59FF5F5F5F5F5F5F5
310
F5F5F5F5F5F5F5F5E2E2F5F5F5F5F5F5F5E2E2E2E2E2E2E2E2E2E2E2E29FE2E2E2E2E2E2E2E2E2E2E2E2F5F5F5F5F5F5F5F59FF5F5F5F5F5F5F5F5F5F5F5F5F5F5F5F5F5E2F5E2E2E2F5E2F5F5F5F5F5F5F5F5F5F5F5F5F5F5F5F5F59FF5F59FF5F5F5F5F5F5F5F5F5F5F5F5F5F5F5F59F9F9F9F9F9F9F9F9F9F9F9F9F9F9F
310
9F9F9F9F9F9F9F9F9F9F9F9F9FF5F5F5F5F5F5F5F5F5F5F5F5F5F5F5F59FF5F5F5F5F59FF5F5F59F9FF5F5F5F59FF5F5F5F5F5F5F5F5F5F5F5F5F5F5F5E2E2F5F5F5F5F5F5E2E2E2E2F5F5F5F5F5F5F5F5F59FF5F5F5F5F5F5F5F5F5E2E2E2E2F5F5F5F5F5F5F59FF5F5F5F5F5F5F5F5F5F5F5F5F5F5F5F5F5E2F5E2E2E2F5
310
E2F5F5F5F5F5F5F5F5F5F5F5F5F5F5F5F5F59FF5F59FF5F5F5F5F5F5F5F5F5F5F5F5F5F5F59F9F9FF5F59FF5F5F5F5F5F5F5F5F5F5F5F5F5F5F5F5F5F5F5F5F5F5F5F5F5F5F5F5F5F5F5F5F5F5F5F5F5F5F5F5F5F5F5F5F59FF5F5F5F59F9FF5F5F59FF5F5F5F5F5F5F5F5F5F5F5F5F5F5F5E2E2F5F5F5F5F5E2F5F59FF5F5
310
F5F5F5F5F5F5F5F59FF5F5F5F5F5F5F5F5F5F5E2F5F5E2F5F5F5F5F5F59FF5F5F5F5F5F5F5F5F5F5F5F5F5F5F5F5F5E2F5E2E2E2F5E2F5F5F5F5F5F5F5F5F5F5F5F5F5F5F5F5F59FF5F59FF5F5F5F5F5F5F5F5F5F5F5F5F5F59F9FF5F5F5F5F5F5F5F5F5F5F5F5F5F5F5F5F5F5F5F5F5F5F5F5F5F5F5F5F5F5F5F5F5F5F5F5
310
F5F5F5F5F5F5F5F5F5F5F5F5F5F59FF5F5F5F59F9FF5F5F59FF5F5F5F5F5F5F5F5F5F5F5F5F5F5F5E2E2F5F5F5F5F5E2F5F5E2F5F5F5F5F5F5F5F5F5F59FF5F5F5F5F5F5F5F5F5F5E2F5F5E2F5F5F5F5F5F59FF5F5F5F5F5F5F5F5F5F5F5F5F5F5F5F5F5E2F5E2E2E2F5E2F5F5F5F5F5F5F5F5F5F5F5F5F5F5F5F5F59FF5F5
310
9FF5F5F5F5F5F5F5F5F5F5F5F5F59F9FF5F5F5F5F5F5F5F5F5F5F5F5F5F5F5F5F5F5F5F5F5F5F5F5F5F5F5F5F5F5F5F5F5F5F5F5F5F5F5F5F5F5F5F5F5F5F5F5F5F5F59FF5F5F5F59F9FF5F5F59FF5F5F5F5F5F5F5F5F5F5F5F5F5F5F5E2E2F5F5F5F5F5E2F5F5E2F5F5F5F5F5F5F5F5F5F59FF5F5F5F5F5F5F5F5F5F5E2F5
310
F5E2F5F5F5F5F5F59FF5F5F5F5F5F5F5F5F5F5F5F5F5F5F5F5F5E2F5E2E2E2F5F5F5F5F5F5F5F5F5F5F5F5F5F5F5F5F5F5F59FF5F59FF5F5F5F5F5F5F5F5F5F5F5F5F59FE2E2E2E2E2E2E2E2E2E2E2E2E2E2E2E2E2E2E2E2E2E2E2E2E2E2E2E2E2E2E2E2E2E2E2E2E2E2E2E2E2E2E2E2E2E2E2E2E2E2F5F59FF5F5F5F59F9F
310
F5F5F59FF5F5F5F5F5F5F5F5F5F5F5F5F5F5F5E2E2F5F5F5F5F5E2F5F5E2F5F5F5F5F5F5F5F5F5F59FF5F5F5F5F5F5F5F5F5F5E2F5F5E2F5F5F5F5F5F59FF5F5F5F5F5F5F5F5F5F5F5F5F5F5F5F5F5F5F5E2E2E2F5F5F5F5F5F5F5F5F5F5F5F5F5F5F5F5F5F5F59FF5F59FF5F5F5F5F5F5F5F5F5F5F5E29F9FF5F5F5F5F5F5
310
F5F5F5F5F5F5F5F5F5F5F5F5F5F5F5F5F5F5F5F5F5F5F5F5F5F5F5F5F5F5F5F5F5F5F5F5F5F5F5F5F5F5F5F5E2F59FF5F5F5F5F59FF5F5F59FF5F5F5F5F5F5F5F5F5F5F5F5F5F5F5E2E2F5F5F5F5F5E2F5F5E2F5F5F5F5F5F5F5F5F5F59FF5F5F5F5F5F5F5F5F5F5E2F5F5E2F5F5F5F5F5F59FF5F5F5F5F5F5F5F5F5F5F5F5
310
F5F5F5F5F5F5F5E2E2E2F5F5F5F5F5F5F5F5F5F5F5F5F5F5F5F5F5F5F59FF5F59FF5F5F5F5F5F5F5F5F5F5E29F9FF5F5F5F5F5F5F5F5F5F5F5F5F5F5F5F5F5F5F5F5F5F5F5F5F5F5F5F5F5F5F5F5F5F5F5F5F5F5F5F5F5F5F5F5F5F5F5F5F5F5F5F5E29FF5F5F5F5F59FF5F5F59FF5F5F5F5F5F5F5F5F5F5F5F5F5F5F5E2E2
310
F5F5F5F5F5E2F5E2F5F5F5F5F5F5F5F5F5F5F59FF5F5F5F5F5F5F5F5F5F5F5E2F5E2F5F5F5F5F5F59FF5F5F5F5F5F5F5F5F5F5F5F5F5F5F5F5F5F5F5E2E2E2F5F5F5F5F5F5F5F5F5F5F5F5F5F5F5F5F5F5F59FF5F59FF5F5F5F5F5F5F5F5F5F5E29F9FF5F5F5F5F5F5F5F5F5F5F5F5F5F5F5F5F5F5F5F5F5F5F5F5F5F5F5F5
310
F5F5F5F5F5F5F5F5F5F5F5F5F5F5F5F5F5F5F5F5F5F5F5F5E29FF5F5F5F5F59FF5F5F59FF5F5F5F5F5F5F5F5F5F5F5F5F5F5F5E2E2E2F5F5F5F5E2F5E2F5F5F5F5F5F5F5F5F5F5F59FF5F5F5F5F5F5F5F5F5F5F5E2F5E2F5F5F5F5F5F59FF5F5F5F5F5F5F5F5F5F5F5F5F5F5F5F5F5F5F5E2E2E2F5F5F5F5F5F5F5F5F5F5F5
310
F5F5F5F5F5F5F5F59FF5F59FF5F5F5F5F5F5F5F5F5F59F9FF5F5F5F5F5F5F5F5F5F5F5F5F5F5F5F5F5F5F5F5F5F5F5F5F5F5F5F5F5F5F5F5F5F5F5F5F5F5F5F5F5F5F5F5F5F5F5F5F5F5F5F5F5E29FF5F5F5F5F59FF5F5F59FF5F5F5F5F5F5F5F5F5F5F5F5F5F5F5E2E2E2F5F5F5E2F5F5E2F5F5F5F5F5F5F5F5F5F5F59FF5
310
F5F5F5F5F5F5F5F5F5F5E2F5F5E2F5F5F5F5F59FF5F5F5F5F5F5F5F5F5F5F5F5F5F5F5F5F5F5F5E2E2E2F5F5F5F5F5F5F5F5F5F5F5F5F5F5F5F5F5F5F59FF5F59FF5F5F5F5F5F5F5F5F5F59FF5F5F5F5F5F5F5F5F5F5F5F5F5F5F5F5F5F5F5F5F5F5F5F5F5F5F5F5F5F5F5F5F5F5F5F5F5F5F5F5F5F5F5F5F5F5F5F5F5F5F5
310
F5F5F5E29FF5F5F5F5F59FF5F5F59FF5F5F5F5F5F5F5F5F5F5F5F5F5F5F5E2E2E2F5F5F5E2F5F5E2F5F5F5F5F5F5F5F5F5F5F59FF5F5F5F5F5F5F5F5F5F5F5E2F5F5E2F5F5F5F5F59FF5F5F5F5F5F5F5F5F5F5F5F5F5F5F5F5F5F5F5E2E2E2F5F5F5F5F5F5F5F5F5F5F5F5F5F5F5F5F5F5F59FF5F59FF5F5F5F5F5F5F5F5F5
310
9F9FF5F5F5F5F5F5F5F5F5F5F5F5F5F5F5F5F5F5F5F5F5F5F5F5F5F5F5F5F5F5F5F5F5F5F5F5F5F5F5F5F5F5F5F5F5F5F5F5F5F5F5F5F5F5E29FF5F5F5F5F59FF5F5F59FF5F5F5F5F5F5F5F5F5F5F5F5F5F5F5E2E2E2F5F5F5E2F5F5E2F5F5F5F5F5F5F5F5F5F5F59FF5F5F5F5F5F5F5F5F5F5F5E2F5F5E2F5F5F5F5F59FF5
310
F5F5F5F5F5F5F5F5F5F5F5F5F5F5F5F5F5F5E2E2E2F5F5F5F5F5F5F5F5F5F5F5F5F5F5F5F5F5F5F59FF5F59FF5F5F5F5F5F5F5F5F59FE2F5F5F5F5F5F5F5F5F5F5F5F5F5F5F5F5F5F5F5F5F5F5F5F5F5F5F5F5F5F5F5F5F5F5F5F5F5F5F5F5F5F5F5F5F5F5F5F5F5F5F5F5F5F5E29FF5F5F5F5F59FF5F5F59FF5F5F5F5F5F5
310
F5F5F5F5F5F5F5F5F5E2E2E2F5F5F5E2F5F5E2F5F5F5F5F5F5F5F5F5F5F59FF5F5F5F5F5F5F5F5F5F5F5E2F5F5E2F5F5F5F5F59FF5F5F5F5F5F5F5F5F5F5F5F5F5F5F5F5F5F5F5E2E2E2F5F5F5F5F5F5F5F5F5F5F5F5F5F5F5F5F5F5F59FF5F59FF5F5F5F5F5F5F5F59FF5E2F59F9F9F9F9F9F9F9F9F9F9F9F9F9F9F9F9F9F
310
9F9F9FF5F5F5F5F5F5F5F5F5F5F5F5F5F5F5F5F5F5F5F5F5F5F5F5F5F5F5F5F5F5F5F5F59FF5F5F5F5F59F9FF5F59FF5F5F5F5F5F5F5F5F5F5F5F5F5F5F5E2E2E2F5F5F5E2F5F5E2F5F5F5F5F5F5F5F5F5F5F59FF5F5F5F5F5F5F5F5F5F5F5E2F5F5E2F5F5F5F5F59FF5F5F5F5F5F5F5F5F5F5F5F5F5F5F5F5F5F5F5E2E2E2
310
F5F5F5F5F5F5F5F5F5F5F5F5F5F5F5F5F5F5F59FF5F59FF5F5F5F5F5F5F5F59FE2F5F5F5F5F5F5F5F5F5F5F5F5F5F5F5F5F5F5F5F5F5F5F59F9F9F9F9F9F9F9F9F9F9F9F9F9FF5F5F5F5F5F5F5F5F5F5F5F5F5F5F5F5F5F5F59FF5F5F5F5F59F9FF5F59FF5F5F5F5F5F5F5F5F5F5F5F5F5F5F5E2E2E2F5F5F5E2F5E2F5F5F5
310
F5F5F5F5F5F5F5F5F59FF5F5F5F5F5F5F5F5F5F5F5F5E2F5E2F5F5F5F5F59FF5F5F5F5F5F5F5F5F5F5F5F5F5F5F5F5F5F5F5E2E2E2F5E2F5F5F5F5F5F5F5F5F5F5F5F5F5F5F5F5F59FF5F59FF5F5F5F5F5F59F9FF5E2F5F5F5F5F5F5F5F5F5F5F5F5F5F5F5F5F5F5F5F5F5F5F5F5F5F5F5F5F5F5F5F5F5F5F5F5F59F9F9F9F
310
9F9F9FF5F5F5F5F5F5F5F5F5F5F5F59FF5F5F5F5F59F9FF5F59FF5F5F5F5F5F5F5F5F5F5F5F5F5F5F5E2E2E2F5F5E2F5F5E2F5F5F5F5F5F5F5F5F5F5F5E29FE2F5F5F5F5F5F5F5F5F5F5F5E2F5F5E2F5F5F5F59FF5F5F5F5F5F5F5F5F5F5F5F5F5F5F5F5F5E2F5E2E2E2F5E2F5F5F5F5F5F5F5F5F5F5F5F5F5F5F5F5F59FF5
310
F59FF5F5F5F5F5F59F9FF5E2F5F5F5F5F5F5F5F5F5F5F5F5F5F5F5F5F5F5F5F5F5F5F5F5F5F5F5F5F5F5F5F5F5F5F5F5F5F5F5F5F5F5F5F59F9F9F9F9F9F9FF5F5F5F5F59FF5F5F5E2E29F9FF5F59FF5F5F5F5F5F5F5F5F5F5F5F5F5F5F5E2E2E2F5F5E2F5F5E2F5F5F5F5F5F5F5F5F59FE29F9F9FE29FF5F5F5F5F5F5F5F5
310
F5E2F5F5E2F5F5F5F59FF5F5F5F5F5F5F5F5F5F5F5F5F5F5F5F5F5E2F5E2E2E2F5E2F5F5F5F5F5F5F5F5F5F5F5F5F5F5F5F5F59FF5F59FF5F5F5F5F59F9FF5F5E2F5F5F5F5F5F5F5F5F5F5F5F5F5F5F5F5F5F5F5F5F5F5F5F5F5F5F5F5F5F5F5F5F5F5F5F5F5F5F5F5F5F5F5F5F5F5F5F5F5F5F59F9F9F9F9F9FF5F5F5E2E2
310
9F9FF5F59FF5F5F5F5F5F5F5F5F5F5F5F5F5F5F5E2E2E2E2E2F5F5F5E2F5F5F5F5F5F5F5F5F5F5F5E29FE2F5F5F5F5F5F5F5F5F5F5F5E2F5F5F5E2F5F5F59FF5F5F5F5F5F5F5F5F5F5F5F5F5F5F5F5F5E2F5E2E2E2F5E2F5F5F5F5F5F5F5F5F5F5F5F5F5F5F5F5F59FF5F59FF5F5F5F59F9FF5F5F5F5F5F5F5F5F5F5F5F5F5
310
F5F5F5F5F5F5F5F5F5F5F5F5F5F5F5F5F5F5F5F5F5F5F5F5F5F5F5F5F5F5F5F5F5F5F5F5F5F5F5F5F5F5F5F5F5F59F9F9FF5F5F5F5F59FF5F59FF5F5F5F5F5F5F5F5F5F5F5F5F5F5F5E2E2F5E2E2E2E2E2E2E2E2E2E2E2E2E2E2E2E2E2E2E2E2F5F5F5F5F5F5F5F5F5F5F5F5F5F5F5E2F5F5F59FF5F5F5F5F5F5F5F5F5F5F5
310
F5F5F5F5F5F5E2F5E2E2E2F5E2F5F5F5F5F5F5F5F5F5F5F5F5F5F5F5F5F59FF5F59F9F9F9F9FE29FF5F5F5F5F5F5F5F5F5F5F5F5F5F5F5F5F5F5F5F5F5F5F5F5F5F5F5F5F5F5F5F5F5F5F5F5F5F5F5F5F5F5F5F5F5F5F5F5F5F5F5F5F5F5F5F5F5F5F5F59FF5F5F5F5F5F59FE29F9FF5F5F5F5F5F5F5F5F5F5F5F5F5F5F5E2
310
E2E2E2E2E2E2E2E2E2E2E2E2E2E2E2E2E2E2E2E2E2E2E2E2E2E2E2E2E2E2E2E2E2E2E2E2E2E2E2E2E29FF5F5F5F5F5F5F5F5F5F5F5F5F5F5F5F5F5E2F5E2E2E2F5E2F5F5F5F5F5F5F5F5F5F5F5F5F5F5F5F5F59FF5F5E2E2E2E2E2E2E2E2E2E2E2E2E2E2E2E2E2E2E2E2E2E2E2E2E2E2E2E2E2E2E2E2E2E2E2E2E2E2E2E2E2
310
E2E2E2E2E2E2E2E2E2E2E2E2E2E2E2E2E2E2E2E2E2E2E2E2E2E2E2E2E2E2E2E2E2E2E2E2E2F5F5F5F5F5F5F5F5F5F5F5F5F5F5F5F59F9F9F9F9F9F9F9F9F9F9F9F9F9F9F9F9F9F9F9F9F9F9F9F9F9F9F9F9F9F9F9F9F9F9F9F9F9F9F9FE29FF5F5F5F5F5F5F5F5F5F5F5F5F5F5F5F5F5E2F5E2E2E2F5E2F5F5F5F5F5F5F5F5
310
F5F5F5F5F5F5F5F5F59FF5F5F5F5F5F5F5F5F5F5F5F5F5F5F5F5F5F5F5F5F5F5F5F5F5F5F5F5F5F5F5F5F5F5F5F5F5F5F5F5F5F5F5F5F5F5F5F5F5F5F5F5F5F5F5F5F5F5F5F5F5F5F5F5F5F5F5F5F59FF5F5F5F5F5F5F5F5F5F5F5F5F5F5F5F5F5F5F5F5F5F5F5F5F5F5F5F5F5F5F5F5F5F5F5F5F5F5F5F5F5F5F5F5F5F59F
310
F5F5F5F5F5F5F5F5F5F5F5F5F5F5F5F5F5F5F5F59FF5F5F5F5F5F5F5F5F5F5F5F5F5F5F5F5F5E2F5E2E2E2F5E2F5F5F5F5F5F5F5F5F5F5F5F5F5F5F5F5F59FF5F5F5F5F5F5F5F5F5F5F5F5F5F5F5F5F5F5F5F5F5F5F5F5F5F5F5F5F5F5F5F5F5F5F5F5F5F5F5F5F5F5F5F5F5F5F5F5F5F5F5F5F5F5F5F5F5F5F5F5F5F5F5F5
310
F5F5F5F5F5F5F5F5F5F5F5F5F5F5F5F5F5F5F5F5F5F5F5F5F5F5F5F5F5F5F5F5F5F5F5F5F5F5F5F5F5F5F5F5F5F5F5F5F5F5F5F5F5F5F5F5F5F5F5F5F5F5F5F5F5F5F5F5F5F5F5F5F59FF5F5F5F5F5F5F5F5F5F5F5F5F5F5F5F5F5E2F5E2E2E2F5E2F5F5F5F5F5F5F5F5F5F5F5F5F5F5F5F5F59FF5F5F5F5F5F5F5F5F5F5F5
310
F5F5F5F5F5F5F5F5F5F5F5F5F5F5F5F5F5F5F5F5F5F5F5F5F5F5F5F5F5F5F5F5F5F5F5F5F5F5F5F5F5F5F5F5F5F5F5F5F5F5F5F5F5F5F5F5F5F5F5F5F5F5F5F5F5F5F5F5F5F5F5F5F5F5F5F5F5F5F5F5F5F5F5F5F5F5F5F5F5F5F5F5F5F5F5F5F5F5F5F5F5F5F5F5F5F5F5F5F5F5F5F5F5F5F5F5F5F5F5F5F5F5F5F5F5F59F
310
F5F5F5F5F5F5F5F5F5F5F5F5F5F5F5F5F5E2F5E2E2E2F5E2F5F5F5F5F5F5F5F5F5F5F5F5F5F5F5F5F59FF5F5F5F5F5F5F5F5F5F5F5F5F5F5F5F5F5F5F5F5F5F5F5F5F5F5F5F5F5F5F5F5F5F5F5F5F5F5F5F5F5F5F5F5F5F5F5F5F5F5F5F5F5F5F5F5F5F5F5F5F5F5F5F5F5F5F5F5F5F5F5F5F5F5F5F5F5F5F5F5F5F5F5F5F5
310
F5F5F5F5F5F5F5F5F5F5F5F5F5F5F5F5F5F5F5F5F5F5F5F5F5F5F5F5F5F5F5F5F5F5F5F5F5F5F5F5F5F5F5F5F5F5F5F5F5F5F5F59FF5F5F5F5F5F5F5F5F5F5F5F5F5F5F5F5F5E2F5E2E2E2F5E2F5F5F5F5F5F5F5F5F5F5F5F5F5F5F5F5F59FF5F5F5F5F5F5F5F5F5F5F5F5F5F5F5F5F5F5F5F5F5F5F5F5F5F5F5F5F5F5F5F5
310
F5F5F5F5F5F5F5F5F5F5F5F5F5F5F5F5F5F5F5F5F5F5F5F5F5F5F5F5F5F5F5F5F5F5F5F5F5F5F5F5F5F5F5F5F5F5F5F5F5F5F5F5F5F5F5F5F5F5F5F5F5F5F5F5F5F5F5F5F5F5F5F5F5F5F5F5F5F5F5F5F5F5F5F5F5F5F5F5F5F5F5F5F5F5F5F5F5F5F5F5F5F5F5F5F59FF5F5F5F5F5F5F5F5F5F5F5F5F5F5F5F5F5E2F5E2E2
310
E2F5E2F5F5F5F5F5F5F5F5F5F5F5F5F5F5F5F5F59FF5F5F5F5F5F5F5F5F5F5F5F5F5F5F5F5F5F5F5F5F5F5F5F5F5F5F5F5F5F5F5F5F5F5F5F5F5F5F5F5F5F5F5F5F5F5F5F5F5F5F5F5F5F5F5F5F5F5F5F5F5F5F5F5F5F5F5F5F5F5F5F5F5F5F5F5F5F5F5F5F5F5F5F5F5F5F5F5F5F5F5F5F5F5F5F5F5F5F5F5F5F5F5F5F5F5
310
F5F5F5F5F5F5F5F5F5F5F5F5F5F5F5F5F5F5F5F5F5F5F5F5F5F5F5F5F5F5F59FF5F5F5F5F5F5F5F5F5F5F5F5F5F5F5F5F5E2F5E2E2E2F5E2F5F5F5F5F5F5F5F5F5F5F5F5F5F5F5F5F59FF5F5F5F5F5F5F5F5F5F5F5F5F5F5F5F5F5F5F5F5F5F5F5F5F5F5F5F5F5F5F5F5F5F5F5F5F5F5F5F5F5F5F5F5F5F5F5F5F5F5F5F5F5
310
F5F5F5F5F5F5F5F5F5F5F5F5F5F5F5F5F5F5F5F5F5F5F5F5F5F5F5F5F5F5F5F5F5F5F5F5F5F5F5F5F5F5F5F5F5F5F5F5F5F5F5F5F5F5F5F5F5F5F5F5F5F5F5F5F5F5F5F5F5F5F5F5F5F5F5F5F5F5F5F5F5F5F5F59FF5F5F5F5F5F5F5F5F5F5F5F5F5F5F5F5F5E2F5E2E2E2F5E2F5F5F5F5F5F5F5F5F5F5F5F5F5F5F5F5F59F
310
F5F5F5F5F5F5F5F5F5F5F5F5F5F5F5F5F5F5F5F5F5F5F5F5F5F5F5F5F5F5F5F5F5F5F5F5F5F5F5F5F5F5F5F5F5F5F5F5F5F5F5F5F5F5F5F5F5F5F5F5F5F5F5F5F5F5F5F5F5F5F5F5F5F5F5F5F5F5F5F5F5F5F5F5F5F5F5F5F5F5F5F5F5F5F5F5F5F5F5F5F5F5F5F5F5F5F5F5F5F5F5F5F5F5F5F5F5F5F5F5F5F5F5F5F5F5F5
310
F5F5F5F5F5F5F5F5F5F59FF5F5F5F5F5F5F5F5F5F5F5F5F5F5F5F5F5E2F5E2E2E2F5E2F5F5F5F5F5F5F5F5F5F5F5F5F5F5F5F5F59FF5F5F5F5F5F5F5F5F5F5F5F5F5F5F5F5F5F5F5F5F5F5F5F5F5F5F5F5F5F5F5F5F5F5F5F5F5F5F5F5F5F5F5F5F5F5F5F5F5F5F5F5F5F5F5F5F5F5F5F5F5F5F5F5F5F5F5F5F5F5F5F5F5F5
310
F5F5F5F5F5F5F5F5F5F5F5F5F5F5F5F5F5F5F5F5F5F5F5F5F5F5F5F5F5F5F5F5F5F5F5F5F5F5F5F5F5F5F5F5F5F5F5F5F5F5F5F5F5F5F5F5F5F5F5F5F5F5F59FF5F5F5F5F5F5F5F5F5F5F5F5F5F5F5F5F5E2F5E2E2E2F5E2F5F5F5F5F5F5F5F5F5F5F5F5F5F5F5F5F59FF5F5F5F5F5F5F5F5F5F5F5F5F5F5F5F5F5F5F5F5F5
310
F5F5F5F5F5F5F5F5F5F5F5F5F5F5F5F5F5F5F5F5F5F5F5F5F5F5F5F5F5F5F5F5F5F5F5F5F5F5F5F5F5F5F5F5F5F5F5F5F5F5F5F5F5F5F5F5F5F5F5F5F5F5F5F5F5F5F5F5F5F5F5F5F5F5F5F5F5F5F5F5F5F5F5F5F5F5F5F5F5F5F5F5F5F5F5F5F5F5F5F5F5F5F5F5F5F5F5F5F5F5F5F5F5F5F5F59FF5F5F5F5F5F5F5F5F5F5
310
F5F5F5F5F5F5F5E2F5E2E2E2F5E2F5F5F5F5F5F5F5F5F5F5F5F5F5F5F5F5F59FF5F5F5F5F5F5F5F5F5F5F5F5F5F5F5F5F5F5F5F5F5F5F5F5F5F5F5F5F5F5F5F5F5F5F59FF5F5F5F5F5F5F5F5F5F5F5F5F5F5F5F5F5F5F5F5F5F5F5F5F5F5F5F5F5F5F5F5F5F5F5F5F5F5F5F5F5F5F5F5F5F5F5F5F5F5F5F5F5F5F5F5F5F5F5
310
F5F5F5F5F5F5F5F5F5F5F5F5F5F5F5F5F5F5F5F5F5F5F5F5F5F5F5F5F5F5F5F5F5F5F5F5F5F5F5F5F5F59FF5F5F5F5F5F5F5F5F5F5F5F5F5F5F5F5F5E2F5E2E2E2F5F5F5F5F5F5F5F5F5F5F5F5F5F5F5F5F5F5F59FF5F5F5F5F5F5F5F5F5F5F5F5F5F5F5F5F5F5F5F5F5F5F5F5F5F5F5F5F5F5F5F5F5F5F59FF5F5F5F5F5F5
310
F5F5F5F5F5F5F5F5F5F5F5F5F5F5F5F5F5F5F5F5F5F5F5F5F5F5F5F5F5F5F5F5F5F5F5F5F5F5F5F5F5F5F5F5F5F5F5F5F5F5F5F5F5F5F5F5F5F5F5F5F5F5F5F5F5F5F5F5F5F5F5F5F5F5F5F5F5F5F5F5F5F5F5F5F5F5F5F5F5F5F5F5F5F5F59FF5F5F5F5F5F5F5F5F5F5F5F5F5F5F5F5F5F5F5E2E2E2F5F5F5F5F5F5F5F5F5
310
F5F5F5F5F5F5F5F5F5F59FF5F5F5F5F5F5F5F5F5F5F5F5F5F5F5F5F5F5F5F5F5F5F5F5F5F5F5F5F5F5F5F5F5F5F59FF5F5F5F5F5F5F5F5F5F5F5F5F5F5F5F5F5F5F5F5F5F5F5F5F5F5F5F5F5F5F5F5F5F5F5F5F5F5F5F5F5F5F5F5F5F5F5F5F5F5F5F5F5F5F5F5F5F5F5F5F5F5F5F5F5F5F5F5F5F5F5F5F5F5F5F5F5F5F5F5
310
F5F5F5F5F5F5F5F5F5F5F5F5F5F5F5F5F5F5F5F5F59FF5F5F5F5F5F5F5F5F5F5F5F5F5F5F5F5F5F5F5E2E2E2F5F5F5F5F5F5F5F5F5F5F5F5F5F5F5F5F5F5F59FF5F5E2E2E2E2E2E2E2E2E2E2E2E2E2E2E2E2E2E2E2E2E2E2E2E2E2E2E2E2E2E2E2E2E2E2E2E2E2E2E2E2E2E2E2E2E2E2E2E2E2E2E2E2E2E2E2E2E2E2E2E2E2
310
E2E2E2E2E2E2E2E2E2E2E2E2E2E2E2E2E2F5F5F5F5F5F5F5F5F5F5F5F5F5F5F5F5F5F5F5F5F5F5F5F5F5F5F5F5F5F5F5F5F5F5F5F5F5F5F5F5F5F5F5F5F5F5F5F5F5F5F5F5F5F5F5F5F59FF5F5F5F5F5F5F5F5F5F5F5F5F5F5F5F5F5F5F5E2E2E2F5F5F5F5F5F5F5F5F5F5F5F5F5F5F5F5F5F5F59FF5F5E2E2F5F5F5F5F5F5
310
F5F5F59F9F9F9F9F9F9F9F9F9F9F9F9F9F9F9F9F9F9F9F9F9F9F9F9F9F9F9F9F9F9F9F9F9F9F9F9F9F9F9F9F9F9F9F9F9F9F9F9F9F9F9F9F9F9F9FF5F5F5F5F5F5F5F5F5F5E2F5F5F5F5F5F5F5F5F5F5F5F5F5F5F5F5F5F5F5F5F5F5F5F5F5F5F5F5F5F5F5F5F5F5F5F5F5F5F5F5F5F5F5F5F5F5F5F5F5F5F5F5F5F5F5F5F5
310
9FF5F5F5F5F5F5F5F5F5F5F5F5F5F5F5F5F5F5F5E2E2E2F5F5F5F5F5F5F5F5F5F5F5F5F5F5F5F5F5F5F59FF5F5E2E2F5F5F5F5F5F5F5F5F5F5F5F5F5F5F5F5F5F5F5F5F5F5F5F5F5F5F5F5F5F5F59FF5F5F5F5F5F5F5F5F5F5F5F5F5F5F5F5F5F5F5F5F5F5F5F5F5F5F5F5F5F5F5F5F5F5F5F5F5F5F5F5F5F5F5E2F5F5F5F5
310
F5F5F5F5F5F5F5F5F5F5F5F5F5F5F5F5F5F5F5F5F5F5F5F5F5F5F5F5F5F5F5F5F5F5F5F5F5F5F5F5F5F5F5F5F5F5F5F5F5F5F5F5F59FF5F5F5F5F5F5F5F5F5F5F5F5F5F5F5F5F5F5F5E2E2E2F5F5F5F5F5F5F5F5F5F5F5F5F5F5F5F5F5F5F59FF5F5E2E2F5F5F5F5F5F5F5F5F5F5F5F5F5F5F5F5F5F5F5F5F5F5F5F5F5F5F5
310
F5F5F5F59FF5F5F5F5F5F5F5F5F5F5F5F5F5F5F5F5F5F5F5F5F5F5F5F5F5F5F5F5F5F5F5F5F5F5F5F5F5F5F5F5F5F5F5E2F5F5F5F5F5F5F5F5F5F5F5F5F5F5F5F5F5F5F5F5F5F5F5F5F5F5F5F5F5F5F5F5F5F5F5F5F5F5F5F5F5F5F5F5F5F5F5F5F5F5F5F5F5F5F5F5F59FF5F5F5F5F5F5F5F5F5F5F5F5F5F5F5F5F5F5F5E2
310
E2E2F5F5F5F5F5F5F5F5F5F5F5F5F5F5F5F5F5F5F59FF5F5E2E2F5F5F5F5F5F5F5F5F5F5F5F5F5F5F5F5E2E2E2E2E2E2E2E2E2E2E2E2E2E2E29FE2E2E2E2E2E2E2E2E2F5F5F5F5F5F5F5F5F5F5F5F5F5F5F5F5F5F5F5F5F5F5F5F5F5F5F5F5F5F5F5F5F5F5E2F5F5F5F5F5F5F5F5F5F5F5F5F5F5F5F5F5F5F5F5F5F5F5F5F5
310
F5F5F5F5F5F5F5F5F5F5F5F5F5F5F5F5F5F5F5F5F5F5F5F5F5F5F5F5F5F5F5F59FF5F5F5F5F5F5F5F5F5F5F5F5F5F5F5F5F5F5F5E2E2E2F5F5F5F5F5F5F5F5F5F5F5F5F5F5F5F5F5F5F59FF5F5E2E2F5F5F5F5F5F5F5F5F5F5F5E2E2E2E2E2F5F5F5F5F5F5F5F5F5F5F5F5F5F5F59FF5F5F5F5F5F5F5F5F5E2E2E2E2E2E2E2
310
E2E2E2E2E2E2E2F5F5F5F5F5F5F5F5F5F5F5F5F5F5F5F5F5F5F5F5E2F5F5F5F5F5F5F5F5F5F5F5F5F5F5F5F5F5F5F5F5F5F5F5F5F5F5F5F5F5F5F5F5F5F5F5F5F5F5F5F5F5F5F5F5F5F5F5F5F5F5F5F5F5F5F5F5F59FF5F5F5F5F5F5F5F5F5F5F5F5F5F5F5F5F5F5F5E2E2E2F5F5F5F5F5F5F5F5F5F5F5F5F5F5F5F5F5F5F5
310
9FF5F5E2E2F5F5F5F5F5F5F5F5F5E2E2F5F5F5F5F5F5F5F5F5F5F5E2E2E2E2E2E2E2E2E2E2E2E2E2E2E2E2E2E2E2E2E2E2E2E2E2E2E2E2E2E2E2E2E2E2E2E2E2E2E2E2E2E2E2F5F5F5F5F5F5F5F5F5F5E2F5F5F5F5F5F5F5F5F5F5F5F5F5F5F5F5F5F5F5F5F5F5F5F5F5F5F5F5F5F5F5F5F5F5F5F5F5F5F5F5F5F5F5F5F5F5
310
F5F5F5F5F5F5F5F5F5F5F59FF5F5F5F5F5F5F5F5F5F5F5F5F5F5F5F5F5F5F5E2E2E2F5E2F5F5F5F5F5F5F5F5F5F5F5F5F5F5F5F5F59FF5F5E2E2F5F5F5F5F5F5F5E2E2F5F5E2E2E2E2E2E2E2E2E2E2E2F5F5F5E2E2E2E2E2E29FE2E2E2E2F5F5F5F5F5F5F5F5F5F5F5F5F5F5F5F5F5F5F5F5F5F5F5F5E2E2E2E2E2E2E2E2E2
310
E2F5F5F5F5F5E2F5F5F5F5F5F5F5F5F5F5F5F5F5F5F5F5F5F5F5F5F5F5F5F5F5F5F5F5F5F5F5F5F5F5F5F5F5F5F5F5F5F5F5F5F5F5F5F5F5F5F5F5F5F5F5F5F59FF5F5F5F5F5F5F5F5F5F5F5F5F5F5F5F5F5E2F5E2E2E2F5E2F5F5F5F5F5F5F5F5F5F5F5F5F5F5F5F5F59FF5F5E2E2F5F5F5F5F5F5E2F5F5F5F5F5F5F5F5F5
310
F5F5F5E2E2E2E2E2E2F5F5F5F5F5F59FF5F5F5F5E2E2E2E2E2E2E2E2E2E2E2E2E2E2E2F5F5F5F5F5F5F5F5F5F5F5F5F5F5F5F5F5F5F5E2F5F5F5F5E2F5F5F5F5F5F5F5F5F5F5F5F5F5F5F5F5F5F5F5F5F5F5F5F5F5F5F5F5F5F5F5F5F5F5F5F5F5F5F5F5F5F5F5F5F5F5F5F5F5F5F5F5F5F5F5F5F59FF5F5F5F5F5F5F5F5F5
310
F5F5F5F5F5F5F5F5E2F5E2E2E2F5E2F5F5F5F5F5F5F5F5F5F5F5F5F5F5F5F5F59FF5F5E2E2F5F5F5F5F5E2F5F5F5F5F5F5F5F5F5F5F5E2E2F5F5F5F5F5F5F5F5F5F5F5F59FF5F5F5F5F5F5F5F5F5F5F5F5F5F5F5F5F5F5F5E2E2E2E2E2E2E2E2E2E2E2F5F5F5F5F5F5F5F5F5E2F5F5F5E2F5F5F5F5F5F5F5F5F5F5F5F5F5F5
310
F5F5F5F5F5F5F5F5F5F5F5F5F5F5F5F5F5F5F5F5F5F5F5F5F5F5F5F5F5F5F5F5F5F5F5F5F5F5F5F5F5F5F59FF5F5F5F5F5F5F5F5F5F5F5F5F5F5F5F5F5E2F5E2E2E2F5E2F5F5F5F5F5F5F5F5F5F5F5F5F5F5F5F5F59FF5F5E2E2F5F5F5F5F5E2F5F5F5F5F5F5F5F5F5F5E2F5F5F5F5F5F5F5F5F5F5F5F5F5F59FF5F5F5F5F5
310
F5F5F5F5F5F5F5F5F5F5F5F5F5F5F5F5F5F5F5F5F5F5F5F5F5E2E2E2E2E2F5F5F5F5E2F5F5F5E2F5F5F5F5F5F5F5F5F5F5F5F5F5F5F5F5F5F5F5F5F5F5F5F5F5F5F5F5F5F5F5F5F5F5F5F5F5F5F5F5F5F5F5F5F5F5F5F5F5F5F5F5F5F5F5F5F59FF5F5F5F5F5F5F5F5F5F5F5F5F5F5F5F5F5E2F5E2E2E2F5E2F5F5F5F5F5F5
310
F5F5F5F5F5F5F5F5F5F5F59FF5F5E2E2F5F5F5F5E2F5F5F5F5F5F5F5F5F5F5F5E2F5F5F5F5F5F5F5F5F5F5F5F5F5F59FF5F5F5F5F5F5F5F5F5F5F5F5F5F5F5F5F5F5F5F5F5F5F5F5F5F5F5F5F5F5F5F5F5F5F5E2E2F5F5E2F5F5F5E2F5F5F5F5F5F5F5F5F5F5F5F5F5F5F5F5F5F5F5F5F5F5F5F5F5F5F5F5F5F5F5F5F5F5F5
310
F5F5F5F5F5F5F5F5F5F5F5F5F5F5F5F5F5F5F5F5F5F59FF5F5F5F5F5F5F5F5F5F5F5F5F5F5F5F5F5E2F5E2E2E2F5E2F5F5F5F5F5F5F5F5F5F5F5F5F5F5F5F5F59FF5F5E2E2F5F5F5F5E2F5F5F5F5F5F5F5F5F5F5F5E2F5F5F5F5BEBEF5BEBEF5BEBEF5BE9FBEBEF5BEBEF5BEBEF5BEBEBEBEF5BEBEF5BEBEF5BEBEBEBEF5BE
310
BEF5BEBEF5BEF5F5F5F5F5E2F5E2F5F5F5E2F5F5F5F5F5F5F5F5F5F5F5F5F5F5F5F5F5F5F5F5F5F5F5F5F5F5F5F5F5F5F5F5F5F5F5F5F5F5F5F5F5F5F5F5F5F5F5F5F5F5F5F5F5F5F5F5F59FF5F5F5F5F5F5F5F5F5F5F5F5F5F5F5F5F5E2F5E2E2E2F5E2F5F5F5F5F5F5F5F5F5F5F5F5F5F5F5F5F59FF5F5E2E2F5F5F5F5E2
310
F5F5F5F5F5F5F5F5F5F5F5E2F5F5F5BEBEBEBEBEBEBEBEBEBEBE9FBEBEBEBEBEBEBEBEBEBEBEBEBEBEBEBEBEBEBEBEBEBEBEBEBEBEBEBEBEBEBEBEBEBEF5F5F5E2F5E2F5F5F5E2F5F5F5F5F5F5F5F5F5F5F5F5F5F5F5F5F5F5F5F5F5F5F5F5F5F5F5F5F5F5F5F5F5F5F5F5F5F5F5F5F5F5F5F5F5F5F5F5F5F5F5F5F5F5F5F5
310
F59FF5F5F5F5F5F5F5F5F5F5F5F5F5F5F5F5F5E2F5E2E2E2F5E2F5F5F5F5F5F5F5F5F5F5F5F5F5F5F5F5F59FF5F5E2E2F5F5F5E2F5F5F5F5F5F5F5F5F5F5F5E2F5F5F5BEBEBEBEBEBEBEBEBEBEBEBE9FBEBEBEBEBEBEBEBEBEBEBEBEBEBEBEBEBEBEBEBEBEBEBEBEBEBEBEBEBEBEBEBEBEBEBEF5F5E2F5E2F5F5F5E2F5F5F5
310
F5F5F5F5F5F5F5F5F5F5F5F5F5F5F5F5F5F5F5F5F5F5F5F5F5F5F5F5F5F5F5F5F5F5F5F5F5F5F5F5F5F5F5F5F5F5F5F5F5F5F5F5F5F59FF5F5F5F5F5F5F5F5F5F5F5F5F5F5F5F5F5E2F5E2E2E2F5E2F5F5F5F5F5F5F5F5F5F5F5F5F5F5F5F5F59FF5F5E2E2F5F5F5E2F5F5F5F5F5F5F5F5F5F5F5E2F5BEBEBEBEBEBEBEBEBE
310
BEBEBEBEBE9FBEBEBEBEBEBEBEBEBEBEBEBEBEBEBEBEBEBEBEBEBEBEBEBEBEBEBEBEBEBEBEBEBEBEBEF5F5F5E2E2F5F5F5E2F5F5F5F5F5F5F5F5F5F5F5F5F5F5F5F5F5F5F5F5F5F5F5F5F5F5F5F5F5F5F5F5F5F5F5F5F5F5F5F5F5F5F5F5F5F5F5F5F5F5F5F5F5F5F5F5F59FF5F5F5F5F5F5F5F5F5F5F5F5F5F5F5F5F5E2F5
310
E2E2E2F5E2F5F5F5F5F5F5F5F5F5F5F5F5F5F5F5F5F59FF5F5E2E2F5F5F5E2F5F5F5F5F5F5F5F5F5F5F5E2F5BEBEBEBEBEBEBEBEBEBEBEBEBEBE9FBEBEBEBEBEBEBEBEBEBEBEBEBEBEBEBEBEBEBEBEBEBEBEBEBEBEBEBEBEBEBEBEBEBEBEF5F5F5E2E2F5F5F5E2F5F5F5F5F5F5F5F5F5F5F5F5F5F5F5F5F5F5F5F5F5F5F5F5
310
F5F5F5F5F5F5F5F5F5F5F5F5F5F5F5F5F5F5F5F5F5F5F5F5F5F5F5F5F5F5F5F5F59FF5F5F5F5F5F5F5F5F5F5F5F5F5F5F5F5F5E2F5E2E2E2F5E2F5F5F5F5F5F5F5F5F5F5F5F5F5F5F5F5F59FF5F5E2E2F5F5F5E2F5F5F5F5F5F5F5F5F5F5F5E2F5BEBEBEBEBEBEBEBEBEBEBEBEBEBE9FBEBEBEBEBEBEBEBEBEBEBEBEBEBEBE
310
BEBEBEBEBEBEBEBEBEBEBEBEBEBEBEBEBEBE9FBEF5F5F5E2F5E2F5F5E2F5F5F5F5F5F5F5F5F5F5F5F5F5F5F5F5F5F5F5F5F5F5F5F5F5F5F5F5F5F5F5F5F5F5F5F5F5F5F5F5F5F5F5F5F5F5F5F5F5F5F5F5F5F5F5F5F59FF5F5F5F5F5F5F5F5F5F5F5F5F5F5F5F5F5E2F5E2E2E2F5E2F5F5F5F5F5F5F5F5F5F5F5F5F5F5F5F5
310
F59FF5F5E2E2F5F5F5E2F5F5F5F5F5F5F5F5F5F5F5E2F5BEBEBEBEBEBEBEBEBEBEBEBEBEBE9FBEBEBEBEBEBEBEBEBEBEBEBEBEBEBEBEBEBEBEBEBEBEBEBEBEBEBEBEBEBEBEF5F59FF5F5F5F5E2F5E2F5F5E2F5F5F5F5F5F5F5F5F5F5F5F5F5F5F5F5F5F5F5F5F5F5F5F5F5F5F5F5F5F5F5F5F5F5F5F5F5F5F5F5F5F5F5F5F5
310
F5F5F5F5F5F5F5F5F5F5F5F59FF5F5F5F5F5F5F5F5F5F5F5F5F5F5F5F5F5E2F5E2E2E2F5E2F5F5F5F5F5F5F5F5F5F5F5F5F5F5F5F5F59FF5F5E2E2F5F5F5E2F5F5F5F5F5F5F5F5F5F5F5E2F5BEBEBEBEBEBEBEBEBEBEBEBEBEBEBEBEBEBEBEBEBEBEBEBEBEBEBEBEBEBEBEBEBEBEBEBEBEBEBEBEBEBEBEBEBEF5F5E2E2E2F5
310
F5F5E2F5E2F5F5E2F5F5F5F5F5F5F5F5F5F5F5F5F5F5F5F5F5F5F5F5F5F5F5F5F5F5F5F5F5F5F5F5F5F5F5F5F5F5F5F5F5F5F5F5F5F5F5F5F5F5F5F5F5F5F5F5F59FF5F5F5F5F5F5F5F5F5F5F5F5F5F5F5F5F5E2F5E2E2E2F5E2F5F5F5F5F5F5F5F5F5F5F5F5F5F5F5F5F59FF5F5E2E2F5F5F5E2F5F5F5F5F5F5F5F5F5F5F5
310
E2F5BEBEBEBEBEBEBEBEBEBEBEBEBEBEBEBEBEBEBEBEBEBEBEBEBEBEBEBEBEBEBEBEBEBEBEBEBEBEBEBEBEBEBEBEBEF5E2E29FE2E2F5F5E2F5E2F5F5E2F5F5F5F5F5F5F5F5F5F5F5F5F5F5F5F5F5F5F5F5F5F5F5F5F5F5F5F5F5F5F5F5F5F5F5F5F5F5F5F5F5F5F5F5F5F5F5F5F5F5F5F5F5F5F5F5F59FF5F5F5F5F5F5F5F5
310
F5F5F5F5F5F5F5F5F5E2F5E2E2E2F5E2F5F5F5F5F5F5F5F5F5F5F5F5F5F5F5F5F59F9F9F9F9F9F9F9F9F9F9F9F9F9F9F9F9F9F9F9F9F9F9F9F9F9F9FBEBEBEBEBEBEBEBEBE9F9F9F9F9F9F9F9F9F9F9F9FBEBEBEBEBEBEBEBEBE9F9F9F9F9F9F9F9F9F9F9FE29F9F9FE29F9F9F9F9F9F9F9F9F9F9FF5F5F5F5F5F5F5F5F5F5
310
F5F5F5F5F5F5F5F5F5F5F5F5F5F5F5F5F5F5F5F5F5F5F5F5F5F5F5F5F5F5F5F5F5F5F5F5F5F5F5F5F5F5F5F59FF5F5F5F5F5F5F5F5F5F5F5F5F5F5F5F5F5E2F5E2E2E2F5E2F5F5F5F5F5F5F5F5F5F5F5F5F5F5F5F5F59FF5F5E2E2F5F5F5E2F5F5F5F5F5F5F5F5F5F5F5E2F5BEBEBEBEBEBEBEBEBEBEBEBEBEBE9FBEBEBEBE
310
BEBEBEBEBEBEBEBEBEBEBEBEBEBEBEBEBEBEBEBEBEBEBEBEBEBEF5E2E29FE2E2F5F5E2F5E2F5F5E2F5F5F5F5F5F5F5F5F5F5F5F5F5F5F5F5F5F5F5F5F5F5F5F5F5F5F5F5F5F5F5F5F5F5F5F5F5F5F5F5F5F5F5F5F5F5F5F5F5F5F5F5F5F5F5F5F59FF5F5F5F5F5F5F5F5F5F5F5F5F5F5F5F5F5E2F5E2E2E2F5E2F5F5F5F5F5
310
F5F5F5F5F5F5F5F5F5F5F5F59FF5F5E2E2F5F5F5E2F5F5F5F5F5F5F5F5F5F5F5E2F5BEBEBEBEBEBEBEBEBEBEBEBEBEBE9FBEBEBEBEBEBEBEBEBEBEBEBEBEBEBEBEBEBEBEBEBEBEBEBEBEBEBEBEBEBEF5F5E2E2E2F5F5F5E2F5E2F5F5E2F5F5F5F5F5F5F5F5F5F5F5F5F5F5F5F5F5F5F5F5F5F5F5F5F5F5F5F5F5F5F5F5F5F5
310
F5F5F5F5F5F5F5F5F5F5F5F5F5F5F5F5F5F5F5F5F5F5F59FF5F5F5F5F5F5F5F5F5F5F5F5F5F5F5F5F5E2F5E2E2E2F5F5F5F5F5F5F5F5F5F5F5F5F5F5F5F5F5F5F59FF5F5E2E2F5F5F5E2F5F5F5F5F5F5F5F5F5F5F5E2F5BEBEBEBEBEBEBEBEBEBEBEBEBEBE9FBEBEBEBEBEBEBEBEBEBEBEBEBEBEBEBEBEBEBEBEBEBEBEBEBE
310
BEBEBEBEBEBEF5F59FF5F5F5F5E2F5E2F5F5E2F5F5F5F5F5F5F5F5F5F5F5F5F5F5F5F5F5F5F5F5F5F5F5F5F5F5F5F5F5F5F5F5F5F5F5F5F5F5F5F5F5F5F5F5F5F5F5F5F5F5F5F5F5F5F5F5F59FF5F5F5F5F5F5F5F5F5F5F5F5F5F5F5F5F5F5F5E2E2E2F5F5F5F5F5F5F5F5F5F5F5F5F5F5F5F5F5F5F59FF5F5E2E2F5F5F5E2
310
F5F5F5F5F5F5F5F5F5F5F5E2F5BEBEBEBEBEBEBEBEBEBEBEBEBEBE9FBEBEBEBEBEBEBEBEBEBEBEBEBEBEBEBEBEBEBEBEBEBEBEBEBEBEBEBEBEBEBEBEBE9FBEF5F5F5E2F5E2F5F5E2F5F5F5F5F5F5F5F5F5F5F5F5F5F5F5F5F5F5F5F5F5F5F5F5F5F5F5F5F5F5F5F5F5F5F5F5F5F5F5F5F5F5F5F5F5F5F5F5F5F5F5F5F5F5F5
310
F5F59FF5F5F5F5F5F5F5F5F5F5F5F5F5F5F5F5F5F5F5E2E2E2F5F5F5F5F5F5F5F5F5F5F5F5F5F5F5F5F5F5F59FF5F5E2E2F5F5F5E2F5F5F5F5F5F5F5F5F5F5F5E2F5BEBEBEBEBEBEBEBEBEBEBEBEBEBE9FBEBEBEBEBEBEBEBEBEBEBEBEBEBEBEBEBEBEBEBEBEBEBEBEBEBEBEBEBEBEBEBEBEBEBEF5F5F5E2E2F5F5F5E2F5F5
310
F5F5F5F5F5F5F5F5F5F5F5F5F5F5F5F5F5F5F5F5F5F5F5F5F5F5F5F5F5F5F5F5F5F5F5F5F5F5F5F5F5F5F5F5F5F5F5F5F5F5F5F5F5F5F59FF5F5F5F5F5F5F5F5F5F5F5F5F5F5F5F5F5F5F5E2E2E2F5F5F5F5F5F5F5F5F5F5F5F5F5F5F5F5F5F5F59FF5F5E2E2F5F5F5E2F5F5F5F5F5F5F5F5F5F5F5E2F5BEBEBEBEBEBEBEBE
310
BEBEBEBEBEBE9FBEBEBEBEBEBEBEBEBEBEBEBEBEBEBEBEBEBEBEBEBEBEBEBEBEBEBEBEBEBEBEBEBEBEBEF5F5F5E2E2F5F5F5E2F5F5F5F5F5F5F5F5F5F5F5F5F5F5F5F5F5F5F5F5F5F5F5F5F5F5F5F5F5F5F5F5F5F5F5F5F5F5F5F5F5F5F5F5F5F5F5F5F5F5F5F5F5F5F5F5F59FF5F5F5F5F5F5F5F5F5F5F5F5F5F5F5F5F5F5
310
F5E2E2E2F5F5F5F5F5F5F5F5F5F5F5F5F5F5F5F5F5F5F59FF5F5E2E2F5F5F5E2F5F5F5F5F5F5F5F5F5F5F5E2F5F5BEBEBEBEBEBEBEBEBEBEBEBEBE9FBEBEBEBEBEBEBEBEBEBEBEBEBEBEBEBEBEBEBEBEBEBEBEBEBEBEBEBEBEBEBEBEBEBEBEF5F5E2F5E2F5F5F5E2F5F5F5F5F5F5F5F5F5F5F5F5F5F5F5F5F5F5F5F5F5F5F5
310
F5F5F5F5F5F5F5F5F5F5F5F5F5F5F5F5F5F5F5F5F5F5F5F5F5F5F5F5F5F5F5F5F5F59FF5F5F5F5F5F5F5F5F5F5F5F5F5F5F5F5F5F5F5E2E2E2F5F5F5F5F5F5F5F5F5F5F5F5F5F5F5F5F5F5F59FF5F5E2E2F5F5F5F5E2F5F5F5F5F5F5F5F5F5F5F5E2F5F5F5BEBEBEBEBEBEBEBEBEBEBE9FBEBEBEBEBEBEBEBEBEBEBEBEBEBE
310
BEBEBEBEBEBEBEBEBEBEBEBEBEBEBEBEBEBEBEBEF5F5F5E2F5E2F5F5F5E2F5F5F5F5F5F5F5F5F5F5F5F5F5F5F5F5F5F5F5F5F5F5F5F5F5F5F5F5F5F5F5F5F5F5F5F5F5F5F5F5F5F5F5F5F5F5F5F5F5F5F5F5F5F5F5F5F59FF5F5F5F5F5F5F5F5F5F5F5F5F5F5F5F5F5F5F5E2E2E2F5F5F5F5F5F5F5F5F5F5F5F5F5F5F5F5F5
310
F5F59FF5F5E2E2F5F5F5F5E2F5F5F5F5F5F5F5F5F5F5F5E2F5F5F5F5BEBEF5BEBEF5BEBEF5BE9FBEBEF5BEBEF5BEBEF5BEBEBEBEF5BEBEF5BEBEF5BEBEBEBEF5BEBEF5BEBEF5BEF5F5F5F5F5E2F5E2F5F5F5E2F5F5F5F5F5F5F5F5F5F5F5F5F5F5F5F5F5F5F5F5F5F5F5F5F5F5F5F5F5F5F5F5F5F5F5F5F5F5F5F5F5F5F5F5
310
F5F5F5F5F5F5F5F5F5F5F5F5F59FF5F5F5F5F5F5F5F5F5F5F5F5F5F5F5F5F5F5F5E2E2E2F5F5F5F5F5F5F5F5F5F5F5F5F5F5F5F5F5F5F59FF5F5E2E2F5F5F5F5E2F5F5F5F5F5F5F5F5F5F5F5E2F5F5F5F5F5F5F5F5F5F5F5F5F5F59FF5F5F5F5F5F5F5F5F5F5F5F5F5F5F5F5F5F5F5F5F5F5F5F5F5F5F5F5F5F5F5F5F5F5F5
310
F5F5E2F5E2F5F5F5E2F5F5F5F5F5F5F5F5F5F5F5F5F5F5F5F5F5F5F5F5F5F5F5F5F5F5F5F5F5F5F5F5F5F5F5F5F5F5F5F5F5F5F5F5F5F5F5F5F5F5F5F5F5F5F5F5F59FF5F5F5F5F5F5F5F5F5F5F5F5F5F5F5F5F5F5F5E2E2E2F5F5F5F5F5F5F5F5F5F5F5F5F5F5F5F5F5F5F59FF5F5E2E2F5F5F5F5F5E2F5F5F5F5F5F5F5F5
310
F5F5E2F5F5F5F5F5F5F5F5F5F5F5F5F5F59FF5F5F5F5F5F5F5F5F5F5F5F5F5F5F5F5F5F5F5F5F5F5F5F5F5F5F5F5F5F5F5E2E2E2E2E2E2F5F5E2F5F5F5E2F5F5F5F5F5F5F5F5F5F5F5F5F5F5F5F5F5F5F5F5F5F5F5F5F5F5F5F5F5F5F5F5F5F5F5F5F5F5F5F5F5F5F5F5F5F5F5F5F5F5F5F5F5F5F5F5F59FF5F5F5F5F5F5F5
310
F5F5F5F5F5F5F5F5F5F5F5F5E2E2E2F5F5F5F5F5F5F5F5F5F5F5F5F5F5F5F5F5F5F59FF5F5E2E2F5F5F5F5F5E2F5F5F5F5F5F5F5F5F5F5F5E2F5F5F5F5F5F5F5F5F5F5F5F5F59FF5F5F5F5F5F5F5F5F5F5F5F5F5F5F5F5F5F5F5E2E2E2E2E2E2E2E2E2E2E2E2F5F5F5F5F5F5F5F5E2F5F5F5E2F5F5F5F5F5F5F5F5F5F5F5F5
310
F5F5F5F5F5F5F5F5F5F5F5F5F5F5F5F5F5F5F5F5F5F5F5F5F5F5F5F5F5F5F5F5F5F5F5F5F5F5F5F5F5F5F5F5F59FF5F5F5F5F5F5F5F5F5F5F5F5F5F5F5F5F5F5F5E2E2E2F5E2F5F5F5F5F5F5F5F5F5F5F5F5F5F5F5F5F59FF5F5E2E2F5F5F5F5F5F5E2F5F5F5F5F5F5F5F5F5F5F5E2E2E2E2E2E2E2F5F5F5F5F5F59FF5F5F5
310
F5F5E2E2E2E2E2E2E2E2E2E2E2E2E2E2F5F5F5F5F5F5F5F5F5F5F5F5F5F5F5F5F5F5F5E2F5F5F5F5E2F5F5F5F5F5F5F5F5F5F5F5F5F5F5F5F5F5F5F5F5F5F5F5F5F5F5F5F5F5F5F5F5F5F5F5F5F5F5F5F5F5F5F5F5F5F5F5F5F5F5F5F5F5F5F5F5F59FF5F5F5F5F5F5F5F5F5F5F5F5F5F5F5F5F5E2F5E2E2E2F5E2F5F5F5F5
310
F5F5F5F5F5F5F5F5F5F5F5F5F59FF5F5E2E2F5F5F5F5F5F5F5E2F5F5F5E2E2E2E2E2E2E2E2E2E2E2F5F5F5E2E2E2E2E2E29FE2E2E2E2E2F5F5F5F5F5F5F5F5F5F5F5F5F5F5F5F5F5F5F5F5F5F5F5E2E2E2E2E2E2E2E2E2E2F5F5F5F5F5E2F5F5F5F5F5F5F5F5F5F5F5F5F5F5F5F5F5F5F5F5F5F5F5F5F5F5F5F5F5F5F5F5F5
310
F5F5F5F5F5F5F5F5F5F5F5F5F5F5F5F5F5F5F5F5F5F5F5F59FF5F5F5F5F5F5F5F5F5F5F5F5F5F5F5F5F5E2F5E2E2E2F5E2F5F5F5F5F5F5F5F5F5F5F5F5F5F5F5F5F59FF5F5E2E2F5F5F5F5F5F5F5F5E2E2F5F5F5F5F5F5F5F5F5F5F5F5E2E2E2E2E2E2E2E2E2E2E2E2E2E2E2E2E2E2E2E2E2E2E2E2E2E2E2E2E2E2E2E2E2E2
310
E2E2E2E2E2E2E2E2E2E2F5F5F5F5F5F5F5F5F5E2F5F5F5F5F5F5F5F5F5F5F5F5F5F5F5F5F5F5F5F5F5F5F5F5F5F5F5F5F5F5F5F5F5F5F5F5F5F5F5F5F5F5F5F5F5F5F5F5F5F5F5F5F5F5F5F5F59FF5F5F5F5F5F5F5F5F5F5F5F5F5F5F5F5F5E2F5E2E2E2F5E2F5F5F5F5F5F5F5F5F5F5F5F5F5F5F5F5F59FF5F5E2E2F5F5F5
310
F5F5F5F5F5F5F5E2E2E2E2E2E2F5F5F5F5F5F5F5F5F5F5F5F5F5F5F59FF5F5F5F5F5F5F5F5F5F5E2E2E2E2E2E2E2E2E2E2E2E2E2E2F5F5F5F5F5F5F5F5F5F5F5F5F5F5F5F5F5F5F5E2F5F5F5F5F5F5F5F5F5F5F5F5F5F5F5F5F5F5F5F5F5F5F5F5F5F5F5F5F5F5F5F5F5F5F5F5F5F5F5F5F5F5F5F5F5F5F5F5F5F5F5F5F5F5
310
F5F5F59FF5F5F5F5F5F5F5F5F5F5F5F5F5F5F5F5F5E2F5E2E2E2F5E2F5F5F5F5F5F5F5F5F5F5F5F5F5F5F5F5F59FF5F5E2E2F5F5F5F5F5F5F5F5F5F5F5F5F5F5F5F5E2E2E2E2E2E2E2E2E2E2E2E2E2E2E29FE2E2E2E2E2E2E2E2E2E2F5F5F5F5F5F5F5F5F5F5F5F5F5F5F5F5F5F5F5F5F5F5F5F5F5F5F5F5F5F5F5F5F5E2F5
310
F5F5F5F5F5F5F5F5F5F5F5F5F5F5F5F5F5F5F5F5F5F5F5F5F5F5F5F5F5F5F5F5F5F5F5F5F5F5F5F5F5F5F5F5F5F5F5F5F5F5F5F5F5F5F5F59FF5F5F5F5F5F5F5F5F5F5F5F5F5F5F5F5F5E2F5E2E2E2F5E2F5F5F5F5F5F5F5F5F5F5F5F5F5F5F5F5F59FF5F5E2E2F5F5F5F5F5F5F5F5F5F5F5F5F5F5F5F5F5F5F5F5F5F5F5F5
310
F5F5F5F5F5F5F59FF5F5F5F5F5F5F5F5F5F5F5F5F5F5F5F5F5F5F5F5F5F5F5F5F5F5F5F5F5F5F5F5F5F5F5F5F5F5F5F5F5F5F5E2F5F5F5F5F5F5F5F5F5F5F5F5F5F5F5F5F5F5F5F5F5F5F5F5F5F5F5F5F5F5F5F5F5F5F5F5F5F5F5F5F5F5F5F5F5F5F5F5F5F5F5F5F5F5F5F5F59FF5F5F5F5F5F5F5F5F5F5F5F5F5F5F5F5F5
310
E2F5E2E2E2F5E2F5F5F5F5F5F5F5F5F5F5F5F5F5F5F5F5F59FF5F5E2E2F5F5F5F5F5F5F5F5F5F5F5F5F5F5F5F5F5F5F5F5F5F5F5F5F5F5F5F5F5F5F59FF5F5F5F5F5F5F5F5F5F5F5F5F5F5F5F5F5F5F5F5F5F5F5F5F5F5F5F5F5F5F5F5F5F5F5F5F5F5F5F5F5F5F5E2F5F5F5F5F5F5F5F5F5F5F5F5F5F5F5F5F5F5F5F5F5F5
310
F5F5F5F5F5F5F5F5F5F5F5F5F5F5F5F5F5F5F5F5F5F5F5F5F5F5F5F5F5F5F5F5F5F5F59FF5F5F5F5F5F5F5F5F5F5F5F5F5F5F5F5F5E2F5E2E2E2F5E2F5F5F5F5F5F5F5F5F5F5F5F5F5F5F5F5F59FF5F5E2E2E2E2E2E2E2E2E2E2E2E2E2E2E2E2E2E2E2E2E2E2E2E2E2E2E2E2E2E2E2E2E2E2E2E2E2E2E2E2E2E2E2E2E2E2E2
310
E2E2E2E2E2E2E2E2E2E2E2E2E2E2E2E2E2E2E2E2E2E2E2E2E2E2E2E2E2E2E2F5F5F5F5F5F5F5F5F5F5F5F5F5F5F5F5F5F5F5F5F5F5F5F5F5F5F5F5F5F5F5F5F5F5F5F5F5F5F5F5F5F5F5F5F5F5F5F5F5F5F5F5F5F5F5F5F59FF5F5F5F5F5F5F5F5F5F5F5F5F5F5F5F5F5E2F5E2E2E2F5E2F5F5F5F5F5F5F5F5F5F5F5F5F5F5
310
F5F5F59FF5F5E2E2E2E2E2E2E2E2E2E2E2E2E2E2E2E2E2E2E2E2E2E2E2E2E2E2E2E2E2E2E2E2E2E2E2E2E2E2E2E2E2E2E2E2E2E2E2E2E2E2E2E2E2E2E2E2E2E2E2E2E2E2E2E2E2E2E2E2E2E2E2E2E2E2E2E2E2E2F5F5F5F5F5F5F5F5F5F5F5F5F5F5F5F5F5F5F5F5F5F5F5F5F5F5F5F5F5F5F5F5F5F5F5F5F5F5F5F5F5F5F5
310
F5F5F5F5F5F5F5F5F5F5F5F5F5F59FF5F5F5F5F5F5F5F5F5F5F5F5F5F5F5F5F5E2F5E2E2E2F5E2F5F5F5F5F5F5F5F5F5F5F5F5F5F5F5F5F59FF5F5F5F5F5F5F5F5F5F5F5F5F5F5F5F5F5F5F5F5F5F5F5F5F5F5F5F5F5F5F5F5F5F5F59FF5F5F5F5F5F5F5F5F5F5F5F5F5F5F5F5F5F5F5F5F5F5F5F5F5F5F5F5F5F5F5F5F5F5
310
F5F5F5F5F5F5F5F5F5F5F5F5F5F5F5F5F5F5F5F5F5F5F5F5F5F5F5F5F5F5F5F5F5F5F5F5F5F5F5F5F5F5F5F5F5F5F5F5F5F5F5F5F5F5F5F5F5F5F5F5F5F5F5F5F5F5F59FF5F5F5F5F5F5F5F5F5F5F5F5F5F5F5F5F5E2F5E2E2E2F5E2F5F5F5F5F5F5F5F5F5F5F5F5F5F5F5F5F59FF5F5F5F5F5F5F5F5F5F5F5F5F5F5F5F5F5
310
F5F5F5F5F5F5F5F5F5F5F5F5F5F5F5F5F5F59FF5F5F5F5F5F5F5F5F5F5F5F5F5F5F5F5F5F5F5F5F5F5F5F5F5F5F5F5F5F5F5F5F5F5F5F5F5F5F5F5F5F5F5F5F5F5F5F5F5F5F5F5F5F5F5F5F5F5F5F5F5F5F5F5F5F5F5F5F5F5F5F5F5F5F5F5F5F5F5F5F5F5F5F5F5F5F5F5F5F5F5F5F5F5F5F5F5F5F5F5F59FF5F5F5F5F5F5
310
F5F5F5F5F5F5F5F5F5F5F5E2F5E2E2E2F5E2F5F5F5F5F5F5F5F5F5F5F5F5F5F5F5F5F59FF5F5F5F5F5F5F5F5F5F5F5F5F5F5F5F5F5F5F5F5F5F5F5F5F5F5F5F5F5F5F5F5F5F5F5F5F5F5F5F5F5F5F5F5F5F5F5F5F5F5F5F5F5F5F5F5F5F5F5F5F5F5F5F5F5F5F5F5F5F5F5F5F5F5F5F5F5F5F5F5F5F5F5F5F5F5F5F5F5F5F5
310
F5F5F5F5F5F5F5F5F5F5F5F5F5F5F5F5F5F5F5F5F5F5F5F5F5F5F5F5F5F5F5F5F5F5F5F5F5F5F5F5F5F5F5F5F5F59FF5F5F5F5F5F5F5F5F5F5F5F5F5F5F5F5F5E2F5E2E2E2F5E2F5F5F5F5F5F5F5F5F5F5F5F5F5F5F5F5F59FF5F5F5F5F5F5F5F5F5F5F5F5F5F5F5F5F5F5F5F5F5F5F5F5F5F5F5F5F5F5F5F5F5F5F5F5F5F5
310
F5F5F5F5F5F5F5F5F5F5F5F5F5F5F5F5F5F5F5F5F5F5F5F5F5F5F5F5F5F5F5F5F5F5F5F5F5F5F5F5F5F5F5F5F5F5F5F5F5F5F5F5F5F5F5F5F5F5F5F5F5F5F5F5F5F5F5F5F5F5F5F5F5F5F5F5F5F5F5F5F5F5F5F5F5F5F5F5F5F5F5F5F5F5F5F5F5F5F59FF5F5F5F5F5F5F5F5F5F5F5F5F5F5F5F5F5E2F5E2E2E2F5E2F5F5F5
310
F5F5F5F5F5F5F5F5F5F5F5F5F5F59FF5F5F5F5F5F5F5F5F5F5F5F5F5F5F5F5F5F5F5F5F5F5F5F5F5F5F5F5F5F5F5F5F5F5F5F5F5F5F5F5F5F5F5F5F5F5F5F5F5F5F5F5F5F5F5F5F5F5F5F5F5F5F5F5F5F5F5F5F5F5F5F5F5F5F5F5F5F5F5F5F5F5F5F5F5F5F5F5F5F5F5F5F5F5F5F5F5F5F5F5F5F5F5F5F5F5F5F5F5F5F5F5
310
F5F5F5F5F5F5F5F5F5F5F5F5F5F5F5F5F5F5F5F5F5F5F5F5F59FF5F5F5F5F5F5F5F5F5F5F5F5F5F5F5F5F5E2F5E2E2E2F5E2F5F5F5F5F5F5F5F5F5F5F5F5F5F5F5F5F59FF5F5F5F5F5F5F5F5F5F5F5F5F5F5F5F5F5F5F5F5F5F5F5F5F5F5F5F5F5F5F5F5F5F5F5F5F5F5F5F5F5F5F5F5F5F5F5F5F5F5F5F5F5F5F5F5F5F5F5
310
F5F5F5F5F5F5F5F5F5F5F5F5F5F5F5F5F5F5F5F5F5F5F5F5F5F5F5F5F5F5F5F5F5F5F5F5F5F5F5F5F5F5F5F5F5F5F5F5F5F5F5F5F5F5F5F5F5F5F5F5F5F5F5F5F5F5F5F5F5F5F5F5F5F5F5F5F5F59FF5F5F5F5F5F5F5F5F5F5F5F5F5F5F5F5F5E2F5E2E2E2F5E2F5F5F5F5F5F5F5F5F5F5F5F5F5F5F5F5F59FF5F5F5F5F5F5
310
F5F5F5F5F5F5F5F5F5F5F5F5F5F5F5F5F5F5F5F5F5F5F5F5F5F5F5F5F5F5F5F5F5F5F5F5F5F5F5F5F5F5F5F5F5F5F5F5F5F5F5F5F5F5F5F5F5F5F5F5F5F5F5F5F5F5F5F5F5F5F5F5F5F5F5F5F5F5F5F5F5F5F5F5F5F5F5F5F5F5F5F5F5F5F5F5F5F5F5F5F5F5F5F5F5F5F5F5F5F5F5F5F5F5F5F5F5F5F5F5F5F5F5F5F5F5F5
310
F5F5F5F59FF5F5F5F5F5F5F5F5F5F5F5F5F5F5F5F5F5E2F5E2E2E2F5E2F5F5F5F5F5F5F5F5F5F5F5F5F5F5F5F5F59FF5F5F5F5F5F5F5F5F5F5F5F5F5F5F5F5F5F5F5F5F5F5F5F5F5F5F5F5F5F5F5F5F5F5F5F5F5F5F5F5F5F5F5F5F5F5F5F5F5F5F5F5F5F5F5F5F5F5F5F5F5F5F5F5F5F5F5F5F5F5F5F5F5F5F5F5F5F5F5F5
310
F5F5F5F5F5F5F5F5F5F5F5F5F5F5F5F5F5F5F5F5F5F5F5F5F5F5F5F5F5F5F5F5F5F5F5F5F5F5F5F5F5F5F5F5F5F5F5F5F5F5F5F5F5F5F5F5F59FF5F5F5F5F5F5F5F5F5F5F5F5F5F5F5F5F5E2F5E2E2E2F5F5F5F5F5F5F5F5F5F5F5F5F5F5F5F5F5F5F59FF5F5F5F5F5F5F5F5F5F5F5F5F5F5F5F5F5F5F5F5F5F5F5F5F5F5F5
310
F5F5F5F5F5F5F5F5F5F5F5F5F5F5F5F5F5F5F5F5F5F5F5F5F5F5F5F5F5F5F5F5F5F5F5F5F5F5F5F5F5F5F5F5F5F5F5F5F5F5F5F5F5F5F5F5F5F5F5F5F5F5F5F5F5F5F5F5F5F5F5F5F5F5F5F5F5F5F5F5F5F5F5F5F5F5F5F5F5F5F5F5F5F5F5F5F5F5F5F5F5F5F5F5F5F5F5F5F5F59FF5F5F5F5F5F5F5F5F5F5F5F5F5F5F5F5
310
F5F5F5E2E2E2F5F5F5F5F5F5F5F5F5F5F5F5F5F5F5F5F5F5F59FF5F5F5F5F5F5F5F5F5F5F5F5F5F5F5F5F5F5F5F5F5F5F5F5F5F5F5F5F5F5F5F5F5F5F5F5F5F5F5F5F5F5F5F5F5F5F5F5F5F5F5F5F5F5F5F5F5F5F5F5F5F5F5F5F5F5F5F5F5F5F5F5F5F5F5F5F5F5F5F5F5F5F5F5F5F5F5F5F5F5F5F5F5F5F5F5F5F5F5F5F5
310
F5F5F5F5F5F5F5F5F5F5F5F5F5F5F5F5F5F5F5F5F5F5F5F5F5F5F5F5F5F5F5F5F5F5F5F59FF5F5F5F5F5F5F5F5F5F5F5F5F5F5F5F5F5F5F5E2E2E2F5F5F5F5F5F5F5F5F5F5F5F5F5F5F5F5F5F5F59FF5F5F5F5F5F5F5F5F5F5F5F5F5F5F5F5F5F5F5F5F5F5F5F5F5F5F5F5F5F5F5F5F5F5F5F5F5F5F5F5F5F5F5F5F5F5F5F5
310
F5F5F5F5F5F5F5F5F5F5F5F5F5F5F5F5F5F5F5F5F5F5F5F5F5F5F5F5F5F5F5F5F5F5F5F5F5F5F5F5F5F5F5F5F5F5F5F5F5F5F5F5F5F5F5F5F5F5F5F5F5F5F5F5F5F5F5F5F5F5F5F5F5F5F5F5F5F5F5F5F5F5F5F5F5F5F5F5F59FF5F5F5F5F5F5F5F5F5F5F5F5F5F5F5F5F5F5F5E2E2E2F5F5F5F5F5F5F5F5F5F5F5F5F5F5F5
310
F5F5F5F59FF5F5F5F5F5F5F5F5F5F5F5F5F5F5F5F5F5F5F5F5F5F5F5F5F5F5F5F5F5F5F5F5F5F5F5F5F5F5F5F5F5F5F5F5F5F5F5F5F5F5F5F5F5F5F5F5F5F5F5F5F5F5F5F5F5F5F5F5F5F5F5F5F5F5F5F5F5F5F5F5F5F5F5F5F5F5F5F5F5F5F5F5F5F5F5F5F5F5F5F5F5F5F5F5F5F5F5F5F5F5F5F5F5F5F5F5F5F5F5F5F5F5
310
F5F5F5F5F5F5F5F5F5F5F5F5F5F5F59FF5F5F5F5F5F5F5F5F5F5F5F5F5F5F5F5F5F5F5E2E2E2F5F5F5F5F5F5F5F5F5F5F5F5F5F5F5F5F5F5F59F9F9F9F9F9F9F9F9F9F9F9F9F9F9F9F9F9F9F9F9F9F9F9F9F9F9F9F9F9F9F9F9F9F9F9F9F9F9F9F9F9F9F9F9F9F9F9F9F9F9F9F9F9F9F9F9F9F9F9F9F9F9F9F9F9F9F9F9F9F
310
9F9F9F9F9F9F9F9F9F9F9F9F9F9F9F9F9F9F9F9F9F9F9F9F9F9F9F9F9F9F9F9F9F9F9F9F9F9F9F9F9F9F9F9F9F9F9F9F9F9F9F9F9F9F9F9F9F9F9F9F9F9F9F9F9F9F9F9F9FF5F5F5F5F5F5F5F5F5F5F5F5F5F5F5F5F5F5F5E2E2E2F5F5F5F5F5F5F5F5F5F5F5F5F5F5F5F5F5F5F5F5F5F5F5F5F5F5F5F5F5F5F5F5F5F5F5F5
310
F5F5F5F5F5F5F5F5F5F5F5F5F5F5F5F5F5F5F5F5F5F5F5F5F5F5F5F5F5F5F5F5F5F5F5F5F5F5F5F5F5F5F5F5F5F5F5F5F5F5F5F5F5F5F5F5F5F5F5F5F5F5F5F5F5F5F5F5F5F5F5F5F5F5F5F5F5F5F5F5F5F5F5F5F5F5F5F5F5F5F5F5F5F5F5F5F5F5F5F5F5F5F5F5F5F5F5F5F5F5F5F5F5F5F5F5F5F5F5F5F5F5F5F5F5F5F5
310
F5F5F5F5F5F5F5F5F5F5F5F5F5F5E2E2E2F5F5F5F5F5F5F5F5F5F5F5F5F5F5F5F5F5F5F5F5F5F5F5F5F5F5F5F5F5F5F5F5F5F5F5F5F5F5F5F5F5F5F5F5F5F5F5F5F5F5F5F5F5F5F5F5F5F5F5F5F5F5F5F5F5F5F5F5F5F5F5F5F5F5F5F5F5F5F5F5F5F5F5F5F5F5F5F5F5F5F5F5F5F5F5F5F5F5F5F5F5F5F5F5F5F5F5F5F5F5
310
F5F5F5F5F5F5F5F5F5F5F5F5F5F5F5F5F5F5F5F5F5F5F5F5F5F5F5F5F5F5F5F5F5F5F5F5F5F5F5F5F5F5F5F5F5F5F5F5F5F5F5F5F5F5F5F5F5F5F5F5F5F5F5F5F5F5F5E2E2E2F5F5F5F5F5F5F5F5F5F5F5F5F5F5F5F5F5F5F5F5F5F5F5F5F5F5F5F5F5F5F5F5F5F5F5F5F5F5F5F5F5F5F5F5F5F5F5F5F5F5F5F5F5F5F5F5F5
310
F5F5F5F5F5F5F5F5F5F5F5F5F5F5F5F5F5F5F5F5F5F5F5F5F5F5F5F5F5F5F5F5F5F5F5F5F5F5F5F5F5F5F5F5F5F5F5F5F5F5F5F5F5F5F5F5F5F5F5F5F5F5F5F5F5F5F5F5F5F5F5F5F5F5F5F5F5F5F5F5F5F5F5F5F5F5F5F5F5F5F5F5F5F5F5F5F5F5F5F5F5F5F5F5F5F5F5F5F5F5F5F5F5F5F5F5F5F5F5F5E2E2E2F5F5F5F5
310
F5F5F5F5F5F5F5F5F5F5F5F5F5F5F5F5F5F5F5F5F5F5F5F5F5F5F5F5F5F5F5F5F5F5F5F5F5F5F5F5F5F5F5F5F5F5F5F5F5F5F5F5F5F5F5F5F5F5F5F5F5F5F5F5F5F5F5F5F5F5F5F5F5F5F5F5F5F5F5F5F5F5F5F5F5F5F5F5F5F5F5F5F5F5F5F5F5F5F5F5F5F5F5F5F5F5F5F5F5F5F5F5F5F5F5F5F5F5F5F5F5F5F5F5F5E2E2
310
E2E2E2E2E2E2E2E2E2E2E2E2E2E2E2E2E2E2E2E2E2E2E2E2E2E2E2F5F5F5F5F5F5F5F5F5F5F5F5F5F5F5F5F5F5F5E2E2E2F5F5F5F5F5F5F5F5F5F5F5F5F5F5F5F5F5F5F5F5F5F5F5F5F5F5F5F5F5F5F5F5F5F5F5F5F5F5F5F5F5F5F5F5F5F5F5F5F5F5F5F5F5F5F5F5F5F5F5F5F5F5F5F5F5F5F5F5F5F5F5F5F5F5F5F5F5F5
310
F5F5F5F5F5F5F5F5F5F5F5F5F5F5F5F5F5F5F5F5F5F5F5F5F5F5F5F5F5F5F5F5F5F5F5F5F5F5F5F5F5F5F5F5F5F5F5F5F5F5F5E2E2E2E2E2E2E2E2E2E2E2E2E2E2E2E2E2E2E2E2E2E2E2E2E2E2E2E2E2F5F5F5F5F5F5F5F5F5F5F5F5F5F5F5F5F5F5F5E2E2E2F5E2F5F5F5F5F5F5F5F5F5F5F5F5F5F5F5F5F5F5F5F5F5F5F5
310
F5F5F5F5F5F5F5F5F5F5F5F5F5F5F5F5F5F5F5F5F5F5F5F5F5F5F5F5F5F5F5F5F5F5F5F5F5F5F5F5F5F5F5F5F5F5F5F5F5F5F5F5F5F5F5F5F5F5F5F5F5F5F5F5F5F5F5F5F5F5F5F5F5F5F5F5F5F5F5F5F5F5F5F5F5F5F5F5F5F5F5F5F5F5F5F5F5F5F5F5F5F5F5F5E2E2E2E2E2E2E2E2E2E2E2E2E2E2E2E2E2E2E2E2E2E2E2
310
E2E2E2E2E2E2F5F5F5F5F5F5F5F5F5F5F5F5F5F5F5F5F5E2F5E2E2E2F5E2F5F5F5F5F5F5F5F5F5F5F5F5F5F5F5F5F5F5F5F5F5F5F5F5F5F5F5F5F5F5F5F5F5F5F5F5F5F5F5F5F5F5F5F5F5F5F5F5F5F5F5F5F5F5F5F5F5F5F5F5F5F5F5F5F5F5F5F5F5F5F5F5F5F5F5F5F5F5F5F5F5F5F5F5F5F5F5F5F5F5F5F5F5F5F5F5F5
310
F5F5F5F5F5F5F5F5F5F5F5F5F5F5F5F5F5F5F5F5F5F5F5F5F5F5F5F5F5F5E2E2E2E2E2E2E2E2E2E2E2E2E2E2E2E2E2E2E2E2E2E2E2E2E2E2E2E2E2F5F5F5F5F5F5F5F5F5F5F5F5F5F5F5F5F5E2F5E2E2E2F5E2F5F5F5F5F5F5F5F5F5F5F5F5F5F5F5F5F5F5F5F5F5F5F5F5F5F5F5F5F5F5F5F5F5F5F5F5F5F5F5F5F5F5F5F5
310
F5F5F5F5F5F5F5F5F5F5F5F5F5F5F5F5F5F5F5F5F5F5F5F5F5F5F5F5F5F5F5F5F5F5F5F5F5F5F5F5F5F5F5F5F5F5F5F5F5F5F5F5F5F5F5F5F5F5F5F5F5F5F5F5F5F5F5F5F5F5F5F5F5F5F5F5F5F5F5F5F5F5F5F5F5F5F5F5F5F5F5F5F5F5F5F5F5F5F5F5F5F5F5F5F5F5F5F5F5F5F5F5F5F5F5F5F5F5F5F5F5F5F5F5F5F5F5
310
F5F5E2F5E2E2E2F5E2F5F5F5F5F5F5F5F5F5F5F5F5F5F5F5F5F5F5F5F5F5F5F5F5F5F5F5F5F5F5F5F5F5F5F5F5F5F5F5F5F5F5F5F5F5F5F5F5F5F5F5F5F5F5F5F5F5F5F5F5F5F5F5F5F5F5F5F5F5F5F5F5F5F5F5F5F5F5F5F5F5F5F5F5F5F5F5F5F5F5F5F5F5F5F5F5F5F5F5F5F5F5F5F5F5F5F5F5F5F5F5F5F5F5F5F5F5F5
310
F5F5F5F5F5F5F5F5F5F5F5F5F5F5F5F5F5F5F5F5F5F5F5F5F5F5F5F5F5F5F5F5F5F5F5F5F5F5F5F5F5F5F5F5F5F5F5F5F5F5F5F5F5F5F5E2F5E2E2E2F5E2F5F5F5F5F5F5F5F5F5F5F5F5F5F5F5F5F5F5F5F5F5F5F5F5F5F5F5F5F5F5F5F5F5F5F5F5F5F5F5F5F5F5F5F5F5F5F5F5F5F5F5F5F5F5F5F5F5F5F5F5F5F5F5F5F5
310
F5F5F5F5F5F5F5F5F5F5F5F5F5F5F5F5F5F5F5F5F5F5F5F5F5F5F5F5F5F5F5F5F5F5F5F5F5F5F5F5F5F5F5F5F5F5F5F5F5F5F5F5F5F5F5F5F5F5F5F5F5F5F5F5F5F5F5F5F5F5F5F5F5F5F5F5F5F5F5F5F5F5F5F5F5F5F5F5F5F5F5F5F5F5F5F5F5F5F5F5F5F5F5F5F5F5F5F5E2F5E2E2E2F5E2F5F5F5F5F5F5F5F5F5F5F5F5
310
F5F5F5F5F5F5F5F5F5F5F5F5F5F5F5F5F5F5F5F5F5F5F5F5F5F5F5F5F5F5F5F5F5F5F5F5F5F5F5F5F5F5F5F5F5F5F5F5F5F5F5F5F5F5F5F5F5F5F5F5F5F5F5F5F5F5F5F5F5F5F5F5F5F5F5F5F5F5F5F5F5F5F5F5F5F5F5F5F5F5F5F5F5F5F5F5F5F5F5F5F5F5F5F5F5F5F5F5F5F5F5F5F5F5F5F5F5F5F5F5F5F5F5F5F5F5F5
310
F5F5F5F5F5F5F5F5F5F5F5F5F5F5F5F5F5F5F5F5F5F5F5F5F5F5F5F5F5F5F5F5F5F5E2F5E2E2E2F5E2F5F5F5F5F5F5F5F5F5F5F5F5F5F5F5F5F5F5F5F5F5F5F5F5F5F5F5F5F5F5F5F5F5F5F5F5F5F5F5F5F5F5F5F5F5F5F5F5F5F5F5F5F5F5F5F5F5F5F5F5F5F5F5F5F5F5F5F5F5F5F5F5F5F5F5F5F5F5F5F5F5F5F5F5F5F5
310
F5F5F5F5F5F5F5F5F5F5F5F5F5F5F5F5F5F5F5F5F5F5F5F5F5F5F5F5F5F5F5F5F5F5F5F5F5F5F5F5F5F5F5F5F5F5F5F5F5F5F5F5F5F5F5F5F5F5F5F5F5F5F5F5F5F5F5F5F5F5F5F5F5F5F5F5F5F5F5F5F5F5F5F5F5F5F5E2F5E2E2E2F5E2F5F5F5F5F5F5F5F5F5F5F5F5F5F5F5F5F5F5F5F5F5F5F5F5F5F5F5F5F5F5F5F5F5
310
F5F5F5F5F5F5F5F5F5F5F5F5F5F5F5F5F5F5F5F5F5F5F5F5F5F5F5F5F5F5F5F5F5F5F5F5F5F5F5F5F5F5F5F5F5F5F5F5F5F5F5F5F5F5F5F5F5F5F5F5F5F5F5F5F5F5F5F5F5F5F5F5F5F5F5F5F5F5F5F5F5F5F5F5F5F5F5F5F5F5F5F5F5F5F5F5F5F5F5F5F5F5F5F5F5F5F5F5F5F5F5F5F5F5F5F5F5F5F5F5F5F5F5F5F5F5F5
310
F5F5F5F5F5F5F5F5F5F5F5F5F5E2F5E2E2E2F5E2E2E2E2E2E2E2E2F5F5F5F5F5F5F5F5F5E2E2E2E2E2E2E2E2E2E2E2E2E2E2E2E2F5F5F5F5F5F5F5F5F5E2E2E2E2E2E2E2E2E2E2E2E2E2E2E2E2F5F5F5F5F5F5F5F5F5E2E2E2E2E2E2E2E2E2E2E2E2E2E2E2E2F5F5F5F5F5F5F5F5F5E2E2E2E2E2E2E2E2E2E2E2E2E2E2E2E2
310
F5F5F5F5F5F5F5F5F5E2E2E2E2E2E2E2E2E2E2E2E2E2E2E2E2F5F5F5F5F5F5F5F5F5E2E2E2E2E2E2E2E2E2E2E2E2E2E2E2E2F5F5F5F5F5F5F5F5F5E2E2E2E2E2E2E2E2F5E2EFE2F5F5F5F5F5F5F5F5F5F5F5F5F5F5F5F5F5F5F5F5F5F5F5F5F5F5F5F5F5F5F5F5F5F5F5F5F5F5F5F5F5F5F5F5F5F5F5F5F5F5F5F5F5F5F5F5
310
F5F5F5F5F5F5F5F5F5F5F5F5F5F5F5F5F5F5F5F5F5F5F5F5F5F5F5F5F5F5F5F5F5F5F5F5F5F5F5F5F5F5F5F5F5F5F5F5F5F5F5F5F5F5F5F5F5F5F5F5F5F5F5F5F5F5F5F5F5F5F5F5F5F5F5F5F5F5F5F5F5F5F5F5F5F5F5F5F5F5F5F5F5F5F5F5F5F5F5F5F5F5F5F5F5F5F5F5F5F5F5F5F5F5F5F5F5F5F5F5F5E2EFE2E2E2E2
310
E2E2E2E2E2E2E2E2E2E2E2E2E2E2E2E2E2E2E2E2E2E2E2E2E2E2E2E2E2E2E2E2E2E2E2E2E2E2E2E2E2E2E2E2E2E2E2E2E2E2E2E2E2E2E2E2E2E2E2E2E2E2E2E2E2E2E2E2E2E2E2E2E2E2E2E2E2E2E2E2E2E2E2E2E2E2E2E2E2E2E2E2E2E2E2E2E2E2E2E2E2E2E2E2E2E2E2E2E2E2E2E2E2E2E2E2E2E2E2E2E2E2E2E2E2E2E2
310
E2E2E2E2E2E2E2E2E2E2E2E2E2E2E2E2E2E2E2E2E2E2E2E2E2E2E2E2E2E2E2E2E2E2E2E2E2E2E2E2E2E2E2E2E2E2E2E2EF
  0
XRECORD
  5
BEE3
102
{ACAD_REACTORS
330
BEE2
102
}
330
BEE2
100
AcDbXrecord
280
     1
102
SHADEPLOT
 70
     0
102
SHADEPLOTRESLEVEL
 70
     2
102
SHADEPLOTCUSTOMDPI
 70
   300
  0
XRECORD
  5
BEE7
102
{ACAD_REACTORS
330
BEE6
102
}
330
BEE6
100
AcDbXrecord
280
     1
102
MATERIAL
148
0.0
149
0.0
149
0.0
 93
        0
 94
       63
282
     0
 72
     1
 77
     1
171
     1
175
     1
179
     1
273
     0
  0
XRECORD
  5
BEE5
102
{ACAD_REACTORS
330
BEE4
102
}
330
BEE4
100
AcDbXrecord
280
     1
102
MATERIAL
148
0.0
149
0.0
149
0.0
 93
        0
 94
       63
282
     0
 72
     1
 77
     1
171
     1
175
     1
179
     1
273
     0
  0
XRECORD
  5
BEE9
102
{ACAD_REACTORS
330
BEE8
102
}
330
BEE8
100
AcDbXrecord
280
     1
102
MATERIAL
148
0.0
149
0.0
149
0.0
 93
        0
 94
       63
282
     0
 72
     1
 77
     1
171
     1
175
     1
179
     1
273
     0
  0
XRECORD
  5
BEEB
102
{ACAD_REACTORS
330
BEEA
102
}
330
BEEA
100
AcDbXrecord
280
     1
102
ACAD_ROUNDTRIP_PRE2007_TABLESTYLE
 90
      512
 91
        0
  1

 92
      512
 93
        0
  2

 94
      512
 95
        0
  3

  0
ENDSEC
  0
EOF
