  0
SECTION
  2
HEADER
  9
$SPLINETYPE
 70
     6
  9
$FILLMODE
 70
     1
  9
$LTSCALE
 40
10.000000
  0
ENDSEC
  0
SECTION
  2
TABLES
  0
TABLE
  2
LTYPE
 70
     8
  0
LTYPE
  2
SOLID
 70
    64
  3

 72
    65
 73
     0
 40
0.000000
  0
LTYPE
  2
DASH
 70
    64
  3

 72
    65
 73
     2
 40
8.000000
 49
5.000000
 49
-3.000000
  0
LTYPE
  2
CENTER
 70
    64
  3

 72
    65
 73
     4
 40
8.000000
 49
4.500000
 49
-1.500000
 49
0.500000
 49
-1.500000
  0
LTYPE
  2
L_DASH
 70
    64
  3

 72
    65
 73
     2
 40
8.000000
 49
6.500000
 49
-1.500000
  0
LTYPE
  2
FONT_5
 70
    64
  3

 72
    65
 73
     8
 40
8.000000
 49
1.000000
 49
-1.000000
 49
1.000000
 49
-1.000000
 49
1.000000
 49
-1.000000
 49
1.000000
 49
-1.000000
  0
LTYPE
  2
FONT_6
 70
    64
  3

 72
    65
 73
     4
 40
8.000000
 49
2.000000
 49
-2.000000
 49
2.000000
 49
-2.000000
  0
LTYPE
  2
FONT_7
 70
    64
  3

 72
    65
 73
     6
 40
8.000000
 49
4.000000
 49
-1.000000
 49
0.500000
 49
-1.000000
 49
0.500000
 49
-1.000000
  0
LTYPE
  2
FONT_8
 70
    64
  3

 72
    65
 73
     4
 40
8.000000
 49
2.000000
 49
-1.000000
 49
2.000000
 49
-3.000000
  0
ENDTAB
  0
TABLE
  2
LAYER
 70
   100
  0
LAYER
  2
1
 70
    64
 62
     7
  6
SOLID
  0
LAYER
  2
_____2
 70
    64
 62
     7
  6
SOLID
  0
LAYER
  2
_____3
 70
    64
 62
     7
  6
SOLID
  0
LAYER
  2
_____4
 70
    64
 62
     7
  6
SOLID
  0
LAYER
  2
_____5
 70
    64
 62
     7
  6
SOLID
  0
LAYER
  2
_____6
 70
    64
 62
     7
  6
SOLID
  0
LAYER
  2
_____7
 70
    64
 62
     7
  6
SOLID
  0
LAYER
  2
_____8
 70
    64
 62
     7
  6
SOLID
  0
LAYER
  2
_____9
 70
    64
 62
     7
  6
SOLID
  0
LAYER
  2
____10
 70
    64
 62
     7
  6
SOLID
  0
LAYER
  2
____11
 70
    64
 62
     7
  6
SOLID
  0
LAYER
  2
____12
 70
    64
 62
     7
  6
SOLID
  0
LAYER
  2
____13
 70
    64
 62
     7
  6
SOLID
  0
LAYER
  2
____14
 70
    64
 62
     7
  6
SOLID
  0
LAYER
  2
____15
 70
    64
 62
     7
  6
SOLID
  0
LAYER
  2
____16
 70
    64
 62
     7
  6
SOLID
  0
LAYER
  2
____17
 70
    64
 62
     7
  6
SOLID
  0
LAYER
  2
____18
 70
    64
 62
     7
  6
SOLID
  0
LAYER
  2
____19
 70
    64
 62
     7
  6
SOLID
  0
LAYER
  2
____20
 70
    64
 62
     7
  6
SOLID
  0
LAYER
  2
____21
 70
    64
 62
     7
  6
SOLID
  0
LAYER
  2
____22
 70
    64
 62
     7
  6
SOLID
  0
LAYER
  2
____23
 70
    64
 62
     7
  6
SOLID
  0
LAYER
  2
____24
 70
    64
 62
     7
  6
SOLID
  0
LAYER
  2
____25
 70
    64
 62
     7
  6
SOLID
  0
LAYER
  2
____26
 70
    64
 62
     7
  6
SOLID
  0
LAYER
  2
____27
 70
    64
 62
     7
  6
SOLID
  0
LAYER
  2
____28
 70
    64
 62
     7
  6
SOLID
  0
LAYER
  2
____29
 70
    64
 62
     7
  6
SOLID
  0
LAYER
  2
____30
 70
    64
 62
     7
  6
SOLID
  0
LAYER
  2
____31
 70
    64
 62
     7
  6
SOLID
  0
LAYER
  2
____32
 70
    64
 62
     7
  6
SOLID
  0
LAYER
  2
____33
 70
    64
 62
     7
  6
SOLID
  0
LAYER
  2
____34
 70
    64
 62
     7
  6
SOLID
  0
LAYER
  2
____35
 70
    64
 62
     7
  6
SOLID
  0
LAYER
  2
____36
 70
    64
 62
     7
  6
SOLID
  0
LAYER
  2
____37
 70
    64
 62
     7
  6
SOLID
  0
LAYER
  2
____38
 70
    64
 62
     7
  6
SOLID
  0
LAYER
  2
____39
 70
    64
 62
     7
  6
SOLID
  0
LAYER
  2
____40
 70
    64
 62
     7
  6
SOLID
  0
LAYER
  2
____41
 70
    64
 62
     7
  6
SOLID
  0
LAYER
  2
____42
 70
    64
 62
     7
  6
SOLID
  0
LAYER
  2
____43
 70
    64
 62
     7
  6
SOLID
  0
LAYER
  2
____44
 70
    64
 62
     7
  6
SOLID
  0
LAYER
  2
____45
 70
    64
 62
     7
  6
SOLID
  0
LAYER
  2
____46
 70
    64
 62
     7
  6
SOLID
  0
LAYER
  2
____47
 70
    64
 62
     7
  6
SOLID
  0
LAYER
  2
____48
 70
    64
 62
     7
  6
SOLID
  0
LAYER
  2
____49
 70
    64
 62
     7
  6
SOLID
  0
LAYER
  2
____50
 70
    64
 62
     7
  6
SOLID
  0
LAYER
  2
____51
 70
    64
 62
     7
  6
SOLID
  0
LAYER
  2
____52
 70
    64
 62
     7
  6
SOLID
  0
LAYER
  2
____53
 70
    64
 62
     7
  6
SOLID
  0
LAYER
  2
____54
 70
    64
 62
     7
  6
SOLID
  0
LAYER
  2
____55
 70
    64
 62
     7
  6
SOLID
  0
LAYER
  2
____56
 70
    64
 62
     7
  6
SOLID
  0
LAYER
  2
____57
 70
    64
 62
     7
  6
SOLID
  0
LAYER
  2
____58
 70
    64
 62
     7
  6
SOLID
  0
LAYER
  2
____59
 70
    64
 62
     7
  6
SOLID
  0
LAYER
  2
____60
 70
    64
 62
     7
  6
SOLID
  0
LAYER
  2
____61
 70
    64
 62
     7
  6
SOLID
  0
LAYER
  2
____62
 70
    64
 62
     7
  6
SOLID
  0
LAYER
  2
____63
 70
    64
 62
     7
  6
SOLID
  0
LAYER
  2
____64
 70
    64
 62
     7
  6
SOLID
  0
LAYER
  2
____65
 70
    64
 62
     7
  6
SOLID
  0
LAYER
  2
____66
 70
    64
 62
     7
  6
SOLID
  0
LAYER
  2
____67
 70
    64
 62
     7
  6
SOLID
  0
LAYER
  2
____68
 70
    64
 62
     7
  6
SOLID
  0
LAYER
  2
____69
 70
    64
 62
     7
  6
SOLID
  0
LAYER
  2
____70
 70
    64
 62
     7
  6
SOLID
  0
LAYER
  2
____71
 70
    64
 62
     7
  6
SOLID
  0
LAYER
  2
____72
 70
    64
 62
     7
  6
SOLID
  0
LAYER
  2
____73
 70
    64
 62
     7
  6
SOLID
  0
LAYER
  2
____74
 70
    64
 62
     7
  6
SOLID
  0
LAYER
  2
____75
 70
    64
 62
     7
  6
SOLID
  0
LAYER
  2
____76
 70
    64
 62
     7
  6
SOLID
  0
LAYER
  2
____77
 70
    64
 62
     7
  6
SOLID
  0
LAYER
  2
____78
 70
    64
 62
     7
  6
SOLID
  0
LAYER
  2
____79
 70
    64
 62
     7
  6
SOLID
  0
LAYER
  2
____80
 70
    64
 62
     7
  6
SOLID
  0
LAYER
  2
____81
 70
    64
 62
     7
  6
SOLID
  0
LAYER
  2
____82
 70
    64
 62
     7
  6
SOLID
  0
LAYER
  2
____83
 70
    64
 62
     7
  6
SOLID
  0
LAYER
  2
____84
 70
    64
 62
     7
  6
SOLID
  0
LAYER
  2
____85
 70
    64
 62
     7
  6
SOLID
  0
LAYER
  2
____86
 70
    64
 62
     7
  6
SOLID
  0
LAYER
  2
____87
 70
    64
 62
     7
  6
SOLID
  0
LAYER
  2
____88
 70
    64
 62
     7
  6
SOLID
  0
LAYER
  2
____89
 70
    64
 62
     7
  6
SOLID
  0
LAYER
  2
____90
 70
    64
 62
     7
  6
SOLID
  0
LAYER
  2
____91
 70
    64
 62
     7
  6
SOLID
  0
LAYER
  2
____92
 70
    64
 62
     7
  6
SOLID
  0
LAYER
  2
____93
 70
    64
 62
     7
  6
SOLID
  0
LAYER
  2
____94
 70
    64
 62
     7
  6
SOLID
  0
LAYER
  2
____95
 70
    64
 62
     7
  6
SOLID
  0
LAYER
  2
____96
 70
    64
 62
     7
  6
SOLID
  0
LAYER
  2
____97
 70
    64
 62
     7
  6
SOLID
  0
LAYER
  2
____98
 70
    64
 62
     7
  6
SOLID
  0
LAYER
  2
____99
 70
    64
 62
     7
  6
SOLID
  0
LAYER
  2
___100
 70
    64
 62
     7
  6
SOLID
  0
ENDTAB
  0
TABLE
  2
STYLE
 70
     1
  0
STYLE
  2
DEFAULT
 70
    64
 40
0.000000
 41
1.000000
 50
0.000000
 71
     0
 42
0.000000
  3
DEFAULT
  4

  0
STYLE
  2
STANDARD
 70
    64
 40
0.000000
 41
1.000000
 50
0.000000
 71
     0
 42
0.000000
  3
txt
  4

  0
ENDTAB
  0
TABLE
  2
UCS
 70
     2
  0
UCS
  2
XZ
 70
    64
 10
0.000000
 20
0.000000
 30
0.000000
 11
1.000000
 21
0.000000
 31
0.000000
 12
0.000000
 22
0.000000
 32
1.000000
  0
UCS
  2
YZ
 70
    64
 10
0.000000
 20
0.000000
 30
0.000000
 11
0.000000
 21
1.000000
 31
0.000000
 12
0.000000
 22
0.000000
 32
1.000000
  0
ENDTAB
  0
ENDSEC
  0
SECTION
  2
BLOCKS
  0
BLOCK
  2
*D57
  8
1
 70
    65
 10
0.000000
 20
0.000000
 30
0.000000
  3
*D57
  0
LINE
  8
1
  6
SOLID
 62
     7
 10
1003.775391
 20
-177.041122
 30
0.000000
 11
1147.444092
 21
-177.041122
 31
0.000000
  0
LINE
  8
1
  6
SOLID
 62
     7
 10
1003.775391
 20
71.936958
 30
0.000000
 11
1147.444092
 21
71.936966
 31
0.000000
  0
LINE
  8
1
  6
SOLID
 62
     7
 10
1132.444092
 20
-177.041122
 30
0.000000
 11
1132.444092
 21
71.936966
 31
0.000000
  0
LINE
  8
1
  6
SOLID
 62
     7
 10
1128.277832
 20
-152.041122
 30
0.000000
 11
1132.444092
 21
-177.041122
 31
0.000000
  0
LINE
  8
1
  6
SOLID
 62
     7
 10
1132.444092
 20
-177.041122
 30
0.000000
 11
1136.610352
 21
-152.041122
 31
0.000000
  0
LINE
  8
1
  6
SOLID
 62
     7
 10
1136.610352
 20
-152.041122
 30
0.000000
 11
1128.277832
 21
-152.041122
 31
0.000000
  0
LINE
  8
1
  6
SOLID
 62
     7
 10
1132.444092
 20
71.936966
 30
0.000000
 11
1132.444092
 21
-177.041122
 31
0.000000
  0
LINE
  8
1
  6
SOLID
 62
     7
 10
1136.610352
 20
46.936962
 30
0.000000
 11
1132.444092
 21
71.936966
 31
0.000000
  0
LINE
  8
1
  6
SOLID
 62
     7
 10
1132.444092
 20
71.936966
 30
0.000000
 11
1128.277832
 21
46.936962
 31
0.000000
  0
LINE
  8
1
  6
SOLID
 62
     7
 10
1128.277832
 20
46.936962
 30
0.000000
 11
1136.610352
 21
46.936962
 31
0.000000
  0
TEXT
  8
1
  6
SOLID
 62
     7
 10
1119.944092
 20
-124.863556
 30
0.000000
 40
25.000000
  1
9.8
 50
90.000003
  0
TEXT
  8
1
  6
SOLID
 62
     7
 10
1119.944092
 20
-40.946918
 30
0.000000
 40
20.000000
  1
INCH
 50
90.000003
  0
ENDBLK
  0
BLOCK
  2
*D58
  8
1
 70
    65
 10
0.000000
 20
0.000000
 30
0.000000
  3
*D58
  0
LINE
  8
1
  6
SOLID
 62
     7
 10
405.944031
 20
-276.552094
 30
0.000000
 11
405.944031
 21
-416.552094
 31
0.000000
  0
LINE
  8
1
  6
SOLID
 62
     7
 10
805.944031
 20
-276.552094
 30
0.000000
 11
805.944031
 21
-416.552094
 31
0.000000
  0
LINE
  8
1
  6
SOLID
 62
     7
 10
405.944031
 20
-401.552094
 30
0.000000
 11
805.944031
 21
-401.552094
 31
0.000000
  0
LINE
  8
1
  6
SOLID
 62
     7
 10
430.944031
 20
-397.385834
 30
0.000000
 11
405.944031
 21
-401.552094
 31
0.000000
  0
LINE
  8
1
  6
SOLID
 62
     7
 10
405.944031
 20
-401.552094
 30
0.000000
 11
430.944031
 21
-405.718353
 31
0.000000
  0
LINE
  8
1
  6
SOLID
 62
     7
 10
430.944031
 20
-405.718353
 30
0.000000
 11
430.944031
 21
-397.385834
 31
0.000000
  0
LINE
  8
1
  6
SOLID
 62
     7
 10
805.944031
 20
-401.552094
 30
0.000000
 11
405.944031
 21
-401.552094
 31
0.000000
  0
LINE
  8
1
  6
SOLID
 62
     7
 10
780.944031
 20
-405.718353
 30
0.000000
 11
805.944031
 21
-401.552094
 31
0.000000
  0
LINE
  8
1
  6
SOLID
 62
     7
 10
805.944031
 20
-401.552094
 30
0.000000
 11
780.944031
 21
-397.385834
 31
0.000000
  0
LINE
  8
1
  6
SOLID
 62
     7
 10
780.944031
 20
-397.385834
 30
0.000000
 11
780.944031
 21
-405.718353
 31
0.000000
  0
TEXT
  8
1
  6
SOLID
 62
     7
 10
511.549225
 20
-389.052094
 30
0.000000
 40
25.000000
  1
15.75
 50
0.000000
  0
TEXT
  8
1
  6
SOLID
 62
     7
 10
639.632507
 20
-389.052094
 30
0.000000
 40
20.000000
  1
INCH
 50
0.000000
  0
ENDBLK
  0
BLOCK
  2
*D59
  8
1
 70
    65
 10
0.000000
 20
0.000000
 30
0.000000
  3
*D59
  0
LINE
  8
1
  6
SOLID
 62
     7
 10
214.637848
 20
102.294151
 30
0.000000
 11
-61.813927
 21
207.782700
 31
0.000000
  0
LINE
  8
1
  6
SOLID
 62
     7
 10
189.795227
 20
107.314346
 30
0.000000
 11
214.637848
 21
102.294151
 31
0.000000
  0
LINE
  8
1
  6
SOLID
 62
     7
 10
214.637848
 20
102.294151
 30
0.000000
 11
192.765839
 21
115.099335
 31
0.000000
  0
LINE
  8
1
  6
SOLID
 62
     7
 10
192.765839
 20
115.099335
 30
0.000000
 11
189.795227
 21
107.314346
 31
0.000000
  0
TEXT
  8
1
  6
SOLID
 62
     7
 10
-47.041443
 20
215.524918
 30
0.000000
 40
25.000000
  1
R 
 50
-20.885868
  0
TEXT
  8
1
  6
SOLID
 62
     7
 10
-47.041443
 20
215.524918
 30
0.000000
 40
25.000000
  1
  4.02
 50
-20.885868
  0
TEXT
  8
1
  6
SOLID
 62
     7
 10
93.258087
 20
161.989380
 30
0.000000
 40
20.000000
  1
INCH
 50
-20.885868
  0
ENDBLK
  0
BLOCK
  2
*D60
  8
1
 70
    65
 10
0.000000
 20
0.000000
 30
0.000000
  3
*D60
  0
LINE
  8
1
  6
SOLID
 62
     7
 10
204.582062
 20
-28.399805
 30
0.000000
 11
-96.500824
 21
-24.959705
 31
0.000000
  0
LINE
  8
1
  6
SOLID
 62
     7
 10
179.536102
 20
-32.280159
 30
0.000000
 11
204.582062
 21
-28.399805
 31
0.000000
  0
LINE
  8
1
  6
SOLID
 62
     7
 10
204.582062
 20
-28.399805
 30
0.000000
 11
179.631287
 21
-23.948202
 31
0.000000
  0
LINE
  8
1
  6
SOLID
 62
     7
 10
179.631287
 20
-23.948202
 30
0.000000
 11
179.536102
 21
-32.280159
 31
0.000000
  0
TEXT
  8
1
  6
SOLID
 62
     7
 10
-85.317093
 20
-12.586673
 30
0.000000
 40
25.000000
  1
R 
 50
-0.654619
  0
TEXT
  8
1
  6
SOLID
 62
     7
 10
-85.317093
 20
-12.586673
 30
0.000000
 40
25.000000
  1
  83.23
 50
-0.654619
  0
TEXT
  8
1
  6
SOLID
 62
     7
 10
86.921608
 20
-14.554630
 30
0.000000
 40
20.000000
  1
INCH
 50
-0.654619
  0
ENDBLK
  0
BLOCK
  2
*D63
  8
1
 70
    65
 10
0.000000
 20
0.000000
 30
0.000000
  3
*D63
  0
LINE
  8
1
  6
SOLID
 62
     7
 10
302.471588
 20
-272.761108
 30
0.000000
 11
302.471588
 21
-491.552094
 31
0.000000
  0
LINE
  8
1
  6
SOLID
 62
     7
 10
909.416504
 20
-272.761108
 30
0.000000
 11
909.416504
 21
-491.552094
 31
0.000000
  0
LINE
  8
1
  6
SOLID
 62
     7
 10
302.471588
 20
-476.552094
 30
0.000000
 11
909.416504
 21
-476.552094
 31
0.000000
  0
LINE
  8
1
  6
SOLID
 62
     7
 10
327.471588
 20
-472.385834
 30
0.000000
 11
302.471588
 21
-476.552094
 31
0.000000
  0
LINE
  8
1
  6
SOLID
 62
     7
 10
302.471588
 20
-476.552094
 30
0.000000
 11
327.471588
 21
-480.718353
 31
0.000000
  0
LINE
  8
1
  6
SOLID
 62
     7
 10
327.471588
 20
-480.718353
 30
0.000000
 11
327.471588
 21
-472.385834
 31
0.000000
  0
LINE
  8
1
  6
SOLID
 62
     7
 10
909.416504
 20
-476.552094
 30
0.000000
 11
302.471588
 21
-476.552094
 31
0.000000
  0
LINE
  8
1
  6
SOLID
 62
     7
 10
884.416504
 20
-480.718353
 30
0.000000
 11
909.416504
 21
-476.552094
 31
0.000000
  0
LINE
  8
1
  6
SOLID
 62
     7
 10
909.416504
 20
-476.552094
 30
0.000000
 11
884.416504
 21
-472.385834
 31
0.000000
  0
LINE
  8
1
  6
SOLID
 62
     7
 10
884.416504
 20
-472.385834
 30
0.000000
 11
884.416504
 21
-480.718353
 31
0.000000
  0
TEXT
  8
1
  6
SOLID
 62
     7
 10
522.590942
 20
-464.052094
 30
0.000000
 40
25.000000
  1
23.9
 50
0.000000
  0
TEXT
  8
1
  6
SOLID
 62
     7
 10
628.590942
 20
-464.052094
 30
0.000000
 40
20.000000
  1
INCH
 50
0.000000
  0
ENDBLK
  0
BLOCK
  2
*D67
  8
1
 70
    65
 10
0.000000
 20
0.000000
 30
0.000000
  3
*D67
  0
LINE
  8
1
  6
SOLID
 62
     7
 10
208.112671
 20
-177.041565
 30
0.000000
 11
208.112671
 21
-566.552124
 31
0.000000
  0
LINE
  8
1
  6
SOLID
 62
     7
 10
1003.775391
 20
-177.041122
 30
0.000000
 11
1003.775391
 21
-566.552124
 31
0.000000
  0
LINE
  8
1
  6
SOLID
 62
     7
 10
208.112671
 20
-551.552124
 30
0.000000
 11
1003.775391
 21
-551.552124
 31
0.000000
  0
LINE
  8
1
  6
SOLID
 62
     7
 10
233.112671
 20
-547.385864
 30
0.000000
 11
208.112671
 21
-551.552124
 31
0.000000
  0
LINE
  8
1
  6
SOLID
 62
     7
 10
208.112671
 20
-551.552124
 30
0.000000
 11
233.112671
 21
-555.718384
 31
0.000000
  0
LINE
  8
1
  6
SOLID
 62
     7
 10
233.112671
 20
-555.718384
 30
0.000000
 11
233.112671
 21
-547.385864
 31
0.000000
  0
LINE
  8
1
  6
SOLID
 62
     7
 10
1003.775391
 20
-551.552124
 30
0.000000
 11
208.112671
 21
-551.552124
 31
0.000000
  0
LINE
  8
1
  6
SOLID
 62
     7
 10
978.775391
 20
-555.718384
 30
0.000000
 11
1003.775391
 21
-551.552124
 31
0.000000
  0
LINE
  8
1
  6
SOLID
 62
     7
 10
1003.775391
 20
-551.552124
 30
0.000000
 11
978.775391
 21
-547.385864
 31
0.000000
  0
LINE
  8
1
  6
SOLID
 62
     7
 10
978.775391
 20
-547.385864
 30
0.000000
 11
978.775391
 21
-555.718384
 31
0.000000
  0
TEXT
  8
1
  6
SOLID
 62
     7
 10
511.549225
 20
-539.052124
 30
0.000000
 40
25.000000
  1
31.33
 50
0.000000
  0
TEXT
  8
1
  6
SOLID
 62
     7
 10
639.632507
 20
-539.052124
 30
0.000000
 40
20.000000
  1
INCH
 50
0.000000
  0
ENDBLK
  0
BLOCK
  2
*D74
  8
1
 70
    65
 10
0.000000
 20
0.000000
 30
0.000000
  3
*D74
  0
LINE
  8
1
  6
SOLID
 62
     7
 10
344.244781
 20
170.101151
 30
0.000000
 11
331.536835
 21
461.059601
 31
0.000000
  0
LINE
  8
1
  6
SOLID
 62
     7
 10
338.991608
 20
194.895538
 30
0.000000
 11
344.244781
 21
170.101151
 31
0.000000
  0
LINE
  8
1
  6
SOLID
 62
     7
 10
344.244781
 20
170.101151
 30
0.000000
 11
347.316193
 21
195.259125
 31
0.000000
  0
LINE
  8
1
  6
SOLID
 62
     7
 10
347.316193
 20
195.259125
 30
0.000000
 11
338.991608
 21
194.895538
 31
0.000000
  0
TEXT
  8
1
  6
SOLID
 62
     7
 10
344.506744
 20
450.573914
 30
0.000000
 40
25.000000
  1
R 
 50
-87.499129
  0
TEXT
  8
1
  6
SOLID
 62
     7
 10
344.506744
 20
450.573914
 30
0.000000
 40
25.000000
  1
  55.67
 50
-87.499129
  0
TEXT
  8
1
  6
SOLID
 62
     7
 10
352.022797
 20
278.488007
 30
0.000000
 40
20.000000
  1
INCH
 50
-87.499129
  0
ENDBLK
  0
BLOCK
  2
*D75
  8
1
 70
    65
 10
0.000000
 20
0.000000
 30
0.000000
  3
*D75
  0
LINE
  8
1
  6
SOLID
 62
     7
 10
204.444031
 20
-52.552280
 30
0.000000
 11
204.444031
 21
-641.552124
 31
0.000000
  0
LINE
  8
1
  6
SOLID
 62
     7
 10
1007.444031
 20
-52.552280
 30
0.000000
 11
1007.444031
 21
-641.552124
 31
0.000000
  0
LINE
  8
1
  6
SOLID
 62
     7
 10
204.444031
 20
-626.552124
 30
0.000000
 11
1007.444031
 21
-626.552124
 31
0.000000
  0
LINE
  8
1
  6
SOLID
 62
     7
 10
229.444016
 20
-622.385864
 30
0.000000
 11
204.444031
 21
-626.552124
 31
0.000000
  0
LINE
  8
1
  6
SOLID
 62
     7
 10
204.444031
 20
-626.552124
 30
0.000000
 11
229.444016
 21
-630.718384
 31
0.000000
  0
LINE
  8
1
  6
SOLID
 62
     7
 10
229.444016
 20
-630.718384
 30
0.000000
 11
229.444016
 21
-622.385864
 31
0.000000
  0
LINE
  8
1
  6
SOLID
 62
     7
 10
1007.444031
 20
-626.552124
 30
0.000000
 11
204.444031
 21
-626.552124
 31
0.000000
  0
LINE
  8
1
  6
SOLID
 62
     7
 10
982.444031
 20
-630.718384
 30
0.000000
 11
1007.444031
 21
-626.552124
 31
0.000000
  0
LINE
  8
1
  6
SOLID
 62
     7
 10
1007.444031
 20
-626.552124
 30
0.000000
 11
982.444031
 21
-622.385864
 31
0.000000
  0
LINE
  8
1
  6
SOLID
 62
     7
 10
982.444031
 20
-622.385864
 30
0.000000
 11
982.444031
 21
-630.718384
 31
0.000000
  0
TEXT
  8
1
  6
SOLID
 62
     7
 10
511.549225
 20
-614.052124
 30
0.000000
 40
25.000000
  1
31.61
 50
0.000000
  0
TEXT
  8
1
  6
SOLID
 62
     7
 10
639.632507
 20
-614.052124
 30
0.000000
 40
20.000000
  1
INCH
 50
0.000000
  0
ENDBLK
  0
BLOCK
  2
*D79
  8
1
 70
    65
 10
0.000000
 20
0.000000
 30
0.000000
  3
*D79
  0
LINE
  8
1
  6
SOLID
 62
     7
 10
805.944031
 20
-276.552094
 30
0.000000
 11
1222.444092
 21
-276.552094
 31
0.000000
  0
LINE
  8
1
  6
SOLID
 62
     7
 10
805.944031
 20
171.447906
 30
0.000000
 11
1222.444092
 21
171.447906
 31
0.000000
  0
LINE
  8
1
  6
SOLID
 62
     7
 10
1207.444092
 20
-276.552094
 30
0.000000
 11
1207.444092
 21
171.447906
 31
0.000000
  0
LINE
  8
1
  6
SOLID
 62
     7
 10
1203.277832
 20
-251.552078
 30
0.000000
 11
1207.444092
 21
-276.552094
 31
0.000000
  0
LINE
  8
1
  6
SOLID
 62
     7
 10
1207.444092
 20
-276.552094
 30
0.000000
 11
1211.610352
 21
-251.552078
 31
0.000000
  0
LINE
  8
1
  6
SOLID
 62
     7
 10
1211.610352
 20
-251.552078
 30
0.000000
 11
1203.277832
 21
-251.552078
 31
0.000000
  0
LINE
  8
1
  6
SOLID
 62
     7
 10
1207.444092
 20
171.447906
 30
0.000000
 11
1207.444092
 21
-276.552094
 31
0.000000
  0
LINE
  8
1
  6
SOLID
 62
     7
 10
1211.610352
 20
146.447891
 30
0.000000
 11
1207.444092
 21
171.447906
 31
0.000000
  0
LINE
  8
1
  6
SOLID
 62
     7
 10
1207.444092
 20
171.447906
 30
0.000000
 11
1203.277832
 21
146.447891
 31
0.000000
  0
LINE
  8
1
  6
SOLID
 62
     7
 10
1203.277832
 20
146.447891
 30
0.000000
 11
1211.610352
 21
146.447891
 31
0.000000
  0
TEXT
  8
1
  6
SOLID
 62
     7
 10
1194.944092
 20
-146.946899
 30
0.000000
 40
25.000000
  1
17.64
 50
90.000003
  0
TEXT
  8
1
  6
SOLID
 62
     7
 10
1194.944092
 20
-18.863613
 30
0.000000
 40
20.000000
  1
INCH
 50
90.000003
  0
ENDBLK
  0
ENDSEC
  0
SECTION
  2
ENTITIES
  0
ARC
  8
1
  6
SOLID
 62
     7
 10
901.952397
 20
65.930381
 30
0.000000
 40
102.000000
 50
3.375987
 51
85.803510
  0
ARC
  8
1
  6
SOLID
 62
     7
 10
-1106.555969
 20
-52.552280
 30
0.000000
 40
2114.000000
 50
356.624023
 51
3.375987
  0
ARC
  8
1
  6
SOLID
 62
     7
 10
901.952419
 20
-171.034572
 30
0.000000
 40
102.000000
 50
274.196491
 51
356.624023
  0
ARC
  8
1
  6
SOLID
 62
     7
 10
805.944031
 20
1137.447904
 30
0.000000
 40
1414.000000
 50
270.000000
 51
274.196491
  0
LINE
  8
1
  6
SOLID
 62
     7
 10
805.944031
 20
-276.552096
 30
0.000000
 11
405.944031
 21
-276.552096
 31
0.000000
  0
ARC
  8
1
  6
SOLID
 62
     7
 10
405.944031
 20
1137.447904
 30
0.000000
 40
1414.000000
 50
265.803509
 51
270.000000
  0
ARC
  8
1
  6
SOLID
 62
     7
 10
309.935642
 20
-171.034572
 30
0.000000
 40
102.000000
 50
183.376221
 51
265.803509
  0
ARC
  8
1
  6
SOLID
 62
     7
 10
2318.444031
 20
-52.552280
 30
0.000000
 40
2114.000000
 50
176.624003
 51
183.375977
  0
ARC
  8
1
  6
SOLID
 62
     7
 10
309.935664
 20
65.930381
 30
0.000000
 40
102.000000
 50
94.196490
 51
176.624013
  0
ARC
  8
1
  6
SOLID
 62
     7
 10
405.944031
 20
-1242.552096
 30
0.000000
 40
1414.000000
 50
90.000000
 51
94.196490
  0
LINE
  8
1
  6
SOLID
 62
     7
 10
405.944031
 20
171.447904
 30
0.000000
 11
805.944031
 21
171.447904
 31
0.000000
  0
ARC
  8
1
  6
SOLID
 62
     7
 10
805.944031
 20
-1242.552096
 30
0.000000
 40
1414.000000
 50
85.803510
 51
90.000000
  0
INSERT
  2
*D57
  8
1
 41
1.000000
 50
0.000000
 10
0.000000
 20
0.000000
 30
0.000000
  0
INSERT
  2
*D58
  8
1
 41
1.000000
 50
0.000000
 10
0.000000
 20
0.000000
 30
0.000000
  0
INSERT
  2
*D59
  8
1
 41
1.000000
 50
0.000000
 10
0.000000
 20
0.000000
 30
0.000000
  0
INSERT
  2
*D60
  8
1
 41
1.000000
 50
0.000000
 10
0.000000
 20
0.000000
 30
0.000000
  0
INSERT
  2
*D63
  8
1
 41
1.000000
 50
0.000000
 10
0.000000
 20
0.000000
 30
0.000000
  0
LINE
  8
1
  6
CENTER
 62
     7
 10
198.577018
 20
-52.551901
 30
0.000000
 11
1016.928284
 21
-52.551901
 31
0.000000
  0
INSERT
  2
*D67
  8
1
 41
1.000000
 50
0.000000
 10
0.000000
 20
0.000000
 30
0.000000
  0
LINE
  8
1
  6
CENTER
 62
     7
 10
605.944031
 20
-289.507909
 30
0.000000
 11
605.944031
 21
181.861781
 31
0.000000
  0
INSERT
  2
*D74
  8
1
 41
1.000000
 50
0.000000
 10
0.000000
 20
0.000000
 30
0.000000
  0
INSERT
  2
*D75
  8
1
 41
1.000000
 50
0.000000
 10
0.000000
 20
0.000000
 30
0.000000
  0
INSERT
  2
*D79
  8
1
 41
1.000000
 50
0.000000
 10
0.000000
 20
0.000000
 30
0.000000
  0
ENDSEC
  0
EOF
