  0
SECTION
  2
HEADER
  9
$ACADVER
  1
AC1014
  9
$ACADMAINTVER
 70
     9
  9
$DWGCODEPAGE
  3
ANSI_1252
  9
$INSBASE
 10
0.0
 20
0.0
 30
0.0
  9
$EXTMIN
 10
-0.0019999999999814
 20
-0.0000000000000215
 30
0.0
  9
$EXTMAX
 10
222.002
 20
318.0
 30
0.0
  9
$LIMMIN
 10
0.0
 20
0.0
  9
$LIMMAX
 10
12.0
 20
9.0
  9
$ORTHOMODE
 70
     0
  9
$REGENMODE
 70
     1
  9
$FILLMODE
 70
     1
  9
$QTEXTMODE
 70
     0
  9
$MIRRTEXT
 70
     1
  9
$DRAGMODE
 70
     2
  9
$LTSCALE
 40
1.0
  9
$OSMODE
 70
    37
  9
$ATTMODE
 70
     1
  9
$TEXTSIZE
 40
0.2
  9
$TRACEWID
 40
0.05
  9
$TEXTSTYLE
  7
STANDARD
  9
$CLAYER
  8
0
  9
$CELTYPE
  6
CONTINUOUS
  9
$CECOLOR
 62
   256
  9
$CELTSCALE
 40
1.0
  9
$DELOBJ
 70
     1
  9
$DISPSILH
 70
     0
  9
$DIMSCALE
 40
1.0
  9
$DIMASZ
 40
0.18
  9
$DIMEXO
 40
0.0625
  9
$DIMDLI
 40
0.38
  9
$DIMRND
 40
0.0
  9
$DIMDLE
 40
0.0
  9
$DIMEXE
 40
0.18
  9
$DIMTP
 40
0.0
  9
$DIMTM
 40
0.0
  9
$DIMTXT
 40
0.18
  9
$DIMCEN
 40
0.09
  9
$DIMTSZ
 40
0.0
  9
$DIMTOL
 70
     0
  9
$DIMLIM
 70
     0
  9
$DIMTIH
 70
     1
  9
$DIMTOH
 70
     1
  9
$DIMSE1
 70
     0
  9
$DIMSE2
 70
     0
  9
$DIMTAD
 70
     0
  9
$DIMZIN
 70
     0
  9
$DIMBLK
  1

  9
$DIMASO
 70
     1
  9
$DIMSHO
 70
     1
  9
$DIMPOST
  1

  9
$DIMAPOST
  1

  9
$DIMALT
 70
     0
  9
$DIMALTD
 70
     2
  9
$DIMALTF
 40
25.4
  9
$DIMLFAC
 40
1.0
  9
$DIMTOFL
 70
     0
  9
$DIMTVP
 40
0.0
  9
$DIMTIX
 70
     0
  9
$DIMSOXD
 70
     0
  9
$DIMSAH
 70
     0
  9
$DIMBLK1
  1

  9
$DIMBLK2
  1

  9
$DIMSTYLE
  2
STANDARD
  9
$DIMCLRD
 70
     0
  9
$DIMCLRE
 70
     0
  9
$DIMCLRT
 70
     0
  9
$DIMTFAC
 40
1.0
  9
$DIMGAP
 40
0.09
  9
$DIMJUST
 70
     0
  9
$DIMSD1
 70
     0
  9
$DIMSD2
 70
     0
  9
$DIMTOLJ
 70
     1
  9
$DIMTZIN
 70
     0
  9
$DIMALTZ
 70
     0
  9
$DIMALTTZ
 70
     0
  9
$DIMFIT
 70
     3
  9
$DIMUPT
 70
     0
  9
$DIMUNIT
 70
     2
  9
$DIMDEC
 70
     4
  9
$DIMTDEC
 70
     4
  9
$DIMALTU
 70
     2
  9
$DIMALTTD
 70
     2
  9
$DIMTXSTY
  7
STANDARD
  9
$DIMAUNIT
 70
     0
  9
$LUNITS
 70
     2
  9
$LUPREC
 70
     4
  9
$SKETCHINC
 40
0.1
  9
$FILLETRAD
 40
0.0
  9
$AUNITS
 70
     0
  9
$AUPREC
 70
     0
  9
$MENU
  1
.
  9
$ELEVATION
 40
0.0
  9
$PELEVATION
 40
0.0
  9
$THICKNESS
 40
0.0
  9
$LIMCHECK
 70
     0
  9
$BLIPMODE
 70
     0
  9
$CHAMFERA
 40
0.0
  9
$CHAMFERB
 40
0.0
  9
$CHAMFERC
 40
0.0
  9
$CHAMFERD
 40
0.0
  9
$SKPOLY
 70
     0
  9
$TDCREATE
 40
2454691.860051898
  9
$TDUPDATE
 40
2454691.861182720
  9
$TDINDWG
 40
0.0011310069
  9
$TDUSRTIMER
 40
0.0011310069
  9
$USRTIMER
 70
     1
  9
$ANGBASE
 50
0.0
  9
$ANGDIR
 70
     0
  9
$PDMODE
 70
     0
  9
$PDSIZE
 40
0.0
  9
$PLINEWID
 40
0.0
  9
$COORDS
 70
     1
  9
$SPLFRAME
 70
     0
  9
$SPLINETYPE
 70
     6
  9
$SPLINESEGS
 70
     8
  9
$ATTDIA
 70
     0
  9
$ATTREQ
 70
     1
  9
$HANDLING
 70
 22529
  9
$HANDSEED
  5
234
  9
$SURFTAB1
 70
     6
  9
$SURFTAB2
 70
     6
  9
$SURFTYPE
 70
     6
  9
$SURFU
 70
     6
  9
$SURFV
 70
     6
  9
$UCSNAME
  2

  9
$UCSORG
 10
0.0
 20
0.0
 30
0.0
  9
$UCSXDIR
 10
1.0
 20
0.0
 30
0.0
  9
$UCSYDIR
 10
0.0
 20
1.0
 30
0.0
  9
$PUCSNAME
  2

  9
$PUCSORG
 10
0.0
 20
0.0
 30
0.0
  9
$PUCSXDIR
 10
1.0
 20
0.0
 30
0.0
  9
$PUCSYDIR
 10
0.0
 20
1.0
 30
0.0
  9
$USERI1
 70
     0
  9
$USERI2
 70
     0
  9
$USERI3
 70
     0
  9
$USERI4
 70
     0
  9
$USERI5
 70
     0
  9
$USERR1
 40
0.0
  9
$USERR2
 40
0.0
  9
$USERR3
 40
0.0
  9
$USERR4
 40
0.0
  9
$USERR5
 40
0.0
  9
$WORLDVIEW
 70
     1
  9
$SHADEDGE
 70
     3
  9
$SHADEDIF
 70
    70
  9
$TILEMODE
 70
     1
  9
$MAXACTVP
 70
    64
  9
$PINSBASE
 10
0.0
 20
0.0
 30
0.0
  9
$PLIMCHECK
 70
     0
  9
$PEXTMIN
 10
1.000000000000000E+20
 20
1.000000000000000E+20
 30
1.000000000000000E+20
  9
$PEXTMAX
 10
-1.000000000000000E+20
 20
-1.000000000000000E+20
 30
-1.000000000000000E+20
  9
$PLIMMIN
 10
0.0
 20
0.0
  9
$PLIMMAX
 10
12.0
 20
9.0
  9
$UNITMODE
 70
     0
  9
$VISRETAIN
 70
     1
  9
$PLINEGEN
 70
     0
  9
$PSLTSCALE
 70
     1
  9
$TREEDEPTH
 70
  3020
  9
$PICKSTYLE
 70
     1
  9
$CMLSTYLE
  2
STANDARD
  9
$CMLJUST
 70
     0
  9
$CMLSCALE
 40
1.0
  9
$PROXYGRAPHICS
 70
     1
  9
$MEASUREMENT
 70
     0
  0
ENDSEC
  0
SECTION
  2
CLASSES
  0
CLASS
  1
ACDBDICTIONARYWDFLT
  2
AcDbDictionaryWithDefault
  3
AutoCAD 2000
 90
        0
280
     0
281
     0
  0
CLASS
  1
ACDBPLACEHOLDER
  2
AcDbPlaceHolder
  3
AutoCAD 2000
 90
        0
280
     0
281
     0
  0
CLASS
  1
LAYOUT
  2
AcDbLayout
  3
AutoCAD 2000
 90
        0
280
     0
281
     0
  0
CLASS
  1
DICTIONARYVAR
  2
AcDbDictionaryVar
  3
AutoCAD 2000
 90
        0
280
     0
281
     0
  0
CLASS
  1
LONG_TRANSACTION
  2
AcDbLongTransaction
  3
AutoCAD 2000
 90
        0
280
     0
281
     0
  0
CLASS
  1
LWPOLYLINE
  2
AcDbPolyline
  3
AutoCAD 2000
 90
        0
280
     0
281
     1
  0
CLASS
  1
HATCH
  2
AcDbHatch
  3
AutoCAD 2000
 90
        0
280
     0
281
     1
  0
CLASS
  1
XRECORD
  2
AcDbXrecord
  3
AutoCAD 2000
 90
        0
280
     0
281
     0
  0
ENDSEC
  0
SECTION
  2
TABLES
  0
TABLE
  2
VPORT
  5
8
330
0
100
AcDbSymbolTable
 70
     3
  0
VPORT
  5
20F
330
8
100
AcDbSymbolTableRecord
100
AcDbViewportTableRecord
  2
*ACTIVE
 70
     0
 10
0.0
 20
0.0
 11
1.0
 21
1.0
 12
111.0
 22
158.9999999999999
 13
0.0
 23
0.0
 14
1.0
 24
1.0
 15
0.0
 25
0.0
 16
0.0
 26
0.0
 36
1.0
 17
0.0
 27
0.0
 37
0.0
 40
320.4398976982097
 41
2.078104993597951
 42
50.0
 43
0.0
 44
0.0
 50
0.0
 51
0.0
 71
     0
 72
   100
 73
     1
 74
     3
 75
     0
 76
     0
 77
     0
 78
     0
  0
ENDTAB
  0
TABLE
  2
LTYPE
  5
5
330
0
100
AcDbSymbolTable
 70
     1
  0
LTYPE
  5
13
330
5
100
AcDbSymbolTableRecord
100
AcDbLinetypeTableRecord
  2
BYBLOCK
 70
     0
  3

 72
    65
 73
     0
 40
0.0
  0
LTYPE
  5
14
330
5
100
AcDbSymbolTableRecord
100
AcDbLinetypeTableRecord
  2
BYLAYER
 70
     0
  3

 72
    65
 73
     0
 40
0.0
  0
LTYPE
  5
15
330
5
100
AcDbSymbolTableRecord
100
AcDbLinetypeTableRecord
  2
CONTINUOUS
 70
     0
  3
Solid line
 72
    65
 73
     0
 40
0.0
  0
ENDTAB
  0
TABLE
  2
LAYER
  5
2
330
0
100
AcDbSymbolTable
 70
     1
  0
LAYER
  5
10
330
2
100
AcDbSymbolTableRecord
100
AcDbLayerTableRecord
  2
0
 70
     0
 62
     7
  6
CONTINUOUS
  0
ENDTAB
  0
TABLE
  2
STYLE
  5
3
330
0
100
AcDbSymbolTable
 70
     1
  0
STYLE
  5
11
330
3
100
AcDbSymbolTableRecord
100
AcDbTextStyleTableRecord
  2
STANDARD
 70
     0
 40
0.0
 41
1.0
 50
0.0
 71
     0
 42
0.2
  3
txt
  4

  0
ENDTAB
  0
TABLE
  2
VIEW
  5
6
330
0
100
AcDbSymbolTable
 70
     0
  0
ENDTAB
  0
TABLE
  2
UCS
  5
7
330
0
100
AcDbSymbolTable
 70
     0
  0
ENDTAB
  0
TABLE
  2
APPID
  5
9
330
0
100
AcDbSymbolTable
 70
     1
  0
APPID
  5
12
330
9
100
AcDbSymbolTableRecord
100
AcDbRegAppTableRecord
  2
ACAD
 70
     0
  0
ENDTAB
  0
TABLE
  2
DIMSTYLE
  5
A
330
0
100
AcDbSymbolTable
 70
     1
  0
DIMSTYLE
105
1E4
330
A
100
AcDbSymbolTableRecord
100
AcDbDimStyleTableRecord
  2
STANDARD
 70
     0
  3

  4

  5

  6

  7

 40
1.0
 41
0.18
 42
0.0625
 43
0.38
 44
0.18
 45
0.0
 46
0.0
 47
0.0
 48
0.0
140
0.18
141
0.09
142
0.0
143
25.4
144
1.0
145
0.0
146
1.0
147
0.09
 71
     0
 72
     0
 73
     1
 74
     1
 75
     0
 76
     0
 77
     0
 78
     0
170
     0
171
     2
172
     0
173
     0
174
     0
175
     0
176
     0
177
     0
178
     0
270
     2
271
     4
272
     4
273
     2
274
     2
340
11
275
     0
280
     0
281
     0
282
     0
283
     1
284
     0
285
     0
286
     0
287
     3
288
     0
  0
ENDTAB
  0
TABLE
  2
BLOCK_RECORD
  5
1
330
0
100
AcDbSymbolTable
 70
     0
  0
BLOCK_RECORD
  5
1E
102
{ACAD_XDICTIONARY
360
232
102
}
330
1
100
AcDbSymbolTableRecord
100
AcDbBlockTableRecord
  2
*MODEL_SPACE
  0
BLOCK_RECORD
  5
1A
102
{ACAD_XDICTIONARY
360
230
102
}
330
1
100
AcDbSymbolTableRecord
100
AcDbBlockTableRecord
  2
*PAPER_SPACE
  0
ENDTAB
  0
ENDSEC
  0
SECTION
  2
BLOCKS
  0
BLOCK
  5
1F
330
1E
100
AcDbEntity
  8
0
100
AcDbBlockBegin
  2
*MODEL_SPACE
 70
     0
 10
0.0
 20
0.0
 30
0.0
  3
*MODEL_SPACE
  1

  0
ENDBLK
  5
20
330
1E
100
AcDbEntity
  8
0
100
AcDbBlockEnd
  0
BLOCK
  5
1B
330
1A
100
AcDbEntity
 67
     1
  8
0
100
AcDbBlockBegin
  2
*PAPER_SPACE
 70
     0
 10
0.0
 20
0.0
 30
0.0
  3
*PAPER_SPACE
  1

  0
ENDBLK
  5
1C
330
1A
100
AcDbEntity
 67
     1
  8
0
100
AcDbBlockEnd
  0
ENDSEC
  0
SECTION
  2
ENTITIES
  0
LINE
  5
22
330
1E
100
AcDbEntity
  8
0
100
AcDbLine
 10
158.4979999999999
 20
2.999999999999979
 30
0.0
 11
159.4979999999999
 21
2.999999999999979
 31
0.0
  0
LINE
  5
23
330
1E
100
AcDbEntity
  8
0
100
AcDbLine
 10
157.9979999999999
 20
2.49999999999998
 30
0.0
 11
157.9979999999999
 21
-0.0000000000000182
 31
0.0
  0
LINE
  5
24
330
1E
100
AcDbEntity
  8
0
100
AcDbLine
 10
157.9979999999999
 20
2.49999999999998
 30
0.0
 11
158.9979999999999
 21
2.49999999999998
 31
0.0
  0
LINE
  5
25
330
1E
100
AcDbEntity
  8
0
100
AcDbLine
 10
157.9979999999999
 20
2.49999999999998
 30
0.0
 11
158.4979999999999
 21
2.999999999999979
 31
0.0
  0
LINE
  5
26
330
1E
100
AcDbEntity
  8
0
100
AcDbLine
 10
158.9979999999999
 20
2.49999999999998
 30
0.0
 11
161.5979999999999
 21
2.49999999999998
 31
0.0
  0
LINE
  5
27
330
1E
100
AcDbEntity
  8
0
100
AcDbLine
 10
157.9979999999999
 20
-0.0000000000000182
 30
0.0
 11
158.9979999999999
 21
-0.0000000000000183
 31
0.0
  0
LINE
  5
28
330
1E
100
AcDbEntity
  8
0
100
AcDbLine
 10
157.9979999999999
 20
-0.0000000000000182
 30
0.0
 11
157.9979999999999
 21
2.49999999999998
 31
0.0
  0
LINE
  5
29
330
1E
100
AcDbEntity
  8
0
100
AcDbLine
 10
159.4979999999999
 20
2.999999999999979
 30
0.0
 11
161.9979999999999
 21
2.999999999999979
 31
0.0
  0
LINE
  5
2A
330
1E
100
AcDbEntity
  8
0
100
AcDbLine
 10
163.4979999999999
 20
3.499999999999979
 30
0.0
 11
164.298
 21
3.499999999999979
 31
0.0
  0
LINE
  5
2B
330
1E
100
AcDbEntity
  8
0
100
AcDbLine
 10
163.4979999999999
 20
3.499999999999979
 30
0.0
 11
163.9979999999999
 21
4.99999999999998
 31
0.0
  0
LINE
  5
2C
330
1E
100
AcDbEntity
  8
0
100
AcDbLine
 10
162.4979999999999
 20
2.999999999999979
 30
0.0
 11
163.4979999999999
 21
3.499999999999979
 31
0.0
  0
LINE
  5
2D
330
1E
100
AcDbEntity
  8
0
100
AcDbLine
 10
163.9979999999999
 20
4.99999999999998
 30
0.0
 11
163.9979999999999
 21
53.0
 31
0.0
  0
LINE
  5
2E
330
1E
100
AcDbEntity
  8
0
100
AcDbLine
 10
164.298
 20
3.499999999999979
 30
0.0
 11
166.398
 21
3.499999999999979
 31
0.0
  0
LINE
  5
2F
330
1E
100
AcDbEntity
  8
0
100
AcDbLine
 10
161.9979999999999
 20
2.999999999999979
 30
0.0
 11
166.298
 21
2.999999999999979
 31
0.0
  0
LINE
  5
30
330
1E
100
AcDbEntity
  8
0
100
AcDbLine
 10
161.5979999999999
 20
2.49999999999998
 30
0.0
 11
165.998
 21
2.49999999999998
 31
0.0
  0
LINE
  5
31
330
1E
100
AcDbEntity
  8
0
100
AcDbLine
 10
158.9979999999999
 20
-0.0000000000000183
 30
0.0
 11
161.5979999999999
 21
-0.0000000000000184
 31
0.0
  0
LINE
  5
32
330
1E
100
AcDbEntity
  8
0
100
AcDbLine
 10
161.5979999999999
 20
-0.0000000000000184
 30
0.0
 11
165.998
 21
-0.0000000000000187
 31
0.0
  0
LINE
  5
33
330
1E
100
AcDbEntity
  8
0
100
AcDbLine
 10
164.798
 20
47.6
 30
0.0
 11
166.798
 21
42.6
 31
0.0
  0
LINE
  5
34
330
1E
100
AcDbEntity
  8
0
100
AcDbLine
 10
166.798
 20
42.6
 30
0.0
 11
170.1979999999999
 21
38.2
 31
0.0
  0
LINE
  5
35
330
1E
100
AcDbEntity
  8
0
100
AcDbLine
 10
166.398
 20
3.499999999999979
 30
0.0
 11
169.798
 21
3.499999999999979
 31
0.0
  0
LINE
  5
36
330
1E
100
AcDbEntity
  8
0
100
AcDbLine
 10
166.298
 20
2.999999999999979
 30
0.0
 11
171.798
 21
2.999999999999979
 31
0.0
  0
LINE
  5
37
330
1E
100
AcDbEntity
  8
0
100
AcDbLine
 10
165.998
 20
2.49999999999998
 30
0.0
 11
171.5979999999999
 21
2.49999999999998
 31
0.0
  0
LINE
  5
38
330
1E
100
AcDbEntity
  8
0
100
AcDbLine
 10
165.998
 20
-0.0000000000000187
 30
0.0
 11
171.5979999999999
 21
-0.0000000000000191
 31
0.0
  0
LINE
  5
39
330
1E
100
AcDbEntity
  8
0
100
AcDbLine
 10
169.0979999999999
 20
2.999999999999979
 30
0.0
 11
171.798
 21
2.999999999999979
 31
0.0
  0
LINE
  5
3A
330
1E
100
AcDbEntity
  8
0
100
AcDbLine
 10
170.1979999999999
 20
38.2
 30
0.0
 11
174.5979999999999
 21
34.79999999999999
 31
0.0
  0
LINE
  5
3B
330
1E
100
AcDbEntity
  8
0
100
AcDbLine
 10
169.798
 20
3.499999999999979
 30
0.0
 11
174.298
 21
3.499999999999979
 31
0.0
  0
LINE
  5
3C
330
1E
100
AcDbEntity
  8
0
100
AcDbLine
 10
173.798
 20
2.999999999999979
 30
0.0
 11
179.1979999999999
 21
2.999999999999979
 31
0.0
  0
LINE
  5
3D
330
1E
100
AcDbEntity
  8
0
100
AcDbLine
 10
174.5979999999999
 20
34.79999999999999
 30
0.0
 11
179.5979999999999
 21
32.79999999999999
 31
0.0
  0
LINE
  5
3E
330
1E
100
AcDbEntity
  8
0
100
AcDbLine
 10
174.298
 20
3.499999999999979
 30
0.0
 11
179.4979999999999
 21
3.499999999999979
 31
0.0
  0
LINE
  5
3F
330
1E
100
AcDbEntity
  8
0
100
AcDbLine
 10
171.798
 20
2.999999999999979
 30
0.0
 11
178.1979999999999
 21
2.999999999999979
 31
0.0
  0
LINE
  5
40
330
1E
100
AcDbEntity
  8
0
100
AcDbLine
 10
171.798
 20
2.999999999999979
 30
0.0
 11
173.798
 21
2.999999999999979
 31
0.0
  0
LINE
  5
41
330
1E
100
AcDbEntity
  8
0
100
AcDbLine
 10
171.5979999999999
 20
2.49999999999998
 30
0.0
 11
178.0979999999999
 21
2.49999999999998
 31
0.0
  0
LINE
  5
42
330
1E
100
AcDbEntity
  8
0
100
AcDbLine
 10
171.5979999999999
 20
-0.0000000000000191
 30
0.0
 11
178.0979999999999
 21
-0.0000000000000195
 31
0.0
  0
LINE
  5
43
330
1E
100
AcDbEntity
  8
0
100
AcDbLine
 10
178.0979999999999
 20
2.49999999999998
 30
0.0
 11
184.998
 21
2.49999999999998
 31
0.0
  0
LINE
  5
44
330
1E
100
AcDbEntity
  8
0
100
AcDbLine
 10
178.0979999999999
 20
-0.0000000000000195
 30
0.0
 11
184.998
 21
-0.0000000000000199
 31
0.0
  0
LINE
  5
45
330
1E
100
AcDbEntity
  8
0
100
AcDbLine
 10
179.1979999999999
 20
2.999999999999979
 30
0.0
 11
184.998
 21
2.999999999999979
 31
0.0
  0
LINE
  5
46
330
1E
100
AcDbEntity
  8
0
100
AcDbLine
 10
179.4979999999999
 20
3.499999999999979
 30
0.0
 11
184.998
 21
3.499999999999979
 31
0.0
  0
LINE
  5
47
330
1E
100
AcDbEntity
  8
0
100
AcDbLine
 10
178.1979999999999
 20
2.999999999999979
 30
0.0
 11
184.998
 21
2.999999999999979
 31
0.0
  0
LINE
  5
48
330
1E
100
AcDbEntity
  8
0
100
AcDbLine
 10
184.998
 20
3.499999999999979
 30
0.0
 11
190.4979999999999
 21
3.499999999999979
 31
0.0
  0
LINE
  5
49
330
1E
100
AcDbEntity
  8
0
100
AcDbLine
 10
184.998
 20
2.999999999999979
 30
0.0
 11
191.798
 21
2.999999999999979
 31
0.0
  0
LINE
  5
4A
330
1E
100
AcDbEntity
  8
0
100
AcDbLine
 10
184.998
 20
2.49999999999998
 30
0.0
 11
191.8979999999999
 21
2.49999999999998
 31
0.0
  0
LINE
  5
4B
330
1E
100
AcDbEntity
  8
0
100
AcDbLine
 10
184.998
 20
32.45
 30
0.0
 11
189.723
 21
33.2
 31
0.0
  0
LINE
  5
4C
330
1E
100
AcDbEntity
  8
0
100
AcDbLine
 10
184.998
 20
32.0
 30
0.0
 11
189.873
 21
32.74459999999999
 31
0.0
  0
LINE
  5
4D
330
1E
100
AcDbEntity
  8
0
100
AcDbLine
 10
184.998
 20
32.0
 30
0.0
 11
190.3979999999999
 21
32.79999999999999
 31
0.0
  0
LINE
  5
4E
330
1E
100
AcDbEntity
  8
0
100
AcDbLine
 10
179.5979999999999
 20
32.79999999999999
 30
0.0
 11
184.998
 21
32.0
 31
0.0
  0
LINE
  5
4F
330
1E
100
AcDbEntity
  8
0
100
AcDbLine
 10
180.273
 20
33.2
 30
0.0
 11
184.998
 21
32.45
 31
0.0
  0
LINE
  5
50
330
1E
100
AcDbEntity
  8
0
100
AcDbLine
 10
175.173
 20
35.29999999999999
 30
0.0
 11
180.273
 21
33.2
 31
0.0
  0
LINE
  5
53
330
1E
100
AcDbEntity
  8
0
100
AcDbLine
 10
170.7479999999999
 20
38.75
 30
0.0
 11
175.173
 21
35.29999999999999
 31
0.0
  0
LINE
  5
54
330
1E
100
AcDbEntity
  8
0
100
AcDbLine
 10
167.298
 20
43.17499999999999
 30
0.0
 11
170.7479999999999
 21
38.75
 31
0.0
  0
LINE
  5
57
330
1E
100
AcDbEntity
  8
0
100
AcDbLine
 10
165.1979999999999
 20
48.275
 30
0.0
 11
167.298
 21
43.17499999999999
 31
0.0
  0
LINE
  5
59
330
1E
100
AcDbEntity
  8
0
100
AcDbLine
 10
164.4479999999999
 20
53.0
 30
0.0
 11
165.1979999999999
 21
57.725
 31
0.0
  0
LINE
  5
5A
330
1E
100
AcDbEntity
  8
0
100
AcDbLine
 10
164.4479999999999
 20
53.0
 30
0.0
 11
165.1979999999999
 21
48.275
 31
0.0
  0
LINE
  5
5B
330
1E
100
AcDbEntity
  8
0
100
AcDbLine
 10
163.9979999999999
 20
95.0
 30
0.0
 11
163.9979999999999
 21
53.0
 31
0.0
  0
LINE
  5
5C
330
1E
100
AcDbEntity
  8
0
100
AcDbLine
 10
163.9979999999999
 20
95.0
 30
0.0
 11
164.798
 21
95.0
 31
0.0
  0
LINE
  5
5D
330
1E
100
AcDbEntity
  8
0
100
AcDbLine
 10
163.9979999999999
 20
95.0
 30
0.0
 11
164.998
 21
96.0
 31
0.0
  0
LINE
  5
5E
330
1E
100
AcDbEntity
  8
0
100
AcDbLine
 10
164.798
 20
58.39999999999999
 30
0.0
 11
166.798
 21
63.39999999999999
 31
0.0
  0
LINE
  5
5F
330
1E
100
AcDbEntity
  8
0
100
AcDbLine
 10
167.298
 20
62.825
 30
0.0
 11
170.7479999999999
 21
67.25
 31
0.0
  0
LINE
  5
60
330
1E
100
AcDbEntity
  8
0
100
AcDbLine
 10
165.1979999999999
 20
57.725
 30
0.0
 11
167.298
 21
62.825
 31
0.0
  0
LINE
  5
61
330
1E
100
AcDbEntity
  8
0
100
AcDbLine
 10
166.798
 20
63.39999999999999
 30
0.0
 11
170.1979999999999
 21
67.8
 31
0.0
  0
LINE
  5
62
330
1E
100
AcDbEntity
  8
0
100
AcDbLine
 10
164.798
 20
95.0
 30
0.0
 11
166.798
 21
95.0
 31
0.0
  0
LINE
  5
63
330
1E
100
AcDbEntity
  8
0
100
AcDbLine
 10
164.998
 20
96.0
 30
0.0
 11
165.6979999999999
 21
96.0
 31
0.0
  0
LINE
  5
64
330
1E
100
AcDbEntity
  8
0
100
AcDbLine
 10
165.6979999999999
 20
96.0
 30
0.0
 11
167.6979999999999
 21
96.0
 31
0.0
  0
LINE
  5
65
330
1E
100
AcDbEntity
  8
0
100
AcDbLine
 10
167.6979999999999
 20
96.0
 30
0.0
 11
170.8979999999999
 21
96.0
 31
0.0
  0
LINE
  5
66
330
1E
100
AcDbEntity
  8
0
100
AcDbLine
 10
166.798
 20
95.0
 30
0.0
 11
170.1979999999999
 21
95.0
 31
0.0
  0
LINE
  5
67
330
1E
100
AcDbEntity
  8
0
100
AcDbLine
 10
170.1979999999999
 20
95.0
 30
0.0
 11
172.9979999999999
 21
95.0
 31
0.0
  0
LINE
  5
68
330
1E
100
AcDbEntity
  8
0
100
AcDbLine
 10
170.1979999999999
 20
67.8
 30
0.0
 11
172.9979999999999
 21
69.96363636363629
 31
0.0
  0
LINE
  5
69
330
1E
100
AcDbEntity
  8
0
100
AcDbLine
 10
175.937
 20
64.7971
 30
0.0
 11
176.1929999999999
 21
64.7612
 31
0.0
  0
LINE
  5
6A
330
1E
100
AcDbEntity
  8
0
100
AcDbLine
 10
175.697
 20
64.893
 30
0.0
 11
175.937
 21
64.7971
 31
0.0
  0
LINE
  5
6B
330
1E
100
AcDbEntity
  8
0
100
AcDbLine
 10
176.1929999999999
 20
64.7612
 30
0.0
 11
176.449
 21
64.7971
 31
0.0
  0
LINE
  5
6C
330
1E
100
AcDbEntity
  8
0
100
AcDbLine
 10
176.449
 20
64.7971
 30
0.0
 11
176.689
 21
64.893
 31
0.0
  0
LINE
  5
6D
330
1E
100
AcDbEntity
  8
0
100
AcDbLine
 10
175.485
 20
65.0528
 30
0.0
 11
175.697
 21
64.893
 31
0.0
  0
LINE
  5
6E
330
1E
100
AcDbEntity
  8
0
100
AcDbLine
 10
175.3249999999999
 20
65.2645
 30
0.0
 11
175.485
 21
65.0528
 31
0.0
  0
LINE
  5
6F
330
1E
100
AcDbEntity
  8
0
100
AcDbLine
 10
176.689
 20
64.893
 30
0.0
 11
176.9009999999999
 21
65.0528
 31
0.0
  0
LINE
  5
70
330
1E
100
AcDbEntity
  8
0
100
AcDbLine
 10
176.9009999999999
 20
65.0528
 30
0.0
 11
177.0609999999999
 21
65.2645
 31
0.0
  0
LINE
  5
71
330
1E
100
AcDbEntity
  8
0
100
AcDbLine
 10
175.229
 20
65.50419999999999
 30
0.0
 11
175.3249999999999
 21
65.2645
 31
0.0
  0
LINE
  5
72
330
1E
100
AcDbEntity
  8
0
100
AcDbLine
 10
177.0609999999999
 20
65.2645
 30
0.0
 11
177.157
 21
65.50419999999999
 31
0.0
  0
LINE
  5
73
330
1E
100
AcDbEntity
  8
0
100
AcDbLine
 10
177.157
 20
65.50419999999999
 30
0.0
 11
177.1929999999999
 21
65.7598
 31
0.0
  0
LINE
  5
74
330
1E
100
AcDbEntity
  8
0
100
AcDbLine
 10
177.0609999999999
 20
66.2551
 30
0.0
 11
177.157
 21
66.0155
 31
0.0
  0
LINE
  5
75
330
1E
100
AcDbEntity
  8
0
100
AcDbLine
 10
177.157
 20
66.0155
 30
0.0
 11
177.1929999999999
 21
65.7598
 31
0.0
  0
LINE
  5
76
330
1E
100
AcDbEntity
  8
0
100
AcDbLine
 10
176.689
 20
66.62659999999999
 30
0.0
 11
176.9009999999999
 21
66.46689999999999
 31
0.0
  0
LINE
  5
77
330
1E
100
AcDbEntity
  8
0
100
AcDbLine
 10
176.9009999999999
 20
66.46689999999999
 30
0.0
 11
177.0609999999999
 21
66.2551
 31
0.0
  0
LINE
  5
78
330
1E
100
AcDbEntity
  8
0
100
AcDbLine
 10
176.1929999999999
 20
66.7585
 30
0.0
 11
176.449
 21
66.7225
 31
0.0
  0
LINE
  5
79
330
1E
100
AcDbEntity
  8
0
100
AcDbLine
 10
176.449
 20
66.7225
 30
0.0
 11
176.689
 21
66.62659999999999
 31
0.0
  0
LINE
  5
7A
330
1E
100
AcDbEntity
  8
0
100
AcDbLine
 10
175.937
 20
66.7225
 30
0.0
 11
176.1929999999999
 21
66.7585
 31
0.0
  0
LINE
  5
7B
330
1E
100
AcDbEntity
  8
0
100
AcDbLine
 10
175.697
 20
66.62659999999999
 30
0.0
 11
175.937
 21
66.7225
 31
0.0
  0
LINE
  5
7C
330
1E
100
AcDbEntity
  8
0
100
AcDbLine
 10
175.485
 20
66.46689999999999
 30
0.0
 11
175.697
 21
66.62659999999999
 31
0.0
  0
LINE
  5
7D
330
1E
100
AcDbEntity
  8
0
100
AcDbLine
 10
175.3249999999999
 20
66.2551
 30
0.0
 11
175.485
 21
66.46689999999999
 31
0.0
  0
LINE
  5
7E
330
1E
100
AcDbEntity
  8
0
100
AcDbLine
 10
175.229
 20
66.0155
 30
0.0
 11
175.3249999999999
 21
66.2551
 31
0.0
  0
LINE
  5
7F
330
1E
100
AcDbEntity
  8
0
100
AcDbLine
 10
175.1929999999999
 20
65.7598
 30
0.0
 11
175.229
 21
66.0155
 31
0.0
  0
LINE
  5
80
330
1E
100
AcDbEntity
  8
0
100
AcDbLine
 10
175.1929999999999
 20
65.7598
 30
0.0
 11
175.229
 21
65.50419999999999
 31
0.0
  0
LINE
  5
81
330
1E
100
AcDbEntity
  8
0
100
AcDbLine
 10
172.9979999999999
 20
69.6044655737705
 30
0.0
 11
172.9979999999999
 21
131.0
 31
0.0
  0
LINE
  5
82
330
1E
100
AcDbEntity
  8
0
100
AcDbLine
 10
175.173
 20
70.7
 30
0.0
 11
180.273
 21
72.8
 31
0.0
  0
LINE
  5
83
330
1E
100
AcDbEntity
  8
0
100
AcDbLine
 10
170.7479999999999
 20
67.25
 30
0.0
 11
175.173
 21
70.7
 31
0.0
  0
LINE
  5
84
330
1E
100
AcDbEntity
  8
0
100
AcDbLine
 10
170.8979999999999
 20
96.0
 30
0.0
 11
172.9979999999999
 21
96.0
 31
0.0
  0
LINE
  5
85
330
1E
100
AcDbEntity
  8
0
100
AcDbLine
 10
178.9979999999999
 20
96.0
 30
0.0
 11
179.898
 21
96.0
 31
0.0
  0
LINE
  5
86
330
1E
100
AcDbEntity
  8
0
100
AcDbLine
 10
178.9979999999999
 20
95.0
 30
0.0
 11
179.5979999999999
 21
95.0
 31
0.0
  0
LINE
  5
87
330
1E
100
AcDbEntity
  8
0
100
AcDbLine
 10
178.9979999999999
 20
72.95999999999999
 30
0.0
 11
179.5979999999999
 21
73.2
 31
0.0
  0
LINE
  5
88
330
1E
100
AcDbEntity
  8
0
100
AcDbLine
 10
178.9979999999999
 20
131.0
 30
0.0
 11
178.9979999999999
 21
72.77717391304349
 31
0.0
  0
LINE
  5
89
330
1E
100
AcDbEntity
  8
0
100
AcDbLine
 10
178.9979999999999
 20
131.0
 30
0.0
 11
179.0979999999999
 21
131.8
 31
0.0
  0
LINE
  5
8A
330
1E
100
AcDbEntity
  8
0
100
AcDbLine
 10
179.898
 20
96.0
 30
0.0
 11
184.998
 21
96.0
 31
0.0
  0
LINE
  5
8B
330
1E
100
AcDbEntity
  8
0
100
AcDbLine
 10
179.5979999999999
 20
95.0
 30
0.0
 11
184.998
 21
95.0
 31
0.0
  0
LINE
  5
8C
330
1E
100
AcDbEntity
  8
0
100
AcDbLine
 10
179.5979999999999
 20
73.2
 30
0.0
 11
184.998
 21
74.0
 31
0.0
  0
LINE
  5
8D
330
1E
100
AcDbEntity
  8
0
100
AcDbLine
 10
178.9979999999999
 20
72.77717391304349
 30
0.0
 11
178.9979999999999
 21
131.0
 31
0.0
  0
LINE
  5
8E
330
1E
100
AcDbEntity
  8
0
100
AcDbLine
 10
173.398
 20
134.0999999999999
 30
0.0
 11
173.8979999999999
 21
135.4999999999999
 31
0.0
  0
LINE
  5
8F
330
1E
100
AcDbEntity
  8
0
100
AcDbLine
 10
173.0979999999999
 20
132.4999999999999
 30
0.0
 11
173.398
 21
134.0999999999999
 31
0.0
  0
LINE
  5
90
330
1E
100
AcDbEntity
  8
0
100
AcDbLine
 10
174.372
 20
136.603039182283
 30
0.0
 11
174.372
 21
219.0539999999999
 31
0.0
  0
LINE
  5
91
330
1E
100
AcDbEntity
  8
0
100
AcDbLine
 10
173.8979999999999
 20
135.4999999999999
 30
0.0
 11
174.485
 21
136.866
 31
0.0
  0
LINE
  5
92
330
1E
100
AcDbEntity
  8
0
100
AcDbLine
 10
174.485
 20
136.866
 30
0.0
 11
175.354
 21
138.242
 31
0.0
  0
LINE
  5
93
330
1E
100
AcDbEntity
  8
0
100
AcDbLine
 10
175.354
 20
138.242
 30
0.0
 11
176.462
 21
139.589
 31
0.0
  0
LINE
  5
94
330
1E
100
AcDbEntity
  8
0
100
AcDbLine
 10
179.1979999999999
 20
132.6
 30
0.0
 11
179.4309999999999
 21
133.316
 31
0.0
  0
LINE
  5
95
330
1E
100
AcDbEntity
  8
0
100
AcDbLine
 10
179.0979999999999
 20
131.8
 30
0.0
 11
179.1979999999999
 21
132.6
 31
0.0
  0
LINE
  5
96
330
1E
100
AcDbEntity
  8
0
100
AcDbLine
 10
179.4309999999999
 20
133.316
 30
0.0
 11
179.755
 21
134.017
 31
0.0
  0
LINE
  5
97
330
1E
100
AcDbEntity
  8
0
100
AcDbLine
 10
179.755
 20
134.017
 30
0.0
 11
180.226
 21
134.6709999999999
 31
0.0
  0
LINE
  5
98
330
1E
100
AcDbEntity
  8
0
100
AcDbLine
 10
179.1319999999999
 20
141.5129999999999
 30
0.0
 11
180.498
 21
142.1
 31
0.0
  0
LINE
  5
99
330
1E
100
AcDbEntity
  8
0
100
AcDbLine
 10
177.7559999999999
 20
140.644
 30
0.0
 11
179.1319999999999
 21
141.5129999999999
 31
0.0
  0
LINE
  5
9A
330
1E
100
AcDbEntity
  8
0
100
AcDbLine
 10
176.462
 20
139.589
 30
0.0
 11
177.7559999999999
 21
140.644
 31
0.0
  0
LINE
  5
9B
330
1E
100
AcDbEntity
  8
0
100
AcDbLine
 10
172.9979999999999
 20
131.0
 30
0.0
 11
172.9979999999999
 21
69.6044655737705
 31
0.0
  0
LINE
  5
9C
330
1E
100
AcDbEntity
  8
0
100
AcDbLine
 10
172.9979999999999
 20
131.0
 30
0.0
 11
173.0979999999999
 21
132.4999999999999
 31
0.0
  0
LINE
  5
9D
330
1E
100
AcDbEntity
  8
0
100
AcDbLine
 10
180.226
 20
134.6709999999999
 30
0.0
 11
180.6969999999999
 21
135.3249999999999
 31
0.0
  0
LINE
  5
9E
330
1E
100
AcDbEntity
  8
0
100
AcDbLine
 10
180.498
 20
142.1
 30
0.0
 11
181.8979999999999
 21
142.5999999999999
 31
0.0
  0
LINE
  5
9F
330
1E
100
AcDbEntity
  8
0
100
AcDbLine
 10
184.998
 20
96.0
 30
0.0
 11
190.0979999999999
 21
96.0
 31
0.0
  0
LINE
  5
A0
330
1E
100
AcDbEntity
  8
0
100
AcDbLine
 10
184.998
 20
95.0
 30
0.0
 11
190.3979999999999
 21
95.0
 31
0.0
  0
LINE
  5
A1
330
1E
100
AcDbEntity
  8
0
100
AcDbLine
 10
181.8979999999999
 20
142.5999999999999
 30
0.0
 11
183.4979999999999
 21
142.9
 31
0.0
  0
LINE
  5
A2
330
1E
100
AcDbEntity
  8
0
100
AcDbLine
 10
182.682
 20
136.567
 30
0.0
 11
183.398
 21
136.8
 31
0.0
  0
LINE
  5
A3
330
1E
100
AcDbEntity
  8
0
100
AcDbLine
 10
183.398
 20
136.8
 30
0.0
 11
184.1979999999999
 21
136.8999999999999
 31
0.0
  0
LINE
  5
A4
330
1E
100
AcDbEntity
  8
0
100
AcDbLine
 10
184.1979999999999
 20
136.8999999999999
 30
0.0
 11
184.998
 21
137.0
 31
0.0
  0
LINE
  5
A5
330
1E
100
AcDbEntity
  8
0
100
AcDbLine
 10
183.4979999999999
 20
142.9
 30
0.0
 11
184.998
 21
143.0
 31
0.0
  0
LINE
  5
A6
330
1E
100
AcDbEntity
  8
0
100
AcDbLine
 10
181.981
 20
136.243
 30
0.0
 11
182.682
 21
136.567
 31
0.0
  0
LINE
  5
A7
330
1E
100
AcDbEntity
  8
0
100
AcDbLine
 10
181.3269999999999
 20
135.772
 30
0.0
 11
181.981
 21
136.243
 31
0.0
  0
LINE
  5
A8
330
1E
100
AcDbEntity
  8
0
100
AcDbLine
 10
180.6969999999999
 20
135.3249999999999
 30
0.0
 11
181.3269999999999
 21
135.772
 31
0.0
  0
LINE
  5
A9
330
1E
100
AcDbEntity
  8
0
100
AcDbLine
 10
184.998
 20
73.55
 30
0.0
 11
189.723
 21
72.8
 31
0.0
  0
LINE
  5
AB
330
1E
100
AcDbEntity
  8
0
100
AcDbLine
 10
184.998
 20
74.0
 30
0.0
 11
190.3979999999999
 21
73.2
 31
0.0
  0
LINE
  5
AC
330
1E
100
AcDbEntity
  8
0
100
AcDbLine
 10
180.273
 20
72.8
 30
0.0
 11
184.998
 21
73.55
 31
0.0
  0
LINE
  5
B1
330
1E
100
AcDbEntity
  8
0
100
AcDbLine
 10
163.9979999999999
 20
53.0
 30
0.0
 11
164.798
 21
58.39999999999999
 31
0.0
  0
LINE
  5
B2
330
1E
100
AcDbEntity
  8
0
100
AcDbLine
 10
163.9979999999999
 20
53.0
 30
0.0
 11
163.9979999999999
 21
4.99999999999998
 31
0.0
  0
LINE
  5
B3
330
1E
100
AcDbEntity
  8
0
100
AcDbLine
 10
163.9979999999999
 20
53.0
 30
0.0
 11
163.9979999999999
 21
95.0
 31
0.0
  0
LINE
  5
B4
330
1E
100
AcDbEntity
  8
0
100
AcDbLine
 10
163.9979999999999
 20
53.0
 30
0.0
 11
164.798
 21
47.6
 31
0.0
  0
LINE
  5
B5
330
1E
100
AcDbEntity
  8
0
100
AcDbLine
 10
184.998
 20
137.0
 30
0.0
 11
185.7979999999999
 21
136.8999999999999
 31
0.0
  0
LINE
  5
B6
330
1E
100
AcDbEntity
  8
0
100
AcDbLine
 10
0.7839180000000191
 20
212.3129999999999
 30
0.0
 11
1.751990000000019
 21
212.139
 31
0.0
  0
LINE
  5
B7
330
1E
100
AcDbEntity
  8
0
100
AcDbLine
 10
1.751990000000019
 20
212.139
 30
0.0
 11
3.39772000000002
 21
211.8419999999999
 31
0.0
  0
LINE
  5
B8
330
1E
100
AcDbEntity
  8
0
100
AcDbLine
 10
0.7839180000000191
 20
212.3129999999999
 30
0.0
 11
1.751990000000019
 21
212.139
 31
0.0
  0
LINE
  5
B9
330
1E
100
AcDbEntity
  8
0
100
AcDbLine
 10
-0.0019999999999814
 20
212.965
 30
0.0
 11
0.396688000000019
 21
212.3829999999999
 31
0.0
  0
LINE
  5
BA
330
1E
100
AcDbEntity
  8
0
100
AcDbLine
 10
-0.0019999999999814
 20
212.965
 30
0.0
 11
0.385230000000019
 21
212.895
 31
0.0
  0
LINE
  5
BB
330
1E
100
AcDbEntity
  8
0
100
AcDbLine
 10
0.385230000000019
 20
212.895
 30
0.0
 11
1.450110000000019
 21
212.7029999999999
 31
0.0
  0
LINE
  5
BC
330
1E
100
AcDbEntity
  8
0
100
AcDbLine
 10
1.450110000000019
 20
212.7029999999999
 30
0.0
 11
3.09584000000002
 21
212.407
 31
0.0
  0
LINE
  5
BD
330
1E
100
AcDbEntity
  8
0
100
AcDbLine
 10
1.790330000000019
 20
223.3519999999999
 30
0.0
 11
2.308500000000019
 21
223.463
 31
0.0
  0
LINE
  5
BE
330
1E
100
AcDbEntity
  8
0
100
AcDbLine
 10
1.790330000000019
 20
223.3519999999999
 30
0.0
 11
2.17755000000002
 21
223.2829999999999
 31
0.0
  0
LINE
  5
BF
330
1E
100
AcDbEntity
  8
0
100
AcDbLine
 10
-0.0019999999999813
 20
212.965
 30
0.0
 11
1.790330000000019
 21
223.3519999999999
 31
0.0
  0
LINE
  5
C0
330
1E
100
AcDbEntity
  8
0
100
AcDbLine
 10
-0.0019999999999813
 20
212.965
 30
0.0
 11
0.396688000000019
 21
212.3829999999999
 31
0.0
  0
LINE
  5
C1
330
1E
100
AcDbEntity
  8
0
100
AcDbLine
 10
-0.0019999999999813
 20
212.965
 30
0.0
 11
0.385230000000019
 21
212.895
 31
0.0
  0
LINE
  5
C2
330
1E
100
AcDbEntity
  8
0
100
AcDbLine
 10
-0.0019999999999813
 20
212.965
 30
0.0
 11
1.790330000000019
 21
223.3519999999999
 31
0.0
  0
LINE
  5
C3
330
1E
100
AcDbEntity
  8
0
100
AcDbLine
 10
0.396688000000019
 20
212.3829999999999
 30
0.0
 11
0.7839180000000191
 21
212.3129999999999
 31
0.0
  0
LINE
  5
C4
330
1E
100
AcDbEntity
  8
0
100
AcDbLine
 10
3.09584000000002
 20
212.407
 30
0.0
 11
5.32241000000002
 21
212.0059999999999
 31
0.0
  0
LINE
  5
C5
330
1E
100
AcDbEntity
  8
0
100
AcDbLine
 10
5.32241000000002
 20
212.0059999999999
 30
0.0
 11
7.936210000000018
 21
211.5349999999999
 31
0.0
  0
LINE
  5
C6
330
1E
100
AcDbEntity
  8
0
100
AcDbLine
 10
7.936210000000018
 20
211.5349999999999
 30
0.0
 11
10.6468
 21
211.0459999999999
 31
0.0
  0
LINE
  5
C7
330
1E
100
AcDbEntity
  8
0
100
AcDbLine
 10
3.39772000000002
 20
211.8419999999999
 30
0.0
 11
5.527480000000019
 21
211.459
 31
0.0
  0
LINE
  5
C8
330
1E
100
AcDbEntity
  8
0
100
AcDbLine
 10
5.527480000000019
 20
211.459
 30
0.0
 11
7.947670000000019
 21
211.023
 31
0.0
  0
LINE
  5
C9
330
1E
100
AcDbEntity
  8
0
100
AcDbLine
 10
20.339
 20
208.7899999999999
 30
0.0
 11
20.7262
 21
208.72
 31
0.0
  0
LINE
  5
CA
330
1E
100
AcDbEntity
  8
0
100
AcDbLine
 10
20.7262
 20
208.72
 30
0.0
 11
21.2956
 21
209.127
 31
0.0
  0
LINE
  5
CB
330
1E
100
AcDbEntity
  8
0
100
AcDbLine
 10
20.9084
 20
209.1969999999999
 30
0.0
 11
21.2956
 21
209.127
 31
0.0
  0
LINE
  5
CC
330
1E
100
AcDbEntity
  8
0
100
AcDbLine
 10
19.8435
 20
209.389
 30
0.0
 11
20.9084
 21
209.1969999999999
 31
0.0
  0
LINE
  5
CD
330
1E
100
AcDbEntity
  8
0
100
AcDbLine
 10
18.1978
 20
209.6859999999999
 30
0.0
 11
19.8435
 21
209.389
 31
0.0
  0
LINE
  5
CE
330
1E
100
AcDbEntity
  8
0
100
AcDbLine
 10
17.7252
 20
209.261
 30
0.0
 11
19.37089999999999
 21
208.964
 31
0.0
  0
LINE
  5
CF
330
1E
100
AcDbEntity
  8
0
100
AcDbLine
 10
21.2956
 20
209.127
 30
0.0
 11
23.088
 21
219.5149999999999
 31
0.0
  0
LINE
  5
D0
330
1E
100
AcDbEntity
  8
0
100
AcDbLine
 10
19.37089999999999
 20
208.964
 30
0.0
 11
20.339
 21
208.7899999999999
 31
0.0
  0
LINE
  5
D1
330
1E
100
AcDbEntity
  8
0
100
AcDbLine
 10
15.59549999999999
 20
209.6449999999999
 30
0.0
 11
17.7252
 21
209.261
 31
0.0
  0
LINE
  5
D2
330
1E
100
AcDbEntity
  8
0
100
AcDbLine
 10
15.9712
 20
210.087
 30
0.0
 11
18.1978
 21
209.6859999999999
 31
0.0
  0
LINE
  5
D3
330
1E
100
AcDbEntity
  8
0
100
AcDbLine
 10
22.2508
 20
219.87
 30
0.0
 11
22.6381
 21
219.7999999999999
 31
0.0
  0
LINE
  5
D4
330
1E
100
AcDbEntity
  8
0
100
AcDbLine
 10
21.6358
 20
219.7759999999999
 30
0.0
 11
22.7007
 21
219.585
 31
0.0
  0
LINE
  5
D5
330
1E
100
AcDbEntity
  8
0
100
AcDbLine
 10
13.3574
 20
210.5579999999999
 30
0.0
 11
15.9712
 21
210.087
 31
0.0
  0
LINE
  5
D6
330
1E
100
AcDbEntity
  8
0
100
AcDbLine
 10
10.6468
 20
211.0459999999999
 30
0.0
 11
13.3574
 21
210.5579999999999
 31
0.0
  0
LINE
  5
D7
330
1E
100
AcDbEntity
  8
0
100
AcDbLine
 10
10.5615
 20
210.552
 30
0.0
 11
13.1753
 21
210.081
 31
0.0
  0
LINE
  5
D8
330
1E
100
AcDbEntity
  8
0
100
AcDbLine
 10
22.7007
 20
219.585
 30
0.0
 11
23.088
 21
219.5149999999999
 31
0.0
  0
LINE
  5
D9
330
1E
100
AcDbEntity
  8
0
100
AcDbLine
 10
22.6381
 20
219.7999999999999
 30
0.0
 11
23.088
 21
219.5149999999999
 31
0.0
  0
LINE
  5
DA
330
1E
100
AcDbEntity
  8
0
100
AcDbLine
 10
22.6381
 20
219.7999999999999
 30
0.0
 11
23.1562
 21
219.91
 31
0.0
  0
LINE
  5
DB
330
1E
100
AcDbEntity
  8
0
100
AcDbLine
 10
13.1753
 20
210.081
 30
0.0
 11
15.59549999999999
 21
209.6449999999999
 31
0.0
  0
LINE
  5
DC
330
1E
100
AcDbEntity
  8
0
100
AcDbLine
 10
7.947670000000019
 20
211.023
 30
0.0
 11
10.5615
 21
210.552
 31
0.0
  0
LINE
  5
DD
330
1E
100
AcDbEntity
  8
0
100
AcDbLine
 10
2.308500000000019
 20
223.463
 30
0.0
 11
2.69573000000002
 21
223.3929999999999
 31
0.0
  0
LINE
  5
DE
330
1E
100
AcDbEntity
  8
0
100
AcDbLine
 10
2.69573000000002
 20
223.3929999999999
 30
0.0
 11
3.66381000000002
 21
223.219
 31
0.0
  0
LINE
  5
DF
330
1E
100
AcDbEntity
  8
0
100
AcDbLine
 10
2.17755000000002
 20
223.2829999999999
 30
0.0
 11
3.24244000000002
 21
223.0909999999999
 31
0.0
  0
LINE
  5
E0
330
1E
100
AcDbEntity
  8
0
100
AcDbLine
 10
2.245830000000019
 20
223.6779999999999
 30
0.0
 11
3.31072000000002
 21
223.4859999999999
 31
0.0
  0
LINE
  5
E1
330
1E
100
AcDbEntity
  8
0
100
AcDbLine
 10
3.24244000000002
 20
223.0909999999999
 30
0.0
 11
4.888160000000019
 21
222.794
 31
0.0
  0
LINE
  5
E2
330
1E
100
AcDbEntity
  8
0
100
AcDbLine
 10
5.30953000000002
 20
222.922
 30
0.0
 11
7.439300000000018
 21
222.5379999999999
 31
0.0
  0
LINE
  5
E3
330
1E
100
AcDbEntity
  8
0
100
AcDbLine
 10
4.888160000000019
 20
222.794
 30
0.0
 11
7.114730000000019
 21
222.393
 31
0.0
  0
LINE
  5
E4
330
1E
100
AcDbEntity
  8
0
100
AcDbLine
 10
7.114730000000019
 20
222.393
 30
0.0
 11
9.728530000000018
 21
221.9219999999999
 31
0.0
  0
LINE
  5
E5
330
1E
100
AcDbEntity
  8
0
100
AcDbLine
 10
12.4733
 20
221.6309999999999
 30
0.0
 11
15.08709999999999
 21
221.16
 31
0.0
  0
LINE
  5
E6
330
1E
100
AcDbEntity
  8
0
100
AcDbLine
 10
12.4391
 20
221.434
 30
0.0
 11
15.14969999999999
 21
220.9449999999999
 31
0.0
  0
LINE
  5
E7
330
1E
100
AcDbEntity
  8
0
100
AcDbLine
 10
9.859480000000019
 20
222.102
 30
0.0
 11
12.4733
 21
221.6309999999999
 31
0.0
  0
LINE
  5
E8
330
1E
100
AcDbEntity
  8
0
100
AcDbLine
 10
9.728530000000018
 20
221.9219999999999
 30
0.0
 11
12.4391
 21
221.434
 31
0.0
  0
LINE
  5
E9
330
1E
100
AcDbEntity
  8
0
100
AcDbLine
 10
17.5073
 20
220.724
 30
0.0
 11
19.637
 21
220.3409999999999
 31
0.0
  0
LINE
  5
EA
330
1E
100
AcDbEntity
  8
0
100
AcDbLine
 10
17.7635
 20
220.474
 30
0.0
 11
19.9901
 21
220.0729999999999
 31
0.0
  0
LINE
  5
EB
330
1E
100
AcDbEntity
  8
0
100
AcDbLine
 10
15.08709999999999
 20
221.16
 30
0.0
 11
17.5073
 21
220.724
 31
0.0
  0
LINE
  5
EC
330
1E
100
AcDbEntity
  8
0
100
AcDbLine
 10
15.14969999999999
 20
220.9449999999999
 30
0.0
 11
17.7635
 21
220.474
 31
0.0
  0
LINE
  5
ED
330
1E
100
AcDbEntity
  8
0
100
AcDbLine
 10
21.2828
 20
220.0439999999999
 30
0.0
 11
22.2508
 21
219.87
 31
0.0
  0
LINE
  5
EE
330
1E
100
AcDbEntity
  8
0
100
AcDbLine
 10
19.637
 20
220.3409999999999
 30
0.0
 11
21.2828
 21
220.0439999999999
 31
0.0
  0
LINE
  5
EF
330
1E
100
AcDbEntity
  8
0
100
AcDbLine
 10
19.9901
 20
220.0729999999999
 30
0.0
 11
21.6358
 21
219.7759999999999
 31
0.0
  0
LINE
  5
F0
330
1E
100
AcDbEntity
  8
0
100
AcDbLine
 10
22.769
 20
219.9799999999999
 30
0.0
 11
23.1562
 21
219.91
 31
0.0
  0
LINE
  5
F1
330
1E
100
AcDbEntity
  8
0
100
AcDbLine
 10
21.70409999999999
 20
220.1719999999999
 30
0.0
 11
22.769
 21
219.9799999999999
 31
0.0
  0
LINE
  5
F2
330
1E
100
AcDbEntity
  8
0
100
AcDbLine
 10
20.0584
 20
220.469
 30
0.0
 11
21.70409999999999
 21
220.1719999999999
 31
0.0
  0
LINE
  5
F3
330
1E
100
AcDbEntity
  8
0
100
AcDbLine
 10
17.8318
 20
220.8699999999999
 30
0.0
 11
20.0584
 21
220.469
 31
0.0
  0
LINE
  5
F4
330
1E
100
AcDbEntity
  8
0
100
AcDbLine
 10
15.21799999999999
 20
221.3409999999999
 30
0.0
 11
17.8318
 21
220.8699999999999
 31
0.0
  0
LINE
  5
F5
330
1E
100
AcDbEntity
  8
0
100
AcDbLine
 10
12.5074
 20
221.829
 30
0.0
 11
15.21799999999999
 21
221.3409999999999
 31
0.0
  0
LINE
  5
F6
330
1E
100
AcDbEntity
  8
0
100
AcDbLine
 10
7.439300000000018
 20
222.5379999999999
 30
0.0
 11
9.859480000000019
 21
222.102
 31
0.0
  0
LINE
  5
F7
330
1E
100
AcDbEntity
  8
0
100
AcDbLine
 10
9.796810000000018
 20
222.3179999999999
 30
0.0
 11
12.5074
 21
221.829
 31
0.0
  0
LINE
  5
F8
330
1E
100
AcDbEntity
  8
0
100
AcDbLine
 10
7.183010000000018
 20
222.789
 30
0.0
 11
9.796810000000018
 21
222.3179999999999
 31
0.0
  0
LINE
  5
F9
330
1E
100
AcDbEntity
  8
0
100
AcDbLine
 10
3.66381000000002
 20
223.219
 30
0.0
 11
5.30953000000002
 21
222.922
 31
0.0
  0
LINE
  5
FA
330
1E
100
AcDbEntity
  8
0
100
AcDbLine
 10
4.956440000000019
 20
223.1899999999999
 30
0.0
 11
7.183010000000018
 21
222.789
 31
0.0
  0
LINE
  5
FB
330
1E
100
AcDbEntity
  8
0
100
AcDbLine
 10
3.31072000000002
 20
223.4859999999999
 30
0.0
 11
4.956440000000019
 21
223.1899999999999
 31
0.0
  0
LINE
  5
FC
330
1E
100
AcDbEntity
  8
0
100
AcDbLine
 10
26.5274
 20
238.944
 30
0.0
 11
29.673
 21
248.4869999999999
 31
0.0
  0
LINE
  5
FD
330
1E
100
AcDbEntity
  8
0
100
AcDbLine
 10
24.6597
 20
229.0999999999999
 30
0.0
 11
26.5274
 21
238.944
 31
0.0
  0
LINE
  5
FE
330
1E
100
AcDbEntity
  8
0
100
AcDbLine
 10
3.13179000000002
 20
231.912
 30
0.0
 11
5.687610000000018
 21
244.6699999999999
 31
0.0
  0
LINE
  5
FF
330
1E
100
AcDbEntity
  8
0
100
AcDbLine
 10
23.1562
 20
219.91
 30
0.0
 11
24.6597
 21
229.0999999999999
 31
0.0
  0
LINE
  5
100
330
1E
100
AcDbEntity
  8
0
100
AcDbLine
 10
1.85860000000002
 20
223.748
 30
0.0
 11
3.13179000000002
 21
231.912
 31
0.0
  0
LINE
  5
101
330
1E
100
AcDbEntity
  8
0
100
AcDbLine
 10
1.85860000000002
 20
223.748
 30
0.0
 11
2.308500000000019
 21
223.463
 31
0.0
  0
LINE
  5
102
330
1E
100
AcDbEntity
  8
0
100
AcDbLine
 10
1.85860000000002
 20
223.748
 30
0.0
 11
2.245830000000019
 21
223.6779999999999
 31
0.0
  0
LINE
  5
103
330
1E
100
AcDbEntity
  8
0
100
AcDbLine
 10
29.673
 20
248.4869999999999
 30
0.0
 11
33.9982
 21
257.427
 31
0.0
  0
LINE
  5
104
330
1E
100
AcDbEntity
  8
0
100
AcDbLine
 10
33.9982
 20
257.427
 30
0.0
 11
39.5031
 21
265.865
 31
0.0
  0
LINE
  5
105
330
1E
100
AcDbEntity
  8
0
100
AcDbLine
 10
9.717940000000018
 20
256.925
 30
0.0
 11
15.3211
 21
268.477
 31
0.0
  0
LINE
  5
106
330
1E
100
AcDbEntity
  8
0
100
AcDbLine
 10
5.687610000000018
 20
244.6699999999999
 30
0.0
 11
9.717940000000018
 21
256.925
 31
0.0
  0
LINE
  5
107
330
1E
100
AcDbEntity
  8
0
100
AcDbLine
 10
39.5031
 20
265.865
 30
0.0
 11
45.9909
 21
273.3989999999999
 31
0.0
  0
LINE
  5
108
330
1E
100
AcDbEntity
  8
0
100
AcDbLine
 10
15.3211
 20
268.477
 30
0.0
 11
22.3004
 21
279.225
 31
0.0
  0
LINE
  5
109
330
1E
100
AcDbEntity
  8
0
100
AcDbLine
 10
22.3004
 20
279.225
 30
0.0
 11
30.7543
 21
288.9689999999999
 31
0.0
  0
LINE
  5
10A
330
1E
100
AcDbEntity
  8
0
100
AcDbLine
 10
45.9909
 20
273.3989999999999
 30
0.0
 11
53.3635
 21
280.029
 31
0.0
  0
LINE
  5
10B
330
1E
100
AcDbEntity
  8
0
100
AcDbLine
 10
53.3635
 20
280.029
 30
0.0
 11
61.6208
 21
285.6539999999999
 31
0.0
  0
LINE
  5
10C
330
1E
100
AcDbEntity
  8
0
100
AcDbLine
 10
30.7543
 20
288.9689999999999
 30
0.0
 11
40.2895
 21
297.6079999999999
 31
0.0
  0
LINE
  5
10D
330
1E
100
AcDbEntity
  8
0
100
AcDbLine
 10
61.6208
 20
285.6539999999999
 30
0.0
 11
70.3696
 21
290.074
 31
0.0
  0
LINE
  5
10E
330
1E
100
AcDbEntity
  8
0
100
AcDbLine
 10
70.3696
 20
290.074
 30
0.0
 11
79.7081
 21
293.289
 31
0.0
  0
LINE
  5
10F
330
1E
100
AcDbEntity
  8
0
100
AcDbLine
 10
79.7081
 20
293.289
 30
0.0
 11
89.3416
 21
295.197
 31
0.0
  0
LINE
  5
110
330
1E
100
AcDbEntity
  8
0
100
AcDbLine
 10
89.3416
 20
295.197
 30
0.0
 11
99.1717
 21
295.8999999999999
 31
0.0
  0
LINE
  5
111
330
1E
100
AcDbEntity
  8
0
100
AcDbLine
 10
40.2895
 20
297.6079999999999
 30
0.0
 11
50.8077
 21
304.74
 31
0.0
  0
LINE
  5
112
330
1E
100
AcDbEntity
  8
0
100
AcDbLine
 10
50.8077
 20
304.74
 30
0.0
 11
62.1123
 21
310.4659999999999
 31
0.0
  0
LINE
  5
113
330
1E
100
AcDbEntity
  8
0
100
AcDbLine
 10
62.1123
 20
310.4659999999999
 30
0.0
 11
74.105
 21
314.5849999999999
 31
0.0
  0
LINE
  5
114
330
1E
100
AcDbEntity
  8
0
100
AcDbLine
 10
74.105
 20
314.5849999999999
 30
0.0
 11
86.5892
 21
317.1959999999999
 31
0.0
  0
LINE
  5
115
330
1E
100
AcDbEntity
  8
0
100
AcDbLine
 10
86.5892
 20
317.1959999999999
 30
0.0
 11
99.1717
 21
318.0
 31
0.0
  0
LINE
  5
116
330
1E
100
AcDbEntity
  8
0
100
AcDbLine
 10
99.1717
 20
295.8999999999999
 30
0.0
 11
109.002
 21
295.197
 31
0.0
  0
LINE
  5
117
330
1E
100
AcDbEntity
  8
0
100
AcDbLine
 10
144.9799999999999
 20
280.029
 30
0.0
 11
152.3519999999999
 21
273.3989999999999
 31
0.0
  0
LINE
  5
118
330
1E
100
AcDbEntity
  8
0
100
AcDbLine
 10
158.054
 20
297.6079999999999
 30
0.0
 11
167.589
 21
288.9689999999999
 31
0.0
  0
LINE
  5
119
330
1E
100
AcDbEntity
  8
0
100
AcDbLine
 10
136.7229999999999
 20
285.6539999999999
 30
0.0
 11
144.9799999999999
 21
280.029
 31
0.0
  0
LINE
  5
11A
330
1E
100
AcDbEntity
  8
0
100
AcDbLine
 10
147.536
 20
304.74
 30
0.0
 11
158.054
 21
297.6079999999999
 31
0.0
  0
LINE
  5
11B
330
1E
100
AcDbEntity
  8
0
100
AcDbLine
 10
127.9739999999999
 20
290.074
 30
0.0
 11
136.7229999999999
 21
285.6539999999999
 31
0.0
  0
LINE
  5
11C
330
1E
100
AcDbEntity
  8
0
100
AcDbLine
 10
136.2309999999999
 20
310.4659999999999
 30
0.0
 11
147.536
 21
304.74
 31
0.0
  0
LINE
  5
11D
330
1E
100
AcDbEntity
  8
0
100
AcDbLine
 10
118.635
 20
293.289
 30
0.0
 11
127.9739999999999
 21
290.074
 31
0.0
  0
LINE
  5
11E
330
1E
100
AcDbEntity
  8
0
100
AcDbLine
 10
124.238
 20
314.5849999999999
 30
0.0
 11
136.2309999999999
 21
310.4659999999999
 31
0.0
  0
LINE
  5
11F
330
1E
100
AcDbEntity
  8
0
100
AcDbLine
 10
109.002
 20
295.197
 30
0.0
 11
118.635
 21
293.289
 31
0.0
  0
LINE
  5
120
330
1E
100
AcDbEntity
  8
0
100
AcDbLine
 10
111.7539999999999
 20
317.1959999999999
 30
0.0
 11
124.238
 21
314.5849999999999
 31
0.0
  0
LINE
  5
121
330
1E
100
AcDbEntity
  8
0
100
AcDbLine
 10
99.1717
 20
318.0
 30
0.0
 11
111.7539999999999
 21
317.1959999999999
 31
0.0
  0
LINE
  5
122
330
1E
100
AcDbEntity
  8
0
100
AcDbLine
 10
152.3519999999999
 20
273.3989999999999
 30
0.0
 11
158.84
 21
265.865
 31
0.0
  0
LINE
  5
123
330
1E
100
AcDbEntity
  8
0
100
AcDbLine
 10
167.589
 20
288.9689999999999
 30
0.0
 11
176.043
 21
279.225
 31
0.0
  0
LINE
  5
124
330
1E
100
AcDbEntity
  8
0
100
AcDbLine
 10
158.84
 20
265.865
 30
0.0
 11
164.345
 21
257.427
 31
0.0
  0
LINE
  5
125
330
1E
100
AcDbEntity
  8
0
100
AcDbLine
 10
164.345
 20
257.427
 30
0.0
 11
168.6699999999999
 21
248.4869999999999
 31
0.0
  0
LINE
  5
126
330
1E
100
AcDbEntity
  8
0
100
AcDbLine
 10
168.6699999999999
 20
248.4869999999999
 30
0.0
 11
171.8159999999999
 21
238.944
 31
0.0
  0
LINE
  5
127
330
1E
100
AcDbEntity
  8
0
100
AcDbLine
 10
171.8159999999999
 20
238.944
 30
0.0
 11
173.684
 21
229.0999999999999
 31
0.0
  0
LINE
  5
128
330
1E
100
AcDbEntity
  8
0
100
AcDbLine
 10
174.372
 20
219.0539999999999
 30
0.0
 11
174.372
 21
136.603039182283
 31
0.0
  0
LINE
  5
129
330
1E
100
AcDbEntity
  8
0
100
AcDbLine
 10
176.043
 20
279.225
 30
0.0
 11
183.022
 21
268.477
 31
0.0
  0
LINE
  5
12A
330
1E
100
AcDbEntity
  8
0
100
AcDbLine
 10
183.022
 20
268.477
 30
0.0
 11
188.625
 21
256.925
 31
0.0
  0
LINE
  5
12B
330
1E
100
AcDbEntity
  8
0
100
AcDbLine
 10
173.684
 20
229.0999999999999
 30
0.0
 11
174.372
 21
219.0539999999999
 31
0.0
  0
LINE
  5
12C
330
1E
100
AcDbEntity
  8
0
100
AcDbLine
 10
184.998
 20
143.0
 30
0.0
 11
186.4979999999999
 21
142.9
 31
0.0
  0
LINE
  5
12D
330
1E
100
AcDbEntity
  8
0
100
AcDbLine
 10
211.9979999999999
 20
-0.0000000000000215
 30
0.0
 11
211.9979999999999
 21
2.49999999999998
 31
0.0
  0
LINE
  5
12E
330
1E
100
AcDbEntity
  8
0
100
AcDbLine
 10
210.9979999999999
 20
-0.0000000000000215
 30
0.0
 11
211.9979999999999
 21
-0.0000000000000215
 31
0.0
  0
LINE
  5
12F
330
1E
100
AcDbEntity
  8
0
100
AcDbLine
 10
208.3979999999999
 20
-0.0000000000000213
 30
0.0
 11
210.9979999999999
 21
-0.0000000000000215
 31
0.0
  0
LINE
  5
130
330
1E
100
AcDbEntity
  8
0
100
AcDbLine
 10
203.9979999999999
 20
-0.000000000000021
 30
0.0
 11
208.3979999999999
 21
-0.0000000000000213
 31
0.0
  0
LINE
  5
131
330
1E
100
AcDbEntity
  8
0
100
AcDbLine
 10
198.398
 20
-0.0000000000000207
 30
0.0
 11
203.9979999999999
 21
-0.000000000000021
 31
0.0
  0
LINE
  5
132
330
1E
100
AcDbEntity
  8
0
100
AcDbLine
 10
210.9979999999999
 20
2.49999999999998
 30
0.0
 11
211.9979999999999
 21
2.49999999999998
 31
0.0
  0
LINE
  5
133
330
1E
100
AcDbEntity
  8
0
100
AcDbLine
 10
208.3979999999999
 20
2.49999999999998
 30
0.0
 11
210.9979999999999
 21
2.49999999999998
 31
0.0
  0
LINE
  5
134
330
1E
100
AcDbEntity
  8
0
100
AcDbLine
 10
203.9979999999999
 20
2.49999999999998
 30
0.0
 11
208.3979999999999
 21
2.49999999999998
 31
0.0
  0
LINE
  5
135
330
1E
100
AcDbEntity
  8
0
100
AcDbLine
 10
210.4979999999999
 20
2.999999999999979
 30
0.0
 11
211.498
 21
2.999999999999979
 31
0.0
  0
LINE
  5
136
330
1E
100
AcDbEntity
  8
0
100
AcDbLine
 10
207.9979999999999
 20
2.999999999999979
 30
0.0
 11
210.4979999999999
 21
2.999999999999979
 31
0.0
  0
LINE
  5
137
330
1E
100
AcDbEntity
  8
0
100
AcDbLine
 10
203.6979999999999
 20
2.999999999999979
 30
0.0
 11
207.9979999999999
 21
2.999999999999979
 31
0.0
  0
LINE
  5
138
330
1E
100
AcDbEntity
  8
0
100
AcDbLine
 10
198.398
 20
2.49999999999998
 30
0.0
 11
203.9979999999999
 21
2.49999999999998
 31
0.0
  0
LINE
  5
139
330
1E
100
AcDbEntity
  8
0
100
AcDbLine
 10
191.8979999999999
 20
2.49999999999998
 30
0.0
 11
198.398
 21
2.49999999999998
 31
0.0
  0
LINE
  5
13A
330
1E
100
AcDbEntity
  8
0
100
AcDbLine
 10
190.4979999999999
 20
3.499999999999979
 30
0.0
 11
195.6979999999999
 21
3.499999999999979
 31
0.0
  0
LINE
  5
13B
330
1E
100
AcDbEntity
  8
0
100
AcDbLine
 10
200.898
 20
2.999999999999979
 30
0.0
 11
204.4979999999999
 21
2.999999999999979
 31
0.0
  0
LINE
  5
13C
330
1E
100
AcDbEntity
  8
0
100
AcDbLine
 10
205.6979999999999
 20
3.499999999999979
 30
0.0
 11
206.4979999999999
 21
3.499999999999979
 31
0.0
  0
LINE
  5
13D
330
1E
100
AcDbEntity
  8
0
100
AcDbLine
 10
203.5979999999999
 20
3.499999999999979
 30
0.0
 11
205.6979999999999
 21
3.499999999999979
 31
0.0
  0
LINE
  5
13E
330
1E
100
AcDbEntity
  8
0
100
AcDbLine
 10
200.1979999999999
 20
3.499999999999979
 30
0.0
 11
203.5979999999999
 21
3.499999999999979
 31
0.0
  0
LINE
  5
13F
330
1E
100
AcDbEntity
  8
0
100
AcDbLine
 10
195.6979999999999
 20
3.499999999999979
 30
0.0
 11
200.1979999999999
 21
3.499999999999979
 31
0.0
  0
LINE
  5
140
330
1E
100
AcDbEntity
  8
0
100
AcDbLine
 10
198.1979999999999
 20
2.999999999999979
 30
0.0
 11
203.6979999999999
 21
2.999999999999979
 31
0.0
  0
LINE
  5
141
330
1E
100
AcDbEntity
  8
0
100
AcDbLine
 10
198.1979999999999
 20
2.999999999999979
 30
0.0
 11
200.898
 21
2.999999999999979
 31
0.0
  0
LINE
  5
142
330
1E
100
AcDbEntity
  8
0
100
AcDbLine
 10
191.798
 20
2.999999999999979
 30
0.0
 11
198.1979999999999
 21
2.999999999999979
 31
0.0
  0
LINE
  5
143
330
1E
100
AcDbEntity
  8
0
100
AcDbLine
 10
185.7979999999999
 20
136.8999999999999
 30
0.0
 11
186.598
 21
136.8
 31
0.0
  0
LINE
  5
144
330
1E
100
AcDbEntity
  8
0
100
AcDbLine
 10
189.723
 20
33.2
 30
0.0
 11
194.8229999999999
 21
35.29999999999999
 31
0.0
  0
LINE
  5
145
330
1E
100
AcDbEntity
  8
0
100
AcDbLine
 10
195.3979999999999
 20
34.79999999999999
 30
0.0
 11
199.798
 21
38.2
 31
0.0
  0
LINE
  5
146
330
1E
100
AcDbEntity
  8
0
100
AcDbLine
 10
190.3979999999999
 20
32.79999999999999
 30
0.0
 11
195.3979999999999
 21
34.79999999999999
 31
0.0
  0
LINE
  5
148
330
1E
100
AcDbEntity
  8
0
100
AcDbLine
 10
194.8229999999999
 20
35.29999999999999
 30
0.0
 11
199.248
 21
38.75
 31
0.0
  0
LINE
  5
149
330
1E
100
AcDbEntity
  8
0
100
AcDbLine
 10
199.248
 20
38.75
 30
0.0
 11
202.698
 21
43.17499999999999
 31
0.0
  0
LINE
  5
14B
330
1E
100
AcDbEntity
  8
0
100
AcDbLine
 10
199.798
 20
38.2
 30
0.0
 11
203.1979999999999
 21
42.6
 31
0.0
  0
LINE
  5
14C
330
1E
100
AcDbEntity
  8
0
100
AcDbLine
 10
203.1979999999999
 20
42.6
 30
0.0
 11
205.1979999999999
 21
47.6
 31
0.0
  0
LINE
  5
14E
330
1E
100
AcDbEntity
  8
0
100
AcDbLine
 10
202.698
 20
43.17499999999999
 30
0.0
 11
204.7979999999999
 21
48.275
 31
0.0
  0
LINE
  5
14F
330
1E
100
AcDbEntity
  8
0
100
AcDbLine
 10
204.7979999999999
 20
48.275
 30
0.0
 11
205.548
 21
53.0
 31
0.0
  0
LINE
  5
153
330
1E
100
AcDbEntity
  8
0
100
AcDbLine
 10
205.1979999999999
 20
47.6
 30
0.0
 11
205.9979999999999
 21
53.0
 31
0.0
  0
LINE
  5
154
330
1E
100
AcDbEntity
  8
0
100
AcDbLine
 10
205.9979999999999
 20
26.9341044744257
 30
0.0
 11
205.9979999999999
 21
4.99999999999998
 31
0.0
  0
LINE
  5
156
330
1E
100
AcDbEntity
  8
0
100
AcDbLine
 10
205.9979999999999
 20
26.9341044744257
 30
0.0
 11
205.9979999999999
 21
53.0
 31
0.0
  0
LINE
  5
158
330
1E
100
AcDbEntity
  8
0
100
AcDbLine
 10
205.9979999999999
 20
53.0
 30
0.0
 11
205.9979999999999
 21
95.0
 31
0.0
  0
LINE
  5
159
330
1E
100
AcDbEntity
  8
0
100
AcDbLine
 10
205.9979999999999
 20
53.0
 30
0.0
 11
205.9979999999999
 21
26.9341044744257
 31
0.0
  0
LINE
  5
15B
330
1E
100
AcDbEntity
  8
0
100
AcDbLine
 10
204.7979999999999
 20
57.725
 30
0.0
 11
205.548
 21
53.0
 31
0.0
  0
LINE
  5
15C
330
1E
100
AcDbEntity
  8
0
100
AcDbLine
 10
193.8029999999999
 20
64.7612
 30
0.0
 11
194.059
 21
64.7971
 31
0.0
  0
LINE
  5
15D
330
1E
100
AcDbEntity
  8
0
100
AcDbLine
 10
194.059
 20
64.7971
 30
0.0
 11
194.299
 21
64.893
 31
0.0
  0
LINE
  5
15E
330
1E
100
AcDbEntity
  8
0
100
AcDbLine
 10
194.299
 20
64.893
 30
0.0
 11
194.5109999999999
 21
65.0528
 31
0.0
  0
LINE
  5
15F
330
1E
100
AcDbEntity
  8
0
100
AcDbLine
 10
193.547
 20
64.7971
 30
0.0
 11
193.8029999999999
 21
64.7612
 31
0.0
  0
LINE
  5
160
330
1E
100
AcDbEntity
  8
0
100
AcDbLine
 10
194.5109999999999
 20
65.0528
 30
0.0
 11
194.6709999999999
 21
65.2645
 31
0.0
  0
LINE
  5
161
330
1E
100
AcDbEntity
  8
0
100
AcDbLine
 10
194.6709999999999
 20
65.2645
 30
0.0
 11
194.767
 21
65.50419999999999
 31
0.0
  0
LINE
  5
162
330
1E
100
AcDbEntity
  8
0
100
AcDbLine
 10
193.307
 20
64.893
 30
0.0
 11
193.547
 21
64.7971
 31
0.0
  0
LINE
  5
163
330
1E
100
AcDbEntity
  8
0
100
AcDbLine
 10
193.0949999999999
 20
65.0528
 30
0.0
 11
193.307
 21
64.893
 31
0.0
  0
LINE
  5
164
330
1E
100
AcDbEntity
  8
0
100
AcDbLine
 10
194.767
 20
65.50419999999999
 30
0.0
 11
194.8029999999999
 21
65.7598
 31
0.0
  0
LINE
  5
165
330
1E
100
AcDbEntity
  8
0
100
AcDbLine
 10
192.935
 20
65.2645
 30
0.0
 11
193.0949999999999
 21
65.0528
 31
0.0
  0
LINE
  5
166
330
1E
100
AcDbEntity
  8
0
100
AcDbLine
 10
192.839
 20
65.50419999999999
 30
0.0
 11
192.935
 21
65.2645
 31
0.0
  0
LINE
  5
167
330
1E
100
AcDbEntity
  8
0
100
AcDbLine
 10
192.935
 20
66.2551
 30
0.0
 11
193.0949999999999
 21
66.46689999999999
 31
0.0
  0
LINE
  5
168
330
1E
100
AcDbEntity
  8
0
100
AcDbLine
 10
192.839
 20
66.0155
 30
0.0
 11
192.935
 21
66.2551
 31
0.0
  0
LINE
  5
169
330
1E
100
AcDbEntity
  8
0
100
AcDbLine
 10
192.8029999999999
 20
65.7598
 30
0.0
 11
192.839
 21
66.0155
 31
0.0
  0
LINE
  5
16A
330
1E
100
AcDbEntity
  8
0
100
AcDbLine
 10
192.8029999999999
 20
65.7598
 30
0.0
 11
192.839
 21
65.50419999999999
 31
0.0
  0
LINE
  5
16B
330
1E
100
AcDbEntity
  8
0
100
AcDbLine
 10
193.307
 20
66.62659999999999
 30
0.0
 11
193.547
 21
66.7225
 31
0.0
  0
LINE
  5
16C
330
1E
100
AcDbEntity
  8
0
100
AcDbLine
 10
193.0949999999999
 20
66.46689999999999
 30
0.0
 11
193.307
 21
66.62659999999999
 31
0.0
  0
LINE
  5
16D
330
1E
100
AcDbEntity
  8
0
100
AcDbLine
 10
193.547
 20
66.7225
 30
0.0
 11
193.8029999999999
 21
66.7585
 31
0.0
  0
LINE
  5
16E
330
1E
100
AcDbEntity
  8
0
100
AcDbLine
 10
193.8029999999999
 20
66.7585
 30
0.0
 11
194.059
 21
66.7225
 31
0.0
  0
LINE
  5
16F
330
1E
100
AcDbEntity
  8
0
100
AcDbLine
 10
194.059
 20
66.7225
 30
0.0
 11
194.299
 21
66.62659999999999
 31
0.0
  0
LINE
  5
170
330
1E
100
AcDbEntity
  8
0
100
AcDbLine
 10
194.299
 20
66.62659999999999
 30
0.0
 11
194.5109999999999
 21
66.46689999999999
 31
0.0
  0
LINE
  5
171
330
1E
100
AcDbEntity
  8
0
100
AcDbLine
 10
194.5109999999999
 20
66.46689999999999
 30
0.0
 11
194.6709999999999
 21
66.2551
 31
0.0
  0
LINE
  5
172
330
1E
100
AcDbEntity
  8
0
100
AcDbLine
 10
194.6709999999999
 20
66.2551
 30
0.0
 11
194.767
 21
66.0155
 31
0.0
  0
LINE
  5
173
330
1E
100
AcDbEntity
  8
0
100
AcDbLine
 10
194.767
 20
66.0155
 30
0.0
 11
194.8029999999999
 21
65.7598
 31
0.0
  0
LINE
  5
174
330
1E
100
AcDbEntity
  8
0
100
AcDbLine
 10
199.248
 20
67.25
 30
0.0
 11
202.698
 21
62.825
 31
0.0
  0
LINE
  5
175
330
1E
100
AcDbEntity
  8
0
100
AcDbLine
 10
202.698
 20
62.825
 30
0.0
 11
204.7979999999999
 21
57.725
 31
0.0
  0
LINE
  5
176
330
1E
100
AcDbEntity
  8
0
100
AcDbLine
 10
190.998
 20
72.77717391304349
 30
0.0
 11
190.998
 21
131.0
 31
0.0
  0
LINE
  5
177
330
1E
100
AcDbEntity
  8
0
100
AcDbLine
 10
190.3979999999999
 20
73.2
 30
0.0
 11
190.998
 21
72.95999999999999
 31
0.0
  0
LINE
  5
178
330
1E
100
AcDbEntity
  8
0
100
AcDbLine
 10
189.723
 20
72.8
 30
0.0
 11
194.8229999999999
 21
70.7
 31
0.0
  0
LINE
  5
179
330
1E
100
AcDbEntity
  8
0
100
AcDbLine
 10
194.8229999999999
 20
70.7
 30
0.0
 11
199.248
 21
67.25
 31
0.0
  0
LINE
  5
17A
330
1E
100
AcDbEntity
  8
0
100
AcDbLine
 10
190.0979999999999
 20
96.0
 30
0.0
 11
190.998
 21
96.0
 31
0.0
  0
LINE
  5
17B
330
1E
100
AcDbEntity
  8
0
100
AcDbLine
 10
190.3979999999999
 20
95.0
 30
0.0
 11
190.998
 21
95.0
 31
0.0
  0
LINE
  5
17C
330
1E
100
AcDbEntity
  8
0
100
AcDbLine
 10
190.5649999999999
 20
133.316
 30
0.0
 11
190.798
 21
132.6
 31
0.0
  0
LINE
  5
17D
330
1E
100
AcDbEntity
  8
0
100
AcDbLine
 10
190.798
 20
132.6
 30
0.0
 11
190.8979999999999
 21
131.8
 31
0.0
  0
LINE
  5
17E
330
1E
100
AcDbEntity
  8
0
100
AcDbLine
 10
190.8979999999999
 20
131.8
 30
0.0
 11
190.998
 21
131.0
 31
0.0
  0
LINE
  5
17F
330
1E
100
AcDbEntity
  8
0
100
AcDbLine
 10
190.2409999999999
 20
134.017
 30
0.0
 11
190.5649999999999
 21
133.316
 31
0.0
  0
LINE
  5
180
330
1E
100
AcDbEntity
  8
0
100
AcDbLine
 10
189.77
 20
134.6709999999999
 30
0.0
 11
190.2409999999999
 21
134.017
 31
0.0
  0
LINE
  5
181
330
1E
100
AcDbEntity
  8
0
100
AcDbLine
 10
189.299
 20
135.3249999999999
 30
0.0
 11
189.77
 21
134.6709999999999
 31
0.0
  0
LINE
  5
182
330
1E
100
AcDbEntity
  8
0
100
AcDbLine
 10
187.314
 20
136.567
 30
0.0
 11
188.015
 21
136.243
 31
0.0
  0
LINE
  5
183
330
1E
100
AcDbEntity
  8
0
100
AcDbLine
 10
189.4979999999999
 20
142.1
 30
0.0
 11
190.864
 21
141.5129999999999
 31
0.0
  0
LINE
  5
184
330
1E
100
AcDbEntity
  8
0
100
AcDbLine
 10
188.015
 20
136.243
 30
0.0
 11
188.669
 21
135.772
 31
0.0
  0
LINE
  5
185
330
1E
100
AcDbEntity
  8
0
100
AcDbLine
 10
190.864
 20
141.5129999999999
 30
0.0
 11
192.24
 21
140.644
 31
0.0
  0
LINE
  5
186
330
1E
100
AcDbEntity
  8
0
100
AcDbLine
 10
188.669
 20
135.772
 30
0.0
 11
189.299
 21
135.3249999999999
 31
0.0
  0
LINE
  5
187
330
1E
100
AcDbEntity
  8
0
100
AcDbLine
 10
194.6419999999999
 20
138.242
 30
0.0
 11
195.5109999999999
 21
136.866
 31
0.0
  0
LINE
  5
188
330
1E
100
AcDbEntity
  8
0
100
AcDbLine
 10
193.534
 20
139.589
 30
0.0
 11
194.6419999999999
 21
138.242
 31
0.0
  0
LINE
  5
189
330
1E
100
AcDbEntity
  8
0
100
AcDbLine
 10
192.24
 20
140.644
 30
0.0
 11
193.534
 21
139.589
 31
0.0
  0
LINE
  5
18A
330
1E
100
AcDbEntity
  8
0
100
AcDbLine
 10
190.998
 20
131.0
 30
0.0
 11
190.998
 21
72.77717391304349
 31
0.0
  0
LINE
  5
18C
330
1E
100
AcDbEntity
  8
0
100
AcDbLine
 10
199.798
 20
67.8
 30
0.0
 11
203.1979999999999
 21
63.39999999999999
 31
0.0
  0
LINE
  5
18D
330
1E
100
AcDbEntity
  8
0
100
AcDbLine
 10
195.998
 20
135.732708688245
 30
0.0
 11
195.998
 21
219.0539999999999
 31
0.0
  0
LINE
  5
18E
330
1E
100
AcDbEntity
  8
0
100
AcDbLine
 10
196.0979999999999
 20
135.4999999999999
 30
0.0
 11
196.5979999999999
 21
134.0999999999999
 31
0.0
  0
LINE
  5
18F
330
1E
100
AcDbEntity
  8
0
100
AcDbLine
 10
196.5979999999999
 20
134.0999999999999
 30
0.0
 11
196.8979999999999
 21
132.4999999999999
 31
0.0
  0
LINE
  5
190
330
1E
100
AcDbEntity
  8
0
100
AcDbLine
 10
196.9979999999999
 20
96.0
 30
0.0
 11
199.098
 21
96.0
 31
0.0
  0
LINE
  5
191
330
1E
100
AcDbEntity
  8
0
100
AcDbLine
 10
196.9979999999999
 20
95.0
 30
0.0
 11
199.798
 21
95.0
 31
0.0
  0
LINE
  5
192
330
1E
100
AcDbEntity
  8
0
100
AcDbLine
 10
196.9979999999999
 20
69.96363636363639
 30
0.0
 11
199.798
 21
67.8
 31
0.0
  0
LINE
  5
193
330
1E
100
AcDbEntity
  8
0
100
AcDbLine
 10
196.8979999999999
 20
132.4999999999999
 30
0.0
 11
196.9979999999999
 21
131.0
 31
0.0
  0
LINE
  5
194
330
1E
100
AcDbEntity
  8
0
100
AcDbLine
 10
195.5109999999999
 20
136.866
 30
0.0
 11
196.0979999999999
 21
135.4999999999999
 31
0.0
  0
LINE
  5
195
330
1E
100
AcDbEntity
  8
0
100
AcDbLine
 10
202.298
 20
96.0
 30
0.0
 11
204.298
 21
96.0
 31
0.0
  0
LINE
  5
196
330
1E
100
AcDbEntity
  8
0
100
AcDbLine
 10
199.098
 20
96.0
 30
0.0
 11
202.298
 21
96.0
 31
0.0
  0
LINE
  5
197
330
1E
100
AcDbEntity
  8
0
100
AcDbLine
 10
199.798
 20
95.0
 30
0.0
 11
203.1979999999999
 21
95.0
 31
0.0
  0
LINE
  5
198
330
1E
100
AcDbEntity
  8
0
100
AcDbLine
 10
196.9979999999999
 20
131.0
 30
0.0
 11
196.9979999999999
 21
69.6044655737705
 31
0.0
  0
LINE
  5
19A
330
1E
100
AcDbEntity
  8
0
100
AcDbLine
 10
196.9979999999999
 20
69.6044655737705
 30
0.0
 11
196.9979999999999
 21
131.0
 31
0.0
  0
LINE
  5
19D
330
1E
100
AcDbEntity
  8
0
100
AcDbLine
 10
203.1979999999999
 20
63.39999999999999
 30
0.0
 11
205.1979999999999
 21
58.39999999999999
 31
0.0
  0
LINE
  5
19E
330
1E
100
AcDbEntity
  8
0
100
AcDbLine
 10
205.1979999999999
 20
58.39999999999999
 30
0.0
 11
205.9979999999999
 21
53.0
 31
0.0
  0
LINE
  5
19F
330
1E
100
AcDbEntity
  8
0
100
AcDbLine
 10
205.9979999999999
 20
95.0
 30
0.0
 11
205.9979999999999
 21
53.0
 31
0.0
  0
LINE
  5
1A0
330
1E
100
AcDbEntity
  8
0
100
AcDbLine
 10
205.1979999999999
 20
95.0
 30
0.0
 11
205.9979999999999
 21
95.0
 31
0.0
  0
LINE
  5
1A1
330
1E
100
AcDbEntity
  8
0
100
AcDbLine
 10
204.998
 20
96.0
 30
0.0
 11
205.9979999999999
 21
95.0
 31
0.0
  0
LINE
  5
1A2
330
1E
100
AcDbEntity
  8
0
100
AcDbLine
 10
204.298
 20
96.0
 30
0.0
 11
204.998
 21
96.0
 31
0.0
  0
LINE
  5
1A3
330
1E
100
AcDbEntity
  8
0
100
AcDbLine
 10
203.1979999999999
 20
95.0
 30
0.0
 11
205.1979999999999
 21
95.0
 31
0.0
  0
LINE
  5
1A6
330
1E
100
AcDbEntity
  8
0
100
AcDbLine
 10
186.598
 20
136.8
 30
0.0
 11
187.314
 21
136.567
 31
0.0
  0
LINE
  5
1A7
330
1E
100
AcDbEntity
  8
0
100
AcDbLine
 10
188.625
 20
256.925
 30
0.0
 11
192.6559999999999
 21
244.6699999999999
 31
0.0
  0
LINE
  5
1A8
330
1E
100
AcDbEntity
  8
0
100
AcDbLine
 10
192.6559999999999
 20
244.6699999999999
 30
0.0
 11
195.212
 21
231.912
 31
0.0
  0
LINE
  5
1A9
330
1E
100
AcDbEntity
  8
0
100
AcDbLine
 10
195.998
 20
219.0539999999999
 30
0.0
 11
195.998
 21
135.732708688245
 31
0.0
  0
LINE
  5
1AA
330
1E
100
AcDbEntity
  8
0
100
AcDbLine
 10
195.212
 20
231.912
 30
0.0
 11
195.998
 21
219.0539999999999
 31
0.0
  0
LINE
  5
1AB
330
1E
100
AcDbEntity
  8
0
100
AcDbLine
 10
188.0979999999999
 20
142.5999999999999
 30
0.0
 11
189.4979999999999
 21
142.1
 31
0.0
  0
LINE
  5
1AC
330
1E
100
AcDbEntity
  8
0
100
AcDbLine
 10
186.4979999999999
 20
142.9
 30
0.0
 11
188.0979999999999
 21
142.5999999999999
 31
0.0
  0
LINE
  5
1AD
330
1E
100
AcDbEntity
  8
0
100
AcDbLine
 10
205.9979999999999
 20
4.99999999999998
 30
0.0
 11
206.4979999999999
 21
3.499999999999979
 31
0.0
  0
LINE
  5
1AE
330
1E
100
AcDbEntity
  8
0
100
AcDbLine
 10
205.9979999999999
 20
4.99999999999998
 30
0.0
 11
205.9979999999999
 21
26.9341044744257
 31
0.0
  0
LINE
  5
1C5
330
1E
100
AcDbEntity
  8
0
100
AcDbLine
 10
206.4979999999999
 20
3.499999999999979
 30
0.0
 11
207.498
 21
2.999999999999979
 31
0.0
  0
LINE
  5
1C6
330
1E
100
AcDbEntity
  8
0
100
AcDbLine
 10
211.498
 20
2.999999999999979
 30
0.0
 11
211.9979999999999
 21
2.49999999999998
 31
0.0
  0
LINE
  5
1E1
330
1E
100
AcDbEntity
  8
0
100
AcDbLine
 10
211.9979999999999
 20
2.49999999999998
 30
0.0
 11
211.9979999999999
 21
-0.0000000000000215
 31
0.0
  0
LINE
  5
1E2
330
1E
100
AcDbEntity
  8
0
100
AcDbLine
 10
191.8979999999999
 20
-0.0000000000000203
 30
0.0
 11
198.398
 21
-0.0000000000000207
 31
0.0
  0
LINE
  5
1E3
330
1E
100
AcDbEntity
  8
0
100
AcDbLine
 10
184.998
 20
-0.0000000000000199
 30
0.0
 11
191.8979999999999
 21
-0.0000000000000203
 31
0.0
  0
ENDSEC
  0
SECTION
  2
OBJECTS
  0
DICTIONARY
  5
C
330
0
100
AcDbDictionary
  3
ACAD_GROUP
350
D
  3
ACAD_LAYOUT
350
19
  3
ACAD_MLINESTYLE
350
16
  3
ACAD_PLOTSETTINGS
350
18
  3
ACAD_PLOTSTYLENAME
350
E
  3
ACDBHEADERROUNDTRIPXREC
350
210
  3
ACDBVARIABLEDICTIONARY
350
1E8
  0
DICTIONARY
  5
232
330
1E
100
AcDbDictionary
280
     1
  3
ACAD_LAYOUTSELFREF
360
233
  0
DICTIONARY
  5
230
330
1A
100
AcDbDictionary
280
     1
  3
ACAD_LAYOUTSELFREF
360
231
  0
DICTIONARY
  5
D
102
{ACAD_REACTORS
330
C
102
}
330
C
100
AcDbDictionary
  0
DICTIONARY
  5
19
102
{ACAD_REACTORS
330
C
102
}
330
C
100
AcDbDictionary
  0
DICTIONARY
  5
16
102
{ACAD_REACTORS
330
C
102
}
330
C
100
AcDbDictionary
  3
STANDARD
350
17
  0
DICTIONARY
  5
18
102
{ACAD_REACTORS
330
C
102
}
330
C
100
AcDbDictionary
  0
ACDBDICTIONARYWDFLT
  5
E
102
{ACAD_REACTORS
330
C
102
}
330
C
100
AcDbDictionary
281
     1
  3
Normal
350
F
100
AcDbDictionaryWithDefault
340
F
  0
DICTIONARY
  5
210
102
{ACAD_REACTORS
330
C
102
}
330
C
100
AcDbDictionary
  3
CEPSNTYPE
350
21A
  3
FINGERPRINTGUID
350
21B
  3
HYPERLINKBASE
350
213
  3
INSUNITS
350
219
  3
LAYOUTDICT
350
215
  3
LWETCUNION
350
218
  3
PLOTSETDICT
350
216
  3
PLOTSTYLNAMDICT
350
217
  3
PSVPSCALE
350
21D
  3
PUCSBASE
350
220
  3
PUCSORGBACK
350
226
  3
PUCSORGBOTTOM
350
222
  3
PUCSORGFRONT
350
225
  3
PUCSORGLEFT
350
223
  3
PUCSORGRIGHT
350
224
  3
PUCSORGTOP
350
221
  3
PUCSORTHOREF
350
21E
  3
PUCSORTHOVIEW
350
21F
  3
STYLESHEET
350
214
  3
TSTACKALIGN
350
211
  3
TSTACKSIZE
350
212
  3
UCSBASE
350
229
  3
UCSORGBACK
350
22F
  3
UCSORGBOTTOM
350
22B
  3
UCSORGFRONT
350
22E
  3
UCSORGLEFT
350
22C
  3
UCSORGRIGHT
350
22D
  3
UCSORGTOP
350
22A
  3
UCSORTHOREF
350
227
  3
UCSORTHOVIEW
350
228
  3
VERSIONGUID
350
21C
  0
DICTIONARY
  5
1E8
102
{ACAD_REACTORS
330
C
102
}
330
C
100
AcDbDictionary
  3
DIMASSOC
350
1E9
  0
XRECORD
  5
233
102
{ACAD_REACTORS
330
232
102
}
330
232
100
AcDbXrecord
340
1E
  0
XRECORD
  5
231
102
{ACAD_REACTORS
330
230
102
}
330
230
100
AcDbXrecord
340
1A
  0
MLINESTYLE
  5
17
102
{ACAD_REACTORS
330
16
102
}
330
16
100
AcDbMlineStyle
  2
STANDARD
 70
     0
  3

 62
   256
 51
90.0
 52
90.0
 71
     2
 49
0.5
 62
   256
  6
BYLAYER
 49
-0.5
 62
   256
  6
BYLAYER
  0
ACDBPLACEHOLDER
  5
F
102
{ACAD_REACTORS
330
E
102
}
330
E
100
AcDbPlaceHolder
280
     0
  0
XRECORD
  5
21A
102
{ACAD_REACTORS
330
210
102
}
330
210
100
AcDbXrecord
 90
        0
  0
XRECORD
  5
21B
102
{ACAD_REACTORS
330
210
102
}
330
210
100
AcDbXrecord
  1
{13835F1F-EFA0-480F-A794-1C2EE424A73A}
  0
XRECORD
  5
213
102
{ACAD_REACTORS
330
210
102
}
330
210
100
AcDbXrecord
  1

  0
XRECORD
  5
219
102
{ACAD_REACTORS
330
210
102
}
330
210
100
AcDbXrecord
 90
        0
  0
XRECORD
  5
215
102
{ACAD_REACTORS
330
210
102
}
330
210
100
AcDbXrecord
340
19
  0
XRECORD
  5
218
102
{ACAD_REACTORS
330
210
102
}
330
210
100
AcDbXrecord
 90
    10781
  0
XRECORD
  5
216
102
{ACAD_REACTORS
330
210
102
}
330
210
100
AcDbXrecord
340
18
  0
XRECORD
  5
217
102
{ACAD_REACTORS
330
210
102
}
330
210
100
AcDbXrecord
340
E
  0
XRECORD
  5
21D
102
{ACAD_REACTORS
330
210
102
}
330
210
100
AcDbXrecord
 40
0.0
  0
XRECORD
  5
220
102
{ACAD_REACTORS
330
210
102
}
330
210
100
AcDbXrecord
340
0
  0
XRECORD
  5
226
102
{ACAD_REACTORS
330
210
102
}
330
210
100
AcDbXrecord
 10
0.0
 20
0.0
 30
0.0
  0
XRECORD
  5
222
102
{ACAD_REACTORS
330
210
102
}
330
210
100
AcDbXrecord
 10
0.0
 20
0.0
 30
0.0
  0
XRECORD
  5
225
102
{ACAD_REACTORS
330
210
102
}
330
210
100
AcDbXrecord
 10
0.0
 20
0.0
 30
0.0
  0
XRECORD
  5
223
102
{ACAD_REACTORS
330
210
102
}
330
210
100
AcDbXrecord
 10
0.0
 20
0.0
 30
0.0
  0
XRECORD
  5
224
102
{ACAD_REACTORS
330
210
102
}
330
210
100
AcDbXrecord
 10
0.0
 20
0.0
 30
0.0
  0
XRECORD
  5
221
102
{ACAD_REACTORS
330
210
102
}
330
210
100
AcDbXrecord
 10
0.0
 20
0.0
 30
0.0
  0
XRECORD
  5
21E
102
{ACAD_REACTORS
330
210
102
}
330
210
100
AcDbXrecord
340
0
  0
XRECORD
  5
21F
102
{ACAD_REACTORS
330
210
102
}
330
210
100
AcDbXrecord
 70
     0
  0
XRECORD
  5
214
102
{ACAD_REACTORS
330
210
102
}
330
210
100
AcDbXrecord
  1

  0
XRECORD
  5
211
102
{ACAD_REACTORS
330
210
102
}
330
210
100
AcDbXrecord
 90
        1
  0
XRECORD
  5
212
102
{ACAD_REACTORS
330
210
102
}
330
210
100
AcDbXrecord
 90
       70
  0
XRECORD
  5
229
102
{ACAD_REACTORS
330
210
102
}
330
210
100
AcDbXrecord
340
0
  0
XRECORD
  5
22F
102
{ACAD_REACTORS
330
210
102
}
330
210
100
AcDbXrecord
 10
0.0
 20
0.0
 30
0.0
  0
XRECORD
  5
22B
102
{ACAD_REACTORS
330
210
102
}
330
210
100
AcDbXrecord
 10
0.0
 20
0.0
 30
0.0
  0
XRECORD
  5
22E
102
{ACAD_REACTORS
330
210
102
}
330
210
100
AcDbXrecord
 10
0.0
 20
0.0
 30
0.0
  0
XRECORD
  5
22C
102
{ACAD_REACTORS
330
210
102
}
330
210
100
AcDbXrecord
 10
0.0
 20
0.0
 30
0.0
  0
XRECORD
  5
22D
102
{ACAD_REACTORS
330
210
102
}
330
210
100
AcDbXrecord
 10
0.0
 20
0.0
 30
0.0
  0
XRECORD
  5
22A
102
{ACAD_REACTORS
330
210
102
}
330
210
100
AcDbXrecord
 10
0.0
 20
0.0
 30
0.0
  0
XRECORD
  5
227
102
{ACAD_REACTORS
330
210
102
}
330
210
100
AcDbXrecord
340
0
  0
XRECORD
  5
228
102
{ACAD_REACTORS
330
210
102
}
330
210
100
AcDbXrecord
 70
     1
  0
XRECORD
  5
21C
102
{ACAD_REACTORS
330
210
102
}
330
210
100
AcDbXrecord
  1
{F61062E1-CF90-4B32-9A44-406B176F1161}
  0
DICTIONARYVAR
  5
1E9
102
{ACAD_REACTORS
330
1E8
102
}
330
1E8
100
DictionaryVariables
280
     0
  1
1
  0
ENDSEC
  0
EOF
