  0
SECTION
  2
HEADER
  9
$ACADVER
  1
AC1014
  9
$ACADMAINTVER
 70
     9
  9
$DWGCODEPAGE
  3
ANSI_1252
  9
$INSBASE
 10
0.0
 20
0.0
 30
0.0
  9
$EXTMIN
 10
0.000000000000001
 20
-0.0019999999999814
 30
0.0
  9
$EXTMAX
 10
95.0
 20
211.8474659602926
 30
0.0
  9
$LIMMIN
 10
0.0
 20
0.0
  9
$LIMMAX
 10
12.0
 20
9.0
  9
$ORTHOMODE
 70
     0
  9
$REGENMODE
 70
     1
  9
$FILLMODE
 70
     1
  9
$QTEXTMODE
 70
     0
  9
$MIRRTEXT
 70
     1
  9
$DRAGMODE
 70
     2
  9
$LTSCALE
 40
1.0
  9
$OSMODE
 70
    37
  9
$ATTMODE
 70
     1
  9
$TEXTSIZE
 40
0.2
  9
$TRACEWID
 40
0.05
  9
$TEXTSTYLE
  7
STANDARD
  9
$CLAYER
  8
0
  9
$CELTYPE
  6
CONTINUOUS
  9
$CECOLOR
 62
   256
  9
$CELTSCALE
 40
1.0
  9
$DELOBJ
 70
     1
  9
$DISPSILH
 70
     0
  9
$DIMSCALE
 40
1.0
  9
$DIMASZ
 40
0.18
  9
$DIMEXO
 40
0.0625
  9
$DIMDLI
 40
0.38
  9
$DIMRND
 40
0.0
  9
$DIMDLE
 40
0.0
  9
$DIMEXE
 40
0.18
  9
$DIMTP
 40
0.0
  9
$DIMTM
 40
0.0
  9
$DIMTXT
 40
0.18
  9
$DIMCEN
 40
0.09
  9
$DIMTSZ
 40
0.0
  9
$DIMTOL
 70
     0
  9
$DIMLIM
 70
     0
  9
$DIMTIH
 70
     1
  9
$DIMTOH
 70
     1
  9
$DIMSE1
 70
     0
  9
$DIMSE2
 70
     0
  9
$DIMTAD
 70
     0
  9
$DIMZIN
 70
     0
  9
$DIMBLK
  1

  9
$DIMASO
 70
     1
  9
$DIMSHO
 70
     1
  9
$DIMPOST
  1

  9
$DIMAPOST
  1

  9
$DIMALT
 70
     0
  9
$DIMALTD
 70
     2
  9
$DIMALTF
 40
25.4
  9
$DIMLFAC
 40
1.0
  9
$DIMTOFL
 70
     0
  9
$DIMTVP
 40
0.0
  9
$DIMTIX
 70
     0
  9
$DIMSOXD
 70
     0
  9
$DIMSAH
 70
     0
  9
$DIMBLK1
  1

  9
$DIMBLK2
  1

  9
$DIMSTYLE
  2
STANDARD
  9
$DIMCLRD
 70
     0
  9
$DIMCLRE
 70
     0
  9
$DIMCLRT
 70
     0
  9
$DIMTFAC
 40
1.0
  9
$DIMGAP
 40
0.09
  9
$DIMJUST
 70
     0
  9
$DIMSD1
 70
     0
  9
$DIMSD2
 70
     0
  9
$DIMTOLJ
 70
     1
  9
$DIMTZIN
 70
     0
  9
$DIMALTZ
 70
     0
  9
$DIMALTTZ
 70
     0
  9
$DIMFIT
 70
     3
  9
$DIMUPT
 70
     0
  9
$DIMUNIT
 70
     2
  9
$DIMDEC
 70
     4
  9
$DIMTDEC
 70
     4
  9
$DIMALTU
 70
     2
  9
$DIMALTTD
 70
     2
  9
$DIMTXSTY
  7
STANDARD
  9
$DIMAUNIT
 70
     0
  9
$LUNITS
 70
     2
  9
$LUPREC
 70
     4
  9
$SKETCHINC
 40
0.1
  9
$FILLETRAD
 40
0.0
  9
$AUNITS
 70
     0
  9
$AUPREC
 70
     0
  9
$MENU
  1
.
  9
$ELEVATION
 40
0.0
  9
$PELEVATION
 40
0.0
  9
$THICKNESS
 40
0.0
  9
$LIMCHECK
 70
     0
  9
$BLIPMODE
 70
     0
  9
$CHAMFERA
 40
0.0
  9
$CHAMFERB
 40
0.0
  9
$CHAMFERC
 40
0.0
  9
$CHAMFERD
 40
0.0
  9
$SKPOLY
 70
     0
  9
$TDCREATE
 40
2454691.860047199
  9
$TDUPDATE
 40
2454691.862190393
  9
$TDINDWG
 40
0.0021433681
  9
$TDUSRTIMER
 40
0.0021433681
  9
$USRTIMER
 70
     1
  9
$ANGBASE
 50
0.0
  9
$ANGDIR
 70
     0
  9
$PDMODE
 70
     0
  9
$PDSIZE
 40
0.0
  9
$PLINEWID
 40
0.0
  9
$COORDS
 70
     1
  9
$SPLFRAME
 70
     0
  9
$SPLINETYPE
 70
     6
  9
$SPLINESEGS
 70
     8
  9
$ATTDIA
 70
     0
  9
$ATTREQ
 70
     1
  9
$HANDLING
 70
 22529
  9
$HANDSEED
  5
2AF
  9
$SURFTAB1
 70
     6
  9
$SURFTAB2
 70
     6
  9
$SURFTYPE
 70
     6
  9
$SURFU
 70
     6
  9
$SURFV
 70
     6
  9
$UCSNAME
  2

  9
$UCSORG
 10
0.0
 20
0.0
 30
0.0
  9
$UCSXDIR
 10
1.0
 20
0.0
 30
0.0
  9
$UCSYDIR
 10
0.0
 20
1.0
 30
0.0
  9
$PUCSNAME
  2

  9
$PUCSORG
 10
0.0
 20
0.0
 30
0.0
  9
$PUCSXDIR
 10
1.0
 20
0.0
 30
0.0
  9
$PUCSYDIR
 10
0.0
 20
1.0
 30
0.0
  9
$USERI1
 70
     0
  9
$USERI2
 70
     0
  9
$USERI3
 70
     0
  9
$USERI4
 70
     0
  9
$USERI5
 70
     0
  9
$USERR1
 40
0.0
  9
$USERR2
 40
0.0
  9
$USERR3
 40
0.0
  9
$USERR4
 40
0.0
  9
$USERR5
 40
0.0
  9
$WORLDVIEW
 70
     1
  9
$SHADEDGE
 70
     3
  9
$SHADEDIF
 70
    70
  9
$TILEMODE
 70
     1
  9
$MAXACTVP
 70
    64
  9
$PINSBASE
 10
0.0
 20
0.0
 30
0.0
  9
$PLIMCHECK
 70
     0
  9
$PEXTMIN
 10
1.000000000000000E+20
 20
1.000000000000000E+20
 30
1.000000000000000E+20
  9
$PEXTMAX
 10
-1.000000000000000E+20
 20
-1.000000000000000E+20
 30
-1.000000000000000E+20
  9
$PLIMMIN
 10
0.0
 20
0.0
  9
$PLIMMAX
 10
12.0
 20
9.0
  9
$UNITMODE
 70
     0
  9
$VISRETAIN
 70
     1
  9
$PLINEGEN
 70
     0
  9
$PSLTSCALE
 70
     1
  9
$TREEDEPTH
 70
  3020
  9
$PICKSTYLE
 70
     1
  9
$CMLSTYLE
  2
STANDARD
  9
$CMLJUST
 70
     0
  9
$CMLSCALE
 40
1.0
  9
$PROXYGRAPHICS
 70
     1
  9
$MEASUREMENT
 70
     0
  0
ENDSEC
  0
SECTION
  2
CLASSES
  0
CLASS
  1
ACDBDICTIONARYWDFLT
  2
AcDbDictionaryWithDefault
  3
AutoCAD 2000
 90
        0
280
     0
281
     0
  0
CLASS
  1
ACDBPLACEHOLDER
  2
AcDbPlaceHolder
  3
AutoCAD 2000
 90
        0
280
     0
281
     0
  0
CLASS
  1
LAYOUT
  2
AcDbLayout
  3
AutoCAD 2000
 90
        0
280
     0
281
     0
  0
CLASS
  1
DICTIONARYVAR
  2
AcDbDictionaryVar
  3
AutoCAD 2000
 90
        0
280
     0
281
     0
  0
CLASS
  1
LONG_TRANSACTION
  2
AcDbLongTransaction
  3
AutoCAD 2000
 90
        0
280
     0
281
     0
  0
CLASS
  1
LWPOLYLINE
  2
AcDbPolyline
  3
AutoCAD 2000
 90
        0
280
     0
281
     1
  0
CLASS
  1
HATCH
  2
AcDbHatch
  3
AutoCAD 2000
 90
        0
280
     0
281
     1
  0
CLASS
  1
XRECORD
  2
AcDbXrecord
  3
AutoCAD 2000
 90
        0
280
     0
281
     0
  0
ENDSEC
  0
SECTION
  2
TABLES
  0
TABLE
  2
VPORT
  5
8
330
0
100
AcDbSymbolTable
 70
     3
  0
VPORT
  5
28A
330
8
100
AcDbSymbolTableRecord
100
AcDbViewportTableRecord
  2
*ACTIVE
 70
     0
 10
0.0
 20
0.0
 11
1.0
 21
1.0
 12
47.5
 22
105.9227329801463
 13
0.0
 23
0.0
 14
1.0
 24
1.0
 15
0.0
 25
0.0
 16
0.0
 26
0.0
 36
1.0
 17
0.0
 27
0.0
 37
0.0
 40
213.4749094331336
 41
2.078104993597951
 42
50.0
 43
0.0
 44
0.0
 50
0.0
 51
0.0
 71
     0
 72
   100
 73
     1
 74
     3
 75
     0
 76
     0
 77
     0
 78
     0
  0
ENDTAB
  0
TABLE
  2
LTYPE
  5
5
330
0
100
AcDbSymbolTable
 70
     1
  0
LTYPE
  5
13
330
5
100
AcDbSymbolTableRecord
100
AcDbLinetypeTableRecord
  2
BYBLOCK
 70
     0
  3

 72
    65
 73
     0
 40
0.0
  0
LTYPE
  5
14
330
5
100
AcDbSymbolTableRecord
100
AcDbLinetypeTableRecord
  2
BYLAYER
 70
     0
  3

 72
    65
 73
     0
 40
0.0
  0
LTYPE
  5
15
330
5
100
AcDbSymbolTableRecord
100
AcDbLinetypeTableRecord
  2
CONTINUOUS
 70
     0
  3
Solid line
 72
    65
 73
     0
 40
0.0
  0
ENDTAB
  0
TABLE
  2
LAYER
  5
2
330
0
100
AcDbSymbolTable
 70
     1
  0
LAYER
  5
10
330
2
100
AcDbSymbolTableRecord
100
AcDbLayerTableRecord
  2
0
 70
     0
 62
     7
  6
CONTINUOUS
  0
ENDTAB
  0
TABLE
  2
STYLE
  5
3
330
0
100
AcDbSymbolTable
 70
     1
  0
STYLE
  5
11
330
3
100
AcDbSymbolTableRecord
100
AcDbTextStyleTableRecord
  2
STANDARD
 70
     0
 40
0.0
 41
1.0
 50
0.0
 71
     0
 42
0.2
  3
txt
  4

  0
ENDTAB
  0
TABLE
  2
VIEW
  5
6
330
0
100
AcDbSymbolTable
 70
     0
  0
ENDTAB
  0
TABLE
  2
UCS
  5
7
330
0
100
AcDbSymbolTable
 70
     0
  0
ENDTAB
  0
TABLE
  2
APPID
  5
9
330
0
100
AcDbSymbolTable
 70
     1
  0
APPID
  5
12
330
9
100
AcDbSymbolTableRecord
100
AcDbRegAppTableRecord
  2
ACAD
 70
     0
  0
ENDTAB
  0
TABLE
  2
DIMSTYLE
  5
A
330
0
100
AcDbSymbolTable
 70
     1
  0
DIMSTYLE
105
249
330
A
100
AcDbSymbolTableRecord
100
AcDbDimStyleTableRecord
  2
STANDARD
 70
     0
  3

  4

  5

  6

  7

 40
1.0
 41
0.18
 42
0.0625
 43
0.38
 44
0.18
 45
0.0
 46
0.0
 47
0.0
 48
0.0
140
0.18
141
0.09
142
0.0
143
25.4
144
1.0
145
0.0
146
1.0
147
0.09
 71
     0
 72
     0
 73
     1
 74
     1
 75
     0
 76
     0
 77
     0
 78
     0
170
     0
171
     2
172
     0
173
     0
174
     0
175
     0
176
     0
177
     0
178
     0
270
     2
271
     4
272
     4
273
     2
274
     2
340
11
275
     0
280
     0
281
     0
282
     0
283
     1
284
     0
285
     0
286
     0
287
     3
288
     0
  0
ENDTAB
  0
TABLE
  2
BLOCK_RECORD
  5
1
330
0
100
AcDbSymbolTable
 70
     0
  0
BLOCK_RECORD
  5
1E
102
{ACAD_XDICTIONARY
360
2AD
102
}
330
1
100
AcDbSymbolTableRecord
100
AcDbBlockTableRecord
  2
*MODEL_SPACE
  0
BLOCK_RECORD
  5
1A
102
{ACAD_XDICTIONARY
360
2AB
102
}
330
1
100
AcDbSymbolTableRecord
100
AcDbBlockTableRecord
  2
*PAPER_SPACE
  0
ENDTAB
  0
ENDSEC
  0
SECTION
  2
BLOCKS
  0
BLOCK
  5
1F
330
1E
100
AcDbEntity
  8
0
100
AcDbBlockBegin
  2
*MODEL_SPACE
 70
     0
 10
0.0
 20
0.0
 30
0.0
  3
*MODEL_SPACE
  1

  0
ENDBLK
  5
20
330
1E
100
AcDbEntity
  8
0
100
AcDbBlockEnd
  0
BLOCK
  5
1B
330
1A
100
AcDbEntity
 67
     1
  8
0
100
AcDbBlockBegin
  2
*PAPER_SPACE
 70
     0
 10
0.0
 20
0.0
 30
0.0
  3
*PAPER_SPACE
  1

  0
ENDBLK
  5
1C
330
1A
100
AcDbEntity
 67
     1
  8
0
100
AcDbBlockEnd
  0
ENDSEC
  0
SECTION
  2
ENTITIES
  0
LINE
  5
22
330
1E
100
AcDbEntity
  8
0
100
AcDbLine
 10
1.0
 20
178.0979999999999
 30
0.0
 11
3.6
 21
171.5979999999999
 31
0.0
  0
LINE
  5
23
330
1E
100
AcDbEntity
  8
0
100
AcDbLine
 10
0.500000000000001
 20
184.998
 30
0.0
 11
1.5
 21
191.798
 31
0.0
  0
LINE
  5
24
330
1E
100
AcDbEntity
  8
0
100
AcDbLine
 10
0.500000000000001
 20
184.998
 30
0.0
 11
1.5
 21
178.1979999999999
 31
0.0
  0
LINE
  5
25
330
1E
100
AcDbEntity
  8
0
100
AcDbLine
 10
0.000000000000001
 20
184.998
 30
0.0
 11
1.0
 21
191.8979999999999
 31
0.0
  0
LINE
  5
26
330
1E
100
AcDbEntity
  8
0
100
AcDbLine
 10
0.000000000000001
 20
184.998
 30
0.0
 11
1.0
 21
178.0979999999999
 31
0.0
  0
LINE
  5
27
330
1E
100
AcDbEntity
  8
0
100
AcDbLine
 10
0.0000000000000011
 20
184.998
 30
0.0
 11
1.0
 21
191.8979999999999
 31
0.0
  0
LINE
  5
28
330
1E
100
AcDbEntity
  8
0
100
AcDbLine
 10
0.0000000000000011
 20
184.998
 30
0.0
 11
1.0
 21
178.0979999999999
 31
0.0
  0
LINE
  5
29
330
1E
100
AcDbEntity
  8
0
100
AcDbLine
 10
1.5
 20
178.1979999999999
 30
0.0
 11
4.0
 21
171.798
 31
0.0
  0
LINE
  5
2A
330
1E
100
AcDbEntity
  8
0
100
AcDbLine
 10
4.0
 20
171.798
 30
0.0
 11
8.3
 21
166.298
 31
0.0
  0
LINE
  5
2B
330
1E
100
AcDbEntity
  8
0
100
AcDbLine
 10
3.6
 20
171.5979999999999
 30
0.0
 11
8.0
 21
165.998
 31
0.0
  0
LINE
  5
2C
330
1E
100
AcDbEntity
  8
0
100
AcDbLine
 10
16.0
 20
12.4391
 30
0.0
 11
16.39999999999999
 21
9.728530000000018
 31
0.0
  0
LINE
  5
2D
330
1E
100
AcDbEntity
  8
0
100
AcDbLine
 10
16.0
 20
12.4391
 30
0.0
 11
16.0
 21
10.6468
 31
0.0
  0
LINE
  5
2E
330
1E
100
AcDbEntity
  8
0
100
AcDbLine
 10
16.0
 20
10.6468
 30
0.0
 11
16.39999999999999
 21
7.936210000000018
 31
0.0
  0
LINE
  5
2F
330
1E
100
AcDbEntity
  8
0
100
AcDbLine
 10
16.0
 20
10.6468
 30
0.0
 11
16.0
 21
12.4391
 31
0.0
  0
LINE
  5
30
330
1E
100
AcDbEntity
  8
0
100
AcDbLine
 10
16.0
 20
30.85259999999999
 30
0.0
 11
16.0
 21
24.6597
 31
0.0
  0
LINE
  5
31
330
1E
100
AcDbEntity
  8
0
100
AcDbLine
 10
16.0
 20
30.85259999999999
 30
0.0
 11
16.0
 21
38.3235
 31
0.0
  0
LINE
  5
32
330
1E
100
AcDbEntity
  8
0
100
AcDbLine
 10
16.0
 20
24.6597
 30
0.0
 11
16.0
 21
19.74459999999999
 31
0.0
  0
LINE
  5
33
330
1E
100
AcDbEntity
  8
0
100
AcDbLine
 10
16.0
 20
24.6597
 30
0.0
 11
16.0
 21
30.85259999999999
 31
0.0
  0
LINE
  5
34
330
1E
100
AcDbEntity
  8
0
100
AcDbLine
 10
16.0
 20
19.74459999999999
 30
0.0
 11
16.0
 21
16.1075
 31
0.0
  0
LINE
  5
35
330
1E
100
AcDbEntity
  8
0
100
AcDbLine
 10
16.0
 20
19.74459999999999
 30
0.0
 11
16.0
 21
24.6597
 31
0.0
  0
LINE
  5
36
330
1E
100
AcDbEntity
  8
0
100
AcDbLine
 10
16.0
 20
16.1075
 30
0.0
 11
16.0
 21
13.8466
 31
0.0
  0
LINE
  5
37
330
1E
100
AcDbEntity
  8
0
100
AcDbLine
 10
16.0
 20
16.1075
 30
0.0
 11
16.0
 21
19.74459999999999
 31
0.0
  0
LINE
  5
38
330
1E
100
AcDbEntity
  8
0
100
AcDbLine
 10
16.0
 20
13.8466
 30
0.0
 11
16.0
 21
12.5074
 31
0.0
  0
LINE
  5
39
330
1E
100
AcDbEntity
  8
0
100
AcDbLine
 10
16.0
 20
13.8466
 30
0.0
 11
16.0
 21
16.1075
 31
0.0
  0
LINE
  5
3A
330
1E
100
AcDbEntity
  8
0
100
AcDbLine
 10
16.0
 20
12.5074
 30
0.0
 11
16.39999999999999
 21
9.796810000000018
 31
0.0
  0
LINE
  5
3B
330
1E
100
AcDbEntity
  8
0
100
AcDbLine
 10
16.0
 20
12.5074
 30
0.0
 11
16.0
 21
13.8466
 31
0.0
  0
LINE
  5
3C
330
1E
100
AcDbEntity
  8
0
100
AcDbLine
 10
16.0
 20
38.3235
 30
0.0
 11
16.0
 21
46.7774
 31
0.0
  0
LINE
  5
3D
330
1E
100
AcDbEntity
  8
0
100
AcDbLine
 10
16.0
 20
38.3235
 30
0.0
 11
16.0
 21
30.85259999999999
 31
0.0
  0
LINE
  5
3E
330
1E
100
AcDbEntity
  8
0
100
AcDbLine
 10
16.0
 20
46.7774
 30
0.0
 11
16.0
 21
56.1159
 31
0.0
  0
LINE
  5
3F
330
1E
100
AcDbEntity
  8
0
100
AcDbLine
 10
16.0
 20
46.7774
 30
0.0
 11
16.0
 21
38.3235
 31
0.0
  0
LINE
  5
40
330
1E
100
AcDbEntity
  8
0
100
AcDbLine
 10
16.0
 20
56.1159
 30
0.0
 11
16.0
 21
66.3392
 31
0.0
  0
LINE
  5
41
330
1E
100
AcDbEntity
  8
0
100
AcDbLine
 10
16.0
 20
56.1159
 30
0.0
 11
16.0
 21
46.7774
 31
0.0
  0
LINE
  5
42
330
1E
100
AcDbEntity
  8
0
100
AcDbLine
 10
16.0
 20
66.3392
 30
0.0
 11
16.0
 21
76.9557
 31
0.0
  0
LINE
  5
43
330
1E
100
AcDbEntity
  8
0
100
AcDbLine
 10
16.0
 20
66.3392
 30
0.0
 11
16.0
 21
56.1159
 31
0.0
  0
LINE
  5
44
330
1E
100
AcDbEntity
  8
0
100
AcDbLine
 10
16.0
 20
76.9557
 30
0.0
 11
16.0
 21
87.9654
 31
0.0
  0
LINE
  5
45
330
1E
100
AcDbEntity
  8
0
100
AcDbLine
 10
16.0
 20
76.9557
 30
0.0
 11
16.0
 21
66.3392
 31
0.0
  0
LINE
  5
46
330
1E
100
AcDbEntity
  8
0
100
AcDbLine
 10
16.0
 20
87.9654
 30
0.0
 11
16.0
 21
99.1717
 31
0.0
  0
LINE
  5
47
330
1E
100
AcDbEntity
  8
0
100
AcDbLine
 10
16.0
 20
87.9654
 30
0.0
 11
16.0
 21
76.9557
 31
0.0
  0
LINE
  5
48
330
1E
100
AcDbEntity
  8
0
100
AcDbLine
 10
16.0
 20
151.566
 30
0.0
 11
16.0
 21
142.227
 31
0.0
  0
LINE
  5
49
330
1E
100
AcDbEntity
  8
0
100
AcDbLine
 10
16.0
 20
151.566
 30
0.0
 11
16.0
 21
160.02
 31
0.0
  0
LINE
  5
4A
330
1E
100
AcDbEntity
  8
0
100
AcDbLine
 10
16.0
 20
142.227
 30
0.0
 11
16.0
 21
132.0039999999999
 31
0.0
  0
LINE
  5
4B
330
1E
100
AcDbEntity
  8
0
100
AcDbLine
 10
16.0
 20
142.227
 30
0.0
 11
16.0
 21
151.566
 31
0.0
  0
LINE
  5
4C
330
1E
100
AcDbEntity
  8
0
100
AcDbLine
 10
16.0
 20
132.0039999999999
 30
0.0
 11
16.0
 21
121.3879999999999
 31
0.0
  0
LINE
  5
4D
330
1E
100
AcDbEntity
  8
0
100
AcDbLine
 10
16.0
 20
132.0039999999999
 30
0.0
 11
16.0
 21
142.227
 31
0.0
  0
LINE
  5
4E
330
1E
100
AcDbEntity
  8
0
100
AcDbLine
 10
16.0
 20
121.3879999999999
 30
0.0
 11
16.0
 21
110.3779999999999
 31
0.0
  0
LINE
  5
4F
330
1E
100
AcDbEntity
  8
0
100
AcDbLine
 10
16.0
 20
121.3879999999999
 30
0.0
 11
16.0
 21
132.0039999999999
 31
0.0
  0
LINE
  5
50
330
1E
100
AcDbEntity
  8
0
100
AcDbLine
 10
16.0
 20
110.3779999999999
 30
0.0
 11
16.0
 21
99.1717
 31
0.0
  0
LINE
  5
51
330
1E
100
AcDbEntity
  8
0
100
AcDbLine
 10
16.0
 20
110.3779999999999
 30
0.0
 11
16.0
 21
121.3879999999999
 31
0.0
  0
LINE
  5
52
330
1E
100
AcDbEntity
  8
0
100
AcDbLine
 10
16.0
 20
99.1717
 30
0.0
 11
16.0
 21
110.3779999999999
 31
0.0
  0
LINE
  5
53
330
1E
100
AcDbEntity
  8
0
100
AcDbLine
 10
16.0
 20
99.1717
 30
0.0
 11
16.0
 21
87.9654
 31
0.0
  0
LINE
  5
54
330
1E
100
AcDbEntity
  8
0
100
AcDbLine
 10
27.0
 20
-0.0019999999999814
 30
0.0
 11
29.8
 21
0.385230000000019
 31
0.0
  0
LINE
  5
55
330
1E
100
AcDbEntity
  8
0
100
AcDbLine
 10
27.0
 20
-0.0019999999999813
 30
0.0
 11
29.8
 21
0.385230000000019
 31
0.0
  0
LINE
  5
56
330
1E
100
AcDbEntity
  8
0
100
AcDbLine
 10
29.8
 20
0.385230000000019
 30
0.0
 11
32.5
 21
1.450110000000019
 31
0.0
  0
LINE
  5
57
330
1E
100
AcDbEntity
  8
0
100
AcDbLine
 10
27.0
 20
1.790330000000019
 30
0.0
 11
29.8
 21
2.17755000000002
 31
0.0
  0
LINE
  5
58
330
1E
100
AcDbEntity
  8
0
100
AcDbLine
 10
32.5
 20
1.450110000000019
 30
0.0
 11
34.79999999999999
 21
3.09584000000002
 31
0.0
  0
LINE
  5
59
330
1E
100
AcDbEntity
  8
0
100
AcDbLine
 10
29.8
 20
2.17755000000002
 30
0.0
 11
32.5
 21
3.24244000000002
 31
0.0
  0
LINE
  5
5A
330
1E
100
AcDbEntity
  8
0
100
AcDbLine
 10
29.8
 20
2.245830000000019
 30
0.0
 11
32.5
 21
3.31072000000002
 31
0.0
  0
LINE
  5
5B
330
1E
100
AcDbEntity
  8
0
100
AcDbLine
 10
27.0
 20
1.85860000000002
 30
0.0
 11
29.8
 21
2.245830000000019
 31
0.0
  0
LINE
  5
5C
330
1E
100
AcDbEntity
  8
0
100
AcDbLine
 10
24.19999999999999
 20
2.17755000000002
 30
0.0
 11
27.0
 21
1.790330000000019
 31
0.0
  0
LINE
  5
5D
330
1E
100
AcDbEntity
  8
0
100
AcDbLine
 10
24.19999999999999
 20
0.385230000000019
 30
0.0
 11
27.0
 21
-0.0019999999999814
 31
0.0
  0
LINE
  5
5E
330
1E
100
AcDbEntity
  8
0
100
AcDbLine
 10
24.19999999999999
 20
0.385230000000019
 30
0.0
 11
27.0
 21
-0.0019999999999813
 31
0.0
  0
LINE
  5
5F
330
1E
100
AcDbEntity
  8
0
100
AcDbLine
 10
21.49999999999999
 20
1.450110000000019
 30
0.0
 11
24.19999999999999
 21
0.385230000000019
 31
0.0
  0
LINE
  5
60
330
1E
100
AcDbEntity
  8
0
100
AcDbLine
 10
19.19999999999999
 20
4.888160000000019
 30
0.0
 11
21.49999999999999
 21
3.24244000000002
 31
0.0
  0
LINE
  5
61
330
1E
100
AcDbEntity
  8
0
100
AcDbLine
 10
21.49999999999999
 20
3.24244000000002
 30
0.0
 11
24.19999999999999
 21
2.17755000000002
 31
0.0
  0
LINE
  5
62
330
1E
100
AcDbEntity
  8
0
100
AcDbLine
 10
19.19999999999999
 20
3.09584000000002
 30
0.0
 11
21.49999999999999
 21
1.450110000000019
 31
0.0
  0
LINE
  5
63
330
1E
100
AcDbEntity
  8
0
100
AcDbLine
 10
16.39999999999999
 20
9.728530000000018
 30
0.0
 11
17.5
 21
7.114730000000019
 31
0.0
  0
LINE
  5
64
330
1E
100
AcDbEntity
  8
0
100
AcDbLine
 10
17.5
 20
7.114730000000019
 30
0.0
 11
19.19999999999999
 21
4.888160000000019
 31
0.0
  0
LINE
  5
65
330
1E
100
AcDbEntity
  8
0
100
AcDbLine
 10
17.5
 20
5.32241000000002
 30
0.0
 11
19.19999999999999
 21
3.09584000000002
 31
0.0
  0
LINE
  5
66
330
1E
100
AcDbEntity
  8
0
100
AcDbLine
 10
16.39999999999999
 20
7.936210000000018
 30
0.0
 11
17.5
 21
5.32241000000002
 31
0.0
  0
LINE
  5
67
330
1E
100
AcDbEntity
  8
0
100
AcDbLine
 10
16.39999999999999
 20
9.796810000000018
 30
0.0
 11
17.5
 21
7.183010000000018
 31
0.0
  0
LINE
  5
68
330
1E
100
AcDbEntity
  8
0
100
AcDbLine
 10
17.5
 20
7.183010000000018
 30
0.0
 11
19.19999999999999
 21
4.956440000000019
 31
0.0
  0
LINE
  5
69
330
1E
100
AcDbEntity
  8
0
100
AcDbLine
 10
19.19999999999999
 20
4.956440000000019
 30
0.0
 11
21.49999999999999
 21
3.31072000000002
 31
0.0
  0
LINE
  5
6A
330
1E
100
AcDbEntity
  8
0
100
AcDbLine
 10
32.5
 20
3.24244000000002
 30
0.0
 11
34.79999999999999
 21
4.888160000000019
 31
0.0
  0
LINE
  5
6B
330
1E
100
AcDbEntity
  8
0
100
AcDbLine
 10
34.79999999999999
 20
3.09584000000002
 30
0.0
 11
36.5
 21
5.32241000000002
 31
0.0
  0
LINE
  5
6C
330
1E
100
AcDbEntity
  8
0
100
AcDbLine
 10
34.79999999999999
 20
4.888160000000019
 30
0.0
 11
36.5
 21
7.114730000000019
 31
0.0
  0
LINE
  5
6D
330
1E
100
AcDbEntity
  8
0
100
AcDbLine
 10
36.5
 20
7.114730000000019
 30
0.0
 11
37.6
 21
9.728530000000018
 31
0.0
  0
LINE
  5
6E
330
1E
100
AcDbEntity
  8
0
100
AcDbLine
 10
36.5
 20
5.32241000000002
 30
0.0
 11
37.6
 21
7.936210000000018
 31
0.0
  0
LINE
  5
6F
330
1E
100
AcDbEntity
  8
0
100
AcDbLine
 10
37.6
 20
9.728530000000018
 30
0.0
 11
38.0
 21
12.4391
 31
0.0
  0
LINE
  5
70
330
1E
100
AcDbEntity
  8
0
100
AcDbLine
 10
37.6
 20
7.936210000000018
 30
0.0
 11
38.0
 21
10.6468
 31
0.0
  0
LINE
  5
71
330
1E
100
AcDbEntity
  8
0
100
AcDbLine
 10
38.0
 20
10.6468
 30
0.0
 11
38.0
 21
12.4391
 31
0.0
  0
LINE
  5
72
330
1E
100
AcDbEntity
  8
0
100
AcDbLine
 10
38.0
 20
12.4391
 30
0.0
 11
38.0
 21
10.6468
 31
0.0
  0
LINE
  5
73
330
1E
100
AcDbEntity
  8
0
100
AcDbLine
 10
38.0
 20
12.5074
 30
0.0
 11
38.0
 21
13.8466
 31
0.0
  0
LINE
  5
74
330
1E
100
AcDbEntity
  8
0
100
AcDbLine
 10
38.0
 20
46.7774
 30
0.0
 11
38.0
 21
56.1159
 31
0.0
  0
LINE
  5
75
330
1E
100
AcDbEntity
  8
0
100
AcDbLine
 10
38.0
 20
46.7774
 30
0.0
 11
38.0
 21
38.3235
 31
0.0
  0
LINE
  5
76
330
1E
100
AcDbEntity
  8
0
100
AcDbLine
 10
38.0
 20
56.1159
 30
0.0
 11
38.0
 21
66.3392
 31
0.0
  0
LINE
  5
77
330
1E
100
AcDbEntity
  8
0
100
AcDbLine
 10
38.0
 20
56.1159
 30
0.0
 11
38.0
 21
46.7774
 31
0.0
  0
LINE
  5
78
330
1E
100
AcDbEntity
  8
0
100
AcDbLine
 10
38.0
 20
66.3392
 30
0.0
 11
38.0
 21
76.9557
 31
0.0
  0
LINE
  5
79
330
1E
100
AcDbEntity
  8
0
100
AcDbLine
 10
38.0
 20
66.3392
 30
0.0
 11
38.0
 21
56.1159
 31
0.0
  0
LINE
  5
7A
330
1E
100
AcDbEntity
  8
0
100
AcDbLine
 10
38.0
 20
76.9557
 30
0.0
 11
38.0
 21
87.9654
 31
0.0
  0
LINE
  5
7B
330
1E
100
AcDbEntity
  8
0
100
AcDbLine
 10
38.0
 20
76.9557
 30
0.0
 11
38.0
 21
66.3392
 31
0.0
  0
LINE
  5
7C
330
1E
100
AcDbEntity
  8
0
100
AcDbLine
 10
38.0
 20
87.9654
 30
0.0
 11
38.0
 21
99.1717
 31
0.0
  0
LINE
  5
7D
330
1E
100
AcDbEntity
  8
0
100
AcDbLine
 10
38.0
 20
87.9654
 30
0.0
 11
38.0
 21
76.9557
 31
0.0
  0
LINE
  5
7E
330
1E
100
AcDbEntity
  8
0
100
AcDbLine
 10
38.0
 20
38.3235
 30
0.0
 11
38.0
 21
30.85259999999999
 31
0.0
  0
LINE
  5
7F
330
1E
100
AcDbEntity
  8
0
100
AcDbLine
 10
38.0
 20
38.3235
 30
0.0
 11
38.0
 21
46.7774
 31
0.0
  0
LINE
  5
80
330
1E
100
AcDbEntity
  8
0
100
AcDbLine
 10
38.0
 20
30.85259999999999
 30
0.0
 11
38.0
 21
24.6597
 31
0.0
  0
LINE
  5
81
330
1E
100
AcDbEntity
  8
0
100
AcDbLine
 10
38.0
 20
30.85259999999999
 30
0.0
 11
38.0
 21
38.3235
 31
0.0
  0
LINE
  5
82
330
1E
100
AcDbEntity
  8
0
100
AcDbLine
 10
38.0
 20
24.6597
 30
0.0
 11
38.0
 21
19.74459999999999
 31
0.0
  0
LINE
  5
83
330
1E
100
AcDbEntity
  8
0
100
AcDbLine
 10
38.0
 20
24.6597
 30
0.0
 11
38.0
 21
30.85259999999999
 31
0.0
  0
LINE
  5
84
330
1E
100
AcDbEntity
  8
0
100
AcDbLine
 10
38.0
 20
19.74459999999999
 30
0.0
 11
38.0
 21
16.1075
 31
0.0
  0
LINE
  5
85
330
1E
100
AcDbEntity
  8
0
100
AcDbLine
 10
38.0
 20
19.74459999999999
 30
0.0
 11
38.0
 21
24.6597
 31
0.0
  0
LINE
  5
86
330
1E
100
AcDbEntity
  8
0
100
AcDbLine
 10
38.0
 20
16.1075
 30
0.0
 11
38.0
 21
13.8466
 31
0.0
  0
LINE
  5
87
330
1E
100
AcDbEntity
  8
0
100
AcDbLine
 10
38.0
 20
16.1075
 30
0.0
 11
38.0
 21
19.74459999999999
 31
0.0
  0
LINE
  5
88
330
1E
100
AcDbEntity
  8
0
100
AcDbLine
 10
38.0
 20
13.8466
 30
0.0
 11
38.0
 21
12.5074
 31
0.0
  0
LINE
  5
89
330
1E
100
AcDbEntity
  8
0
100
AcDbLine
 10
38.0
 20
13.8466
 30
0.0
 11
38.0
 21
16.1075
 31
0.0
  0
LINE
  5
8A
330
1E
100
AcDbEntity
  8
0
100
AcDbLine
 10
37.6
 20
9.796810000000018
 30
0.0
 11
38.0
 21
12.5074
 31
0.0
  0
LINE
  5
8B
330
1E
100
AcDbEntity
  8
0
100
AcDbLine
 10
36.5
 20
7.183010000000018
 30
0.0
 11
37.6
 21
9.796810000000018
 31
0.0
  0
LINE
  5
8C
330
1E
100
AcDbEntity
  8
0
100
AcDbLine
 10
34.79999999999999
 20
4.956440000000019
 30
0.0
 11
36.5
 21
7.183010000000018
 31
0.0
  0
LINE
  5
8D
330
1E
100
AcDbEntity
  8
0
100
AcDbLine
 10
32.5
 20
3.31072000000002
 30
0.0
 11
34.79999999999999
 21
4.956440000000019
 31
0.0
  0
LINE
  5
8E
330
1E
100
AcDbEntity
  8
0
100
AcDbLine
 10
38.0
 20
99.1717
 30
0.0
 11
38.0
 21
110.3779999999999
 31
0.0
  0
LINE
  5
8F
330
1E
100
AcDbEntity
  8
0
100
AcDbLine
 10
38.0
 20
99.1717
 30
0.0
 11
38.0
 21
87.9654
 31
0.0
  0
LINE
  5
90
330
1E
100
AcDbEntity
  8
0
100
AcDbLine
 10
38.0
 20
160.02
 30
0.0
 11
38.0
 21
151.566
 31
0.0
  0
LINE
  5
91
330
1E
100
AcDbEntity
  8
0
100
AcDbLine
 10
38.0
 20
160.02
 30
0.0
 11
38.0
 21
167.4909999999999
 31
0.0
  0
LINE
  5
92
330
1E
100
AcDbEntity
  8
0
100
AcDbLine
 10
38.0
 20
151.566
 30
0.0
 11
38.0
 21
142.227
 31
0.0
  0
LINE
  5
93
330
1E
100
AcDbEntity
  8
0
100
AcDbLine
 10
38.0
 20
151.566
 30
0.0
 11
38.0
 21
160.02
 31
0.0
  0
LINE
  5
94
330
1E
100
AcDbEntity
  8
0
100
AcDbLine
 10
38.0
 20
142.227
 30
0.0
 11
38.0
 21
132.0039999999999
 31
0.0
  0
LINE
  5
95
330
1E
100
AcDbEntity
  8
0
100
AcDbLine
 10
38.0
 20
142.227
 30
0.0
 11
38.0
 21
151.566
 31
0.0
  0
LINE
  5
96
330
1E
100
AcDbEntity
  8
0
100
AcDbLine
 10
38.0
 20
132.0039999999999
 30
0.0
 11
38.0
 21
121.3879999999999
 31
0.0
  0
LINE
  5
97
330
1E
100
AcDbEntity
  8
0
100
AcDbLine
 10
38.0
 20
132.0039999999999
 30
0.0
 11
38.0
 21
142.227
 31
0.0
  0
LINE
  5
98
330
1E
100
AcDbEntity
  8
0
100
AcDbLine
 10
38.0
 20
121.3879999999999
 30
0.0
 11
38.0
 21
110.3779999999999
 31
0.0
  0
LINE
  5
99
330
1E
100
AcDbEntity
  8
0
100
AcDbLine
 10
38.0
 20
121.3879999999999
 30
0.0
 11
38.0
 21
132.0039999999999
 31
0.0
  0
LINE
  5
9A
330
1E
100
AcDbEntity
  8
0
100
AcDbLine
 10
38.0
 20
110.3779999999999
 30
0.0
 11
38.0
 21
99.1717
 31
0.0
  0
LINE
  5
9B
330
1E
100
AcDbEntity
  8
0
100
AcDbLine
 10
38.0
 20
110.3779999999999
 30
0.0
 11
38.0
 21
121.3879999999999
 31
0.0
  0
LINE
  5
9C
330
1E
100
AcDbEntity
  8
0
100
AcDbLine
 10
21.49999999999999
 20
3.31072000000002
 30
0.0
 11
24.19999999999999
 21
2.245830000000019
 31
0.0
  0
LINE
  5
9D
330
1E
100
AcDbEntity
  8
0
100
AcDbLine
 10
24.19999999999999
 20
2.245830000000019
 30
0.0
 11
27.0
 21
1.85860000000002
 31
0.0
  0
LINE
  5
9E
330
1E
100
AcDbEntity
  8
0
100
AcDbLine
 10
16.0
 20
160.02
 30
0.0
 11
16.0
 21
167.4909999999999
 31
0.0
  0
LINE
  5
9F
330
1E
100
AcDbEntity
  8
0
100
AcDbLine
 10
16.0
 20
160.02
 30
0.0
 11
16.0
 21
151.566
 31
0.0
  0
LINE
  5
A0
330
1E
100
AcDbEntity
  8
0
100
AcDbLine
 10
13.6
 20
161.5979999999999
 30
0.0
 11
16.0
 21
160.638
 31
0.0
  0
LINE
  5
A1
330
1E
100
AcDbEntity
  8
0
100
AcDbLine
 10
38.0
 20
161.1386249999999
 30
0.0
 11
40.2
 21
161.9979999999999
 31
0.0
  0
LINE
  5
A2
330
1E
100
AcDbEntity
  8
0
100
AcDbLine
 10
38.0
 20
160.638
 30
0.0
 11
40.4
 21
161.5979999999999
 31
0.0
  0
LINE
  5
A3
330
1E
100
AcDbEntity
  8
0
100
AcDbLine
 10
38.0
 20
163.9979999999999
 30
0.0
 11
58.0
 21
163.9979999999999
 31
0.0
  0
LINE
  5
A4
330
1E
100
AcDbEntity
  8
0
100
AcDbLine
 10
13.8
 20
161.9979999999999
 30
0.0
 11
16.0
 21
161.1386249999999
 31
0.0
  0
LINE
  5
A5
330
1E
100
AcDbEntity
  8
0
100
AcDbLine
 10
58.0
 20
164.798
 30
0.0
 11
58.0
 21
166.798
 31
0.0
  0
LINE
  5
A6
330
1E
100
AcDbEntity
  8
0
100
AcDbLine
 10
58.0
 20
164.798
 30
0.0
 11
58.0
 21
163.9979999999999
 31
0.0
  0
LINE
  5
A7
330
1E
100
AcDbEntity
  8
0
100
AcDbLine
 10
58.0
 20
163.9979999999999
 30
0.0
 11
58.0
 21
164.798
 31
0.0
  0
LINE
  5
A8
330
1E
100
AcDbEntity
  8
0
100
AcDbLine
 10
58.0
 20
163.9979999999999
 30
0.0
 11
59.0
 21
164.998
 31
0.0
  0
LINE
  5
A9
330
1E
100
AcDbEntity
  8
0
100
AcDbLine
 10
40.2
 20
161.9979999999999
 30
0.0
 11
42.7581395348837
 21
163.9979999999999
 31
0.0
  0
LINE
  5
AA
330
1E
100
AcDbEntity
  8
0
100
AcDbLine
 10
40.4
 20
161.5979999999999
 30
0.0
 11
43.4545454545455
 21
163.9979999999999
 31
0.0
  0
LINE
  5
AB
330
1E
100
AcDbEntity
  8
0
100
AcDbLine
 10
62.396
 20
163.9979999999999
 30
0.0
 11
92.88200000000001
 21
163.9979999999999
 31
0.0
  0
LINE
  5
AC
330
1E
100
AcDbEntity
  8
0
100
AcDbLine
 10
62.072
 20
164.7479999999999
 30
0.0
 11
62.396
 21
163.9979999999999
 31
0.0
  0
LINE
  5
AD
330
1E
100
AcDbEntity
  8
0
100
AcDbLine
 10
59.593
 20
164.998
 30
0.0
 11
61.99450806931171
 21
165.2379562478109
 31
0.0
  0
LINE
  5
AE
330
1E
100
AcDbEntity
  8
0
100
AcDbLine
 10
38.0
 20
167.4909999999999
 30
0.0
 11
38.0
 21
173.684
 31
0.0
  0
LINE
  5
AF
330
1E
100
AcDbEntity
  8
0
100
AcDbLine
 10
38.0
 20
167.4909999999999
 30
0.0
 11
38.0
 21
160.02
 31
0.0
  0
LINE
  5
B0
330
1E
100
AcDbEntity
  8
0
100
AcDbLine
 10
16.0
 20
167.4909999999999
 30
0.0
 11
16.0
 21
173.684
 31
0.0
  0
LINE
  5
B1
330
1E
100
AcDbEntity
  8
0
100
AcDbLine
 10
16.0
 20
167.4909999999999
 30
0.0
 11
16.0
 21
160.02
 31
0.0
  0
LINE
  5
B2
330
1E
100
AcDbEntity
  8
0
100
AcDbLine
 10
58.0
 20
166.798
 30
0.0
 11
58.0
 21
170.1979999999999
 31
0.0
  0
LINE
  5
B3
330
1E
100
AcDbEntity
  8
0
100
AcDbLine
 10
58.0
 20
166.798
 30
0.0
 11
58.0
 21
164.798
 31
0.0
  0
LINE
  5
B4
330
1E
100
AcDbEntity
  8
0
100
AcDbLine
 10
38.0
 20
167.2616363636359
 30
0.0
 11
41.79999999999999
 21
170.1979999999999
 31
0.0
  0
LINE
  5
B5
330
1E
100
AcDbEntity
  8
0
100
AcDbLine
 10
8.3
 20
166.298
 30
0.0
 11
13.8
 21
161.9979999999999
 31
0.0
  0
LINE
  5
B6
330
1E
100
AcDbEntity
  8
0
100
AcDbLine
 10
8.0
 20
165.998
 30
0.0
 11
13.6
 21
161.5979999999999
 31
0.0
  0
LINE
  5
B7
330
1E
100
AcDbEntity
  8
0
100
AcDbLine
 10
59.0
 20
167.6979999999999
 30
0.0
 11
59.0
 21
170.8979999999999
 31
0.0
  0
LINE
  5
B8
330
1E
100
AcDbEntity
  8
0
100
AcDbLine
 10
59.0
 20
167.6979999999999
 30
0.0
 11
59.0
 21
165.6979999999999
 31
0.0
  0
LINE
  5
B9
330
1E
100
AcDbEntity
  8
0
100
AcDbLine
 10
38.0
 20
168.5360952380949
 30
0.0
 11
41.1
 21
170.8979999999999
 31
0.0
  0
LINE
  5
BA
330
1E
100
AcDbEntity
  8
0
100
AcDbLine
 10
12.19999999999999
 20
170.1979999999999
 30
0.0
 11
16.0
 21
167.2616363636359
 31
0.0
  0
LINE
  5
BB
330
1E
100
AcDbEntity
  8
0
100
AcDbLine
 10
38.0
 20
173.684
 30
0.0
 11
38.0
 21
178.599
 31
0.0
  0
LINE
  5
BC
330
1E
100
AcDbEntity
  8
0
100
AcDbLine
 10
38.0
 20
173.684
 30
0.0
 11
38.0
 21
167.4909999999999
 31
0.0
  0
LINE
  5
BD
330
1E
100
AcDbEntity
  8
0
100
AcDbLine
 10
16.0
 20
173.684
 30
0.0
 11
16.0
 21
178.599
 31
0.0
  0
LINE
  5
BE
330
1E
100
AcDbEntity
  8
0
100
AcDbLine
 10
16.0
 20
173.684
 30
0.0
 11
16.0
 21
167.4909999999999
 31
0.0
  0
LINE
  5
BF
330
1E
100
AcDbEntity
  8
0
100
AcDbLine
 10
12.9
 20
170.8979999999999
 30
0.0
 11
16.0
 21
168.5360952380949
 31
0.0
  0
LINE
  5
C0
330
1E
100
AcDbEntity
  8
0
100
AcDbLine
 10
8.8
 20
174.5979999999999
 30
0.0
 11
12.19999999999999
 21
170.1979999999999
 31
0.0
  0
LINE
  5
C1
330
1E
100
AcDbEntity
  8
0
100
AcDbLine
 10
41.1
 20
170.8979999999999
 30
0.0
 11
44.29999999999999
 21
175.098
 31
0.0
  0
LINE
  5
C2
330
1E
100
AcDbEntity
  8
0
100
AcDbLine
 10
41.79999999999999
 20
170.1979999999999
 30
0.0
 11
45.2
 21
174.5979999999999
 31
0.0
  0
LINE
  5
C3
330
1E
100
AcDbEntity
  8
0
100
AcDbLine
 10
59.0
 20
170.8979999999999
 30
0.0
 11
59.0
 21
175.098
 31
0.0
  0
LINE
  5
C4
330
1E
100
AcDbEntity
  8
0
100
AcDbLine
 10
59.0
 20
170.8979999999999
 30
0.0
 11
59.0
 21
167.6979999999999
 31
0.0
  0
LINE
  5
C5
330
1E
100
AcDbEntity
  8
0
100
AcDbLine
 10
58.0
 20
174.5979999999999
 30
0.0
 11
58.0
 21
179.5979999999999
 31
0.0
  0
LINE
  5
C6
330
1E
100
AcDbEntity
  8
0
100
AcDbLine
 10
58.0
 20
174.5979999999999
 30
0.0
 11
58.0
 21
170.1979999999999
 31
0.0
  0
LINE
  5
C7
330
1E
100
AcDbEntity
  8
0
100
AcDbLine
 10
58.0
 20
170.1979999999999
 30
0.0
 11
58.0
 21
174.5979999999999
 31
0.0
  0
LINE
  5
C8
330
1E
100
AcDbEntity
  8
0
100
AcDbLine
 10
58.0
 20
170.1979999999999
 30
0.0
 11
58.0
 21
166.798
 31
0.0
  0
LINE
  5
C9
330
1E
100
AcDbEntity
  8
0
100
AcDbLine
 10
45.2
 20
174.5979999999999
 30
0.0
 11
47.2
 21
179.5979999999999
 31
0.0
  0
LINE
  5
CA
330
1E
100
AcDbEntity
  8
0
100
AcDbLine
 10
11.8
 20
169.798
 30
0.0
 11
16.0
 21
166.6246666666669
 31
0.0
  0
LINE
  5
CB
330
1E
100
AcDbEntity
  8
0
100
AcDbLine
 10
8.4
 20
174.298
 30
0.0
 11
11.8
 21
169.798
 31
0.0
  0
LINE
  5
CC
330
1E
100
AcDbEntity
  8
0
100
AcDbLine
 10
6.0
 20
184.998
 30
0.0
 11
6.799999999999999
 21
190.3979999999999
 31
0.0
  0
LINE
  5
CD
330
1E
100
AcDbEntity
  8
0
100
AcDbLine
 10
6.0
 20
184.998
 30
0.0
 11
6.799999999999999
 21
179.5979999999999
 31
0.0
  0
LINE
  5
CE
330
1E
100
AcDbEntity
  8
0
100
AcDbLine
 10
38.0
 20
178.599
 30
0.0
 11
38.0
 21
182.2359999999999
 31
0.0
  0
LINE
  5
CF
330
1E
100
AcDbEntity
  8
0
100
AcDbLine
 10
38.0
 20
178.599
 30
0.0
 11
38.0
 21
173.684
 31
0.0
  0
LINE
  5
D0
330
1E
100
AcDbEntity
  8
0
100
AcDbLine
 10
16.0
 20
178.599
 30
0.0
 11
16.0
 21
182.2359999999999
 31
0.0
  0
LINE
  5
D1
330
1E
100
AcDbEntity
  8
0
100
AcDbLine
 10
16.0
 20
178.599
 30
0.0
 11
16.0
 21
173.684
 31
0.0
  0
LINE
  5
D2
330
1E
100
AcDbEntity
  8
0
100
AcDbLine
 10
9.699999999999999
 20
175.098
 30
0.0
 11
12.9
 21
170.8979999999999
 31
0.0
  0
LINE
  5
D3
330
1E
100
AcDbEntity
  8
0
100
AcDbLine
 10
7.7
 20
179.898
 30
0.0
 11
9.699999999999999
 21
175.098
 31
0.0
  0
LINE
  5
D4
330
1E
100
AcDbEntity
  8
0
100
AcDbLine
 10
6.799999999999999
 20
179.5979999999999
 30
0.0
 11
8.8
 21
174.5979999999999
 31
0.0
  0
LINE
  5
D5
330
1E
100
AcDbEntity
  8
0
100
AcDbLine
 10
44.29999999999999
 20
175.098
 30
0.0
 11
46.29999999999999
 21
179.898
 31
0.0
  0
LINE
  5
D6
330
1E
100
AcDbEntity
  8
0
100
AcDbLine
 10
16.0
 20
182.2359999999999
 30
0.0
 11
16.0
 21
184.497
 31
0.0
  0
LINE
  5
D7
330
1E
100
AcDbEntity
  8
0
100
AcDbLine
 10
16.0
 20
182.2359999999999
 30
0.0
 11
16.0
 21
178.599
 31
0.0
  0
LINE
  5
D8
330
1E
100
AcDbEntity
  8
0
100
AcDbLine
 10
38.0
 20
182.2359999999999
 30
0.0
 11
38.0
 21
184.497
 31
0.0
  0
LINE
  5
D9
330
1E
100
AcDbEntity
  8
0
100
AcDbLine
 10
38.0
 20
182.2359999999999
 30
0.0
 11
38.0
 21
178.599
 31
0.0
  0
LINE
  5
DA
330
1E
100
AcDbEntity
  8
0
100
AcDbLine
 10
38.0
 20
184.497
 30
0.0
 11
38.0
 21
185.1849999999999
 31
0.0
  0
LINE
  5
DB
330
1E
100
AcDbEntity
  8
0
100
AcDbLine
 10
38.0
 20
184.497
 30
0.0
 11
38.0
 21
182.2359999999999
 31
0.0
  0
LINE
  5
DC
330
1E
100
AcDbEntity
  8
0
100
AcDbLine
 10
16.0
 20
184.497
 30
0.0
 11
16.0
 21
185.1849999999999
 31
0.0
  0
LINE
  5
DD
330
1E
100
AcDbEntity
  8
0
100
AcDbLine
 10
16.0
 20
184.497
 30
0.0
 11
16.0
 21
182.2359999999999
 31
0.0
  0
LINE
  5
DE
330
1E
100
AcDbEntity
  8
0
100
AcDbLine
 10
46.29999999999999
 20
179.898
 30
0.0
 11
47.0
 21
184.998
 31
0.0
  0
LINE
  5
DF
330
1E
100
AcDbEntity
  8
0
100
AcDbLine
 10
59.0
 20
175.098
 30
0.0
 11
59.0
 21
179.898
 31
0.0
  0
LINE
  5
E0
330
1E
100
AcDbEntity
  8
0
100
AcDbLine
 10
59.0
 20
175.098
 30
0.0
 11
59.0
 21
170.8979999999999
 31
0.0
  0
LINE
  5
E1
330
1E
100
AcDbEntity
  8
0
100
AcDbLine
 10
59.0
 20
179.898
 30
0.0
 11
59.0
 21
184.998
 31
0.0
  0
LINE
  5
E2
330
1E
100
AcDbEntity
  8
0
100
AcDbLine
 10
59.0
 20
179.898
 30
0.0
 11
59.0
 21
175.098
 31
0.0
  0
LINE
  5
E3
330
1E
100
AcDbEntity
  8
0
100
AcDbLine
 10
58.0
 20
184.998
 30
0.0
 11
58.0
 21
179.5979999999999
 31
0.0
  0
LINE
  5
E4
330
1E
100
AcDbEntity
  8
0
100
AcDbLine
 10
58.0
 20
184.998
 30
0.0
 11
58.0
 21
190.3979999999999
 31
0.0
  0
LINE
  5
E5
330
1E
100
AcDbEntity
  8
0
100
AcDbLine
 10
58.0
 20
179.5979999999999
 30
0.0
 11
58.0
 21
184.998
 31
0.0
  0
LINE
  5
E6
330
1E
100
AcDbEntity
  8
0
100
AcDbLine
 10
58.0
 20
179.5979999999999
 30
0.0
 11
58.0
 21
174.5979999999999
 31
0.0
  0
LINE
  5
E7
330
1E
100
AcDbEntity
  8
0
100
AcDbLine
 10
47.2
 20
179.5979999999999
 30
0.0
 11
48.0
 21
184.998
 31
0.0
  0
LINE
  5
E8
330
1E
100
AcDbEntity
  8
0
100
AcDbLine
 10
7.0
 20
184.998
 30
0.0
 11
7.7
 21
190.0979999999999
 31
0.0
  0
LINE
  5
E9
330
1E
100
AcDbEntity
  8
0
100
AcDbLine
 10
7.0
 20
184.998
 30
0.0
 11
7.7
 21
179.898
 31
0.0
  0
LINE
  5
EA
330
1E
100
AcDbEntity
  8
0
100
AcDbLine
 10
6.299999999999999
 20
179.4979999999999
 30
0.0
 11
8.4
 21
174.298
 31
0.0
  0
LINE
  5
EB
330
1E
100
AcDbEntity
  8
0
100
AcDbLine
 10
59.0
 20
184.998
 30
0.0
 11
59.0
 21
179.813
 31
0.0
  0
LINE
  5
EC
330
1E
100
AcDbEntity
  8
0
100
AcDbLine
 10
59.0
 20
184.998
 30
0.0
 11
59.0
 21
179.898
 31
0.0
  0
LINE
  5
ED
330
1E
100
AcDbEntity
  8
0
100
AcDbLine
 10
59.0
 20
184.998
 30
0.0
 11
59.0
 21
190.0979999999999
 31
0.0
  0
LINE
  5
EE
330
1E
100
AcDbEntity
  8
0
100
AcDbLine
 10
59.0
 20
179.813
 30
0.0
 11
59.0
 21
175.072
 31
0.0
  0
LINE
  5
EF
330
1E
100
AcDbEntity
  8
0
100
AcDbLine
 10
59.0
 20
175.072
 30
0.0
 11
59.0
 21
170.8499999999999
 31
0.0
  0
LINE
  5
F0
330
1E
100
AcDbEntity
  8
0
100
AcDbLine
 10
59.0
 20
170.8499999999999
 30
0.0
 11
59.0
 21
167.6649999999999
 31
0.0
  0
LINE
  5
F1
330
1E
100
AcDbEntity
  8
0
100
AcDbLine
 10
59.0
 20
167.6649999999999
 30
0.0
 11
59.0
 21
165.739
 31
0.0
  0
LINE
  5
F2
330
1E
100
AcDbEntity
  8
0
100
AcDbLine
 10
61.0
 20
184.998
 30
0.0
 11
61.05
 21
180.1229999999999
 31
0.0
  0
LINE
  5
F3
330
1E
100
AcDbEntity
  8
0
100
AcDbLine
 10
61.0
 20
184.998
 30
0.0
 11
61.05
 21
189.873
 31
0.0
  0
LINE
  5
F4
330
1E
100
AcDbEntity
  8
0
100
AcDbLine
 10
61.05
 20
180.1229999999999
 30
0.0
 11
61.19399999999999
 21
174.9479999999999
 31
0.0
  0
LINE
  5
F5
330
1E
100
AcDbEntity
  8
0
100
AcDbLine
 10
61.19399999999999
 20
174.9479999999999
 30
0.0
 11
61.424
 21
170.373
 31
0.0
  0
LINE
  5
F6
330
1E
100
AcDbEntity
  8
0
100
AcDbLine
 10
81.0
 20
176.2979999999999
 30
0.0
 11
81.0
 21
176.0979999999999
 31
0.0
  0
LINE
  5
F7
330
1E
100
AcDbEntity
  8
0
100
AcDbLine
 10
81.0
 20
176.2979999999999
 30
0.0
 11
81.0
 21
176.6979999999999
 31
0.0
  0
LINE
  5
F8
330
1E
100
AcDbEntity
  8
0
100
AcDbLine
 10
81.0
 20
176.0979999999999
 30
0.0
 11
81.0
 21
175.9979999999999
 31
0.0
  0
LINE
  5
F9
330
1E
100
AcDbEntity
  8
0
100
AcDbLine
 10
81.0
 20
176.0979999999999
 30
0.0
 11
81.0
 21
176.2979999999999
 31
0.0
  0
LINE
  5
FA
330
1E
100
AcDbEntity
  8
0
100
AcDbLine
 10
81.0
 20
176.6979999999999
 30
0.0
 11
81.0
 21
177.154
 31
0.0
  0
LINE
  5
FB
330
1E
100
AcDbEntity
  8
0
100
AcDbLine
 10
81.0
 20
176.6979999999999
 30
0.0
 11
81.0
 21
176.2979999999999
 31
0.0
  0
LINE
  5
FC
330
1E
100
AcDbEntity
  8
0
100
AcDbLine
 10
81.0
 20
177.154
 30
0.0
 11
81.0
 21
177.7559999999999
 31
0.0
  0
LINE
  5
FD
330
1E
100
AcDbEntity
  8
0
100
AcDbLine
 10
81.0
 20
177.154
 30
0.0
 11
81.0
 21
176.6979999999999
 31
0.0
  0
LINE
  5
FE
330
1E
100
AcDbEntity
  8
0
100
AcDbLine
 10
81.0
 20
177.7559999999999
 30
0.0
 11
81.0
 21
178.5679999999999
 31
0.0
  0
LINE
  5
FF
330
1E
100
AcDbEntity
  8
0
100
AcDbLine
 10
81.0
 20
177.7559999999999
 30
0.0
 11
81.0
 21
177.154
 31
0.0
  0
LINE
  5
100
330
1E
100
AcDbEntity
  8
0
100
AcDbLine
 10
81.0
 20
182.6979999999999
 30
0.0
 11
81.0
 21
183.7979999999999
 31
0.0
  0
LINE
  5
101
330
1E
100
AcDbEntity
  8
0
100
AcDbLine
 10
81.0
 20
182.6979999999999
 30
0.0
 11
81.0
 21
181.5979999999999
 31
0.0
  0
LINE
  5
102
330
1E
100
AcDbEntity
  8
0
100
AcDbLine
 10
81.0
 20
183.7979999999999
 30
0.0
 11
81.0
 21
184.998
 31
0.0
  0
LINE
  5
103
330
1E
100
AcDbEntity
  8
0
100
AcDbLine
 10
81.0
 20
183.7979999999999
 30
0.0
 11
81.0
 21
182.6979999999999
 31
0.0
  0
LINE
  5
104
330
1E
100
AcDbEntity
  8
0
100
AcDbLine
 10
81.0
 20
181.5979999999999
 30
0.0
 11
81.0
 21
180.52
 31
0.0
  0
LINE
  5
105
330
1E
100
AcDbEntity
  8
0
100
AcDbLine
 10
81.0
 20
181.5979999999999
 30
0.0
 11
81.0
 21
182.6979999999999
 31
0.0
  0
LINE
  5
106
330
1E
100
AcDbEntity
  8
0
100
AcDbLine
 10
81.0
 20
180.52
 30
0.0
 11
81.0
 21
179.578
 31
0.0
  0
LINE
  5
107
330
1E
100
AcDbEntity
  8
0
100
AcDbLine
 10
81.0
 20
180.52
 30
0.0
 11
81.0
 21
181.5979999999999
 31
0.0
  0
LINE
  5
108
330
1E
100
AcDbEntity
  8
0
100
AcDbLine
 10
81.0
 20
179.578
 30
0.0
 11
81.0
 21
178.5679999999999
 31
0.0
  0
LINE
  5
109
330
1E
100
AcDbEntity
  8
0
100
AcDbLine
 10
81.0
 20
179.578
 30
0.0
 11
81.0
 21
180.52
 31
0.0
  0
LINE
  5
10A
330
1E
100
AcDbEntity
  8
0
100
AcDbLine
 10
81.0
 20
178.5679999999999
 30
0.0
 11
81.0
 21
179.578
 31
0.0
  0
LINE
  5
10B
330
1E
100
AcDbEntity
  8
0
100
AcDbLine
 10
81.0
 20
178.5679999999999
 30
0.0
 11
81.0
 21
177.7559999999999
 31
0.0
  0
LINE
  5
10D
330
1E
100
AcDbEntity
  8
0
100
AcDbLine
 10
81.0
 20
175.9979999999999
 30
0.0
 11
81.0
 21
176.0979999999999
 31
0.0
  0
LINE
  5
10E
330
1E
100
AcDbEntity
  8
0
100
AcDbLine
 10
61.424
 20
170.373
 30
0.0
 11
61.728
 21
166.9229999999999
 31
0.0
  0
LINE
  5
10F
330
1E
100
AcDbEntity
  8
0
100
AcDbLine
 10
61.728
 20
166.9229999999999
 30
0.0
 11
62.072
 21
164.7479999999999
 31
0.0
  0
LINE
  5
110
330
1E
100
AcDbEntity
  8
0
100
AcDbLine
 10
59.0
 20
165.6979999999999
 30
0.0
 11
59.0
 21
164.998
 31
0.0
  0
LINE
  5
111
330
1E
100
AcDbEntity
  8
0
100
AcDbLine
 10
59.0
 20
165.6979999999999
 30
0.0
 11
59.0
 21
167.6979999999999
 31
0.0
  0
LINE
  5
112
330
1E
100
AcDbEntity
  8
0
100
AcDbLine
 10
59.0
 20
164.998
 30
0.0
 11
59.593
 21
164.998
 31
0.0
  0
LINE
  5
113
330
1E
100
AcDbEntity
  8
0
100
AcDbLine
 10
59.0
 20
164.998
 30
0.0
 11
59.0
 21
165.6979999999999
 31
0.0
  0
LINE
  5
115
330
1E
100
AcDbEntity
  8
0
100
AcDbLine
 10
87.0
 20
176.2979999999999
 30
0.0
 11
87.0
 21
176.0979999999999
 31
0.0
  0
LINE
  5
116
330
1E
100
AcDbEntity
  8
0
100
AcDbLine
 10
87.0
 20
176.2979999999999
 30
0.0
 11
87.0
 21
176.6979999999999
 31
0.0
  0
LINE
  5
117
330
1E
100
AcDbEntity
  8
0
100
AcDbLine
 10
87.0
 20
175.9979999999999
 30
0.0
 11
87.0
 21
176.0979999999999
 31
0.0
  0
LINE
  5
118
330
1E
100
AcDbEntity
  8
0
100
AcDbLine
 10
87.0
 20
176.0979999999999
 30
0.0
 11
87.0
 21
175.9979999999999
 31
0.0
  0
LINE
  5
119
330
1E
100
AcDbEntity
  8
0
100
AcDbLine
 10
87.0
 20
176.0979999999999
 30
0.0
 11
87.0
 21
176.2979999999999
 31
0.0
  0
LINE
  5
11A
330
1E
100
AcDbEntity
  8
0
100
AcDbLine
 10
87.0
 20
176.6979999999999
 30
0.0
 11
87.0
 21
177.154
 31
0.0
  0
LINE
  5
11B
330
1E
100
AcDbEntity
  8
0
100
AcDbLine
 10
87.0
 20
176.6979999999999
 30
0.0
 11
87.0
 21
176.2979999999999
 31
0.0
  0
LINE
  5
11C
330
1E
100
AcDbEntity
  8
0
100
AcDbLine
 10
87.0
 20
177.154
 30
0.0
 11
87.0
 21
177.7559999999999
 31
0.0
  0
LINE
  5
11D
330
1E
100
AcDbEntity
  8
0
100
AcDbLine
 10
87.0
 20
177.154
 30
0.0
 11
87.0
 21
176.6979999999999
 31
0.0
  0
LINE
  5
11E
330
1E
100
AcDbEntity
  8
0
100
AcDbLine
 10
87.0
 20
177.7559999999999
 30
0.0
 11
87.0
 21
178.5679999999999
 31
0.0
  0
LINE
  5
11F
330
1E
100
AcDbEntity
  8
0
100
AcDbLine
 10
87.0
 20
177.7559999999999
 30
0.0
 11
87.0
 21
177.154
 31
0.0
  0
LINE
  5
120
330
1E
100
AcDbEntity
  8
0
100
AcDbLine
 10
87.0
 20
178.5679999999999
 30
0.0
 11
87.0
 21
179.578
 31
0.0
  0
LINE
  5
121
330
1E
100
AcDbEntity
  8
0
100
AcDbLine
 10
87.0
 20
178.5679999999999
 30
0.0
 11
87.0
 21
177.7559999999999
 31
0.0
  0
LINE
  5
122
330
1E
100
AcDbEntity
  8
0
100
AcDbLine
 10
87.0
 20
180.52
 30
0.0
 11
87.0
 21
179.578
 31
0.0
  0
LINE
  5
123
330
1E
100
AcDbEntity
  8
0
100
AcDbLine
 10
87.0
 20
180.52
 30
0.0
 11
87.0
 21
181.5979999999999
 31
0.0
  0
LINE
  5
124
330
1E
100
AcDbEntity
  8
0
100
AcDbLine
 10
87.0
 20
179.578
 30
0.0
 11
87.0
 21
178.5679999999999
 31
0.0
  0
LINE
  5
125
330
1E
100
AcDbEntity
  8
0
100
AcDbLine
 10
87.0
 20
179.578
 30
0.0
 11
87.0
 21
180.52
 31
0.0
  0
LINE
  5
126
330
1E
100
AcDbEntity
  8
0
100
AcDbLine
 10
87.0
 20
181.5979999999999
 30
0.0
 11
87.0
 21
182.6979999999999
 31
0.0
  0
LINE
  5
127
330
1E
100
AcDbEntity
  8
0
100
AcDbLine
 10
87.0
 20
181.5979999999999
 30
0.0
 11
87.0
 21
180.52
 31
0.0
  0
LINE
  5
128
330
1E
100
AcDbEntity
  8
0
100
AcDbLine
 10
87.0
 20
182.6979999999999
 30
0.0
 11
87.0
 21
183.7979999999999
 31
0.0
  0
LINE
  5
129
330
1E
100
AcDbEntity
  8
0
100
AcDbLine
 10
87.0
 20
182.6979999999999
 30
0.0
 11
87.0
 21
181.5979999999999
 31
0.0
  0
LINE
  5
12A
330
1E
100
AcDbEntity
  8
0
100
AcDbLine
 10
87.0
 20
183.7979999999999
 30
0.0
 11
87.0
 21
184.998
 31
0.0
  0
LINE
  5
12B
330
1E
100
AcDbEntity
  8
0
100
AcDbLine
 10
87.0
 20
183.7979999999999
 30
0.0
 11
87.0
 21
182.6979999999999
 31
0.0
  0
LINE
  5
12C
330
1E
100
AcDbEntity
  8
0
100
AcDbLine
 10
81.0
 20
184.998
 30
0.0
 11
81.0
 21
186.1979999999999
 31
0.0
  0
LINE
  5
12D
330
1E
100
AcDbEntity
  8
0
100
AcDbLine
 10
81.0
 20
184.998
 30
0.0
 11
81.0
 21
183.7979999999999
 31
0.0
  0
LINE
  5
12E
330
1E
100
AcDbEntity
  8
0
100
AcDbLine
 10
38.0
 20
185.1849999999999
 30
0.0
 11
38.0
 21
184.497
 31
0.0
  0
LINE
  5
12F
330
1E
100
AcDbEntity
  8
0
100
AcDbLine
 10
16.0
 20
185.1849999999999
 30
0.0
 11
16.39999999999999
 21
187.937
 31
0.0
  0
LINE
  5
130
330
1E
100
AcDbEntity
  8
0
100
AcDbLine
 10
16.0
 20
185.1849999999999
 30
0.0
 11
16.39999999999999
 21
187.937
 31
0.0
  0
LINE
  5
131
330
1E
100
AcDbEntity
  8
0
100
AcDbLine
 10
16.0
 20
185.1849999999999
 30
0.0
 11
16.0
 21
184.497
 31
0.0
  0
LINE
  5
132
330
1E
100
AcDbEntity
  8
0
100
AcDbLine
 10
37.6
 20
187.937
 30
0.0
 11
38.0
 21
185.1849999999999
 31
0.0
  0
LINE
  5
133
330
1E
100
AcDbEntity
  8
0
100
AcDbLine
 10
16.39999999999999
 20
187.937
 30
0.0
 11
17.5
 21
190.5909999999999
 31
0.0
  0
LINE
  5
134
330
1E
100
AcDbEntity
  8
0
100
AcDbLine
 10
81.0
 20
188.398
 30
0.0
 11
81.0
 21
187.298
 31
0.0
  0
LINE
  5
135
330
1E
100
AcDbEntity
  8
0
100
AcDbLine
 10
81.0
 20
188.398
 30
0.0
 11
81.0
 21
189.4759999999999
 31
0.0
  0
LINE
  5
136
330
1E
100
AcDbEntity
  8
0
100
AcDbLine
 10
81.0
 20
187.298
 30
0.0
 11
81.0
 21
186.1979999999999
 31
0.0
  0
LINE
  5
137
330
1E
100
AcDbEntity
  8
0
100
AcDbLine
 10
81.0
 20
187.298
 30
0.0
 11
81.0
 21
188.398
 31
0.0
  0
LINE
  5
138
330
1E
100
AcDbEntity
  8
0
100
AcDbLine
 10
81.0
 20
186.1979999999999
 30
0.0
 11
81.0
 21
184.998
 31
0.0
  0
LINE
  5
139
330
1E
100
AcDbEntity
  8
0
100
AcDbLine
 10
81.0
 20
186.1979999999999
 30
0.0
 11
81.0
 21
187.298
 31
0.0
  0
LINE
  5
13A
330
1E
100
AcDbEntity
  8
0
100
AcDbLine
 10
7.7
 20
190.0979999999999
 30
0.0
 11
9.699999999999999
 21
194.8979999999999
 31
0.0
  0
LINE
  5
13B
330
1E
100
AcDbEntity
  8
0
100
AcDbLine
 10
6.799999999999999
 20
190.3979999999999
 30
0.0
 11
8.8
 21
195.3979999999999
 31
0.0
  0
LINE
  5
13C
330
1E
100
AcDbEntity
  8
0
100
AcDbLine
 10
59.0
 20
190.0979999999999
 30
0.0
 11
59.0
 21
194.8979999999999
 31
0.0
  0
LINE
  5
13D
330
1E
100
AcDbEntity
  8
0
100
AcDbLine
 10
59.0
 20
190.0979999999999
 30
0.0
 11
59.0
 21
184.998
 31
0.0
  0
LINE
  5
13E
330
1E
100
AcDbEntity
  8
0
100
AcDbLine
 10
58.0
 20
190.3979999999999
 30
0.0
 11
58.0
 21
195.3979999999999
 31
0.0
  0
LINE
  5
13F
330
1E
100
AcDbEntity
  8
0
100
AcDbLine
 10
58.0
 20
190.3979999999999
 30
0.0
 11
58.0
 21
184.998
 31
0.0
  0
LINE
  5
140
330
1E
100
AcDbEntity
  8
0
100
AcDbLine
 10
46.29999999999999
 20
190.0979999999999
 30
0.0
 11
47.0
 21
184.998
 31
0.0
  0
LINE
  5
141
330
1E
100
AcDbEntity
  8
0
100
AcDbLine
 10
47.2
 20
190.3979999999999
 30
0.0
 11
48.0
 21
184.998
 31
0.0
  0
LINE
  5
142
330
1E
100
AcDbEntity
  8
0
100
AcDbLine
 10
81.0
 20
189.4759999999999
 30
0.0
 11
81.0
 21
190.418
 31
0.0
  0
LINE
  5
143
330
1E
100
AcDbEntity
  8
0
100
AcDbLine
 10
81.0
 20
189.4759999999999
 30
0.0
 11
81.0
 21
188.398
 31
0.0
  0
LINE
  5
144
330
1E
100
AcDbEntity
  8
0
100
AcDbLine
 10
87.0
 20
189.4759999999999
 30
0.0
 11
87.0
 21
190.418
 31
0.0
  0
LINE
  5
145
330
1E
100
AcDbEntity
  8
0
100
AcDbLine
 10
87.0
 20
189.4759999999999
 30
0.0
 11
87.0
 21
188.398
 31
0.0
  0
LINE
  5
146
330
1E
100
AcDbEntity
  8
0
100
AcDbLine
 10
81.0
 20
190.418
 30
0.0
 11
81.0
 21
191.4279999999999
 31
0.0
  0
LINE
  5
147
330
1E
100
AcDbEntity
  8
0
100
AcDbLine
 10
81.0
 20
190.418
 30
0.0
 11
81.0
 21
189.4759999999999
 31
0.0
  0
LINE
  5
148
330
1E
100
AcDbEntity
  8
0
100
AcDbLine
 10
87.0
 20
190.418
 30
0.0
 11
87.0
 21
191.4279999999999
 31
0.0
  0
LINE
  5
149
330
1E
100
AcDbEntity
  8
0
100
AcDbLine
 10
87.0
 20
190.418
 30
0.0
 11
87.0
 21
189.4759999999999
 31
0.0
  0
LINE
  5
14A
330
1E
100
AcDbEntity
  8
0
100
AcDbLine
 10
61.05
 20
189.873
 30
0.0
 11
61.19399999999999
 21
195.0479999999999
 31
0.0
  0
LINE
  5
14B
330
1E
100
AcDbEntity
  8
0
100
AcDbLine
 10
59.0
 20
190.1829999999999
 30
0.0
 11
59.0
 21
184.998
 31
0.0
  0
LINE
  5
14C
330
1E
100
AcDbEntity
  8
0
100
AcDbLine
 10
87.0
 20
188.398
 30
0.0
 11
87.0
 21
187.298
 31
0.0
  0
LINE
  5
14D
330
1E
100
AcDbEntity
  8
0
100
AcDbLine
 10
87.0
 20
188.398
 30
0.0
 11
87.0
 21
189.4759999999999
 31
0.0
  0
LINE
  5
14E
330
1E
100
AcDbEntity
  8
0
100
AcDbLine
 10
87.0
 20
187.298
 30
0.0
 11
87.0
 21
186.1979999999999
 31
0.0
  0
LINE
  5
14F
330
1E
100
AcDbEntity
  8
0
100
AcDbLine
 10
87.0
 20
187.298
 30
0.0
 11
87.0
 21
188.398
 31
0.0
  0
LINE
  5
150
330
1E
100
AcDbEntity
  8
0
100
AcDbLine
 10
87.0
 20
184.998
 30
0.0
 11
87.0
 21
186.1979999999999
 31
0.0
  0
LINE
  5
151
330
1E
100
AcDbEntity
  8
0
100
AcDbLine
 10
87.0
 20
184.998
 30
0.0
 11
87.0
 21
183.7979999999999
 31
0.0
  0
LINE
  5
152
330
1E
100
AcDbEntity
  8
0
100
AcDbLine
 10
92.88200000000001
 20
163.9979999999999
 30
0.0
 11
93.87
 21
164.4479999999999
 31
0.0
  0
LINE
  5
153
330
1E
100
AcDbEntity
  8
0
100
AcDbLine
 10
93.87
 20
189.723
 30
0.0
 11
93.87
 21
194.8229999999999
 31
0.0
  0
LINE
  5
154
330
1E
100
AcDbEntity
  8
0
100
AcDbLine
 10
93.87
 20
189.723
 30
0.0
 11
93.87
 21
184.998
 31
0.0
  0
LINE
  5
155
330
1E
100
AcDbEntity
  8
0
100
AcDbLine
 10
93.87
 20
184.998
 30
0.0
 11
93.87
 21
180.273
 31
0.0
  0
LINE
  5
156
330
1E
100
AcDbEntity
  8
0
100
AcDbLine
 10
93.87
 20
184.998
 30
0.0
 11
93.87
 21
189.723
 31
0.0
  0
LINE
  5
157
330
1E
100
AcDbEntity
  8
0
100
AcDbLine
 10
93.87
 20
180.273
 30
0.0
 11
93.87
 21
184.998
 31
0.0
  0
LINE
  5
158
330
1E
100
AcDbEntity
  8
0
100
AcDbLine
 10
93.87
 20
180.273
 30
0.0
 11
93.87
 21
175.173
 31
0.0
  0
LINE
  5
159
330
1E
100
AcDbEntity
  8
0
100
AcDbLine
 10
93.87
 20
175.173
 30
0.0
 11
93.87
 21
180.273
 31
0.0
  0
LINE
  5
15A
330
1E
100
AcDbEntity
  8
0
100
AcDbLine
 10
93.87
 20
175.173
 30
0.0
 11
93.87
 21
170.7479999999999
 31
0.0
  0
LINE
  5
15B
330
1E
100
AcDbEntity
  8
0
100
AcDbLine
 10
93.87
 20
170.7479999999999
 30
0.0
 11
93.87
 21
175.173
 31
0.0
  0
LINE
  5
15C
330
1E
100
AcDbEntity
  8
0
100
AcDbLine
 10
93.87
 20
170.7479999999999
 30
0.0
 11
93.87
 21
167.298
 31
0.0
  0
LINE
  5
15D
330
1E
100
AcDbEntity
  8
0
100
AcDbLine
 10
93.87
 20
167.298
 30
0.0
 11
93.87
 21
170.7479999999999
 31
0.0
  0
LINE
  5
15E
330
1E
100
AcDbEntity
  8
0
100
AcDbLine
 10
93.87
 20
167.298
 30
0.0
 11
93.87
 21
165.1979999999999
 31
0.0
  0
LINE
  5
15F
330
1E
100
AcDbEntity
  8
0
100
AcDbLine
 10
94.4243049382716
 20
177.1929999999999
 30
0.0
 11
94.762
 21
177.1929999999999
 31
0.0
  0
LINE
  5
160
330
1E
100
AcDbEntity
  8
0
100
AcDbLine
 10
94.5214888888889
 20
175.1929999999999
 30
0.0
 11
94.762
 21
175.1929999999999
 31
0.0
  0
LINE
  5
161
330
1E
100
AcDbEntity
  8
0
100
AcDbLine
 10
94.71200000000001
 20
176.449
 30
0.0
 11
94.71700000000002
 21
176.689
 31
0.0
  0
LINE
  5
162
330
1E
100
AcDbEntity
  8
0
100
AcDbLine
 10
94.71
 20
176.1929999999999
 30
0.0
 11
94.71200000000001
 21
175.937
 31
0.0
  0
LINE
  5
163
330
1E
100
AcDbEntity
  8
0
100
AcDbLine
 10
94.71
 20
176.1929999999999
 30
0.0
 11
94.71200000000001
 21
176.449
 31
0.0
  0
LINE
  5
164
330
1E
100
AcDbEntity
  8
0
100
AcDbLine
 10
94.71700000000002
 20
176.689
 30
0.0
 11
94.725
 21
176.9009999999999
 31
0.0
  0
LINE
  5
165
330
1E
100
AcDbEntity
  8
0
100
AcDbLine
 10
94.725
 20
176.9009999999999
 30
0.0
 11
94.73600000000001
 21
177.0609999999999
 31
0.0
  0
LINE
  5
166
330
1E
100
AcDbEntity
  8
0
100
AcDbLine
 10
94.71200000000001
 20
175.937
 30
0.0
 11
94.71700000000002
 21
175.697
 31
0.0
  0
LINE
  5
167
330
1E
100
AcDbEntity
  8
0
100
AcDbLine
 10
94.71700000000002
 20
175.697
 30
0.0
 11
94.725
 21
175.485
 31
0.0
  0
LINE
  5
168
330
1E
100
AcDbEntity
  8
0
100
AcDbLine
 10
94.73600000000001
 20
177.0609999999999
 30
0.0
 11
94.74899999999999
 21
177.157
 31
0.0
  0
LINE
  5
169
330
1E
100
AcDbEntity
  8
0
100
AcDbLine
 10
94.725
 20
175.485
 30
0.0
 11
94.73600000000001
 21
175.3249999999999
 31
0.0
  0
LINE
  5
16A
330
1E
100
AcDbEntity
  8
0
100
AcDbLine
 10
94.73600000000001
 20
175.3249999999999
 30
0.0
 11
94.74899999999999
 21
175.229
 31
0.0
  0
LINE
  5
16B
330
1E
100
AcDbEntity
  8
0
100
AcDbLine
 10
94.775
 20
175.229
 30
0.0
 11
94.78799999999999
 21
175.3249999999999
 31
0.0
  0
LINE
  5
16C
330
1E
100
AcDbEntity
  8
0
100
AcDbLine
 10
94.79899999999998
 20
175.485
 30
0.0
 11
94.807
 21
175.697
 31
0.0
  0
LINE
  5
16D
330
1E
100
AcDbEntity
  8
0
100
AcDbLine
 10
94.78799999999999
 20
175.3249999999999
 30
0.0
 11
94.79899999999998
 21
175.485
 31
0.0
  0
LINE
  5
16E
330
1E
100
AcDbEntity
  8
0
100
AcDbLine
 10
94.81200000000001
 20
175.937
 30
0.0
 11
94.81399999999998
 21
176.1929999999999
 31
0.0
  0
LINE
  5
16F
330
1E
100
AcDbEntity
  8
0
100
AcDbLine
 10
94.807
 20
175.697
 30
0.0
 11
94.81200000000001
 21
175.937
 31
0.0
  0
LINE
  5
170
330
1E
100
AcDbEntity
  8
0
100
AcDbLine
 10
94.81200000000001
 20
176.449
 30
0.0
 11
94.81399999999998
 21
176.1929999999999
 31
0.0
  0
LINE
  5
171
330
1E
100
AcDbEntity
  8
0
100
AcDbLine
 10
94.807
 20
176.689
 30
0.0
 11
94.81200000000001
 21
176.449
 31
0.0
  0
LINE
  5
172
330
1E
100
AcDbEntity
  8
0
100
AcDbLine
 10
94.79899999999998
 20
176.9009999999999
 30
0.0
 11
94.807
 21
176.689
 31
0.0
  0
LINE
  5
173
330
1E
100
AcDbEntity
  8
0
100
AcDbLine
 10
94.78799999999999
 20
177.0609999999999
 30
0.0
 11
94.79899999999998
 21
176.9009999999999
 31
0.0
  0
LINE
  5
174
330
1E
100
AcDbEntity
  8
0
100
AcDbLine
 10
94.775
 20
177.157
 30
0.0
 11
94.78799999999999
 21
177.0609999999999
 31
0.0
  0
LINE
  5
175
330
1E
100
AcDbEntity
  8
0
100
AcDbLine
 10
94.7550964444445
 20
177.1929999999999
 30
0.0
 11
95.0
 21
184.998
 31
0.0
  0
LINE
  5
176
330
1E
100
AcDbEntity
  8
0
100
AcDbLine
 10
94.647
 20
173.7479999999999
 30
0.0
 11
94.69234088888891
 21
175.1929999999999
 31
0.0
  0
LINE
  5
177
330
1E
100
AcDbEntity
  8
0
100
AcDbLine
 10
94.29399999999999
 20
165.4979999999999
 30
0.0
 11
94.647
 21
173.7479999999999
 31
0.0
  0
LINE
  5
178
330
1E
100
AcDbEntity
  8
0
100
AcDbLine
 10
93.87
 20
165.1979999999999
 30
0.0
 11
93.87
 21
167.298
 31
0.0
  0
LINE
  5
179
330
1E
100
AcDbEntity
  8
0
100
AcDbLine
 10
93.87
 20
165.1979999999999
 30
0.0
 11
93.87
 21
164.4479999999999
 31
0.0
  0
LINE
  5
17A
330
1E
100
AcDbEntity
  8
0
100
AcDbLine
 10
93.87
 20
164.4479999999999
 30
0.0
 11
93.87
 21
165.1979999999999
 31
0.0
  0
LINE
  5
17B
330
1E
100
AcDbEntity
  8
0
100
AcDbLine
 10
93.87
 20
164.4479999999999
 30
0.0
 11
94.29399999999999
 21
165.4979999999999
 31
0.0
  0
LINE
  5
17C
330
1E
100
AcDbEntity
  8
0
100
AcDbLine
 10
87.0
 20
186.1979999999999
 30
0.0
 11
87.0
 21
184.998
 31
0.0
  0
LINE
  5
17D
330
1E
100
AcDbEntity
  8
0
100
AcDbLine
 10
87.0
 20
186.1979999999999
 30
0.0
 11
87.0
 21
187.298
 31
0.0
  0
LINE
  5
17E
330
1E
100
AcDbEntity
  8
0
100
AcDbLine
 10
36.5
 20
190.5909999999999
 30
0.0
 11
37.6
 21
187.937
 31
0.0
  0
LINE
  5
17F
330
1E
100
AcDbEntity
  8
0
100
AcDbLine
 10
17.5
 20
190.5909999999999
 30
0.0
 11
19.19999999999999
 21
192.8519999999999
 31
0.0
  0
LINE
  5
180
330
1E
100
AcDbEntity
  8
0
100
AcDbLine
 10
34.79999999999999
 20
192.8519999999999
 30
0.0
 11
36.5
 21
190.5909999999999
 31
0.0
  0
LINE
  5
181
330
1E
100
AcDbEntity
  8
0
100
AcDbLine
 10
19.19999999999999
 20
192.8519999999999
 30
0.0
 11
21.49999999999999
 21
194.523
 31
0.0
  0
LINE
  5
182
330
1E
100
AcDbEntity
  8
0
100
AcDbLine
 10
81.0
 20
192.842
 30
0.0
 11
81.0
 21
192.24
 31
0.0
  0
LINE
  5
183
330
1E
100
AcDbEntity
  8
0
100
AcDbLine
 10
81.0
 20
192.842
 30
0.0
 11
81.0
 21
193.298
 31
0.0
  0
LINE
  5
184
330
1E
100
AcDbEntity
  8
0
100
AcDbLine
 10
81.0
 20
192.24
 30
0.0
 11
81.0
 21
191.4279999999999
 31
0.0
  0
LINE
  5
185
330
1E
100
AcDbEntity
  8
0
100
AcDbLine
 10
81.0
 20
192.24
 30
0.0
 11
81.0
 21
192.842
 31
0.0
  0
LINE
  5
186
330
1E
100
AcDbEntity
  8
0
100
AcDbLine
 10
81.0
 20
193.298
 30
0.0
 11
81.0
 21
193.6979999999999
 31
0.0
  0
LINE
  5
187
330
1E
100
AcDbEntity
  8
0
100
AcDbLine
 10
81.0
 20
193.298
 30
0.0
 11
81.0
 21
192.842
 31
0.0
  0
LINE
  5
188
330
1E
100
AcDbEntity
  8
0
100
AcDbLine
 10
81.0
 20
193.6979999999999
 30
0.0
 11
81.0
 21
193.8979999999999
 31
0.0
  0
LINE
  5
189
330
1E
100
AcDbEntity
  8
0
100
AcDbLine
 10
81.0
 20
193.6979999999999
 30
0.0
 11
81.0
 21
193.298
 31
0.0
  0
LINE
  5
18A
330
1E
100
AcDbEntity
  8
0
100
AcDbLine
 10
81.0
 20
193.8979999999999
 30
0.0
 11
81.0
 21
193.998
 31
0.0
  0
LINE
  5
18B
330
1E
100
AcDbEntity
  8
0
100
AcDbLine
 10
81.0
 20
193.8979999999999
 30
0.0
 11
81.0
 21
193.6979999999999
 31
0.0
  0
LINE
  5
18C
330
1E
100
AcDbEntity
  8
0
100
AcDbLine
 10
81.0
 20
191.4279999999999
 30
0.0
 11
81.0
 21
190.418
 31
0.0
  0
LINE
  5
18D
330
1E
100
AcDbEntity
  8
0
100
AcDbLine
 10
81.0
 20
191.4279999999999
 30
0.0
 11
81.0
 21
192.24
 31
0.0
  0
LINE
  5
18E
330
1E
100
AcDbEntity
  8
0
100
AcDbLine
 10
32.5
 20
194.523
 30
0.0
 11
34.79999999999999
 21
192.8519999999999
 31
0.0
  0
LINE
  5
18F
330
1E
100
AcDbEntity
  8
0
100
AcDbLine
 10
21.49999999999999
 20
194.523
 30
0.0
 11
24.19999999999999
 21
195.6049999999999
 31
0.0
  0
LINE
  5
190
330
1E
100
AcDbEntity
  8
0
100
AcDbLine
 10
81.0
 20
193.998
 30
0.0
 11
81.09999999999999
 21
194.798
 31
0.0
  0
LINE
  5
191
330
1E
100
AcDbEntity
  8
0
100
AcDbLine
 10
81.0
 20
193.998
 30
0.0
 11
81.0
 21
193.8979999999999
 31
0.0
  0
LINE
  5
192
330
1E
100
AcDbEntity
  8
0
100
AcDbLine
 10
87.0
 20
193.6979999999999
 30
0.0
 11
87.0
 21
193.8979999999999
 31
0.0
  0
LINE
  5
193
330
1E
100
AcDbEntity
  8
0
100
AcDbLine
 10
87.0
 20
193.6979999999999
 30
0.0
 11
87.0
 21
193.298
 31
0.0
  0
LINE
  5
194
330
1E
100
AcDbEntity
  8
0
100
AcDbLine
 10
87.0
 20
193.8979999999999
 30
0.0
 11
87.0
 21
193.998
 31
0.0
  0
LINE
  5
195
330
1E
100
AcDbEntity
  8
0
100
AcDbLine
 10
87.0
 20
193.8979999999999
 30
0.0
 11
87.0
 21
193.6979999999999
 31
0.0
  0
LINE
  5
196
330
1E
100
AcDbEntity
  8
0
100
AcDbLine
 10
87.0
 20
193.998
 30
0.0
 11
87.0
 21
193.8979999999999
 31
0.0
  0
LINE
  5
197
330
1E
100
AcDbEntity
  8
0
100
AcDbLine
 10
87.0
 20
193.298
 30
0.0
 11
87.0
 21
192.842
 31
0.0
  0
LINE
  5
198
330
1E
100
AcDbEntity
  8
0
100
AcDbLine
 10
87.0
 20
193.298
 30
0.0
 11
87.0
 21
193.6979999999999
 31
0.0
  0
LINE
  5
199
330
1E
100
AcDbEntity
  8
0
100
AcDbLine
 10
87.0
 20
192.842
 30
0.0
 11
87.0
 21
192.24
 31
0.0
  0
LINE
  5
19A
330
1E
100
AcDbEntity
  8
0
100
AcDbLine
 10
87.0
 20
192.842
 30
0.0
 11
87.0
 21
193.298
 31
0.0
  0
LINE
  5
19B
330
1E
100
AcDbEntity
  8
0
100
AcDbLine
 10
87.0
 20
192.24
 30
0.0
 11
87.0
 21
191.4279999999999
 31
0.0
  0
LINE
  5
19C
330
1E
100
AcDbEntity
  8
0
100
AcDbLine
 10
87.0
 20
192.24
 30
0.0
 11
87.0
 21
192.842
 31
0.0
  0
LINE
  5
19D
330
1E
100
AcDbEntity
  8
0
100
AcDbLine
 10
87.0
 20
191.4279999999999
 30
0.0
 11
87.0
 21
190.418
 31
0.0
  0
LINE
  5
19E
330
1E
100
AcDbEntity
  8
0
100
AcDbLine
 10
87.0
 20
191.4279999999999
 30
0.0
 11
87.0
 21
192.24
 31
0.0
  0
LINE
  5
19F
330
1E
100
AcDbEntity
  8
0
100
AcDbLine
 10
81.09999999999999
 20
194.798
 30
0.0
 11
81.4
 21
195.4979999999999
 31
0.0
  0
LINE
  5
1A0
330
1E
100
AcDbEntity
  8
0
100
AcDbLine
 10
9.699999999999999
 20
194.8979999999999
 30
0.0
 11
12.9
 21
199.098
 31
0.0
  0
LINE
  5
1A1
330
1E
100
AcDbEntity
  8
0
100
AcDbLine
 10
59.0
 20
194.8979999999999
 30
0.0
 11
59.0
 21
199.098
 31
0.0
  0
LINE
  5
1A2
330
1E
100
AcDbEntity
  8
0
100
AcDbLine
 10
59.0
 20
194.8979999999999
 30
0.0
 11
59.0
 21
190.0979999999999
 31
0.0
  0
LINE
  5
1A3
330
1E
100
AcDbEntity
  8
0
100
AcDbLine
 10
44.29999999999999
 20
194.8979999999999
 30
0.0
 11
46.29999999999999
 21
190.0979999999999
 31
0.0
  0
LINE
  5
1A4
330
1E
100
AcDbEntity
  8
0
100
AcDbLine
 10
86.90000000000001
 20
194.798
 30
0.0
 11
87.0
 21
193.998
 31
0.0
  0
LINE
  5
1A5
330
1E
100
AcDbEntity
  8
0
100
AcDbLine
 10
94.4243049382716
 20
192.8029999999999
 30
0.0
 11
94.762
 21
192.8029999999999
 31
0.0
  0
LINE
  5
1A6
330
1E
100
AcDbEntity
  8
0
100
AcDbLine
 10
94.71200000000001
 20
193.547
 30
0.0
 11
94.71700000000002
 21
193.307
 31
0.0
  0
LINE
  5
1A7
330
1E
100
AcDbEntity
  8
0
100
AcDbLine
 10
94.71700000000002
 20
193.307
 30
0.0
 11
94.725
 21
193.0949999999999
 31
0.0
  0
LINE
  5
1A8
330
1E
100
AcDbEntity
  8
0
100
AcDbLine
 10
94.71
 20
193.8029999999999
 30
0.0
 11
94.71200000000001
 21
194.059
 31
0.0
  0
LINE
  5
1A9
330
1E
100
AcDbEntity
  8
0
100
AcDbLine
 10
94.71
 20
193.8029999999999
 30
0.0
 11
94.71200000000001
 21
193.547
 31
0.0
  0
LINE
  5
1AA
330
1E
100
AcDbEntity
  8
0
100
AcDbLine
 10
94.71200000000001
 20
194.059
 30
0.0
 11
94.71700000000002
 21
194.299
 31
0.0
  0
LINE
  5
1AB
330
1E
100
AcDbEntity
  8
0
100
AcDbLine
 10
94.725
 20
193.0949999999999
 30
0.0
 11
94.73600000000001
 21
192.935
 31
0.0
  0
LINE
  5
1AC
330
1E
100
AcDbEntity
  8
0
100
AcDbLine
 10
94.73600000000001
 20
192.935
 30
0.0
 11
94.74899999999999
 21
192.839
 31
0.0
  0
LINE
  5
1AD
330
1E
100
AcDbEntity
  8
0
100
AcDbLine
 10
94.71700000000002
 20
194.299
 30
0.0
 11
94.725
 21
194.5109999999999
 31
0.0
  0
LINE
  5
1AE
330
1E
100
AcDbEntity
  8
0
100
AcDbLine
 10
94.725
 20
194.5109999999999
 30
0.0
 11
94.73600000000001
 21
194.6709999999999
 31
0.0
  0
LINE
  5
1AF
330
1E
100
AcDbEntity
  8
0
100
AcDbLine
 10
94.73600000000001
 20
194.6709999999999
 30
0.0
 11
94.74899999999999
 21
194.767
 31
0.0
  0
LINE
  5
1B0
330
1E
100
AcDbEntity
  8
0
100
AcDbLine
 10
94.5214888888889
 20
194.8029999999999
 30
0.0
 11
94.762
 21
194.8029999999999
 31
0.0
  0
LINE
  5
1B1
330
1E
100
AcDbEntity
  8
0
100
AcDbLine
 10
94.78799999999999
 20
194.6709999999999
 30
0.0
 11
94.79899999999998
 21
194.5109999999999
 31
0.0
  0
LINE
  5
1B2
330
1E
100
AcDbEntity
  8
0
100
AcDbLine
 10
94.775
 20
194.767
 30
0.0
 11
94.78799999999999
 21
194.6709999999999
 31
0.0
  0
LINE
  5
1B3
330
1E
100
AcDbEntity
  8
0
100
AcDbLine
 10
94.807
 20
194.299
 30
0.0
 11
94.81200000000001
 21
194.059
 31
0.0
  0
LINE
  5
1B4
330
1E
100
AcDbEntity
  8
0
100
AcDbLine
 10
94.79899999999998
 20
194.5109999999999
 30
0.0
 11
94.807
 21
194.299
 31
0.0
  0
LINE
  5
1B5
330
1E
100
AcDbEntity
  8
0
100
AcDbLine
 10
94.81200000000001
 20
194.059
 30
0.0
 11
94.81399999999998
 21
193.8029999999999
 31
0.0
  0
LINE
  5
1B6
330
1E
100
AcDbEntity
  8
0
100
AcDbLine
 10
94.81200000000001
 20
193.547
 30
0.0
 11
94.81399999999998
 21
193.8029999999999
 31
0.0
  0
LINE
  5
1B7
330
1E
100
AcDbEntity
  8
0
100
AcDbLine
 10
94.807
 20
193.307
 30
0.0
 11
94.81200000000001
 21
193.547
 31
0.0
  0
LINE
  5
1B8
330
1E
100
AcDbEntity
  8
0
100
AcDbLine
 10
94.79899999999998
 20
193.0949999999999
 30
0.0
 11
94.807
 21
193.307
 31
0.0
  0
LINE
  5
1B9
330
1E
100
AcDbEntity
  8
0
100
AcDbLine
 10
94.78799999999999
 20
192.935
 30
0.0
 11
94.79899999999998
 21
193.0949999999999
 31
0.0
  0
LINE
  5
1BA
330
1E
100
AcDbEntity
  8
0
100
AcDbLine
 10
94.775
 20
192.839
 30
0.0
 11
94.78799999999999
 21
192.935
 31
0.0
  0
LINE
  5
1BB
330
1E
100
AcDbEntity
  8
0
100
AcDbLine
 10
94.7550964444445
 20
192.8029999999999
 30
0.0
 11
95.0
 21
184.998
 31
0.0
  0
LINE
  5
1BC
330
1E
100
AcDbEntity
  8
0
100
AcDbLine
 10
93.87
 20
194.8229999999999
 30
0.0
 11
93.87
 21
199.248
 31
0.0
  0
LINE
  5
1BD
330
1E
100
AcDbEntity
  8
0
100
AcDbLine
 10
93.87
 20
194.8229999999999
 30
0.0
 11
93.87
 21
189.723
 31
0.0
  0
LINE
  5
1BE
330
1E
100
AcDbEntity
  8
0
100
AcDbLine
 10
58.0
 20
195.3979999999999
 30
0.0
 11
58.0
 21
199.798
 31
0.0
  0
LINE
  5
1BF
330
1E
100
AcDbEntity
  8
0
100
AcDbLine
 10
58.0
 20
195.3979999999999
 30
0.0
 11
58.0
 21
190.3979999999999
 31
0.0
  0
LINE
  5
1C0
330
1E
100
AcDbEntity
  8
0
100
AcDbLine
 10
8.8
 20
195.3979999999999
 30
0.0
 11
12.19999999999999
 21
199.798
 31
0.0
  0
LINE
  5
1C1
330
1E
100
AcDbEntity
  8
0
100
AcDbLine
 10
29.8
 20
195.6049999999999
 30
0.0
 11
32.5
 21
194.523
 31
0.0
  0
LINE
  5
1C2
330
1E
100
AcDbEntity
  8
0
100
AcDbLine
 10
27.0
 20
195.998
 30
0.0
 11
29.8
 21
195.6049999999999
 31
0.0
  0
LINE
  5
1C3
330
1E
100
AcDbEntity
  8
0
100
AcDbLine
 10
24.19999999999999
 20
195.6049999999999
 30
0.0
 11
27.0
 21
195.998
 31
0.0
  0
LINE
  5
1C4
330
1E
100
AcDbEntity
  8
0
100
AcDbLine
 10
45.2
 20
195.3979999999999
 30
0.0
 11
47.2
 21
190.3979999999999
 31
0.0
  0
LINE
  5
1C5
330
1E
100
AcDbEntity
  8
0
100
AcDbLine
 10
81.4
 20
195.4979999999999
 30
0.0
 11
81.90000000000001
 21
196.0979999999999
 31
0.0
  0
LINE
  5
1C6
330
1E
100
AcDbEntity
  8
0
100
AcDbLine
 10
81.90000000000001
 20
196.0979999999999
 30
0.0
 11
82.5
 21
196.5979999999999
 31
0.0
  0
LINE
  5
1C7
330
1E
100
AcDbEntity
  8
0
100
AcDbLine
 10
86.6
 20
195.4979999999999
 30
0.0
 11
86.90000000000001
 21
194.798
 31
0.0
  0
LINE
  5
1C8
330
1E
100
AcDbEntity
  8
0
100
AcDbLine
 10
86.09999999999999
 20
196.0979999999999
 30
0.0
 11
86.6
 21
195.4979999999999
 31
0.0
  0
LINE
  5
1C9
330
1E
100
AcDbEntity
  8
0
100
AcDbLine
 10
82.5
 20
196.5979999999999
 30
0.0
 11
83.2
 21
196.8979999999999
 31
0.0
  0
LINE
  5
1CA
330
1E
100
AcDbEntity
  8
0
100
AcDbLine
 10
83.2
 20
196.8979999999999
 30
0.0
 11
84.0
 21
196.9979999999999
 31
0.0
  0
LINE
  5
1CB
330
1E
100
AcDbEntity
  8
0
100
AcDbLine
 10
85.5
 20
196.5979999999999
 30
0.0
 11
86.09999999999999
 21
196.0979999999999
 31
0.0
  0
LINE
  5
1CC
330
1E
100
AcDbEntity
  8
0
100
AcDbLine
 10
84.8
 20
196.8979999999999
 30
0.0
 11
85.5
 21
196.5979999999999
 31
0.0
  0
LINE
  5
1CD
330
1E
100
AcDbEntity
  8
0
100
AcDbLine
 10
84.0
 20
196.9979999999999
 30
0.0
 11
84.8
 21
196.8979999999999
 31
0.0
  0
LINE
  5
1CE
330
1E
100
AcDbEntity
  8
0
100
AcDbLine
 10
94.647
 20
196.248
 30
0.0
 11
94.69234088888891
 21
194.8029999999999
 31
0.0
  0
LINE
  5
1CF
330
1E
100
AcDbEntity
  8
0
100
AcDbLine
 10
61.19399999999999
 20
195.0479999999999
 30
0.0
 11
61.424
 21
199.6229999999999
 31
0.0
  0
LINE
  5
1D0
330
1E
100
AcDbEntity
  8
0
100
AcDbLine
 10
59.0
 20
194.9239999999999
 30
0.0
 11
59.0
 21
190.1829999999999
 31
0.0
  0
LINE
  5
1D1
330
1E
100
AcDbEntity
  8
0
100
AcDbLine
 10
8.4
 20
195.6979999999999
 30
0.0
 11
11.8
 21
200.1979999999999
 31
0.0
  0
LINE
  5
1D2
330
1E
100
AcDbEntity
  8
0
100
AcDbLine
 10
6.299999999999999
 20
190.4979999999999
 30
0.0
 11
8.4
 21
195.6979999999999
 31
0.0
  0
LINE
  5
1D3
330
1E
100
AcDbEntity
  8
0
100
AcDbLine
 10
5.5
 20
184.998
 30
0.0
 11
6.299999999999999
 21
190.4979999999999
 31
0.0
  0
LINE
  5
1D4
330
1E
100
AcDbEntity
  8
0
100
AcDbLine
 10
5.5
 20
184.998
 30
0.0
 11
6.299999999999999
 21
179.4979999999999
 31
0.0
  0
LINE
  5
1D5
330
1E
100
AcDbEntity
  8
0
100
AcDbLine
 10
4.0
 20
198.1979999999999
 30
0.0
 11
8.3
 21
203.6979999999999
 31
0.0
  0
LINE
  5
1D6
330
1E
100
AcDbEntity
  8
0
100
AcDbLine
 10
1.5
 20
191.798
 30
0.0
 11
4.0
 21
198.1979999999999
 31
0.0
  0
LINE
  5
1D7
330
1E
100
AcDbEntity
  8
0
100
AcDbLine
 10
12.9
 20
199.098
 30
0.0
 11
17.1
 21
202.298
 31
0.0
  0
LINE
  5
1D8
330
1E
100
AcDbEntity
  8
0
100
AcDbLine
 10
59.0
 20
199.098
 30
0.0
 11
59.0
 21
202.298
 31
0.0
  0
LINE
  5
1D9
330
1E
100
AcDbEntity
  8
0
100
AcDbLine
 10
59.0
 20
199.098
 30
0.0
 11
59.0
 21
194.8979999999999
 31
0.0
  0
LINE
  5
1DA
330
1E
100
AcDbEntity
  8
0
100
AcDbLine
 10
58.0
 20
199.798
 30
0.0
 11
58.0
 21
203.1979999999999
 31
0.0
  0
LINE
  5
1DB
330
1E
100
AcDbEntity
  8
0
100
AcDbLine
 10
58.0
 20
199.798
 30
0.0
 11
58.0
 21
195.3979999999999
 31
0.0
  0
LINE
  5
1DC
330
1E
100
AcDbEntity
  8
0
100
AcDbLine
 10
41.1
 20
199.098
 30
0.0
 11
44.29999999999999
 21
194.8979999999999
 31
0.0
  0
LINE
  5
1DD
330
1E
100
AcDbEntity
  8
0
100
AcDbLine
 10
17.1
 20
202.298
 30
0.0
 11
21.89999999999999
 21
204.298
 31
0.0
  0
LINE
  5
1DE
330
1E
100
AcDbEntity
  8
0
100
AcDbLine
 10
59.0
 20
202.298
 30
0.0
 11
59.0
 21
204.298
 31
0.0
  0
LINE
  5
1DF
330
1E
100
AcDbEntity
  8
0
100
AcDbLine
 10
59.0
 20
202.298
 30
0.0
 11
59.0
 21
199.098
 31
0.0
  0
LINE
  5
1E0
330
1E
100
AcDbEntity
  8
0
100
AcDbLine
 10
36.89999999999999
 20
202.298
 30
0.0
 11
41.1
 21
199.098
 31
0.0
  0
LINE
  5
1E1
330
1E
100
AcDbEntity
  8
0
100
AcDbLine
 10
41.79999999999999
 20
199.798
 30
0.0
 11
45.2
 21
195.3979999999999
 31
0.0
  0
LINE
  5
1E2
330
1E
100
AcDbEntity
  8
0
100
AcDbLine
 10
93.87
 20
199.248
 30
0.0
 11
93.87
 21
202.698
 31
0.0
  0
LINE
  5
1E3
330
1E
100
AcDbEntity
  8
0
100
AcDbLine
 10
93.87
 20
199.248
 30
0.0
 11
93.87
 21
194.8229999999999
 31
0.0
  0
LINE
  5
1E4
330
1E
100
AcDbEntity
  8
0
100
AcDbLine
 10
61.424
 20
199.6229999999999
 30
0.0
 11
61.728
 21
203.0729999999999
 31
0.0
  0
LINE
  5
1E5
330
1E
100
AcDbEntity
  8
0
100
AcDbLine
 10
59.0
 20
199.146
 30
0.0
 11
59.0
 21
194.9239999999999
 31
0.0
  0
LINE
  5
1E6
330
1E
100
AcDbEntity
  8
0
100
AcDbLine
 10
58.0
 20
203.1979999999999
 30
0.0
 11
58.0
 21
205.1979999999999
 31
0.0
  0
LINE
  5
1E7
330
1E
100
AcDbEntity
  8
0
100
AcDbLine
 10
58.0
 20
203.1979999999999
 30
0.0
 11
58.0
 21
199.798
 31
0.0
  0
LINE
  5
1E8
330
1E
100
AcDbEntity
  8
0
100
AcDbLine
 10
16.6
 20
203.1979999999999
 30
0.0
 11
21.6
 21
205.1979999999999
 31
0.0
  0
LINE
  5
1E9
330
1E
100
AcDbEntity
  8
0
100
AcDbLine
 10
37.4
 20
203.1979999999999
 30
0.0
 11
41.79999999999999
 21
199.798
 31
0.0
  0
LINE
  5
1EA
330
1E
100
AcDbEntity
  8
0
100
AcDbLine
 10
93.87
 20
202.698
 30
0.0
 11
93.87
 21
204.7979999999999
 31
0.0
  0
LINE
  5
1EB
330
1E
100
AcDbEntity
  8
0
100
AcDbLine
 10
93.87
 20
202.698
 30
0.0
 11
93.87
 21
199.248
 31
0.0
  0
LINE
  5
1EC
330
1E
100
AcDbEntity
  8
0
100
AcDbLine
 10
61.728
 20
203.0729999999999
 30
0.0
 11
62.072
 21
205.248
 31
0.0
  0
LINE
  5
1ED
330
1E
100
AcDbEntity
  8
0
100
AcDbLine
 10
59.0
 20
202.3309999999999
 30
0.0
 11
59.0
 21
199.146
 31
0.0
  0
LINE
  5
1EE
330
1E
100
AcDbEntity
  8
0
100
AcDbLine
 10
12.19999999999999
 20
199.798
 30
0.0
 11
16.6
 21
203.1979999999999
 31
0.0
  0
LINE
  5
1EF
330
1E
100
AcDbEntity
  8
0
100
AcDbLine
 10
21.89999999999999
 20
204.298
 30
0.0
 11
27.0
 21
204.998
 31
0.0
  0
LINE
  5
1F0
330
1E
100
AcDbEntity
  8
0
100
AcDbLine
 10
27.0
 20
204.998
 30
0.0
 11
32.1
 21
204.298
 31
0.0
  0
LINE
  5
1F1
330
1E
100
AcDbEntity
  8
0
100
AcDbLine
 10
32.1
 20
204.298
 30
0.0
 11
36.89999999999999
 21
202.298
 31
0.0
  0
LINE
  5
1F2
330
1E
100
AcDbEntity
  8
0
100
AcDbLine
 10
59.0
 20
204.298
 30
0.0
 11
59.0
 21
204.998
 31
0.0
  0
LINE
  5
1F3
330
1E
100
AcDbEntity
  8
0
100
AcDbLine
 10
59.0
 20
204.298
 30
0.0
 11
59.0
 21
202.298
 31
0.0
  0
LINE
  5
1F4
330
1E
100
AcDbEntity
  8
0
100
AcDbLine
 10
58.0
 20
205.1979999999999
 30
0.0
 11
58.0
 21
205.9979999999999
 31
0.0
  0
LINE
  5
1F5
330
1E
100
AcDbEntity
  8
0
100
AcDbLine
 10
58.0
 20
205.1979999999999
 30
0.0
 11
58.0
 21
203.1979999999999
 31
0.0
  0
LINE
  5
1F6
330
1E
100
AcDbEntity
  8
0
100
AcDbLine
 10
32.4
 20
205.1979999999999
 30
0.0
 11
37.4
 21
203.1979999999999
 31
0.0
  0
LINE
  5
1F7
330
1E
100
AcDbEntity
  8
0
100
AcDbLine
 10
59.0
 20
204.2569999999999
 30
0.0
 11
59.0
 21
202.3309999999999
 31
0.0
  0
LINE
  5
1F8
330
1E
100
AcDbEntity
  8
0
100
AcDbLine
 10
94.29399999999999
 20
204.4979999999999
 30
0.0
 11
94.647
 21
196.248
 31
0.0
  0
LINE
  5
1F9
330
1E
100
AcDbEntity
  8
0
100
AcDbLine
 10
93.87
 20
204.7979999999999
 30
0.0
 11
93.87
 21
205.548
 31
0.0
  0
LINE
  5
1FA
330
1E
100
AcDbEntity
  8
0
100
AcDbLine
 10
93.87
 20
204.7979999999999
 30
0.0
 11
93.87
 21
202.698
 31
0.0
  0
LINE
  5
1FB
330
1E
100
AcDbEntity
  8
0
100
AcDbLine
 10
59.593
 20
204.998
 30
0.0
 11
61.99450806931171
 21
204.7580437521889
 31
0.0
  0
LINE
  5
1FC
330
1E
100
AcDbEntity
  8
0
100
AcDbLine
 10
59.0
 20
204.998
 30
0.0
 11
59.0
 21
204.298
 31
0.0
  0
LINE
  5
1FD
330
1E
100
AcDbEntity
  8
0
100
AcDbLine
 10
59.0
 20
204.998
 30
0.0
 11
59.593
 21
204.998
 31
0.0
  0
LINE
  5
1FE
330
1E
100
AcDbEntity
  8
0
100
AcDbLine
 10
58.0
 20
205.9979999999999
 30
0.0
 11
58.0
 21
205.1979999999999
 31
0.0
  0
LINE
  5
1FF
330
1E
100
AcDbEntity
  8
0
100
AcDbLine
 10
58.0
 20
205.9979999999999
 30
0.0
 11
59.0
 21
204.998
 31
0.0
  0
LINE
  5
206
330
1E
100
AcDbEntity
  8
0
100
AcDbLine
 10
29.50795717424469
 20
206.133206229201
 30
0.0
 11
30.4374999999999
 21
205.9979999999999
 31
0.0
  0
LINE
  5
207
330
1E
100
AcDbEntity
  8
0
100
AcDbLine
 10
40.2
 20
207.9979999999999
 30
0.0
 11
42.7581395348837
 21
205.9979999999999
 31
0.0
  0
LINE
  5
208
330
1E
100
AcDbEntity
  8
0
100
AcDbLine
 10
27.0
 20
205.9979999999999
 30
0.0
 11
32.4
 21
205.1979999999999
 31
0.0
  0
LINE
  5
209
330
1E
100
AcDbEntity
  8
0
100
AcDbLine
 10
27.0
 20
205.9979999999999
 30
0.0
 11
58.0
 21
205.9979999999999
 31
0.0
  0
LINE
  5
20A
330
1E
100
AcDbEntity
  8
0
100
AcDbLine
 10
93.87
 20
205.548
 30
0.0
 11
93.87
 21
204.7979999999999
 31
0.0
  0
LINE
  5
20B
330
1E
100
AcDbEntity
  8
0
100
AcDbLine
 10
93.87
 20
205.548
 30
0.0
 11
94.29399999999999
 21
204.4979999999999
 31
0.0
  0
LINE
  5
20C
330
1E
100
AcDbEntity
  8
0
100
AcDbLine
 10
92.88200000000001
 20
205.9979999999999
 30
0.0
 11
93.87
 21
205.548
 31
0.0
  0
LINE
  5
20D
330
1E
100
AcDbEntity
  8
0
100
AcDbLine
 10
62.396
 20
205.9979999999999
 30
0.0
 11
92.88200000000001
 21
205.9979999999999
 31
0.0
  0
LINE
  5
20E
330
1E
100
AcDbEntity
  8
0
100
AcDbLine
 10
62.072
 20
205.248
 30
0.0
 11
62.396
 21
205.9979999999999
 31
0.0
  0
LINE
  5
20F
330
1E
100
AcDbEntity
  8
0
100
AcDbLine
 10
21.6
 20
205.1979999999999
 30
0.0
 11
24.5089283201491
 21
205.628952343726
 31
0.0
  0
LINE
  5
210
330
1E
100
AcDbEntity
  8
0
100
AcDbLine
 10
21.6
 20
205.1979999999999
 30
0.0
 11
27.0
 21
205.9979999999999
 31
0.0
  0
LINE
  5
211
330
1E
100
AcDbEntity
  8
0
100
AcDbLine
 10
21.49999999999999
 20
205.6979999999999
 30
0.0
 11
24.5079337761168
 21
206.135517640162
 31
0.0
  0
LINE
  5
212
330
1E
100
AcDbEntity
  8
0
100
AcDbLine
 10
16.3
 20
203.5979999999999
 30
0.0
 11
21.49999999999999
 21
205.6979999999999
 31
0.0
  0
LINE
  5
213
330
1E
100
AcDbEntity
  8
0
100
AcDbLine
 10
11.8
 20
200.1979999999999
 30
0.0
 11
16.3
 21
203.5979999999999
 31
0.0
  0
LINE
  5
218
330
1E
100
AcDbEntity
  8
0
100
AcDbLine
 10
40.4
 20
208.3979999999999
 30
0.0
 11
43.4545454545455
 21
205.9979999999999
 31
0.0
  0
LINE
  5
219
330
1E
100
AcDbEntity
  8
0
100
AcDbLine
 10
13.8
 20
207.9979999999999
 30
0.0
 11
20.2
 21
210.4979999999999
 31
0.0
  0
LINE
  5
21A
330
1E
100
AcDbEntity
  8
0
100
AcDbLine
 10
8.3
 20
203.6979999999999
 30
0.0
 11
13.8
 21
207.9979999999999
 31
0.0
  0
LINE
  5
225
330
1E
100
AcDbEntity
  8
0
100
AcDbLine
 10
33.79999999999999
 20
210.4979999999999
 30
0.0
 11
40.2
 21
207.9979999999999
 31
0.0
  0
LINE
  5
230
330
1E
100
AcDbEntity
  8
0
100
AcDbLine
 10
29.5001812806158
 20
211.635654886867
 30
0.0
 11
33.9
 21
210.9979999999999
 31
0.0
  0
LINE
  5
231
330
1E
100
AcDbEntity
  8
0
100
AcDbLine
 10
29.5000221322871
 20
211.1303496864279
 30
0.0
 11
33.79999999999999
 21
210.4979999999999
 31
0.0
  0
LINE
  5
241
330
1E
100
AcDbEntity
  8
0
100
AcDbLine
 10
29.5001812806158
 20
211.635654886867
 30
0.0
 11
33.9
 21
210.9979999999999
 31
0.0
  0
LINE
  5
242
330
1E
100
AcDbEntity
  8
0
100
AcDbLine
 10
33.9
 20
210.9979999999999
 30
0.0
 11
40.4
 21
208.3979999999999
 31
0.0
  0
LINE
  5
243
330
1E
100
AcDbEntity
  8
0
100
AcDbLine
 10
20.2
 20
210.4979999999999
 30
0.0
 11
24.5000212932926
 21
211.130356072543
 31
0.0
  0
LINE
  5
244
330
1E
100
AcDbEntity
  8
0
100
AcDbLine
 10
20.1
 20
210.9979999999999
 30
0.0
 11
24.5001788976378
 21
211.6357070866139
 31
0.0
  0
LINE
  5
245
330
1E
100
AcDbEntity
  8
0
100
AcDbLine
 10
13.6
 20
208.3979999999999
 30
0.0
 11
20.1
 21
210.9979999999999
 31
0.0
  0
LINE
  5
246
330
1E
100
AcDbEntity
  8
0
100
AcDbLine
 10
8.0
 20
203.9979999999999
 30
0.0
 11
13.6
 21
208.3979999999999
 31
0.0
  0
LINE
  5
247
330
1E
100
AcDbEntity
  8
0
100
AcDbLine
 10
3.6
 20
198.398
 30
0.0
 11
8.0
 21
203.9979999999999
 31
0.0
  0
LINE
  5
248
330
1E
100
AcDbEntity
  8
0
100
AcDbLine
 10
1.0
 20
191.8979999999999
 30
0.0
 11
3.6
 21
198.398
 31
0.0
  0
LINE
  5
24D
330
1E
100
AcDbEntity
  8
0
100
AcDbLine
 10
84.0
 20
173.002
 30
0.0
 11
84.8
 21
173.102
 31
0.0
  0
LINE
  5
24E
330
1E
100
AcDbEntity
  8
0
100
AcDbLine
 10
82.5
 20
173.402
 30
0.0
 11
83.2
 21
173.102
 31
0.0
  0
LINE
  5
24F
330
1E
100
AcDbEntity
  8
0
100
AcDbLine
 10
81.4
 20
174.502
 30
0.0
 11
81.90000000000001
 21
173.902
 31
0.0
  0
LINE
  5
250
330
1E
100
AcDbEntity
  8
0
100
AcDbLine
 10
81.09999999999999
 20
175.2019999999999
 30
0.0
 11
81.4
 21
174.502
 31
0.0
  0
LINE
  5
251
330
1E
100
AcDbEntity
  8
0
100
AcDbLine
 10
81.0
 20
176.002
 30
0.0
 11
81.0
 21
176.102
 31
0.0
  0
LINE
  5
252
330
1E
100
AcDbEntity
  8
0
100
AcDbLine
 10
81.0
 20
176.002
 30
0.0
 11
81.09999999999999
 21
175.2019999999999
 31
0.0
  0
LINE
  5
253
330
1E
100
AcDbEntity
  8
0
100
AcDbLine
 10
81.0
 20
176.102
 30
0.0
 11
81.0
 21
176.002
 31
0.0
  0
LINE
  5
254
330
1E
100
AcDbEntity
  8
0
100
AcDbLine
 10
81.90000000000001
 20
173.902
 30
0.0
 11
82.5
 21
173.402
 31
0.0
  0
LINE
  5
255
330
1E
100
AcDbEntity
  8
0
100
AcDbLine
 10
83.2
 20
173.102
 30
0.0
 11
84.0
 21
173.002
 31
0.0
  0
LINE
  5
256
330
1E
100
AcDbEntity
  8
0
100
AcDbLine
 10
86.09999999999999
 20
173.902
 30
0.0
 11
86.6
 21
174.502
 31
0.0
  0
LINE
  5
257
330
1E
100
AcDbEntity
  8
0
100
AcDbLine
 10
85.5
 20
173.402
 30
0.0
 11
86.09999999999999
 21
173.902
 31
0.0
  0
LINE
  5
258
330
1E
100
AcDbEntity
  8
0
100
AcDbLine
 10
84.8
 20
173.102
 30
0.0
 11
85.5
 21
173.402
 31
0.0
  0
LINE
  5
259
330
1E
100
AcDbEntity
  8
0
100
AcDbLine
 10
86.6
 20
174.502
 30
0.0
 11
86.90000000000001
 21
175.2019999999999
 31
0.0
  0
LINE
  5
25A
330
1E
100
AcDbEntity
  8
0
100
AcDbLine
 10
86.90000000000001
 20
175.2019999999999
 30
0.0
 11
87.0
 21
176.002
 31
0.0
  0
LINE
  5
25B
330
1E
100
AcDbEntity
  8
0
100
AcDbLine
 10
87.0
 20
176.002
 30
0.0
 11
87.0
 21
176.102
 31
0.0
  0
LINE
  5
25C
330
1E
100
AcDbEntity
  8
0
100
AcDbLine
 10
87.0
 20
176.102
 30
0.0
 11
87.0
 21
176.002
 31
0.0
  0
LINE
  5
284
330
1E
100
AcDbEntity
  8
0
100
AcDbLine
 10
24.5001788976378
 20
211.6357070866139
 30
0.0
 11
27.00289200104862
 21
211.8474659602926
 31
0.0
  0
LINE
  5
285
330
1E
100
AcDbEntity
  8
0
100
AcDbLine
 10
27.00289200104862
 20
211.8474659602926
 30
0.0
 11
29.5001812806158
 21
211.635654886867
 31
0.0
  0
LINE
  5
286
330
1E
100
AcDbEntity
  8
0
100
AcDbLine
 10
24.5000212932926
 20
211.130356072543
 30
0.0
 11
27.12918321651363
 21
211.342635086605
 31
0.0
  0
LINE
  5
287
330
1E
100
AcDbEntity
  8
0
100
AcDbLine
 10
27.12918321651363
 20
211.342635086605
 30
0.0
 11
29.5000221322871
 21
211.1303496864279
 31
0.0
  0
LINE
  5
288
330
1E
100
AcDbEntity
  8
0
100
AcDbLine
 10
24.5079337761168
 20
206.135517640162
 30
0.0
 11
27.10392540638077
 21
206.420534719226
 31
0.0
  0
LINE
  5
289
330
1E
100
AcDbEntity
  8
0
100
AcDbLine
 10
27.10392540638077
 20
206.420534719226
 30
0.0
 11
29.50795717424469
 21
206.133206229201
 31
0.0
  0
ENDSEC
  0
SECTION
  2
OBJECTS
  0
DICTIONARY
  5
C
330
0
100
AcDbDictionary
  3
ACAD_GROUP
350
D
  3
ACAD_LAYOUT
350
19
  3
ACAD_MLINESTYLE
350
16
  3
ACAD_PLOTSETTINGS
350
18
  3
ACAD_PLOTSTYLENAME
350
E
  3
ACDBHEADERROUNDTRIPXREC
350
28B
  3
ACDBVARIABLEDICTIONARY
350
25D
  0
DICTIONARY
  5
2AD
330
1E
100
AcDbDictionary
280
     1
  3
ACAD_LAYOUTSELFREF
360
2AE
  0
DICTIONARY
  5
2AB
330
1A
100
AcDbDictionary
280
     1
  3
ACAD_LAYOUTSELFREF
360
2AC
  0
DICTIONARY
  5
D
102
{ACAD_REACTORS
330
C
102
}
330
C
100
AcDbDictionary
  0
DICTIONARY
  5
19
102
{ACAD_REACTORS
330
C
102
}
330
C
100
AcDbDictionary
  0
DICTIONARY
  5
16
102
{ACAD_REACTORS
330
C
102
}
330
C
100
AcDbDictionary
  3
STANDARD
350
17
  0
DICTIONARY
  5
18
102
{ACAD_REACTORS
330
C
102
}
330
C
100
AcDbDictionary
  0
ACDBDICTIONARYWDFLT
  5
E
102
{ACAD_REACTORS
330
C
102
}
330
C
100
AcDbDictionary
281
     1
  3
Normal
350
F
100
AcDbDictionaryWithDefault
340
F
  0
DICTIONARY
  5
28B
102
{ACAD_REACTORS
330
C
102
}
330
C
100
AcDbDictionary
  3
CEPSNTYPE
350
295
  3
FINGERPRINTGUID
350
296
  3
HYPERLINKBASE
350
28E
  3
INSUNITS
350
294
  3
LAYOUTDICT
350
290
  3
LWETCUNION
350
293
  3
PLOTSETDICT
350
291
  3
PLOTSTYLNAMDICT
350
292
  3
PSVPSCALE
350
298
  3
PUCSBASE
350
29B
  3
PUCSORGBACK
350
2A1
  3
PUCSORGBOTTOM
350
29D
  3
PUCSORGFRONT
350
2A0
  3
PUCSORGLEFT
350
29E
  3
PUCSORGRIGHT
350
29F
  3
PUCSORGTOP
350
29C
  3
PUCSORTHOREF
350
299
  3
PUCSORTHOVIEW
350
29A
  3
STYLESHEET
350
28F
  3
TSTACKALIGN
350
28C
  3
TSTACKSIZE
350
28D
  3
UCSBASE
350
2A4
  3
UCSORGBACK
350
2AA
  3
UCSORGBOTTOM
350
2A6
  3
UCSORGFRONT
350
2A9
  3
UCSORGLEFT
350
2A7
  3
UCSORGRIGHT
350
2A8
  3
UCSORGTOP
350
2A5
  3
UCSORTHOREF
350
2A2
  3
UCSORTHOVIEW
350
2A3
  3
VERSIONGUID
350
297
  0
DICTIONARY
  5
25D
102
{ACAD_REACTORS
330
C
102
}
330
C
100
AcDbDictionary
  3
DIMASSOC
350
25E
  0
XRECORD
  5
2AE
102
{ACAD_REACTORS
330
2AD
102
}
330
2AD
100
AcDbXrecord
340
1E
  0
XRECORD
  5
2AC
102
{ACAD_REACTORS
330
2AB
102
}
330
2AB
100
AcDbXrecord
340
1A
  0
MLINESTYLE
  5
17
102
{ACAD_REACTORS
330
16
102
}
330
16
100
AcDbMlineStyle
  2
STANDARD
 70
     0
  3

 62
   256
 51
90.0
 52
90.0
 71
     2
 49
0.5
 62
   256
  6
BYLAYER
 49
-0.5
 62
   256
  6
BYLAYER
  0
ACDBPLACEHOLDER
  5
F
102
{ACAD_REACTORS
330
E
102
}
330
E
100
AcDbPlaceHolder
280
     0
  0
XRECORD
  5
295
102
{ACAD_REACTORS
330
28B
102
}
330
28B
100
AcDbXrecord
 90
        0
  0
XRECORD
  5
296
102
{ACAD_REACTORS
330
28B
102
}
330
28B
100
AcDbXrecord
  1
{905A7965-3268-435E-B6EB-7AB0F57EA91E}
  0
XRECORD
  5
28E
102
{ACAD_REACTORS
330
28B
102
}
330
28B
100
AcDbXrecord
  1

  0
XRECORD
  5
294
102
{ACAD_REACTORS
330
28B
102
}
330
28B
100
AcDbXrecord
 90
        0
  0
XRECORD
  5
290
102
{ACAD_REACTORS
330
28B
102
}
330
28B
100
AcDbXrecord
340
19
  0
XRECORD
  5
293
102
{ACAD_REACTORS
330
28B
102
}
330
28B
100
AcDbXrecord
 90
    10781
  0
XRECORD
  5
291
102
{ACAD_REACTORS
330
28B
102
}
330
28B
100
AcDbXrecord
340
18
  0
XRECORD
  5
292
102
{ACAD_REACTORS
330
28B
102
}
330
28B
100
AcDbXrecord
340
E
  0
XRECORD
  5
298
102
{ACAD_REACTORS
330
28B
102
}
330
28B
100
AcDbXrecord
 40
0.0
  0
XRECORD
  5
29B
102
{ACAD_REACTORS
330
28B
102
}
330
28B
100
AcDbXrecord
340
0
  0
XRECORD
  5
2A1
102
{ACAD_REACTORS
330
28B
102
}
330
28B
100
AcDbXrecord
 10
0.0
 20
0.0
 30
0.0
  0
XRECORD
  5
29D
102
{ACAD_REACTORS
330
28B
102
}
330
28B
100
AcDbXrecord
 10
0.0
 20
0.0
 30
0.0
  0
XRECORD
  5
2A0
102
{ACAD_REACTORS
330
28B
102
}
330
28B
100
AcDbXrecord
 10
0.0
 20
0.0
 30
0.0
  0
XRECORD
  5
29E
102
{ACAD_REACTORS
330
28B
102
}
330
28B
100
AcDbXrecord
 10
0.0
 20
0.0
 30
0.0
  0
XRECORD
  5
29F
102
{ACAD_REACTORS
330
28B
102
}
330
28B
100
AcDbXrecord
 10
0.0
 20
0.0
 30
0.0
  0
XRECORD
  5
29C
102
{ACAD_REACTORS
330
28B
102
}
330
28B
100
AcDbXrecord
 10
0.0
 20
0.0
 30
0.0
  0
XRECORD
  5
299
102
{ACAD_REACTORS
330
28B
102
}
330
28B
100
AcDbXrecord
340
0
  0
XRECORD
  5
29A
102
{ACAD_REACTORS
330
28B
102
}
330
28B
100
AcDbXrecord
 70
     0
  0
XRECORD
  5
28F
102
{ACAD_REACTORS
330
28B
102
}
330
28B
100
AcDbXrecord
  1

  0
XRECORD
  5
28C
102
{ACAD_REACTORS
330
28B
102
}
330
28B
100
AcDbXrecord
 90
        1
  0
XRECORD
  5
28D
102
{ACAD_REACTORS
330
28B
102
}
330
28B
100
AcDbXrecord
 90
       70
  0
XRECORD
  5
2A4
102
{ACAD_REACTORS
330
28B
102
}
330
28B
100
AcDbXrecord
340
0
  0
XRECORD
  5
2AA
102
{ACAD_REACTORS
330
28B
102
}
330
28B
100
AcDbXrecord
 10
0.0
 20
0.0
 30
0.0
  0
XRECORD
  5
2A6
102
{ACAD_REACTORS
330
28B
102
}
330
28B
100
AcDbXrecord
 10
0.0
 20
0.0
 30
0.0
  0
XRECORD
  5
2A9
102
{ACAD_REACTORS
330
28B
102
}
330
28B
100
AcDbXrecord
 10
0.0
 20
0.0
 30
0.0
  0
XRECORD
  5
2A7
102
{ACAD_REACTORS
330
28B
102
}
330
28B
100
AcDbXrecord
 10
0.0
 20
0.0
 30
0.0
  0
XRECORD
  5
2A8
102
{ACAD_REACTORS
330
28B
102
}
330
28B
100
AcDbXrecord
 10
0.0
 20
0.0
 30
0.0
  0
XRECORD
  5
2A5
102
{ACAD_REACTORS
330
28B
102
}
330
28B
100
AcDbXrecord
 10
0.0
 20
0.0
 30
0.0
  0
XRECORD
  5
2A2
102
{ACAD_REACTORS
330
28B
102
}
330
28B
100
AcDbXrecord
340
0
  0
XRECORD
  5
2A3
102
{ACAD_REACTORS
330
28B
102
}
330
28B
100
AcDbXrecord
 70
     1
  0
XRECORD
  5
297
102
{ACAD_REACTORS
330
28B
102
}
330
28B
100
AcDbXrecord
  1
{747F17AB-573C-4E6F-9F55-23F902842C05}
  0
DICTIONARYVAR
  5
25E
102
{ACAD_REACTORS
330
25D
102
}
330
25D
100
DictionaryVariables
280
     0
  1
1
  0
ENDSEC
  0
EOF
