  0
SECTION
  2
HEADER
  9
$ACADVER
  1
AC1014
  9
$ACADMAINTVER
 70
     9
  9
$DWGCODEPAGE
  3
ANSI_1252
  9
$INSBASE
 10
0.0
 20
0.0
 30
0.0
  9
$EXTMIN
 10
0.0000000000000015
 20
-0.0000000000000043
 30
0.0
  9
$EXTMAX
 10
54.0
 20
162.0
 30
0.0
  9
$LIMMIN
 10
0.0
 20
0.0
  9
$LIMMAX
 10
12.0
 20
9.0
  9
$ORTHOMODE
 70
     0
  9
$REGENMODE
 70
     1
  9
$FILLMODE
 70
     1
  9
$QTEXTMODE
 70
     0
  9
$MIRRTEXT
 70
     1
  9
$DRAGMODE
 70
     2
  9
$LTSCALE
 40
1.0
  9
$OSMODE
 70
    37
  9
$ATTMODE
 70
     1
  9
$TEXTSIZE
 40
0.2
  9
$TRACEWID
 40
0.05
  9
$TEXTSTYLE
  7
STANDARD
  9
$CLAYER
  8
0
  9
$CELTYPE
  6
CONTINUOUS
  9
$CECOLOR
 62
   256
  9
$CELTSCALE
 40
1.0
  9
$DELOBJ
 70
     1
  9
$DISPSILH
 70
     0
  9
$DIMSCALE
 40
1.0
  9
$DIMASZ
 40
0.18
  9
$DIMEXO
 40
0.0625
  9
$DIMDLI
 40
0.38
  9
$DIMRND
 40
0.0
  9
$DIMDLE
 40
0.0
  9
$DIMEXE
 40
0.18
  9
$DIMTP
 40
0.0
  9
$DIMTM
 40
0.0
  9
$DIMTXT
 40
0.18
  9
$DIMCEN
 40
0.09
  9
$DIMTSZ
 40
0.0
  9
$DIMTOL
 70
     0
  9
$DIMLIM
 70
     0
  9
$DIMTIH
 70
     1
  9
$DIMTOH
 70
     1
  9
$DIMSE1
 70
     0
  9
$DIMSE2
 70
     0
  9
$DIMTAD
 70
     0
  9
$DIMZIN
 70
     0
  9
$DIMBLK
  1

  9
$DIMASO
 70
     1
  9
$DIMSHO
 70
     1
  9
$DIMPOST
  1

  9
$DIMAPOST
  1

  9
$DIMALT
 70
     0
  9
$DIMALTD
 70
     2
  9
$DIMALTF
 40
25.4
  9
$DIMLFAC
 40
1.0
  9
$DIMTOFL
 70
     0
  9
$DIMTVP
 40
0.0
  9
$DIMTIX
 70
     0
  9
$DIMSOXD
 70
     0
  9
$DIMSAH
 70
     0
  9
$DIMBLK1
  1

  9
$DIMBLK2
  1

  9
$DIMSTYLE
  2
STANDARD
  9
$DIMCLRD
 70
     0
  9
$DIMCLRE
 70
     0
  9
$DIMCLRT
 70
     0
  9
$DIMTFAC
 40
1.0
  9
$DIMGAP
 40
0.09
  9
$DIMJUST
 70
     0
  9
$DIMSD1
 70
     0
  9
$DIMSD2
 70
     0
  9
$DIMTOLJ
 70
     1
  9
$DIMTZIN
 70
     0
  9
$DIMALTZ
 70
     0
  9
$DIMALTTZ
 70
     0
  9
$DIMFIT
 70
     3
  9
$DIMUPT
 70
     0
  9
$DIMUNIT
 70
     2
  9
$DIMDEC
 70
     4
  9
$DIMTDEC
 70
     4
  9
$DIMALTU
 70
     2
  9
$DIMALTTD
 70
     2
  9
$DIMTXSTY
  7
STANDARD
  9
$DIMAUNIT
 70
     0
  9
$LUNITS
 70
     2
  9
$LUPREC
 70
     4
  9
$SKETCHINC
 40
0.1
  9
$FILLETRAD
 40
0.0
  9
$AUNITS
 70
     0
  9
$AUPREC
 70
     0
  9
$MENU
  1
.
  9
$ELEVATION
 40
0.0
  9
$PELEVATION
 40
0.0
  9
$THICKNESS
 40
0.0
  9
$LIMCHECK
 70
     0
  9
$BLIPMODE
 70
     0
  9
$CHAMFERA
 40
0.0
  9
$CHAMFERB
 40
0.0
  9
$CHAMFERC
 40
0.0
  9
$CHAMFERD
 40
0.0
  9
$SKPOLY
 70
     0
  9
$TDCREATE
 40
2454691.848666446
  9
$TDUPDATE
 40
2454691.849750787
  9
$TDINDWG
 40
0.0010843403
  9
$TDUSRTIMER
 40
0.0010843403
  9
$USRTIMER
 70
     1
  9
$ANGBASE
 50
0.0
  9
$ANGDIR
 70
     0
  9
$PDMODE
 70
     0
  9
$PDSIZE
 40
0.0
  9
$PLINEWID
 40
0.0
  9
$COORDS
 70
     1
  9
$SPLFRAME
 70
     0
  9
$SPLINETYPE
 70
     6
  9
$SPLINESEGS
 70
     8
  9
$ATTDIA
 70
     0
  9
$ATTREQ
 70
     1
  9
$HANDLING
 70
 22529
  9
$HANDSEED
  5
202
  9
$SURFTAB1
 70
     6
  9
$SURFTAB2
 70
     6
  9
$SURFTYPE
 70
     6
  9
$SURFU
 70
     6
  9
$SURFV
 70
     6
  9
$UCSNAME
  2

  9
$UCSORG
 10
0.0
 20
0.0
 30
0.0
  9
$UCSXDIR
 10
1.0
 20
0.0
 30
0.0
  9
$UCSYDIR
 10
0.0
 20
1.0
 30
0.0
  9
$PUCSNAME
  2

  9
$PUCSORG
 10
0.0
 20
0.0
 30
0.0
  9
$PUCSXDIR
 10
1.0
 20
0.0
 30
0.0
  9
$PUCSYDIR
 10
0.0
 20
1.0
 30
0.0
  9
$USERI1
 70
     0
  9
$USERI2
 70
     0
  9
$USERI3
 70
     0
  9
$USERI4
 70
     0
  9
$USERI5
 70
     0
  9
$USERR1
 40
0.0
  9
$USERR2
 40
0.0
  9
$USERR3
 40
0.0
  9
$USERR4
 40
0.0
  9
$USERR5
 40
0.0
  9
$WORLDVIEW
 70
     1
  9
$SHADEDGE
 70
     3
  9
$SHADEDIF
 70
    70
  9
$TILEMODE
 70
     1
  9
$MAXACTVP
 70
    64
  9
$PINSBASE
 10
0.0
 20
0.0
 30
0.0
  9
$PLIMCHECK
 70
     0
  9
$PEXTMIN
 10
1.000000000000000E+20
 20
1.000000000000000E+20
 30
1.000000000000000E+20
  9
$PEXTMAX
 10
-1.000000000000000E+20
 20
-1.000000000000000E+20
 30
-1.000000000000000E+20
  9
$PLIMMIN
 10
0.0
 20
0.0
  9
$PLIMMAX
 10
12.0
 20
9.0
  9
$UNITMODE
 70
     0
  9
$VISRETAIN
 70
     1
  9
$PLINEGEN
 70
     0
  9
$PSLTSCALE
 70
     1
  9
$TREEDEPTH
 70
  3020
  9
$PICKSTYLE
 70
     1
  9
$CMLSTYLE
  2
STANDARD
  9
$CMLJUST
 70
     0
  9
$CMLSCALE
 40
1.0
  9
$PROXYGRAPHICS
 70
     1
  9
$MEASUREMENT
 70
     0
  0
ENDSEC
  0
SECTION
  2
CLASSES
  0
CLASS
  1
ACDBDICTIONARYWDFLT
  2
AcDbDictionaryWithDefault
  3
AutoCAD 2000
 90
        0
280
     0
281
     0
  0
CLASS
  1
ACDBPLACEHOLDER
  2
AcDbPlaceHolder
  3
AutoCAD 2000
 90
        0
280
     0
281
     0
  0
CLASS
  1
LAYOUT
  2
AcDbLayout
  3
AutoCAD 2000
 90
        0
280
     0
281
     0
  0
CLASS
  1
DICTIONARYVAR
  2
AcDbDictionaryVar
  3
AutoCAD 2000
 90
        0
280
     0
281
     0
  0
CLASS
  1
LONG_TRANSACTION
  2
AcDbLongTransaction
  3
AutoCAD 2000
 90
        0
280
     0
281
     0
  0
CLASS
  1
LWPOLYLINE
  2
AcDbPolyline
  3
AutoCAD 2000
 90
        0
280
     0
281
     1
  0
CLASS
  1
HATCH
  2
AcDbHatch
  3
AutoCAD 2000
 90
        0
280
     0
281
     1
  0
CLASS
  1
XRECORD
  2
AcDbXrecord
  3
AutoCAD 2000
 90
        0
280
     0
281
     0
  0
ENDSEC
  0
SECTION
  2
TABLES
  0
TABLE
  2
VPORT
  5
8
330
0
100
AcDbSymbolTable
 70
     3
  0
VPORT
  5
1DD
330
8
100
AcDbSymbolTableRecord
100
AcDbViewportTableRecord
  2
*ACTIVE
 70
     0
 10
0.0
 20
0.0
 11
1.0
 21
1.0
 12
27.0
 22
81.0
 13
0.0
 23
0.0
 14
1.0
 24
1.0
 15
0.0
 25
0.0
 16
0.0
 26
0.0
 36
1.0
 17
0.0
 27
0.0
 37
0.0
 40
163.2429667519181
 41
2.078104993597951
 42
50.0
 43
0.0
 44
0.0
 50
0.0
 51
0.0
 71
     0
 72
   100
 73
     1
 74
     3
 75
     0
 76
     0
 77
     0
 78
     0
  0
ENDTAB
  0
TABLE
  2
LTYPE
  5
5
330
0
100
AcDbSymbolTable
 70
     1
  0
LTYPE
  5
13
330
5
100
AcDbSymbolTableRecord
100
AcDbLinetypeTableRecord
  2
BYBLOCK
 70
     0
  3

 72
    65
 73
     0
 40
0.0
  0
LTYPE
  5
14
330
5
100
AcDbSymbolTableRecord
100
AcDbLinetypeTableRecord
  2
BYLAYER
 70
     0
  3

 72
    65
 73
     0
 40
0.0
  0
LTYPE
  5
15
330
5
100
AcDbSymbolTableRecord
100
AcDbLinetypeTableRecord
  2
CONTINUOUS
 70
     0
  3
Solid line
 72
    65
 73
     0
 40
0.0
  0
ENDTAB
  0
TABLE
  2
LAYER
  5
2
330
0
100
AcDbSymbolTable
 70
     1
  0
LAYER
  5
10
330
2
100
AcDbSymbolTableRecord
100
AcDbLayerTableRecord
  2
0
 70
     0
 62
     7
  6
CONTINUOUS
  0
ENDTAB
  0
TABLE
  2
STYLE
  5
3
330
0
100
AcDbSymbolTable
 70
     1
  0
STYLE
  5
11
330
3
100
AcDbSymbolTableRecord
100
AcDbTextStyleTableRecord
  2
STANDARD
 70
     0
 40
0.0
 41
1.0
 50
0.0
 71
     0
 42
0.2
  3
txt
  4

  0
ENDTAB
  0
TABLE
  2
VIEW
  5
6
330
0
100
AcDbSymbolTable
 70
     0
  0
ENDTAB
  0
TABLE
  2
UCS
  5
7
330
0
100
AcDbSymbolTable
 70
     0
  0
ENDTAB
  0
TABLE
  2
APPID
  5
9
330
0
100
AcDbSymbolTable
 70
     1
  0
APPID
  5
12
330
9
100
AcDbSymbolTableRecord
100
AcDbRegAppTableRecord
  2
ACAD
 70
     0
  0
ENDTAB
  0
TABLE
  2
DIMSTYLE
  5
A
330
0
100
AcDbSymbolTable
 70
     1
  0
DIMSTYLE
105
1AD
330
A
100
AcDbSymbolTableRecord
100
AcDbDimStyleTableRecord
  2
STANDARD
 70
     0
  3

  4

  5

  6

  7

 40
1.0
 41
0.18
 42
0.0625
 43
0.38
 44
0.18
 45
0.0
 46
0.0
 47
0.0
 48
0.0
140
0.18
141
0.09
142
0.0
143
25.4
144
1.0
145
0.0
146
1.0
147
0.09
 71
     0
 72
     0
 73
     1
 74
     1
 75
     0
 76
     0
 77
     0
 78
     0
170
     0
171
     2
172
     0
173
     0
174
     0
175
     0
176
     0
177
     0
178
     0
270
     2
271
     4
272
     4
273
     2
274
     2
340
11
275
     0
280
     0
281
     0
282
     0
283
     1
284
     0
285
     0
286
     0
287
     3
288
     0
  0
ENDTAB
  0
TABLE
  2
BLOCK_RECORD
  5
1
330
0
100
AcDbSymbolTable
 70
     0
  0
BLOCK_RECORD
  5
1E
102
{ACAD_XDICTIONARY
360
200
102
}
330
1
100
AcDbSymbolTableRecord
100
AcDbBlockTableRecord
  2
*MODEL_SPACE
  0
BLOCK_RECORD
  5
1A
102
{ACAD_XDICTIONARY
360
1FE
102
}
330
1
100
AcDbSymbolTableRecord
100
AcDbBlockTableRecord
  2
*PAPER_SPACE
  0
ENDTAB
  0
ENDSEC
  0
SECTION
  2
BLOCKS
  0
BLOCK
  5
1F
330
1E
100
AcDbEntity
  8
0
100
AcDbBlockBegin
  2
*MODEL_SPACE
 70
     0
 10
0.0
 20
0.0
 30
0.0
  3
*MODEL_SPACE
  1

  0
ENDBLK
  5
20
330
1E
100
AcDbEntity
  8
0
100
AcDbBlockEnd
  0
BLOCK
  5
1B
330
1A
100
AcDbEntity
 67
     1
  8
0
100
AcDbBlockBegin
  2
*PAPER_SPACE
 70
     0
 10
0.0
 20
0.0
 30
0.0
  3
*PAPER_SPACE
  1

  0
ENDBLK
  5
1C
330
1A
100
AcDbEntity
 67
     1
  8
0
100
AcDbBlockEnd
  0
ENDSEC
  0
SECTION
  2
ENTITIES
  0
LINE
  5
22
330
1E
100
AcDbEntity
  8
0
100
AcDbLine
 10
0.0000000000000015
 20
2.5
 30
0.0
 11
0.0000000000000015
 21
-0.0000000000000025
 31
0.0
  0
LINE
  5
23
330
1E
100
AcDbEntity
  8
0
100
AcDbLine
 10
0.0000000000000015
 20
2.5
 30
0.0
 11
1.0
 21
2.5
 31
0.0
  0
LINE
  5
24
330
1E
100
AcDbEntity
  8
0
100
AcDbLine
 10
0.0000000000000015
 20
2.5
 30
0.0
 11
0.500000000000002
 21
3.0
 31
0.0
  0
LINE
  5
25
330
1E
100
AcDbEntity
  8
0
100
AcDbLine
 10
1.0
 20
-0.0000000000000031
 30
0.0
 11
3.6
 21
-0.0000000000000035
 31
0.0
  0
LINE
  5
26
330
1E
100
AcDbEntity
  8
0
100
AcDbLine
 10
1.0
 20
-0.0000000000000031
 30
0.0
 11
3.6
 21
-0.0000000000000035
 31
0.0
  0
LINE
  5
27
330
1E
100
AcDbEntity
  8
0
100
AcDbLine
 10
3.6
 20
-0.0000000000000035
 30
0.0
 11
8.0
 21
-0.0000000000000038
 31
0.0
  0
LINE
  5
28
330
1E
100
AcDbEntity
  8
0
100
AcDbLine
 10
1.0
 20
-0.0000000000000022
 30
0.0
 11
3.6
 21
-0.0000000000000018
 31
0.0
  0
LINE
  5
29
330
1E
100
AcDbEntity
  8
0
100
AcDbLine
 10
1.0
 20
2.5
 30
0.0
 11
3.6
 21
2.5
 31
0.0
  0
LINE
  5
2A
330
1E
100
AcDbEntity
  8
0
100
AcDbLine
 10
0.500000000000002
 20
3.0
 30
0.0
 11
1.5
 21
3.0
 31
0.0
  0
LINE
  5
2B
330
1E
100
AcDbEntity
  8
0
100
AcDbLine
 10
1.5
 20
3.0
 30
0.0
 11
4.0
 21
3.0
 31
0.0
  0
LINE
  5
2C
330
1E
100
AcDbEntity
  8
0
100
AcDbLine
 10
0.500000000000001
 20
3.0
 30
0.0
 11
1.5
 21
3.0
 31
0.0
  0
LINE
  5
2D
330
1E
100
AcDbEntity
  8
0
100
AcDbLine
 10
3.6
 20
2.5
 30
0.0
 11
8.0
 21
2.5
 31
0.0
  0
LINE
  5
2E
330
1E
100
AcDbEntity
  8
0
100
AcDbLine
 10
1.0
 20
2.5
 30
0.0
 11
3.6
 21
2.5
 31
0.0
  0
LINE
  5
2F
330
1E
100
AcDbEntity
  8
0
100
AcDbLine
 10
4.5
 20
3.0
 30
0.0
 11
5.5
 21
3.5
 31
0.0
  0
LINE
  5
30
330
1E
100
AcDbEntity
  8
0
100
AcDbLine
 10
6.0
 20
5.0
 30
0.0
 11
6.0
 21
125.0
 31
0.0
  0
LINE
  5
31
330
1E
100
AcDbEntity
  8
0
100
AcDbLine
 10
6.0
 20
125.0
 30
0.0
 11
6.0
 21
5.0
 31
0.0
  0
LINE
  5
32
330
1E
100
AcDbEntity
  8
0
100
AcDbLine
 10
6.0
 20
125.0
 30
0.0
 11
6.799999999999999
 21
125.0
 31
0.0
  0
LINE
  5
33
330
1E
100
AcDbEntity
  8
0
100
AcDbLine
 10
6.0
 20
125.0
 30
0.0
 11
7.0
 21
126.0
 31
0.0
  0
LINE
  5
34
330
1E
100
AcDbEntity
  8
0
100
AcDbLine
 10
5.5
 20
3.5
 30
0.0
 11
6.299999999999999
 21
3.5
 31
0.0
  0
LINE
  5
35
330
1E
100
AcDbEntity
  8
0
100
AcDbLine
 10
5.5
 20
3.5
 30
0.0
 11
6.0
 21
5.0
 31
0.0
  0
LINE
  5
36
330
1E
100
AcDbEntity
  8
0
100
AcDbLine
 10
4.0
 20
3.0
 30
0.0
 11
8.3
 21
3.0
 31
0.0
  0
LINE
  5
37
330
1E
100
AcDbEntity
  8
0
100
AcDbLine
 10
3.6
 20
-0.0000000000000018
 30
0.0
 11
8.0
 21
-0.0000000000000015
 31
0.0
  0
LINE
  5
38
330
1E
100
AcDbEntity
  8
0
100
AcDbLine
 10
1.0
 20
-0.0000000000000022
 30
0.0
 11
3.6
 21
-0.0000000000000018
 31
0.0
  0
LINE
  5
39
330
1E
100
AcDbEntity
  8
0
100
AcDbLine
 10
0.0000000000000015
 20
-0.0000000000000027
 30
0.0
 11
1.0
 21
-0.0000000000000022
 31
0.0
  0
LINE
  5
3A
330
1E
100
AcDbEntity
  8
0
100
AcDbLine
 10
0.0000000000000015
 20
-0.0000000000000027
 30
0.0
 11
1.0
 21
-0.0000000000000031
 31
0.0
  0
LINE
  5
3B
330
1E
100
AcDbEntity
  8
0
100
AcDbLine
 10
0.0000000000000015
 20
-0.0000000000000027
 30
0.0
 11
0.0000000000000015
 21
2.5
 31
0.0
  0
LINE
  5
3C
330
1E
100
AcDbEntity
  8
0
100
AcDbLine
 10
6.0
 20
159.882
 30
0.0
 11
6.0
 21
129.396
 31
0.0
  0
LINE
  5
3D
330
1E
100
AcDbEntity
  8
0
100
AcDbLine
 10
6.0
 20
159.882
 30
0.0
 11
6.45
 21
160.8699999999999
 31
0.0
  0
LINE
  5
3E
330
1E
100
AcDbEntity
  8
0
100
AcDbLine
 10
7.7
 20
126.0
 30
0.0
 11
9.699999999999999
 21
126.0
 31
0.0
  0
LINE
  5
3F
330
1E
100
AcDbEntity
  8
0
100
AcDbLine
 10
6.799999999999999
 20
125.0
 30
0.0
 11
8.8
 21
125.0
 31
0.0
  0
LINE
  5
40
330
1E
100
AcDbEntity
  8
0
100
AcDbLine
 10
6.299999999999999
 20
3.5
 30
0.0
 11
8.4
 21
3.5
 31
0.0
  0
LINE
  5
41
330
1E
100
AcDbEntity
  8
0
100
AcDbLine
 10
8.0
 20
-0.0000000000000038
 30
0.0
 11
13.6
 21
-0.0000000000000041
 31
0.0
  0
LINE
  5
42
330
1E
100
AcDbEntity
  8
0
100
AcDbLine
 10
8.8
 20
125.0
 30
0.0
 11
12.19999999999999
 21
125.0
 31
0.0
  0
LINE
  5
43
330
1E
100
AcDbEntity
  8
0
100
AcDbLine
 10
8.4
 20
3.5
 30
0.0
 11
11.8
 21
3.5
 31
0.0
  0
LINE
  5
44
330
1E
100
AcDbEntity
  8
0
100
AcDbLine
 10
8.3
 20
3.0
 30
0.0
 11
13.8
 21
3.0
 31
0.0
  0
LINE
  5
45
330
1E
100
AcDbEntity
  8
0
100
AcDbLine
 10
8.0
 20
2.5
 30
0.0
 11
13.6
 21
2.5
 31
0.0
  0
LINE
  5
46
330
1E
100
AcDbEntity
  8
0
100
AcDbLine
 10
8.0
 20
-0.0000000000000015
 30
0.0
 11
13.6
 21
-0.0000000000000012
 31
0.0
  0
LINE
  5
47
330
1E
100
AcDbEntity
  8
0
100
AcDbLine
 10
7.7407
 20
126.0
 30
0.0
 11
9.6667
 21
126.0
 31
0.0
  0
LINE
  5
48
330
1E
100
AcDbEntity
  8
0
100
AcDbLine
 10
7.0
 20
126.5929999999999
 30
0.0
 11
7.24021161989207
 21
128.9944676794289
 31
0.0
  0
LINE
  5
49
330
1E
100
AcDbEntity
  8
0
100
AcDbLine
 10
7.0
 20
126.5929999999999
 30
0.0
 11
7.0
 21
126.0
 31
0.0
  0
LINE
  5
4A
330
1E
100
AcDbEntity
  8
0
100
AcDbLine
 10
7.0
 20
126.0
 30
0.0
 11
7.0
 21
126.5929999999999
 31
0.0
  0
LINE
  5
4B
330
1E
100
AcDbEntity
  8
0
100
AcDbLine
 10
7.0
 20
126.0
 30
0.0
 11
7.7
 21
126.0
 31
0.0
  0
LINE
  5
4C
330
1E
100
AcDbEntity
  8
0
100
AcDbLine
 10
9.699999999999999
 20
126.0
 30
0.0
 11
12.9
 21
126.0
 31
0.0
  0
LINE
  5
4D
330
1E
100
AcDbEntity
  8
0
100
AcDbLine
 10
12.19999999999999
 20
125.0
 30
0.0
 11
16.6
 21
125.0
 31
0.0
  0
LINE
  5
4E
330
1E
100
AcDbEntity
  8
0
100
AcDbLine
 10
11.8
 20
3.5
 30
0.0
 11
16.3
 21
3.5
 31
0.0
  0
LINE
  5
4F
330
1E
100
AcDbEntity
  8
0
100
AcDbLine
 10
13.6
 20
-0.0000000000000041
 30
0.0
 11
20.1
 21
-0.0000000000000043
 31
0.0
  0
LINE
  5
50
330
1E
100
AcDbEntity
  8
0
100
AcDbLine
 10
13.0
 20
92.8354
 30
0.0
 11
13.0
 21
85.71229999999999
 31
0.0
  0
LINE
  5
51
330
1E
100
AcDbEntity
  8
0
100
AcDbLine
 10
13.0
 20
92.8354
 30
0.0
 11
13.5
 21
94.90019999999999
 31
0.0
  0
LINE
  5
52
330
1E
100
AcDbEntity
  8
0
100
AcDbLine
 10
13.0
 20
85.71229999999999
 30
0.0
 11
13.5
 21
87.7772
 31
0.0
  0
LINE
  5
53
330
1E
100
AcDbEntity
  8
0
100
AcDbLine
 10
13.0
 20
85.71229999999999
 30
0.0
 11
13.5
 21
83.64740000000001
 31
0.0
  0
LINE
  5
54
330
1E
100
AcDbEntity
  8
0
100
AcDbLine
 10
13.0
 20
85.71229999999999
 30
0.0
 11
13.0
 21
92.8354
 31
0.0
  0
LINE
  5
55
330
1E
100
AcDbEntity
  8
0
100
AcDbLine
 10
13.0
 20
93.4448
 30
0.0
 11
13.504
 21
95.5005
 31
0.0
  0
LINE
  5
56
330
1E
100
AcDbEntity
  8
0
100
AcDbLine
 10
13.0
 20
93.4448
 30
0.0
 11
13.0742412941649
 21
93.14198684838341
 31
0.0
  0
LINE
  5
57
330
1E
100
AcDbEntity
  8
0
100
AcDbLine
 10
13.0
 20
93.4448
 30
0.0
 11
13.0
 21
95.395
 31
0.0
  0
LINE
  5
58
330
1E
100
AcDbEntity
  8
0
100
AcDbLine
 10
13.0
 20
95.395
 30
0.0
 11
13.0
 21
97.56540000000001
 31
0.0
  0
LINE
  5
59
330
1E
100
AcDbEntity
  8
0
100
AcDbLine
 10
13.0
 20
95.395
 30
0.0
 11
13.0
 21
93.4448
 31
0.0
  0
LINE
  5
5A
330
1E
100
AcDbEntity
  8
0
100
AcDbLine
 10
13.0
 20
99.54770000000001
 30
0.0
 11
13.0
 21
97.56540000000001
 31
0.0
  0
LINE
  5
5B
330
1E
100
AcDbEntity
  8
0
100
AcDbLine
 10
13.0
 20
99.54770000000001
 30
0.0
 11
13.0
 21
100.965
 31
0.0
  0
LINE
  5
5C
330
1E
100
AcDbEntity
  8
0
100
AcDbLine
 10
13.0
 20
97.56540000000001
 30
0.0
 11
13.0
 21
95.395
 31
0.0
  0
LINE
  5
5D
330
1E
100
AcDbEntity
  8
0
100
AcDbLine
 10
13.0
 20
97.56540000000001
 30
0.0
 11
13.0
 21
99.54770000000001
 31
0.0
  0
LINE
  5
5E
330
1E
100
AcDbEntity
  8
0
100
AcDbLine
 10
13.0
 20
100.965
 30
0.0
 11
13.0
 21
102.2
 31
0.0
  0
LINE
  5
5F
330
1E
100
AcDbEntity
  8
0
100
AcDbLine
 10
13.0
 20
100.965
 30
0.0
 11
13.0
 21
99.54770000000001
 31
0.0
  0
LINE
  5
60
330
1E
100
AcDbEntity
  8
0
100
AcDbLine
 10
13.0
 20
102.2
 30
0.0
 11
13.0
 21
102.7
 31
0.0
  0
LINE
  5
61
330
1E
100
AcDbEntity
  8
0
100
AcDbLine
 10
13.0
 20
102.2
 30
0.0
 11
13.0
 21
100.965
 31
0.0
  0
LINE
  5
62
330
1E
100
AcDbEntity
  8
0
100
AcDbLine
 10
13.5
 20
83.64740000000001
 30
0.0
 11
14.9
 21
81.69729999999999
 31
0.0
  0
LINE
  5
63
330
1E
100
AcDbEntity
  8
0
100
AcDbLine
 10
13.5
 20
94.90019999999999
 30
0.0
 11
14.9
 21
96.8504
 31
0.0
  0
LINE
  5
64
330
1E
100
AcDbEntity
  8
0
100
AcDbLine
 10
13.5
 20
87.7772
 30
0.0
 11
14.9
 21
89.7273
 31
0.0
  0
LINE
  5
65
330
1E
100
AcDbEntity
  8
0
100
AcDbLine
 10
13.0
 20
102.7
 30
0.0
 11
13.0
 21
103.0
 31
0.0
  0
LINE
  5
66
330
1E
100
AcDbEntity
  8
0
100
AcDbLine
 10
13.0
 20
102.7
 30
0.0
 11
13.0
 21
102.2
 31
0.0
  0
LINE
  5
67
330
1E
100
AcDbEntity
  8
0
100
AcDbLine
 10
13.0
 20
103.0
 30
0.0
 11
13.0
 21
102.7
 31
0.0
  0
LINE
  5
68
330
1E
100
AcDbEntity
  8
0
100
AcDbLine
 10
13.0
 20
103.0
 30
0.0
 11
13.5
 21
106.6
 31
0.0
  0
LINE
  5
69
330
1E
100
AcDbEntity
  8
0
100
AcDbLine
 10
13.504
 20
95.5005
 30
0.0
 11
14.84799999999999
 21
97.4277
 31
0.0
  0
LINE
  5
6A
330
1E
100
AcDbEntity
  8
0
100
AcDbLine
 10
13.5
 20
106.6
 30
0.0
 11
14.9
 21
110.0
 31
0.0
  0
LINE
  5
6B
330
1E
100
AcDbEntity
  8
0
100
AcDbLine
 10
12.9
 20
126.0
 30
0.0
 11
17.1
 21
126.0
 31
0.0
  0
LINE
  5
6C
330
1E
100
AcDbEntity
  8
0
100
AcDbLine
 10
14.5
 20
83.10720000000001
 30
0.0
 11
15.7
 21
81.2718
 31
0.0
  0
LINE
  5
6D
330
1E
100
AcDbEntity
  8
0
100
AcDbLine
 10
14.5
 20
86.8928
 30
0.0
 11
15.7
 21
88.7282
 31
0.0
  0
LINE
  5
6E
330
1E
100
AcDbEntity
  8
0
100
AcDbLine
 10
14.0
 20
85.0
 30
0.0
 11
14.5
 21
86.8928
 31
0.0
  0
LINE
  5
6F
330
1E
100
AcDbEntity
  8
0
100
AcDbLine
 10
14.0
 20
85.0
 30
0.0
 11
14.5
 21
83.10720000000001
 31
0.0
  0
LINE
  5
70
330
1E
100
AcDbEntity
  8
0
100
AcDbLine
 10
14.9
 20
81.69729999999999
 30
0.0
 11
17.1
 21
80.03390000000001
 31
0.0
  0
LINE
  5
71
330
1E
100
AcDbEntity
  8
0
100
AcDbLine
 10
15.7
 20
81.2718
 30
0.0
 11
17.8
 21
79.7231
 31
0.0
  0
LINE
  5
72
330
1E
100
AcDbEntity
  8
0
100
AcDbLine
 10
14.9
 20
96.8504
 30
0.0
 11
17.1
 21
98.5138
 31
0.0
  0
LINE
  5
73
330
1E
100
AcDbEntity
  8
0
100
AcDbLine
 10
14.9
 20
89.7273
 30
0.0
 11
17.1
 21
91.3907
 31
0.0
  0
LINE
  5
74
330
1E
100
AcDbEntity
  8
0
100
AcDbLine
 10
15.7
 20
88.7282
 30
0.0
 11
17.8
 21
90.27689999999999
 31
0.0
  0
LINE
  5
75
330
1E
100
AcDbEntity
  8
0
100
AcDbLine
 10
14.84799999999999
 20
97.4277
 30
0.0
 11
17.088
 21
99.13009999999999
 31
0.0
  0
LINE
  5
76
330
1E
100
AcDbEntity
  8
0
100
AcDbLine
 10
14.9
 20
110.0
 30
0.0
 11
17.1
 21
112.9
 31
0.0
  0
LINE
  5
77
330
1E
100
AcDbEntity
  8
0
100
AcDbLine
 10
16.6013211907849
 20
89.39290291817551
 30
0.0
 11
18.5
 21
87.95999999999999
 31
0.0
  0
LINE
  5
78
330
1E
100
AcDbEntity
  8
0
100
AcDbLine
 10
16.6
 20
125.0
 30
0.0
 11
21.6
 21
125.0
 31
0.0
  0
LINE
  5
79
330
1E
100
AcDbEntity
  8
0
100
AcDbLine
 10
16.3
 20
3.5
 30
0.0
 11
21.49999999999999
 21
3.5
 31
0.0
  0
LINE
  5
7A
330
1E
100
AcDbEntity
  8
0
100
AcDbLine
 10
13.8
 20
3.0
 30
0.0
 11
20.2
 21
3.0
 31
0.0
  0
LINE
  5
7B
330
1E
100
AcDbEntity
  8
0
100
AcDbLine
 10
13.6
 20
2.5
 30
0.0
 11
20.1
 21
2.5
 31
0.0
  0
LINE
  5
7C
330
1E
100
AcDbEntity
  8
0
100
AcDbLine
 10
13.6
 20
-0.0000000000000012
 30
0.0
 11
20.1
 21
-0.0000000000000011
 31
0.0
  0
LINE
  5
7D
330
1E
100
AcDbEntity
  8
0
100
AcDbLine
 10
12.8519
 20
126.0
 30
0.0
 11
17.0741
 21
126.0
 31
0.0
  0
LINE
  5
7E
330
1E
100
AcDbEntity
  8
0
100
AcDbLine
 10
9.6667
 20
126.0
 30
0.0
 11
12.8519
 21
126.0
 31
0.0
  0
LINE
  5
7F
330
1E
100
AcDbEntity
  8
0
100
AcDbLine
 10
27.0
 20
-0.0000000000000043
 30
0.0
 11
33.9
 21
-0.0000000000000043
 31
0.0
  0
LINE
  5
80
330
1E
100
AcDbEntity
  8
0
100
AcDbLine
 10
20.1
 20
-0.0000000000000043
 30
0.0
 11
27.0
 21
-0.0000000000000043
 31
0.0
  0
LINE
  5
81
330
1E
100
AcDbEntity
  8
0
100
AcDbLine
 10
17.1
 20
80.03390000000001
 30
0.0
 11
17.8
 21
79.7231
 31
0.0
  0
LINE
  5
82
330
1E
100
AcDbEntity
  8
0
100
AcDbLine
 10
17.8
 20
79.7231
 30
0.0
 11
20.5
 21
78.51860000000001
 31
0.0
  0
LINE
  5
83
330
1E
100
AcDbEntity
  8
0
100
AcDbLine
 10
17.1
 20
98.5138
 30
0.0
 11
20.0
 21
99.7756
 31
0.0
  0
LINE
  5
84
330
1E
100
AcDbEntity
  8
0
100
AcDbLine
 10
17.1
 20
91.3907
 30
0.0
 11
20.0
 21
92.65260000000001
 31
0.0
  0
LINE
  5
85
330
1E
100
AcDbEntity
  8
0
100
AcDbLine
 10
18.5
 20
87.95999999999999
 30
0.0
 11
21.0
 21
86.8702
 31
0.0
  0
LINE
  5
86
330
1E
100
AcDbEntity
  8
0
100
AcDbLine
 10
20.0
 20
92.65260000000001
 30
0.0
 11
23.39999999999999
 21
93.4556
 31
0.0
  0
LINE
  5
87
330
1E
100
AcDbEntity
  8
0
100
AcDbLine
 10
17.8
 20
90.27689999999999
 30
0.0
 11
20.5
 21
91.48139999999999
 31
0.0
  0
LINE
  5
88
330
1E
100
AcDbEntity
  8
0
100
AcDbLine
 10
20.0
 20
99.7756
 30
0.0
 11
23.39999999999999
 21
100.5789999999999
 31
0.0
  0
LINE
  5
89
330
1E
100
AcDbEntity
  8
0
100
AcDbLine
 10
20.0
 20
99.7756
 30
0.0
 11
20.3
 21
99.9024
 31
0.0
  0
LINE
  5
8A
330
1E
100
AcDbEntity
  8
0
100
AcDbLine
 10
17.088
 20
99.13009999999999
 30
0.0
 11
20.05599999999999
 21
100.3889999999999
 31
0.0
  0
LINE
  5
8B
330
1E
100
AcDbEntity
  8
0
100
AcDbLine
 10
20.05599999999999
 20
100.3889999999999
 30
0.0
 11
23.416
 21
101.1859999999999
 31
0.0
  0
LINE
  5
8C
330
1E
100
AcDbEntity
  8
0
100
AcDbLine
 10
17.1
 20
126.0
 30
0.0
 11
21.89999999999999
 21
126.0
 31
0.0
  0
LINE
  5
8D
330
1E
100
AcDbEntity
  8
0
100
AcDbLine
 10
27.0
 20
3.0
 30
0.0
 11
33.79999999999999
 21
3.0
 31
0.0
  0
LINE
  5
8E
330
1E
100
AcDbEntity
  8
0
100
AcDbLine
 10
27.0
 20
2.5
 30
0.0
 11
33.9
 21
2.5
 31
0.0
  0
LINE
  5
8F
330
1E
100
AcDbEntity
  8
0
100
AcDbLine
 10
27.0
 20
-0.000000000000001
 30
0.0
 11
33.9
 21
-0.0000000000000011
 31
0.0
  0
LINE
  5
90
330
1E
100
AcDbEntity
  8
0
100
AcDbLine
 10
20.5
 20
78.51860000000001
 30
0.0
 11
23.7
 21
77.8303
 31
0.0
  0
LINE
  5
91
330
1E
100
AcDbEntity
  8
0
100
AcDbLine
 10
21.0
 20
86.8702
 30
0.0
 11
23.9
 21
86.1819
 31
0.0
  0
LINE
  5
92
330
1E
100
AcDbEntity
  8
0
100
AcDbLine
 10
20.3
 20
99.9024
 30
0.0
 11
23.5
 21
100.648
 31
0.0
  0
LINE
  5
93
330
1E
100
AcDbEntity
  8
0
100
AcDbLine
 10
20.5
 20
91.48139999999999
 30
0.0
 11
23.7
 21
92.16970000000001
 31
0.0
  0
LINE
  5
94
330
1E
100
AcDbEntity
  8
0
100
AcDbLine
 10
23.39999999999999
 20
100.5789999999999
 30
0.0
 11
27.0
 21
100.865
 31
0.0
  0
LINE
  5
95
330
1E
100
AcDbEntity
  8
0
100
AcDbLine
 10
23.39999999999999
 20
93.4556
 30
0.0
 11
27.0
 21
93.7424
 31
0.0
  0
LINE
  5
96
330
1E
100
AcDbEntity
  8
0
100
AcDbLine
 10
23.7
 20
77.8303
 30
0.0
 11
27.0
 21
77.54349999999999
 31
0.0
  0
LINE
  5
97
330
1E
100
AcDbEntity
  8
0
100
AcDbLine
 10
27.0
 20
77.54349999999999
 30
0.0
 11
30.3
 21
77.8303
 31
0.0
  0
LINE
  5
98
330
1E
100
AcDbEntity
  8
0
100
AcDbLine
 10
27.0
 20
85.9525
 30
0.0
 11
30.1
 21
86.1819
 31
0.0
  0
LINE
  5
99
330
1E
100
AcDbEntity
  8
0
100
AcDbLine
 10
23.9
 20
86.1819
 30
0.0
 11
27.0
 21
85.9525
 31
0.0
  0
LINE
  5
9A
330
1E
100
AcDbEntity
  8
0
100
AcDbLine
 10
27.0
 20
101.475
 30
0.0
 11
30.584
 21
101.1859999999999
 31
0.0
  0
LINE
  5
9B
330
1E
100
AcDbEntity
  8
0
100
AcDbLine
 10
27.0
 20
100.9349999999999
 30
0.0
 11
30.5
 21
100.648
 31
0.0
  0
LINE
  5
9C
330
1E
100
AcDbEntity
  8
0
100
AcDbLine
 10
27.0
 20
100.865
 30
0.0
 11
30.6
 21
100.5789999999999
 31
0.0
  0
LINE
  5
9D
330
1E
100
AcDbEntity
  8
0
100
AcDbLine
 10
27.0
 20
93.7424
 30
0.0
 11
30.6
 21
93.4556
 31
0.0
  0
LINE
  5
9E
330
1E
100
AcDbEntity
  8
0
100
AcDbLine
 10
27.0
 20
92.45650000000001
 30
0.0
 11
30.3
 21
92.16970000000001
 31
0.0
  0
LINE
  5
9F
330
1E
100
AcDbEntity
  8
0
100
AcDbLine
 10
23.5
 20
100.648
 30
0.0
 11
27.0
 21
100.9349999999999
 31
0.0
  0
LINE
  5
A0
330
1E
100
AcDbEntity
  8
0
100
AcDbLine
 10
23.7
 20
92.16970000000001
 30
0.0
 11
27.0
 21
92.45650000000001
 31
0.0
  0
LINE
  5
A1
330
1E
100
AcDbEntity
  8
0
100
AcDbLine
 10
23.416
 20
101.1859999999999
 30
0.0
 11
27.0
 21
101.475
 31
0.0
  0
LINE
  5
A2
330
1E
100
AcDbEntity
  8
0
100
AcDbLine
 10
27.0
 20
125.0
 30
0.0
 11
32.4
 21
125.0
 31
0.0
  0
LINE
  5
A3
330
1E
100
AcDbEntity
  8
0
100
AcDbLine
 10
27.0
 20
3.5
 30
0.0
 11
32.5
 21
3.5
 31
0.0
  0
LINE
  5
A4
330
1E
100
AcDbEntity
  8
0
100
AcDbLine
 10
21.89999999999999
 20
126.0
 30
0.0
 11
27.0
 21
126.0
 31
0.0
  0
LINE
  5
A5
330
1E
100
AcDbEntity
  8
0
100
AcDbLine
 10
21.6
 20
125.0
 30
0.0
 11
27.0
 21
125.0
 31
0.0
  0
LINE
  5
A6
330
1E
100
AcDbEntity
  8
0
100
AcDbLine
 10
21.49999999999999
 20
3.5
 30
0.0
 11
27.0
 21
3.5
 31
0.0
  0
LINE
  5
A7
330
1E
100
AcDbEntity
  8
0
100
AcDbLine
 10
20.2
 20
3.0
 30
0.0
 11
27.0
 21
3.0
 31
0.0
  0
LINE
  5
A8
330
1E
100
AcDbEntity
  8
0
100
AcDbLine
 10
20.1
 20
2.5
 30
0.0
 11
27.0
 21
2.5
 31
0.0
  0
LINE
  5
A9
330
1E
100
AcDbEntity
  8
0
100
AcDbLine
 10
20.1
 20
-0.0000000000000011
 30
0.0
 11
27.0
 21
-0.000000000000001
 31
0.0
  0
LINE
  5
AA
330
1E
100
AcDbEntity
  8
0
100
AcDbLine
 10
30.3
 20
77.8303
 30
0.0
 11
33.5
 21
78.51860000000001
 31
0.0
  0
LINE
  5
AB
330
1E
100
AcDbEntity
  8
0
100
AcDbLine
 10
30.1
 20
86.1819
 30
0.0
 11
33.0
 21
86.8702
 31
0.0
  0
LINE
  5
AC
330
1E
100
AcDbEntity
  8
0
100
AcDbLine
 10
30.584
 20
101.1859999999999
 30
0.0
 11
33.944
 21
100.3889999999999
 31
0.0
  0
LINE
  5
AD
330
1E
100
AcDbEntity
  8
0
100
AcDbLine
 10
30.5
 20
100.648
 30
0.0
 11
33.7
 21
99.9024
 31
0.0
  0
LINE
  5
AE
330
1E
100
AcDbEntity
  8
0
100
AcDbLine
 10
30.6
 20
100.5789999999999
 30
0.0
 11
34.0
 21
99.7756
 31
0.0
  0
LINE
  5
AF
330
1E
100
AcDbEntity
  8
0
100
AcDbLine
 10
30.6
 20
93.4556
 30
0.0
 11
34.0
 21
92.65260000000001
 31
0.0
  0
LINE
  5
B0
330
1E
100
AcDbEntity
  8
0
100
AcDbLine
 10
30.3
 20
92.16970000000001
 30
0.0
 11
33.5
 21
91.48139999999999
 31
0.0
  0
LINE
  5
B1
330
1E
100
AcDbEntity
  8
0
100
AcDbLine
 10
27.0
 20
126.0
 30
0.0
 11
32.1852
 21
126.0
 31
0.0
  0
LINE
  5
B2
330
1E
100
AcDbEntity
  8
0
100
AcDbLine
 10
27.0
 20
126.0
 30
0.0
 11
32.1
 21
126.0
 31
0.0
  0
LINE
  5
B3
330
1E
100
AcDbEntity
  8
0
100
AcDbLine
 10
21.8148
 20
126.0
 30
0.0
 11
27.0
 21
126.0
 31
0.0
  0
LINE
  5
B4
330
1E
100
AcDbEntity
  8
0
100
AcDbLine
 10
17.0741
 20
126.0
 30
0.0
 11
21.8148
 21
126.0
 31
0.0
  0
LINE
  5
B5
330
1E
100
AcDbEntity
  8
0
100
AcDbLine
 10
27.0
 20
128.0
 30
0.0
 11
31.875
 21
128.05
 31
0.0
  0
LINE
  5
B6
330
1E
100
AcDbEntity
  8
0
100
AcDbLine
 10
32.1
 20
126.0
 30
0.0
 11
36.89999999999999
 21
126.0
 31
0.0
  0
LINE
  5
B7
330
1E
100
AcDbEntity
  8
0
100
AcDbLine
 10
33.9
 20
-0.0000000000000043
 30
0.0
 11
40.4
 21
-0.0000000000000041
 31
0.0
  0
LINE
  5
B8
330
1E
100
AcDbEntity
  8
0
100
AcDbLine
 10
40.4
 20
-0.0000000000000041
 30
0.0
 11
46.0
 21
-0.0000000000000038
 31
0.0
  0
LINE
  5
B9
330
1E
100
AcDbEntity
  8
0
100
AcDbLine
 10
33.5
 20
78.51860000000001
 30
0.0
 11
36.2
 21
79.7231
 31
0.0
  0
LINE
  5
BA
330
1E
100
AcDbEntity
  8
0
100
AcDbLine
 10
33.0
 20
86.8702
 30
0.0
 11
35.5
 21
87.95999999999999
 31
0.0
  0
LINE
  5
BB
330
1E
100
AcDbEntity
  8
0
100
AcDbLine
 10
33.7
 20
99.9024
 30
0.0
 11
34.0
 21
99.7756
 31
0.0
  0
LINE
  5
BC
330
1E
100
AcDbEntity
  8
0
100
AcDbLine
 10
33.5
 20
91.48139999999999
 30
0.0
 11
36.2
 21
90.27689999999999
 31
0.0
  0
LINE
  5
BD
330
1E
100
AcDbEntity
  8
0
100
AcDbLine
 10
32.4
 20
125.0
 30
0.0
 11
37.4
 21
125.0
 31
0.0
  0
LINE
  5
BE
330
1E
100
AcDbEntity
  8
0
100
AcDbLine
 10
32.5
 20
3.5
 30
0.0
 11
37.7
 21
3.5
 31
0.0
  0
LINE
  5
BF
330
1E
100
AcDbEntity
  8
0
100
AcDbLine
 10
33.79999999999999
 20
3.0
 30
0.0
 11
40.2
 21
3.0
 31
0.0
  0
LINE
  5
C0
330
1E
100
AcDbEntity
  8
0
100
AcDbLine
 10
33.9
 20
2.5
 30
0.0
 11
40.4
 21
2.5
 31
0.0
  0
LINE
  5
C1
330
1E
100
AcDbEntity
  8
0
100
AcDbLine
 10
36.89999999999999
 20
80.03390000000001
 30
0.0
 11
39.1
 21
81.69729999999999
 31
0.0
  0
LINE
  5
C2
330
1E
100
AcDbEntity
  8
0
100
AcDbLine
 10
36.2
 20
79.7231
 30
0.0
 11
38.3
 21
81.2718
 31
0.0
  0
LINE
  5
C3
330
1E
100
AcDbEntity
  8
0
100
AcDbLine
 10
36.2
 20
79.7231
 30
0.0
 11
36.89999999999999
 21
80.03390000000001
 31
0.0
  0
LINE
  5
C4
330
1E
100
AcDbEntity
  8
0
100
AcDbLine
 10
35.5
 20
87.95999999999999
 30
0.0
 11
37.3986788092151
 21
89.39290291817551
 31
0.0
  0
LINE
  5
C5
330
1E
100
AcDbEntity
  8
0
100
AcDbLine
 10
33.944
 20
100.3889999999999
 30
0.0
 11
36.912
 21
99.13009999999999
 31
0.0
  0
LINE
  5
C6
330
1E
100
AcDbEntity
  8
0
100
AcDbLine
 10
34.0
 20
99.7756
 30
0.0
 11
36.89999999999999
 21
98.5138
 31
0.0
  0
LINE
  5
C7
330
1E
100
AcDbEntity
  8
0
100
AcDbLine
 10
36.89999999999999
 20
98.5138
 30
0.0
 11
39.1
 21
96.8504
 31
0.0
  0
LINE
  5
C8
330
1E
100
AcDbEntity
  8
0
100
AcDbLine
 10
34.0
 20
92.65260000000001
 30
0.0
 11
36.89999999999999
 21
91.3907
 31
0.0
  0
LINE
  5
C9
330
1E
100
AcDbEntity
  8
0
100
AcDbLine
 10
36.89999999999999
 20
91.3907
 30
0.0
 11
39.1
 21
89.7273
 31
0.0
  0
LINE
  5
CA
330
1E
100
AcDbEntity
  8
0
100
AcDbLine
 10
36.2
 20
90.27689999999999
 30
0.0
 11
38.3
 21
88.7282
 31
0.0
  0
LINE
  5
CB
330
1E
100
AcDbEntity
  8
0
100
AcDbLine
 10
36.912
 20
99.13009999999999
 30
0.0
 11
39.152
 21
97.4277
 31
0.0
  0
LINE
  5
CC
330
1E
100
AcDbEntity
  8
0
100
AcDbLine
 10
36.89999999999999
 20
112.9
 30
0.0
 11
39.1
 21
110.0
 31
0.0
  0
LINE
  5
CD
330
1E
100
AcDbEntity
  8
0
100
AcDbLine
 10
36.89999999999999
 20
126.0
 30
0.0
 11
41.1
 21
126.0
 31
0.0
  0
LINE
  5
CE
330
1E
100
AcDbEntity
  8
0
100
AcDbLine
 10
39.1
 20
81.69729999999999
 30
0.0
 11
40.49999999999999
 21
83.64740000000001
 31
0.0
  0
LINE
  5
CF
330
1E
100
AcDbEntity
  8
0
100
AcDbLine
 10
38.3
 20
81.2718
 30
0.0
 11
39.5
 21
83.10720000000001
 31
0.0
  0
LINE
  5
D0
330
1E
100
AcDbEntity
  8
0
100
AcDbLine
 10
39.5
 20
83.10720000000001
 30
0.0
 11
40.0
 21
85.0
 31
0.0
  0
LINE
  5
D1
330
1E
100
AcDbEntity
  8
0
100
AcDbLine
 10
39.1
 20
96.8504
 30
0.0
 11
40.49999999999999
 21
94.90019999999999
 31
0.0
  0
LINE
  5
D2
330
1E
100
AcDbEntity
  8
0
100
AcDbLine
 10
39.152
 20
97.4277
 30
0.0
 11
40.496
 21
95.5005
 31
0.0
  0
LINE
  5
D3
330
1E
100
AcDbEntity
  8
0
100
AcDbLine
 10
39.1
 20
89.7273
 30
0.0
 11
40.49999999999999
 21
87.7772
 31
0.0
  0
LINE
  5
D4
330
1E
100
AcDbEntity
  8
0
100
AcDbLine
 10
38.3
 20
88.7282
 30
0.0
 11
39.5
 21
86.8928
 31
0.0
  0
LINE
  5
D5
330
1E
100
AcDbEntity
  8
0
100
AcDbLine
 10
39.5
 20
86.8928
 30
0.0
 11
40.0
 21
85.0
 31
0.0
  0
LINE
  5
D6
330
1E
100
AcDbEntity
  8
0
100
AcDbLine
 10
39.1
 20
110.0
 30
0.0
 11
40.49999999999999
 21
106.6
 31
0.0
  0
LINE
  5
D7
330
1E
100
AcDbEntity
  8
0
100
AcDbLine
 10
37.4
 20
125.0
 30
0.0
 11
41.79999999999999
 21
125.0
 31
0.0
  0
LINE
  5
D8
330
1E
100
AcDbEntity
  8
0
100
AcDbLine
 10
37.7
 20
3.5
 30
0.0
 11
42.2
 21
3.5
 31
0.0
  0
LINE
  5
D9
330
1E
100
AcDbEntity
  8
0
100
AcDbLine
 10
40.49999999999999
 20
83.64740000000001
 30
0.0
 11
41.0
 21
85.71229999999999
 31
0.0
  0
LINE
  5
DA
330
1E
100
AcDbEntity
  8
0
100
AcDbLine
 10
40.496
 20
95.5005
 30
0.0
 11
41.0
 21
93.4448
 31
0.0
  0
LINE
  5
DB
330
1E
100
AcDbEntity
  8
0
100
AcDbLine
 10
40.49999999999999
 20
94.90019999999999
 30
0.0
 11
41.0
 21
92.8354
 31
0.0
  0
LINE
  5
DC
330
1E
100
AcDbEntity
  8
0
100
AcDbLine
 10
40.49999999999999
 20
87.7772
 30
0.0
 11
41.0
 21
85.71229999999999
 31
0.0
  0
LINE
  5
DD
330
1E
100
AcDbEntity
  8
0
100
AcDbLine
 10
41.0
 20
93.4448
 30
0.0
 11
41.0
 21
95.395
 31
0.0
  0
LINE
  5
DE
330
1E
100
AcDbEntity
  8
0
100
AcDbLine
 10
40.9257587058351
 20
93.14198684838341
 30
0.0
 11
41.0
 21
93.4448
 31
0.0
  0
LINE
  5
DF
330
1E
100
AcDbEntity
  8
0
100
AcDbLine
 10
41.0
 20
102.2
 30
0.0
 11
41.0
 21
102.7
 31
0.0
  0
LINE
  5
E0
330
1E
100
AcDbEntity
  8
0
100
AcDbLine
 10
41.0
 20
102.2
 30
0.0
 11
41.0
 21
100.965
 31
0.0
  0
LINE
  5
E1
330
1E
100
AcDbEntity
  8
0
100
AcDbLine
 10
41.0
 20
103.0
 30
0.0
 11
41.0
 21
102.7
 31
0.0
  0
LINE
  5
E2
330
1E
100
AcDbEntity
  8
0
100
AcDbLine
 10
41.0
 20
102.7
 30
0.0
 11
41.0
 21
103.0
 31
0.0
  0
LINE
  5
E3
330
1E
100
AcDbEntity
  8
0
100
AcDbLine
 10
41.0
 20
102.7
 30
0.0
 11
41.0
 21
102.2
 31
0.0
  0
LINE
  5
E4
330
1E
100
AcDbEntity
  8
0
100
AcDbLine
 10
41.0
 20
100.965
 30
0.0
 11
41.0
 21
99.54770000000001
 31
0.0
  0
LINE
  5
E5
330
1E
100
AcDbEntity
  8
0
100
AcDbLine
 10
41.0
 20
100.965
 30
0.0
 11
41.0
 21
102.2
 31
0.0
  0
LINE
  5
E6
330
1E
100
AcDbEntity
  8
0
100
AcDbLine
 10
41.0
 20
99.54770000000001
 30
0.0
 11
41.0
 21
97.56540000000001
 31
0.0
  0
LINE
  5
E7
330
1E
100
AcDbEntity
  8
0
100
AcDbLine
 10
41.0
 20
99.54770000000001
 30
0.0
 11
41.0
 21
100.965
 31
0.0
  0
LINE
  5
E8
330
1E
100
AcDbEntity
  8
0
100
AcDbLine
 10
41.0
 20
97.56540000000001
 30
0.0
 11
41.0
 21
95.395
 31
0.0
  0
LINE
  5
E9
330
1E
100
AcDbEntity
  8
0
100
AcDbLine
 10
41.0
 20
97.56540000000001
 30
0.0
 11
41.0
 21
99.54770000000001
 31
0.0
  0
LINE
  5
EA
330
1E
100
AcDbEntity
  8
0
100
AcDbLine
 10
41.0
 20
95.395
 30
0.0
 11
41.0
 21
97.56540000000001
 31
0.0
  0
LINE
  5
EB
330
1E
100
AcDbEntity
  8
0
100
AcDbLine
 10
41.0
 20
95.395
 30
0.0
 11
41.0
 21
93.4448
 31
0.0
  0
LINE
  5
EC
330
1E
100
AcDbEntity
  8
0
100
AcDbLine
 10
41.0
 20
92.8354
 30
0.0
 11
41.0
 21
85.71229999999999
 31
0.0
  0
LINE
  5
ED
330
1E
100
AcDbEntity
  8
0
100
AcDbLine
 10
41.0
 20
85.71229999999999
 30
0.0
 11
41.0
 21
92.8354
 31
0.0
  0
LINE
  5
EE
330
1E
100
AcDbEntity
  8
0
100
AcDbLine
 10
40.49999999999999
 20
106.6
 30
0.0
 11
41.0
 21
103.0
 31
0.0
  0
LINE
  5
EF
330
1E
100
AcDbEntity
  8
0
100
AcDbLine
 10
41.1
 20
126.0
 30
0.0
 11
44.29999999999999
 21
126.0
 31
0.0
  0
LINE
  5
F0
330
1E
100
AcDbEntity
  8
0
100
AcDbLine
 10
40.2
 20
3.0
 30
0.0
 11
45.7
 21
3.0
 31
0.0
  0
LINE
  5
F1
330
1E
100
AcDbEntity
  8
0
100
AcDbLine
 10
40.4
 20
2.5
 30
0.0
 11
46.0
 21
2.5
 31
0.0
  0
LINE
  5
F2
330
1E
100
AcDbEntity
  8
0
100
AcDbLine
 10
33.9
 20
-0.0000000000000011
 30
0.0
 11
40.4
 21
-0.0000000000000012
 31
0.0
  0
LINE
  5
F3
330
1E
100
AcDbEntity
  8
0
100
AcDbLine
 10
40.4
 20
-0.0000000000000012
 30
0.0
 11
46.0
 21
-0.0000000000000015
 31
0.0
  0
LINE
  5
F4
330
1E
100
AcDbEntity
  8
0
100
AcDbLine
 10
32.1852
 20
126.0
 30
0.0
 11
36.9259
 21
126.0
 31
0.0
  0
LINE
  5
F5
330
1E
100
AcDbEntity
  8
0
100
AcDbLine
 10
36.9259
 20
126.0
 30
0.0
 11
41.1482
 21
126.0
 31
0.0
  0
LINE
  5
F6
330
1E
100
AcDbEntity
  8
0
100
AcDbLine
 10
46.0
 20
-0.0000000000000038
 30
0.0
 11
50.4
 21
-0.0000000000000035
 31
0.0
  0
LINE
  5
F7
330
1E
100
AcDbEntity
  8
0
100
AcDbLine
 10
44.29999999999999
 20
126.0
 30
0.0
 11
46.29999999999999
 21
126.0
 31
0.0
  0
LINE
  5
F8
330
1E
100
AcDbEntity
  8
0
100
AcDbLine
 10
41.79999999999999
 20
125.0
 30
0.0
 11
45.2
 21
125.0
 31
0.0
  0
LINE
  5
F9
330
1E
100
AcDbEntity
  8
0
100
AcDbLine
 10
45.2
 20
125.0
 30
0.0
 11
47.2
 21
125.0
 31
0.0
  0
LINE
  5
FA
330
1E
100
AcDbEntity
  8
0
100
AcDbLine
 10
42.2
 20
3.5
 30
0.0
 11
45.6
 21
3.5
 31
0.0
  0
LINE
  5
FB
330
1E
100
AcDbEntity
  8
0
100
AcDbLine
 10
45.6
 20
3.5
 30
0.0
 11
47.7
 21
3.5
 31
0.0
  0
LINE
  5
FC
330
1E
100
AcDbEntity
  8
0
100
AcDbLine
 10
45.7
 20
3.0
 30
0.0
 11
50.0
 21
3.0
 31
0.0
  0
LINE
  5
FD
330
1E
100
AcDbEntity
  8
0
100
AcDbLine
 10
46.0
 20
2.5
 30
0.0
 11
50.4
 21
2.5
 31
0.0
  0
LINE
  5
FE
330
1E
100
AcDbEntity
  8
0
100
AcDbLine
 10
46.0
 20
-0.0000000000000015
 30
0.0
 11
50.4
 21
-0.0000000000000018
 31
0.0
  0
LINE
  5
FF
330
1E
100
AcDbEntity
  8
0
100
AcDbLine
 10
41.1482
 20
126.0
 30
0.0
 11
44.3334
 21
126.0
 31
0.0
  0
LINE
  5
100
330
1E
100
AcDbEntity
  8
0
100
AcDbLine
 10
44.3334
 20
126.0
 30
0.0
 11
46.2593
 21
126.0
 31
0.0
  0
LINE
  5
101
330
1E
100
AcDbEntity
  8
0
100
AcDbLine
 10
50.4
 20
-0.0000000000000035
 30
0.0
 11
53.0
 21
-0.0000000000000031
 31
0.0
  0
LINE
  5
102
330
1E
100
AcDbEntity
  8
0
100
AcDbLine
 10
53.0
 20
-0.0000000000000031
 30
0.0
 11
54.0
 21
-0.0000000000000027
 31
0.0
  0
LINE
  5
103
330
1E
100
AcDbEntity
  8
0
100
AcDbLine
 10
54.0
 20
-0.0000000000000027
 30
0.0
 11
54.0
 21
2.5
 31
0.0
  0
LINE
  5
104
330
1E
100
AcDbEntity
  8
0
100
AcDbLine
 10
48.5
 20
3.5
 30
0.0
 11
49.5
 21
3.0
 31
0.0
  0
LINE
  5
105
330
1E
100
AcDbEntity
  8
0
100
AcDbLine
 10
48.0
 20
125.0
 30
0.0
 11
48.0
 21
5.0
 31
0.0
  0
LINE
  5
106
330
1E
100
AcDbEntity
  8
0
100
AcDbLine
 10
47.2
 20
125.0
 30
0.0
 11
48.0
 21
125.0
 31
0.0
  0
LINE
  5
107
330
1E
100
AcDbEntity
  8
0
100
AcDbLine
 10
48.0
 20
5.0
 30
0.0
 11
48.5
 21
3.5
 31
0.0
  0
LINE
  5
108
330
1E
100
AcDbEntity
  8
0
100
AcDbLine
 10
48.0
 20
5.0
 30
0.0
 11
48.0
 21
125.0
 31
0.0
  0
LINE
  5
109
330
1E
100
AcDbEntity
  8
0
100
AcDbLine
 10
47.7
 20
3.5
 30
0.0
 11
48.5
 21
3.5
 31
0.0
  0
LINE
  5
10A
330
1E
100
AcDbEntity
  8
0
100
AcDbLine
 10
50.0
 20
3.0
 30
0.0
 11
52.5
 21
3.0
 31
0.0
  0
LINE
  5
10B
330
1E
100
AcDbEntity
  8
0
100
AcDbLine
 10
50.4
 20
2.5
 30
0.0
 11
53.0
 21
2.5
 31
0.0
  0
LINE
  5
10C
330
1E
100
AcDbEntity
  8
0
100
AcDbLine
 10
54.0
 20
2.5
 30
0.0
 11
54.0
 21
-0.0000000000000025
 31
0.0
  0
LINE
  5
10D
330
1E
100
AcDbEntity
  8
0
100
AcDbLine
 10
53.5
 20
3.0
 30
0.0
 11
54.0
 21
2.5
 31
0.0
  0
LINE
  5
10E
330
1E
100
AcDbEntity
  8
0
100
AcDbLine
 10
52.5
 20
3.0
 30
0.0
 11
53.5
 21
3.0
 31
0.0
  0
LINE
  5
10F
330
1E
100
AcDbEntity
  8
0
100
AcDbLine
 10
53.0
 20
2.5
 30
0.0
 11
54.0
 21
2.5
 31
0.0
  0
LINE
  5
110
330
1E
100
AcDbEntity
  8
0
100
AcDbLine
 10
50.4
 20
-0.0000000000000018
 30
0.0
 11
53.0
 21
-0.0000000000000022
 31
0.0
  0
LINE
  5
111
330
1E
100
AcDbEntity
  8
0
100
AcDbLine
 10
53.0
 20
-0.0000000000000022
 30
0.0
 11
54.0
 21
-0.0000000000000027
 31
0.0
  0
LINE
  5
112
330
1E
100
AcDbEntity
  8
0
100
AcDbLine
 10
46.29999999999999
 20
126.0
 30
0.0
 11
47.0
 21
126.0
 31
0.0
  0
LINE
  5
113
330
1E
100
AcDbEntity
  8
0
100
AcDbLine
 10
47.0
 20
126.5929999999999
 30
0.0
 11
47.0
 21
126.0
 31
0.0
  0
LINE
  5
114
330
1E
100
AcDbEntity
  8
0
100
AcDbLine
 10
47.0
 20
126.0
 30
0.0
 11
47.0
 21
126.5929999999999
 31
0.0
  0
LINE
  5
115
330
1E
100
AcDbEntity
  8
0
100
AcDbLine
 10
47.0
 20
126.0
 30
0.0
 11
48.0
 21
125.0
 31
0.0
  0
LINE
  5
116
330
1E
100
AcDbEntity
  8
0
100
AcDbLine
 10
31.875
 20
128.05
 30
0.0
 11
37.05
 21
128.1939999999999
 31
0.0
  0
LINE
  5
117
330
1E
100
AcDbEntity
  8
0
100
AcDbLine
 10
37.05
 20
128.1939999999999
 30
0.0
 11
41.625
 21
128.424
 31
0.0
  0
LINE
  5
118
330
1E
100
AcDbEntity
  8
0
100
AcDbLine
 10
41.625
 20
128.424
 30
0.0
 11
45.075
 21
128.7279999999999
 31
0.0
  0
LINE
  5
119
330
1E
100
AcDbEntity
  8
0
100
AcDbLine
 10
22.12499999999999
 20
128.05
 30
0.0
 11
27.0
 21
128.0
 31
0.0
  0
LINE
  5
11A
330
1E
100
AcDbEntity
  8
0
100
AcDbLine
 10
16.95
 20
128.1939999999999
 30
0.0
 11
22.12499999999999
 21
128.05
 31
0.0
  0
LINE
  5
11B
330
1E
100
AcDbEntity
  8
0
100
AcDbLine
 10
46.7597883801079
 20
128.9944676794289
 30
0.0
 11
47.0
 21
126.5929999999999
 31
0.0
  0
LINE
  5
11C
330
1E
100
AcDbEntity
  8
0
100
AcDbLine
 10
45.075
 20
128.7279999999999
 30
0.0
 11
47.25
 21
129.072
 31
0.0
  0
LINE
  5
11D
330
1E
100
AcDbEntity
  8
0
100
AcDbLine
 10
47.25
 20
129.072
 30
0.0
 11
48.0
 21
129.396
 31
0.0
  0
LINE
  5
11E
330
1E
100
AcDbEntity
  8
0
100
AcDbLine
 10
12.375
 20
128.424
 30
0.0
 11
16.95
 21
128.1939999999999
 31
0.0
  0
LINE
  5
11F
330
1E
100
AcDbEntity
  8
0
100
AcDbLine
 10
8.925
 20
128.7279999999999
 30
0.0
 11
12.375
 21
128.424
 31
0.0
  0
LINE
  5
120
330
1E
100
AcDbEntity
  8
0
100
AcDbLine
 10
16.5
 20
148.3999999999999
 30
0.0
 11
17.19999999999999
 21
148.0999999999999
 31
0.0
  0
LINE
  5
121
330
1E
100
AcDbEntity
  8
0
100
AcDbLine
 10
15.4
 20
149.5
 30
0.0
 11
15.9
 21
148.9
 31
0.0
  0
LINE
  5
122
330
1E
100
AcDbEntity
  8
0
100
AcDbLine
 10
15.9
 20
153.0999999999999
 30
0.0
 11
16.5
 21
153.6
 31
0.0
  0
LINE
  5
123
330
1E
100
AcDbEntity
  8
0
100
AcDbLine
 10
15.4
 20
152.5
 30
0.0
 11
15.9
 21
153.0999999999999
 31
0.0
  0
LINE
  5
124
330
1E
100
AcDbEntity
  8
0
100
AcDbLine
 10
15.09999999999999
 20
151.8
 30
0.0
 11
15.4
 21
152.5
 31
0.0
  0
LINE
  5
125
330
1E
100
AcDbEntity
  8
0
100
AcDbLine
 10
15.0
 20
151.0
 30
0.0
 11
15.09999999999999
 21
151.8
 31
0.0
  0
LINE
  5
126
330
1E
100
AcDbEntity
  8
0
100
AcDbLine
 10
15.0
 20
151.0
 30
0.0
 11
15.09999999999999
 21
150.1999999999999
 31
0.0
  0
LINE
  5
127
330
1E
100
AcDbEntity
  8
0
100
AcDbLine
 10
17.19999999999999
 20
148.0999999999999
 30
0.0
 11
18.0
 21
148.0
 31
0.0
  0
LINE
  5
128
330
1E
100
AcDbEntity
  8
0
100
AcDbLine
 10
18.1
 20
148.0
 30
0.0
 11
18.3
 21
148.0
 31
0.0
  0
LINE
  5
129
330
1E
100
AcDbEntity
  8
0
100
AcDbLine
 10
18.0
 20
148.0
 30
0.0
 11
18.1
 21
148.0
 31
0.0
  0
LINE
  5
12A
330
1E
100
AcDbEntity
  8
0
100
AcDbLine
 10
18.7
 20
148.0
 30
0.0
 11
19.15569999999999
 21
148.0
 31
0.0
  0
LINE
  5
12B
330
1E
100
AcDbEntity
  8
0
100
AcDbLine
 10
18.3
 20
148.0
 30
0.0
 11
18.7
 21
148.0
 31
0.0
  0
LINE
  5
12C
330
1E
100
AcDbEntity
  8
0
100
AcDbLine
 10
19.15569999999999
 20
148.0
 30
0.0
 11
19.75789999999999
 21
148.0
 31
0.0
  0
LINE
  5
12D
330
1E
100
AcDbEntity
  8
0
100
AcDbLine
 10
19.75789999999999
 20
148.0
 30
0.0
 11
20.5697
 21
148.0
 31
0.0
  0
LINE
  5
12E
330
1E
100
AcDbEntity
  8
0
100
AcDbLine
 10
18.7
 20
154.0
 30
0.0
 11
19.15569999999999
 21
154.0
 31
0.0
  0
LINE
  5
12F
330
1E
100
AcDbEntity
  8
0
100
AcDbLine
 10
19.15569999999999
 20
154.0
 30
0.0
 11
19.75789999999999
 21
154.0
 31
0.0
  0
LINE
  5
130
330
1E
100
AcDbEntity
  8
0
100
AcDbLine
 10
21.57989999999999
 20
148.0
 30
0.0
 11
22.5219
 21
148.0
 31
0.0
  0
LINE
  5
131
330
1E
100
AcDbEntity
  8
0
100
AcDbLine
 10
20.5697
 20
148.0
 30
0.0
 11
21.57989999999999
 21
148.0
 31
0.0
  0
LINE
  5
132
330
1E
100
AcDbEntity
  8
0
100
AcDbLine
 10
22.5219
 20
148.0
 30
0.0
 11
23.6
 21
148.0
 31
0.0
  0
LINE
  5
133
330
1E
100
AcDbEntity
  8
0
100
AcDbLine
 10
23.6
 20
148.0
 30
0.0
 11
24.7
 21
148.0
 31
0.0
  0
LINE
  5
134
330
1E
100
AcDbEntity
  8
0
100
AcDbLine
 10
24.7
 20
148.0
 30
0.0
 11
25.8
 21
148.0
 31
0.0
  0
LINE
  5
135
330
1E
100
AcDbEntity
  8
0
100
AcDbLine
 10
25.8
 20
148.0
 30
0.0
 11
27.0
 21
148.0
 31
0.0
  0
LINE
  5
136
330
1E
100
AcDbEntity
  8
0
100
AcDbLine
 10
23.6
 20
154.0
 30
0.0
 11
24.7
 21
154.0
 31
0.0
  0
LINE
  5
137
330
1E
100
AcDbEntity
  8
0
100
AcDbLine
 10
24.7
 20
154.0
 30
0.0
 11
25.8
 21
154.0
 31
0.0
  0
LINE
  5
138
330
1E
100
AcDbEntity
  8
0
100
AcDbLine
 10
30.4
 20
148.0
 30
0.0
 11
31.4781
 21
148.0
 31
0.0
  0
LINE
  5
139
330
1E
100
AcDbEntity
  8
0
100
AcDbLine
 10
31.4781
 20
148.0
 30
0.0
 11
32.4201
 21
148.0
 31
0.0
  0
LINE
  5
13A
330
1E
100
AcDbEntity
  8
0
100
AcDbLine
 10
29.3
 20
148.0
 30
0.0
 11
30.4
 21
148.0
 31
0.0
  0
LINE
  5
13B
330
1E
100
AcDbEntity
  8
0
100
AcDbLine
 10
28.2
 20
148.0
 30
0.0
 11
29.3
 21
148.0
 31
0.0
  0
LINE
  5
13C
330
1E
100
AcDbEntity
  8
0
100
AcDbLine
 10
30.4
 20
154.0
 30
0.0
 11
31.4781
 21
154.0
 31
0.0
  0
LINE
  5
13D
330
1E
100
AcDbEntity
  8
0
100
AcDbLine
 10
31.4781
 20
154.0
 30
0.0
 11
32.4201
 21
154.0
 31
0.0
  0
LINE
  5
13E
330
1E
100
AcDbEntity
  8
0
100
AcDbLine
 10
29.3
 20
154.0
 30
0.0
 11
30.4
 21
154.0
 31
0.0
  0
LINE
  5
13F
330
1E
100
AcDbEntity
  8
0
100
AcDbLine
 10
28.2
 20
154.0
 30
0.0
 11
29.3
 21
154.0
 31
0.0
  0
LINE
  5
140
330
1E
100
AcDbEntity
  8
0
100
AcDbLine
 10
27.0
 20
154.0
 30
0.0
 11
28.2
 21
154.0
 31
0.0
  0
LINE
  5
141
330
1E
100
AcDbEntity
  8
0
100
AcDbLine
 10
27.0
 20
148.0
 30
0.0
 11
28.2
 21
148.0
 31
0.0
  0
LINE
  5
142
330
1E
100
AcDbEntity
  8
0
100
AcDbLine
 10
25.8
 20
154.0
 30
0.0
 11
27.0
 21
154.0
 31
0.0
  0
LINE
  5
143
330
1E
100
AcDbEntity
  8
0
100
AcDbLine
 10
22.5219
 20
154.0
 30
0.0
 11
23.6
 21
154.0
 31
0.0
  0
LINE
  5
144
330
1E
100
AcDbEntity
  8
0
100
AcDbLine
 10
21.57989999999999
 20
154.0
 30
0.0
 11
22.5219
 21
154.0
 31
0.0
  0
LINE
  5
145
330
1E
100
AcDbEntity
  8
0
100
AcDbLine
 10
20.5697
 20
154.0
 30
0.0
 11
21.57989999999999
 21
154.0
 31
0.0
  0
LINE
  5
146
330
1E
100
AcDbEntity
  8
0
100
AcDbLine
 10
19.75789999999999
 20
154.0
 30
0.0
 11
20.5697
 21
154.0
 31
0.0
  0
LINE
  5
147
330
1E
100
AcDbEntity
  8
0
100
AcDbLine
 10
18.3
 20
154.0
 30
0.0
 11
18.7
 21
154.0
 31
0.0
  0
LINE
  5
148
330
1E
100
AcDbEntity
  8
0
100
AcDbLine
 10
18.1
 20
154.0
 30
0.0
 11
18.3
 21
154.0
 31
0.0
  0
LINE
  5
149
330
1E
100
AcDbEntity
  8
0
100
AcDbLine
 10
18.0
 20
154.0
 30
0.0
 11
18.1
 21
154.0
 31
0.0
  0
LINE
  5
14A
330
1E
100
AcDbEntity
  8
0
100
AcDbLine
 10
17.19999999999999
 20
153.9
 30
0.0
 11
18.0
 21
154.0
 31
0.0
  0
LINE
  5
14B
330
1E
100
AcDbEntity
  8
0
100
AcDbLine
 10
27.0
 20
160.8699999999999
 30
0.0
 11
31.725
 21
160.8699999999999
 31
0.0
  0
LINE
  5
14C
330
1E
100
AcDbEntity
  8
0
100
AcDbLine
 10
35.29999999999999
 20
148.0
 30
0.0
 11
35.7
 21
148.0
 31
0.0
  0
LINE
  5
14D
330
1E
100
AcDbEntity
  8
0
100
AcDbLine
 10
35.7
 20
148.0
 30
0.0
 11
35.89999999999999
 21
148.0
 31
0.0
  0
LINE
  5
14E
330
1E
100
AcDbEntity
  8
0
100
AcDbLine
 10
35.89999999999999
 20
148.0
 30
0.0
 11
36.0
 21
148.0
 31
0.0
  0
LINE
  5
14F
330
1E
100
AcDbEntity
  8
0
100
AcDbLine
 10
34.84429999999999
 20
148.0
 30
0.0
 11
35.29999999999999
 21
148.0
 31
0.0
  0
LINE
  5
150
330
1E
100
AcDbEntity
  8
0
100
AcDbLine
 10
34.2421
 20
148.0
 30
0.0
 11
34.84429999999999
 21
148.0
 31
0.0
  0
LINE
  5
151
330
1E
100
AcDbEntity
  8
0
100
AcDbLine
 10
33.4303
 20
148.0
 30
0.0
 11
34.2421
 21
148.0
 31
0.0
  0
LINE
  5
152
330
1E
100
AcDbEntity
  8
0
100
AcDbLine
 10
32.4201
 20
148.0
 30
0.0
 11
33.4303
 21
148.0
 31
0.0
  0
LINE
  5
153
330
1E
100
AcDbEntity
  8
0
100
AcDbLine
 10
36.0
 20
148.0
 30
0.0
 11
36.79999999999999
 21
148.0999999999999
 31
0.0
  0
LINE
  5
154
330
1E
100
AcDbEntity
  8
0
100
AcDbLine
 10
36.79999999999999
 20
148.0999999999999
 30
0.0
 11
37.5
 21
148.3999999999999
 31
0.0
  0
LINE
  5
155
330
1E
100
AcDbEntity
  8
0
100
AcDbLine
 10
37.5
 20
148.3999999999999
 30
0.0
 11
38.1
 21
148.9
 31
0.0
  0
LINE
  5
156
330
1E
100
AcDbEntity
  8
0
100
AcDbLine
 10
34.84429999999999
 20
154.0
 30
0.0
 11
35.29999999999999
 21
154.0
 31
0.0
  0
LINE
  5
157
330
1E
100
AcDbEntity
  8
0
100
AcDbLine
 10
34.2421
 20
154.0
 30
0.0
 11
34.84429999999999
 21
154.0
 31
0.0
  0
LINE
  5
158
330
1E
100
AcDbEntity
  8
0
100
AcDbLine
 10
33.4303
 20
154.0
 30
0.0
 11
34.2421
 21
154.0
 31
0.0
  0
LINE
  5
159
330
1E
100
AcDbEntity
  8
0
100
AcDbLine
 10
35.29999999999999
 20
154.0
 30
0.0
 11
35.7
 21
154.0
 31
0.0
  0
LINE
  5
15A
330
1E
100
AcDbEntity
  8
0
100
AcDbLine
 10
35.7
 20
154.0
 30
0.0
 11
35.89999999999999
 21
154.0
 31
0.0
  0
LINE
  5
15B
330
1E
100
AcDbEntity
  8
0
100
AcDbLine
 10
35.89999999999999
 20
154.0
 30
0.0
 11
36.0
 21
154.0
 31
0.0
  0
LINE
  5
15C
330
1E
100
AcDbEntity
  8
0
100
AcDbLine
 10
32.4201
 20
154.0
 30
0.0
 11
33.4303
 21
154.0
 31
0.0
  0
LINE
  5
15D
330
1E
100
AcDbEntity
  8
0
100
AcDbLine
 10
36.0
 20
154.0
 30
0.0
 11
36.79999999999999
 21
153.9
 31
0.0
  0
LINE
  5
15E
330
1E
100
AcDbEntity
  8
0
100
AcDbLine
 10
36.79999999999999
 20
153.9
 30
0.0
 11
37.5
 21
153.6
 31
0.0
  0
LINE
  5
15F
330
1E
100
AcDbEntity
  8
0
100
AcDbLine
 10
37.5
 20
153.6
 30
0.0
 11
38.1
 21
153.0999999999999
 31
0.0
  0
LINE
  5
160
330
1E
100
AcDbEntity
  8
0
100
AcDbLine
 10
38.1
 20
153.0999999999999
 30
0.0
 11
38.6
 21
152.5
 31
0.0
  0
LINE
  5
161
330
1E
100
AcDbEntity
  8
0
100
AcDbLine
 10
38.6
 20
152.5
 30
0.0
 11
38.9
 21
151.8
 31
0.0
  0
LINE
  5
162
330
1E
100
AcDbEntity
  8
0
100
AcDbLine
 10
38.9
 20
151.8
 30
0.0
 11
39.0
 21
151.0
 31
0.0
  0
LINE
  5
163
330
1E
100
AcDbEntity
  8
0
100
AcDbLine
 10
38.1
 20
148.9
 30
0.0
 11
38.6
 21
149.5
 31
0.0
  0
LINE
  5
164
330
1E
100
AcDbEntity
  8
0
100
AcDbLine
 10
31.725
 20
160.8699999999999
 30
0.0
 11
36.825
 21
160.8699999999999
 31
0.0
  0
LINE
  5
165
330
1E
100
AcDbEntity
  8
0
100
AcDbLine
 10
36.825
 20
160.8699999999999
 30
0.0
 11
41.25
 21
160.8699999999999
 31
0.0
  0
LINE
  5
166
330
1E
100
AcDbEntity
  8
0
100
AcDbLine
 10
41.25
 20
160.8699999999999
 30
0.0
 11
44.7
 21
160.8699999999999
 31
0.0
  0
LINE
  5
167
330
1E
100
AcDbEntity
  8
0
100
AcDbLine
 10
44.7
 20
160.8699999999999
 30
0.0
 11
46.79999999999999
 21
160.8699999999999
 31
0.0
  0
LINE
  5
168
330
1E
100
AcDbEntity
  8
0
100
AcDbLine
 10
48.0
 20
159.882
 30
0.0
 11
48.0
 21
129.396
 31
0.0
  0
LINE
  5
169
330
1E
100
AcDbEntity
  8
0
100
AcDbLine
 10
47.54999999999999
 20
160.8699999999999
 30
0.0
 11
48.0
 21
159.882
 31
0.0
  0
LINE
  5
16A
330
1E
100
AcDbEntity
  8
0
100
AcDbLine
 10
46.79999999999999
 20
160.8699999999999
 30
0.0
 11
47.54999999999999
 21
160.8699999999999
 31
0.0
  0
LINE
  5
16B
330
1E
100
AcDbEntity
  8
0
100
AcDbLine
 10
48.0
 20
129.396
 30
0.0
 11
48.0
 21
159.882
 31
0.0
  0
LINE
  5
16C
330
1E
100
AcDbEntity
  8
0
100
AcDbLine
 10
22.275
 20
160.8699999999999
 30
0.0
 11
27.0
 21
160.8699999999999
 31
0.0
  0
LINE
  5
16D
330
1E
100
AcDbEntity
  8
0
100
AcDbLine
 10
17.175
 20
160.8699999999999
 30
0.0
 11
22.275
 21
160.8699999999999
 31
0.0
  0
LINE
  5
16E
330
1E
100
AcDbEntity
  8
0
100
AcDbLine
 10
12.75
 20
160.8699999999999
 30
0.0
 11
17.175
 21
160.8699999999999
 31
0.0
  0
LINE
  5
16F
330
1E
100
AcDbEntity
  8
0
100
AcDbLine
 10
9.3
 20
160.8699999999999
 30
0.0
 11
12.75
 21
160.8699999999999
 31
0.0
  0
LINE
  5
174
330
1E
100
AcDbEntity
  8
0
100
AcDbLine
 10
18.1951
 20
161.71
 30
0.0
 11
18.4511
 21
161.712
 31
0.0
  0
LINE
  5
175
330
1E
100
AcDbEntity
  8
0
100
AcDbLine
 10
18.4511
 20
161.712
 30
0.0
 11
18.6911
 21
161.717
 31
0.0
  0
LINE
  5
176
330
1E
100
AcDbEntity
  8
0
100
AcDbLine
 10
18.6911
 20
161.717
 30
0.0
 11
18.90309999999999
 21
161.725
 31
0.0
  0
LINE
  5
177
330
1E
100
AcDbEntity
  8
0
100
AcDbLine
 10
17.9391
 20
161.712
 30
0.0
 11
18.1951
 21
161.71
 31
0.0
  0
LINE
  5
178
330
1E
100
AcDbEntity
  8
0
100
AcDbLine
 10
17.6991
 20
161.717
 30
0.0
 11
17.9391
 21
161.712
 31
0.0
  0
LINE
  5
179
330
1E
100
AcDbEntity
  8
0
100
AcDbLine
 10
35.5489
 20
161.712
 30
0.0
 11
35.8049
 21
161.71
 31
0.0
  0
LINE
  5
17A
330
1E
100
AcDbEntity
  8
0
100
AcDbLine
 10
35.3089
 20
161.717
 30
0.0
 11
35.5489
 21
161.712
 31
0.0
  0
LINE
  5
17B
330
1E
100
AcDbEntity
  8
0
100
AcDbLine
 10
35.8049
 20
161.71
 30
0.0
 11
36.0609
 21
161.712
 31
0.0
  0
LINE
  5
17C
330
1E
100
AcDbEntity
  8
0
100
AcDbLine
 10
36.0609
 20
161.712
 30
0.0
 11
36.3009
 21
161.717
 31
0.0
  0
LINE
  5
17D
330
1E
100
AcDbEntity
  8
0
100
AcDbLine
 10
18.90309999999999
 20
161.725
 30
0.0
 11
19.06309999999999
 21
161.7359999999999
 31
0.0
  0
LINE
  5
17E
330
1E
100
AcDbEntity
  8
0
100
AcDbLine
 10
19.06309999999999
 20
161.7359999999999
 30
0.0
 11
19.1591
 21
161.749
 31
0.0
  0
LINE
  5
17F
330
1E
100
AcDbEntity
  8
0
100
AcDbLine
 10
17.4871
 20
161.725
 30
0.0
 11
17.6991
 21
161.717
 31
0.0
  0
LINE
  5
180
330
1E
100
AcDbEntity
  8
0
100
AcDbLine
 10
17.3271
 20
161.7359999999999
 30
0.0
 11
17.4871
 21
161.725
 31
0.0
  0
LINE
  5
181
330
1E
100
AcDbEntity
  8
0
100
AcDbLine
 10
35.09689999999999
 20
161.725
 30
0.0
 11
35.3089
 21
161.717
 31
0.0
  0
LINE
  5
182
330
1E
100
AcDbEntity
  8
0
100
AcDbLine
 10
34.9369
 20
161.7359999999999
 30
0.0
 11
35.09689999999999
 21
161.725
 31
0.0
  0
LINE
  5
183
330
1E
100
AcDbEntity
  8
0
100
AcDbLine
 10
36.3009
 20
161.717
 30
0.0
 11
36.5129
 21
161.725
 31
0.0
  0
LINE
  5
184
330
1E
100
AcDbEntity
  8
0
100
AcDbLine
 10
36.5129
 20
161.725
 30
0.0
 11
36.67289999999999
 21
161.7359999999999
 31
0.0
  0
LINE
  5
185
330
1E
100
AcDbEntity
  8
0
100
AcDbLine
 10
17.2311
 20
161.749
 30
0.0
 11
17.3271
 21
161.7359999999999
 31
0.0
  0
LINE
  5
186
330
1E
100
AcDbEntity
  8
0
100
AcDbLine
 10
34.8409
 20
161.749
 30
0.0
 11
34.9369
 21
161.7359999999999
 31
0.0
  0
LINE
  5
187
330
1E
100
AcDbEntity
  8
0
100
AcDbLine
 10
36.67289999999999
 20
161.7359999999999
 30
0.0
 11
36.7689
 21
161.749
 31
0.0
  0
LINE
  5
188
330
1E
100
AcDbEntity
  8
0
100
AcDbLine
 10
36.8049
 20
161.692344026667
 30
0.0
 11
38.25
 21
161.647
 31
0.0
  0
LINE
  5
189
330
1E
100
AcDbEntity
  8
0
100
AcDbLine
 10
38.25
 20
161.647
 30
0.0
 11
46.5
 21
161.2939999999999
 31
0.0
  0
LINE
  5
18A
330
1E
100
AcDbEntity
  8
0
100
AcDbLine
 10
46.5
 20
161.2939999999999
 30
0.0
 11
47.54999999999999
 21
160.8699999999999
 31
0.0
  0
LINE
  5
18B
330
1E
100
AcDbEntity
  8
0
100
AcDbLine
 10
15.75
 20
161.647
 30
0.0
 11
17.1951
 21
161.692344026667
 31
0.0
  0
LINE
  5
18D
330
1E
100
AcDbEntity
  8
0
100
AcDbLine
 10
17.3271
 20
161.7879999999999
 30
0.0
 11
17.4871
 21
161.7989999999999
 31
0.0
  0
LINE
  5
18E
330
1E
100
AcDbEntity
  8
0
100
AcDbLine
 10
17.2311
 20
161.775
 30
0.0
 11
17.3271
 21
161.7879999999999
 31
0.0
  0
LINE
  5
18F
330
1E
100
AcDbEntity
  8
0
100
AcDbLine
 10
17.6991
 20
161.807
 30
0.0
 11
17.9391
 21
161.812
 31
0.0
  0
LINE
  5
190
330
1E
100
AcDbEntity
  8
0
100
AcDbLine
 10
17.4871
 20
161.7989999999999
 30
0.0
 11
17.6991
 21
161.807
 31
0.0
  0
LINE
  5
191
330
1E
100
AcDbEntity
  8
0
100
AcDbLine
 10
17.9391
 20
161.812
 30
0.0
 11
18.1951
 21
161.8139999999999
 31
0.0
  0
LINE
  5
192
330
1E
100
AcDbEntity
  8
0
100
AcDbLine
 10
18.1951
 20
161.8139999999999
 30
0.0
 11
18.4511
 21
161.812
 31
0.0
  0
LINE
  5
193
330
1E
100
AcDbEntity
  8
0
100
AcDbLine
 10
18.4511
 20
161.812
 30
0.0
 11
18.6911
 21
161.807
 31
0.0
  0
LINE
  5
194
330
1E
100
AcDbEntity
  8
0
100
AcDbLine
 10
18.6911
 20
161.807
 30
0.0
 11
18.90309999999999
 21
161.7989999999999
 31
0.0
  0
LINE
  5
195
330
1E
100
AcDbEntity
  8
0
100
AcDbLine
 10
18.90309999999999
 20
161.7989999999999
 30
0.0
 11
19.06309999999999
 21
161.7879999999999
 31
0.0
  0
LINE
  5
196
330
1E
100
AcDbEntity
  8
0
100
AcDbLine
 10
19.06309999999999
 20
161.7879999999999
 30
0.0
 11
19.1591
 21
161.775
 31
0.0
  0
LINE
  5
199
330
1E
100
AcDbEntity
  8
0
100
AcDbLine
 10
36.67289999999999
 20
161.7879999999999
 30
0.0
 11
36.7689
 21
161.775
 31
0.0
  0
LINE
  5
19A
330
1E
100
AcDbEntity
  8
0
100
AcDbLine
 10
36.3009
 20
161.807
 30
0.0
 11
36.5129
 21
161.7989999999999
 31
0.0
  0
LINE
  5
19B
330
1E
100
AcDbEntity
  8
0
100
AcDbLine
 10
36.5129
 20
161.7989999999999
 30
0.0
 11
36.67289999999999
 21
161.7879999999999
 31
0.0
  0
LINE
  5
19C
330
1E
100
AcDbEntity
  8
0
100
AcDbLine
 10
35.8049
 20
161.8139999999999
 30
0.0
 11
36.0609
 21
161.812
 31
0.0
  0
LINE
  5
19D
330
1E
100
AcDbEntity
  8
0
100
AcDbLine
 10
36.0609
 20
161.812
 30
0.0
 11
36.3009
 21
161.807
 31
0.0
  0
LINE
  5
19E
330
1E
100
AcDbEntity
  8
0
100
AcDbLine
 10
35.5489
 20
161.812
 30
0.0
 11
35.8049
 21
161.8139999999999
 31
0.0
  0
LINE
  5
19F
330
1E
100
AcDbEntity
  8
0
100
AcDbLine
 10
35.3089
 20
161.807
 30
0.0
 11
35.5489
 21
161.812
 31
0.0
  0
LINE
  5
1A0
330
1E
100
AcDbEntity
  8
0
100
AcDbLine
 10
35.09689999999999
 20
161.7989999999999
 30
0.0
 11
35.3089
 21
161.807
 31
0.0
  0
LINE
  5
1A1
330
1E
100
AcDbEntity
  8
0
100
AcDbLine
 10
34.9369
 20
161.7879999999999
 30
0.0
 11
35.09689999999999
 21
161.7989999999999
 31
0.0
  0
LINE
  5
1A2
330
1E
100
AcDbEntity
  8
0
100
AcDbLine
 10
34.8409
 20
161.775
 30
0.0
 11
34.9369
 21
161.7879999999999
 31
0.0
  0
LINE
  5
1A4
330
1E
100
AcDbEntity
  8
0
100
AcDbLine
 10
27.0
 20
162.0
 30
0.0
 11
34.8049
 21
161.755099582222
 31
0.0
  0
LINE
  5
1A5
330
1E
100
AcDbEntity
  8
0
100
AcDbLine
 10
19.1951
 20
161.755099582222
 30
0.0
 11
27.0
 21
162.0
 31
0.0
  0
LINE
  5
1A6
330
1E
100
AcDbEntity
  8
0
100
AcDbLine
 10
7.5
 20
161.2939999999999
 30
0.0
 11
15.75
 21
161.647
 31
0.0
  0
LINE
  5
1A7
330
1E
100
AcDbEntity
  8
0
100
AcDbLine
 10
7.2
 20
160.8699999999999
 30
0.0
 11
9.3
 21
160.8699999999999
 31
0.0
  0
LINE
  5
1A8
330
1E
100
AcDbEntity
  8
0
100
AcDbLine
 10
6.45
 20
160.8699999999999
 30
0.0
 11
7.2
 21
160.8699999999999
 31
0.0
  0
LINE
  5
1A9
330
1E
100
AcDbEntity
  8
0
100
AcDbLine
 10
6.45
 20
160.8699999999999
 30
0.0
 11
7.5
 21
161.2939999999999
 31
0.0
  0
LINE
  5
1AA
330
1E
100
AcDbEntity
  8
0
100
AcDbLine
 10
6.75
 20
129.072
 30
0.0
 11
8.925
 21
128.7279999999999
 31
0.0
  0
LINE
  5
1AB
330
1E
100
AcDbEntity
  8
0
100
AcDbLine
 10
6.0
 20
129.396
 30
0.0
 11
6.75
 21
129.072
 31
0.0
  0
LINE
  5
1AC
330
1E
100
AcDbEntity
  8
0
100
AcDbLine
 10
6.0
 20
129.396
 30
0.0
 11
6.0
 21
159.882
 31
0.0
  0
LINE
  5
1B1
330
1E
100
AcDbEntity
  8
0
100
AcDbLine
 10
16.5
 20
153.6
 30
0.0
 11
17.19999999999999
 21
153.9
 31
0.0
  0
LINE
  5
1B2
330
1E
100
AcDbEntity
  8
0
100
AcDbLine
 10
15.4
 20
149.5
 30
0.0
 11
15.09999999999999
 21
150.1999999999999
 31
0.0
  0
LINE
  5
1B3
330
1E
100
AcDbEntity
  8
0
100
AcDbLine
 10
16.5
 20
148.3999999999999
 30
0.0
 11
15.9
 21
148.9
 31
0.0
  0
LINE
  5
1B4
330
1E
100
AcDbEntity
  8
0
100
AcDbLine
 10
39.0
 20
151.0
 30
0.0
 11
38.84309979861473
 21
150.1365600822676
 31
0.0
  0
LINE
  5
1B5
330
1E
100
AcDbEntity
  8
0
100
AcDbLine
 10
38.84309979861473
 20
150.1365600822676
 30
0.0
 11
38.6
 21
149.5
 31
0.0
  0
ENDSEC
  0
SECTION
  2
OBJECTS
  0
DICTIONARY
  5
C
330
0
100
AcDbDictionary
  3
ACAD_GROUP
350
D
  3
ACAD_LAYOUT
350
19
  3
ACAD_MLINESTYLE
350
16
  3
ACAD_PLOTSETTINGS
350
18
  3
ACAD_PLOTSTYLENAME
350
E
  3
ACDBHEADERROUNDTRIPXREC
350
1DE
  3
ACDBVARIABLEDICTIONARY
350
1B6
  0
DICTIONARY
  5
200
330
1E
100
AcDbDictionary
280
     1
  3
ACAD_LAYOUTSELFREF
360
201
  0
DICTIONARY
  5
1FE
330
1A
100
AcDbDictionary
280
     1
  3
ACAD_LAYOUTSELFREF
360
1FF
  0
DICTIONARY
  5
D
102
{ACAD_REACTORS
330
C
102
}
330
C
100
AcDbDictionary
  0
DICTIONARY
  5
19
102
{ACAD_REACTORS
330
C
102
}
330
C
100
AcDbDictionary
  0
DICTIONARY
  5
16
102
{ACAD_REACTORS
330
C
102
}
330
C
100
AcDbDictionary
  3
STANDARD
350
17
  0
DICTIONARY
  5
18
102
{ACAD_REACTORS
330
C
102
}
330
C
100
AcDbDictionary
  0
ACDBDICTIONARYWDFLT
  5
E
102
{ACAD_REACTORS
330
C
102
}
330
C
100
AcDbDictionary
281
     1
  3
Normal
350
F
100
AcDbDictionaryWithDefault
340
F
  0
DICTIONARY
  5
1DE
102
{ACAD_REACTORS
330
C
102
}
330
C
100
AcDbDictionary
  3
CEPSNTYPE
350
1E8
  3
FINGERPRINTGUID
350
1E9
  3
HYPERLINKBASE
350
1E1
  3
INSUNITS
350
1E7
  3
LAYOUTDICT
350
1E3
  3
LWETCUNION
350
1E6
  3
PLOTSETDICT
350
1E4
  3
PLOTSTYLNAMDICT
350
1E5
  3
PSVPSCALE
350
1EB
  3
PUCSBASE
350
1EE
  3
PUCSORGBACK
350
1F4
  3
PUCSORGBOTTOM
350
1F0
  3
PUCSORGFRONT
350
1F3
  3
PUCSORGLEFT
350
1F1
  3
PUCSORGRIGHT
350
1F2
  3
PUCSORGTOP
350
1EF
  3
PUCSORTHOREF
350
1EC
  3
PUCSORTHOVIEW
350
1ED
  3
STYLESHEET
350
1E2
  3
TSTACKALIGN
350
1DF
  3
TSTACKSIZE
350
1E0
  3
UCSBASE
350
1F7
  3
UCSORGBACK
350
1FD
  3
UCSORGBOTTOM
350
1F9
  3
UCSORGFRONT
350
1FC
  3
UCSORGLEFT
350
1FA
  3
UCSORGRIGHT
350
1FB
  3
UCSORGTOP
350
1F8
  3
UCSORTHOREF
350
1F5
  3
UCSORTHOVIEW
350
1F6
  3
VERSIONGUID
350
1EA
  0
DICTIONARY
  5
1B6
102
{ACAD_REACTORS
330
C
102
}
330
C
100
AcDbDictionary
  3
DIMASSOC
350
1B7
  0
XRECORD
  5
201
102
{ACAD_REACTORS
330
200
102
}
330
200
100
AcDbXrecord
340
1E
  0
XRECORD
  5
1FF
102
{ACAD_REACTORS
330
1FE
102
}
330
1FE
100
AcDbXrecord
340
1A
  0
MLINESTYLE
  5
17
102
{ACAD_REACTORS
330
16
102
}
330
16
100
AcDbMlineStyle
  2
STANDARD
 70
     0
  3

 62
   256
 51
90.0
 52
90.0
 71
     2
 49
0.5
 62
   256
  6
BYLAYER
 49
-0.5
 62
   256
  6
BYLAYER
  0
ACDBPLACEHOLDER
  5
F
102
{ACAD_REACTORS
330
E
102
}
330
E
100
AcDbPlaceHolder
280
     0
  0
XRECORD
  5
1E8
102
{ACAD_REACTORS
330
1DE
102
}
330
1DE
100
AcDbXrecord
 90
        0
  0
XRECORD
  5
1E9
102
{ACAD_REACTORS
330
1DE
102
}
330
1DE
100
AcDbXrecord
  1
{4AFC7A68-ACB0-4EBC-85AB-7F75C800996A}
  0
XRECORD
  5
1E1
102
{ACAD_REACTORS
330
1DE
102
}
330
1DE
100
AcDbXrecord
  1

  0
XRECORD
  5
1E7
102
{ACAD_REACTORS
330
1DE
102
}
330
1DE
100
AcDbXrecord
 90
        0
  0
XRECORD
  5
1E3
102
{ACAD_REACTORS
330
1DE
102
}
330
1DE
100
AcDbXrecord
340
19
  0
XRECORD
  5
1E6
102
{ACAD_REACTORS
330
1DE
102
}
330
1DE
100
AcDbXrecord
 90
    10781
  0
XRECORD
  5
1E4
102
{ACAD_REACTORS
330
1DE
102
}
330
1DE
100
AcDbXrecord
340
18
  0
XRECORD
  5
1E5
102
{ACAD_REACTORS
330
1DE
102
}
330
1DE
100
AcDbXrecord
340
E
  0
XRECORD
  5
1EB
102
{ACAD_REACTORS
330
1DE
102
}
330
1DE
100
AcDbXrecord
 40
0.0
  0
XRECORD
  5
1EE
102
{ACAD_REACTORS
330
1DE
102
}
330
1DE
100
AcDbXrecord
340
0
  0
XRECORD
  5
1F4
102
{ACAD_REACTORS
330
1DE
102
}
330
1DE
100
AcDbXrecord
 10
0.0
 20
0.0
 30
0.0
  0
XRECORD
  5
1F0
102
{ACAD_REACTORS
330
1DE
102
}
330
1DE
100
AcDbXrecord
 10
0.0
 20
0.0
 30
0.0
  0
XRECORD
  5
1F3
102
{ACAD_REACTORS
330
1DE
102
}
330
1DE
100
AcDbXrecord
 10
0.0
 20
0.0
 30
0.0
  0
XRECORD
  5
1F1
102
{ACAD_REACTORS
330
1DE
102
}
330
1DE
100
AcDbXrecord
 10
0.0
 20
0.0
 30
0.0
  0
XRECORD
  5
1F2
102
{ACAD_REACTORS
330
1DE
102
}
330
1DE
100
AcDbXrecord
 10
0.0
 20
0.0
 30
0.0
  0
XRECORD
  5
1EF
102
{ACAD_REACTORS
330
1DE
102
}
330
1DE
100
AcDbXrecord
 10
0.0
 20
0.0
 30
0.0
  0
XRECORD
  5
1EC
102
{ACAD_REACTORS
330
1DE
102
}
330
1DE
100
AcDbXrecord
340
0
  0
XRECORD
  5
1ED
102
{ACAD_REACTORS
330
1DE
102
}
330
1DE
100
AcDbXrecord
 70
     0
  0
XRECORD
  5
1E2
102
{ACAD_REACTORS
330
1DE
102
}
330
1DE
100
AcDbXrecord
  1

  0
XRECORD
  5
1DF
102
{ACAD_REACTORS
330
1DE
102
}
330
1DE
100
AcDbXrecord
 90
        1
  0
XRECORD
  5
1E0
102
{ACAD_REACTORS
330
1DE
102
}
330
1DE
100
AcDbXrecord
 90
       70
  0
XRECORD
  5
1F7
102
{ACAD_REACTORS
330
1DE
102
}
330
1DE
100
AcDbXrecord
340
0
  0
XRECORD
  5
1FD
102
{ACAD_REACTORS
330
1DE
102
}
330
1DE
100
AcDbXrecord
 10
0.0
 20
0.0
 30
0.0
  0
XRECORD
  5
1F9
102
{ACAD_REACTORS
330
1DE
102
}
330
1DE
100
AcDbXrecord
 10
0.0
 20
0.0
 30
0.0
  0
XRECORD
  5
1FC
102
{ACAD_REACTORS
330
1DE
102
}
330
1DE
100
AcDbXrecord
 10
0.0
 20
0.0
 30
0.0
  0
XRECORD
  5
1FA
102
{ACAD_REACTORS
330
1DE
102
}
330
1DE
100
AcDbXrecord
 10
0.0
 20
0.0
 30
0.0
  0
XRECORD
  5
1FB
102
{ACAD_REACTORS
330
1DE
102
}
330
1DE
100
AcDbXrecord
 10
0.0
 20
0.0
 30
0.0
  0
XRECORD
  5
1F8
102
{ACAD_REACTORS
330
1DE
102
}
330
1DE
100
AcDbXrecord
 10
0.0
 20
0.0
 30
0.0
  0
XRECORD
  5
1F5
102
{ACAD_REACTORS
330
1DE
102
}
330
1DE
100
AcDbXrecord
340
0
  0
XRECORD
  5
1F6
102
{ACAD_REACTORS
330
1DE
102
}
330
1DE
100
AcDbXrecord
 70
     1
  0
XRECORD
  5
1EA
102
{ACAD_REACTORS
330
1DE
102
}
330
1DE
100
AcDbXrecord
  1
{D558A4C1-EF01-4CD2-BE11-1BEDFCEA45C6}
  0
DICTIONARYVAR
  5
1B7
102
{ACAD_REACTORS
330
1B6
102
}
330
1B6
100
DictionaryVariables
280
     0
  1
1
  0
ENDSEC
  0
EOF
