  0
SECTION
  2
HEADER
  9
$ACADVER
  1
AC1014
  9
$ACADMAINTVER
 70
     9
  9
$DWGCODEPAGE
  3
ANSI_1252
  9
$INSBASE
 10
0.0
 20
0.0
 30
0.0
  9
$EXTMIN
 10
0.000000000000001
 20
-0.145524999999989
 30
0.0
  9
$EXTMAX
 10
95.0
 20
165.1455249999999
 30
0.0
  9
$LIMMIN
 10
0.0
 20
0.0
  9
$LIMMAX
 10
12.0
 20
9.0
  9
$ORTHOMODE
 70
     0
  9
$REGENMODE
 70
     1
  9
$FILLMODE
 70
     1
  9
$QTEXTMODE
 70
     0
  9
$MIRRTEXT
 70
     1
  9
$DRAGMODE
 70
     2
  9
$LTSCALE
 40
1.0
  9
$OSMODE
 70
    37
  9
$ATTMODE
 70
     1
  9
$TEXTSIZE
 40
0.2
  9
$TRACEWID
 40
0.05
  9
$TEXTSTYLE
  7
STANDARD
  9
$CLAYER
  8
0
  9
$CELTYPE
  6
CONTINUOUS
  9
$CECOLOR
 62
   256
  9
$CELTSCALE
 40
1.0
  9
$DELOBJ
 70
     1
  9
$DISPSILH
 70
     0
  9
$DIMSCALE
 40
1.0
  9
$DIMASZ
 40
0.18
  9
$DIMEXO
 40
0.0625
  9
$DIMDLI
 40
0.38
  9
$DIMRND
 40
0.0
  9
$DIMDLE
 40
0.0
  9
$DIMEXE
 40
0.18
  9
$DIMTP
 40
0.0
  9
$DIMTM
 40
0.0
  9
$DIMTXT
 40
0.18
  9
$DIMCEN
 40
0.09
  9
$DIMTSZ
 40
0.0
  9
$DIMTOL
 70
     0
  9
$DIMLIM
 70
     0
  9
$DIMTIH
 70
     1
  9
$DIMTOH
 70
     1
  9
$DIMSE1
 70
     0
  9
$DIMSE2
 70
     0
  9
$DIMTAD
 70
     0
  9
$DIMZIN
 70
     0
  9
$DIMBLK
  1

  9
$DIMASO
 70
     1
  9
$DIMSHO
 70
     1
  9
$DIMPOST
  1

  9
$DIMAPOST
  1

  9
$DIMALT
 70
     0
  9
$DIMALTD
 70
     2
  9
$DIMALTF
 40
25.4
  9
$DIMLFAC
 40
1.0
  9
$DIMTOFL
 70
     0
  9
$DIMTVP
 40
0.0
  9
$DIMTIX
 70
     0
  9
$DIMSOXD
 70
     0
  9
$DIMSAH
 70
     0
  9
$DIMBLK1
  1

  9
$DIMBLK2
  1

  9
$DIMSTYLE
  2
STANDARD
  9
$DIMCLRD
 70
     0
  9
$DIMCLRE
 70
     0
  9
$DIMCLRT
 70
     0
  9
$DIMTFAC
 40
1.0
  9
$DIMGAP
 40
0.09
  9
$DIMJUST
 70
     0
  9
$DIMSD1
 70
     0
  9
$DIMSD2
 70
     0
  9
$DIMTOLJ
 70
     1
  9
$DIMTZIN
 70
     0
  9
$DIMALTZ
 70
     0
  9
$DIMALTTZ
 70
     0
  9
$DIMFIT
 70
     3
  9
$DIMUPT
 70
     0
  9
$DIMUNIT
 70
     2
  9
$DIMDEC
 70
     4
  9
$DIMTDEC
 70
     4
  9
$DIMALTU
 70
     2
  9
$DIMALTTD
 70
     2
  9
$DIMTXSTY
  7
STANDARD
  9
$DIMAUNIT
 70
     0
  9
$LUNITS
 70
     2
  9
$LUPREC
 70
     4
  9
$SKETCHINC
 40
0.1
  9
$FILLETRAD
 40
0.0
  9
$AUNITS
 70
     0
  9
$AUPREC
 70
     0
  9
$MENU
  1
.
  9
$ELEVATION
 40
0.0
  9
$PELEVATION
 40
0.0
  9
$THICKNESS
 40
0.0
  9
$LIMCHECK
 70
     0
  9
$BLIPMODE
 70
     0
  9
$CHAMFERA
 40
0.0
  9
$CHAMFERB
 40
0.0
  9
$CHAMFERC
 40
0.0
  9
$CHAMFERD
 40
0.0
  9
$SKPOLY
 70
     0
  9
$TDCREATE
 40
2454691.862345555
  9
$TDUPDATE
 40
2454691.863762106
  9
$TDINDWG
 40
0.0014165509
  9
$TDUSRTIMER
 40
0.0014165509
  9
$USRTIMER
 70
     1
  9
$ANGBASE
 50
0.0
  9
$ANGDIR
 70
     0
  9
$PDMODE
 70
     0
  9
$PDSIZE
 40
0.0
  9
$PLINEWID
 40
0.0
  9
$COORDS
 70
     1
  9
$SPLFRAME
 70
     0
  9
$SPLINETYPE
 70
     6
  9
$SPLINESEGS
 70
     8
  9
$ATTDIA
 70
     0
  9
$ATTREQ
 70
     1
  9
$HANDLING
 70
 22529
  9
$HANDSEED
  5
283
  9
$SURFTAB1
 70
     6
  9
$SURFTAB2
 70
     6
  9
$SURFTYPE
 70
     6
  9
$SURFU
 70
     6
  9
$SURFV
 70
     6
  9
$UCSNAME
  2

  9
$UCSORG
 10
0.0
 20
0.0
 30
0.0
  9
$UCSXDIR
 10
1.0
 20
0.0
 30
0.0
  9
$UCSYDIR
 10
0.0
 20
1.0
 30
0.0
  9
$PUCSNAME
  2

  9
$PUCSORG
 10
0.0
 20
0.0
 30
0.0
  9
$PUCSXDIR
 10
1.0
 20
0.0
 30
0.0
  9
$PUCSYDIR
 10
0.0
 20
1.0
 30
0.0
  9
$USERI1
 70
     0
  9
$USERI2
 70
     0
  9
$USERI3
 70
     0
  9
$USERI4
 70
     0
  9
$USERI5
 70
     0
  9
$USERR1
 40
0.0
  9
$USERR2
 40
0.0
  9
$USERR3
 40
0.0
  9
$USERR4
 40
0.0
  9
$USERR5
 40
0.0
  9
$WORLDVIEW
 70
     1
  9
$SHADEDGE
 70
     3
  9
$SHADEDIF
 70
    70
  9
$TILEMODE
 70
     1
  9
$MAXACTVP
 70
    64
  9
$PINSBASE
 10
0.0
 20
0.0
 30
0.0
  9
$PLIMCHECK
 70
     0
  9
$PEXTMIN
 10
1.000000000000000E+20
 20
1.000000000000000E+20
 30
1.000000000000000E+20
  9
$PEXTMAX
 10
-1.000000000000000E+20
 20
-1.000000000000000E+20
 30
-1.000000000000000E+20
  9
$PLIMMIN
 10
0.0
 20
0.0
  9
$PLIMMAX
 10
12.0
 20
9.0
  9
$UNITMODE
 70
     0
  9
$VISRETAIN
 70
     1
  9
$PLINEGEN
 70
     0
  9
$PSLTSCALE
 70
     1
  9
$TREEDEPTH
 70
  3020
  9
$PICKSTYLE
 70
     1
  9
$CMLSTYLE
  2
STANDARD
  9
$CMLJUST
 70
     0
  9
$CMLSCALE
 40
1.0
  9
$PROXYGRAPHICS
 70
     1
  9
$MEASUREMENT
 70
     0
  0
ENDSEC
  0
SECTION
  2
CLASSES
  0
CLASS
  1
ACDBDICTIONARYWDFLT
  2
AcDbDictionaryWithDefault
  3
AutoCAD 2000
 90
        0
280
     0
281
     0
  0
CLASS
  1
ACDBPLACEHOLDER
  2
AcDbPlaceHolder
  3
AutoCAD 2000
 90
        0
280
     0
281
     0
  0
CLASS
  1
LAYOUT
  2
AcDbLayout
  3
AutoCAD 2000
 90
        0
280
     0
281
     0
  0
CLASS
  1
DICTIONARYVAR
  2
AcDbDictionaryVar
  3
AutoCAD 2000
 90
        0
280
     0
281
     0
  0
CLASS
  1
LONG_TRANSACTION
  2
AcDbLongTransaction
  3
AutoCAD 2000
 90
        0
280
     0
281
     0
  0
CLASS
  1
LWPOLYLINE
  2
AcDbPolyline
  3
AutoCAD 2000
 90
        0
280
     0
281
     1
  0
CLASS
  1
HATCH
  2
AcDbHatch
  3
AutoCAD 2000
 90
        0
280
     0
281
     1
  0
CLASS
  1
XRECORD
  2
AcDbXrecord
  3
AutoCAD 2000
 90
        0
280
     0
281
     0
  0
ENDSEC
  0
SECTION
  2
TABLES
  0
TABLE
  2
VPORT
  5
8
330
0
100
AcDbSymbolTable
 70
     2
  0
VPORT
  5
25E
330
8
100
AcDbSymbolTableRecord
100
AcDbViewportTableRecord
  2
*ACTIVE
 70
     0
 10
0.0
 20
0.0
 11
1.0
 21
1.0
 12
47.5
 22
82.5
 13
0.0
 23
0.0
 14
1.0
 24
1.0
 15
0.0
 25
0.0
 16
0.0
 26
0.0
 36
1.0
 17
0.0
 27
0.0
 37
0.0
 40
166.559267774936
 41
2.078104993597951
 42
50.0
 43
0.0
 44
0.0
 50
0.0
 51
0.0
 71
     0
 72
   100
 73
     1
 74
     3
 75
     0
 76
     0
 77
     0
 78
     0
  0
ENDTAB
  0
TABLE
  2
LTYPE
  5
5
330
0
100
AcDbSymbolTable
 70
     1
  0
LTYPE
  5
13
330
5
100
AcDbSymbolTableRecord
100
AcDbLinetypeTableRecord
  2
BYBLOCK
 70
     0
  3

 72
    65
 73
     0
 40
0.0
  0
LTYPE
  5
14
330
5
100
AcDbSymbolTableRecord
100
AcDbLinetypeTableRecord
  2
BYLAYER
 70
     0
  3

 72
    65
 73
     0
 40
0.0
  0
LTYPE
  5
15
330
5
100
AcDbSymbolTableRecord
100
AcDbLinetypeTableRecord
  2
CONTINUOUS
 70
     0
  3
Solid line
 72
    65
 73
     0
 40
0.0
  0
ENDTAB
  0
TABLE
  2
LAYER
  5
2
330
0
100
AcDbSymbolTable
 70
     1
  0
LAYER
  5
10
330
2
100
AcDbSymbolTableRecord
100
AcDbLayerTableRecord
  2
0
 70
     0
 62
     7
  6
CONTINUOUS
  0
ENDTAB
  0
TABLE
  2
STYLE
  5
3
330
0
100
AcDbSymbolTable
 70
     1
  0
STYLE
  5
11
330
3
100
AcDbSymbolTableRecord
100
AcDbTextStyleTableRecord
  2
STANDARD
 70
     0
 40
0.0
 41
1.0
 50
0.0
 71
     0
 42
0.2
  3
txt
  4

  0
ENDTAB
  0
TABLE
  2
VIEW
  5
6
330
0
100
AcDbSymbolTable
 70
     0
  0
ENDTAB
  0
TABLE
  2
UCS
  5
7
330
0
100
AcDbSymbolTable
 70
     0
  0
ENDTAB
  0
TABLE
  2
APPID
  5
9
330
0
100
AcDbSymbolTable
 70
     1
  0
APPID
  5
12
330
9
100
AcDbSymbolTableRecord
100
AcDbRegAppTableRecord
  2
ACAD
 70
     0
  0
ENDTAB
  0
TABLE
  2
DIMSTYLE
  5
A
330
0
100
AcDbSymbolTable
 70
     1
  0
DIMSTYLE
105
24C
330
A
100
AcDbSymbolTableRecord
100
AcDbDimStyleTableRecord
  2
STANDARD
 70
     0
  3

  4

  5

  6

  7

 40
1.0
 41
0.18
 42
0.0625
 43
0.38
 44
0.18
 45
0.0
 46
0.0
 47
0.0
 48
0.0
140
0.18
141
0.09
142
0.0
143
25.4
144
1.0
145
0.0
146
1.0
147
0.09
 71
     0
 72
     0
 73
     1
 74
     1
 75
     0
 76
     0
 77
     0
 78
     0
170
     0
171
     2
172
     0
173
     0
174
     0
175
     0
176
     0
177
     0
178
     0
270
     2
271
     4
272
     4
273
     2
274
     2
340
11
275
     0
280
     0
281
     0
282
     0
283
     1
284
     0
285
     0
286
     0
287
     3
288
     0
  0
ENDTAB
  0
TABLE
  2
BLOCK_RECORD
  5
1
330
0
100
AcDbSymbolTable
 70
     0
  0
BLOCK_RECORD
  5
1E
102
{ACAD_XDICTIONARY
360
281
102
}
330
1
100
AcDbSymbolTableRecord
100
AcDbBlockTableRecord
  2
*MODEL_SPACE
  0
BLOCK_RECORD
  5
1A
102
{ACAD_XDICTIONARY
360
27F
102
}
330
1
100
AcDbSymbolTableRecord
100
AcDbBlockTableRecord
  2
*PAPER_SPACE
  0
ENDTAB
  0
ENDSEC
  0
SECTION
  2
BLOCKS
  0
BLOCK
  5
1F
330
1E
100
AcDbEntity
  8
0
100
AcDbBlockBegin
  2
*MODEL_SPACE
 70
     0
 10
0.0
 20
0.0
 30
0.0
  3
*MODEL_SPACE
  1

  0
ENDBLK
  5
20
330
1E
100
AcDbEntity
  8
0
100
AcDbBlockEnd
  0
BLOCK
  5
1B
330
1A
100
AcDbEntity
 67
     1
  8
0
100
AcDbBlockBegin
  2
*PAPER_SPACE
 70
     0
 10
0.0
 20
0.0
 30
0.0
  3
*PAPER_SPACE
  1

  0
ENDBLK
  5
1C
330
1A
100
AcDbEntity
 67
     1
  8
0
100
AcDbBlockEnd
  0
ENDSEC
  0
SECTION
  2
ENTITIES
  0
LINE
  5
22
330
1E
100
AcDbEntity
  8
0
100
AcDbLine
 10
1.0
 20
121.241525
 30
0.0
 11
3.6
 21
114.7415249999999
 31
0.0
  0
LINE
  5
23
330
1E
100
AcDbEntity
  8
0
100
AcDbLine
 10
0.500000000000001
 20
128.141525
 30
0.0
 11
1.5
 21
134.941525
 31
0.0
  0
LINE
  5
24
330
1E
100
AcDbEntity
  8
0
100
AcDbLine
 10
0.500000000000001
 20
128.141525
 30
0.0
 11
1.5
 21
121.341525
 31
0.0
  0
LINE
  5
25
330
1E
100
AcDbEntity
  8
0
100
AcDbLine
 10
0.000000000000001
 20
128.141525
 30
0.0
 11
1.0
 21
135.041525
 31
0.0
  0
LINE
  5
26
330
1E
100
AcDbEntity
  8
0
100
AcDbLine
 10
0.000000000000001
 20
128.141525
 30
0.0
 11
1.0
 21
121.241525
 31
0.0
  0
LINE
  5
27
330
1E
100
AcDbEntity
  8
0
100
AcDbLine
 10
0.0000000000000011
 20
128.141525
 30
0.0
 11
1.0
 21
135.041525
 31
0.0
  0
LINE
  5
28
330
1E
100
AcDbEntity
  8
0
100
AcDbLine
 10
0.0000000000000011
 20
128.141525
 30
0.0
 11
1.0
 21
121.241525
 31
0.0
  0
LINE
  5
29
330
1E
100
AcDbEntity
  8
0
100
AcDbLine
 10
1.5
 20
121.341525
 30
0.0
 11
4.0
 21
114.941525
 31
0.0
  0
LINE
  5
2A
330
1E
100
AcDbEntity
  8
0
100
AcDbLine
 10
4.0
 20
114.941525
 30
0.0
 11
8.3
 21
109.4415249999999
 31
0.0
  0
LINE
  5
2B
330
1E
100
AcDbEntity
  8
0
100
AcDbLine
 10
3.6
 20
114.7415249999999
 30
0.0
 11
8.0
 21
109.141525
 31
0.0
  0
LINE
  5
2C
330
1E
100
AcDbEntity
  8
0
100
AcDbLine
 10
6.0
 20
128.141525
 30
0.0
 11
6.799999999999999
 21
133.541525
 31
0.0
  0
LINE
  5
2D
330
1E
100
AcDbEntity
  8
0
100
AcDbLine
 10
6.0
 20
128.141525
 30
0.0
 11
6.799999999999999
 21
122.7415249999999
 31
0.0
  0
LINE
  5
2E
330
1E
100
AcDbEntity
  8
0
100
AcDbLine
 10
16.0
 20
10.787725
 30
0.0
 11
16.0
 21
11.803025
 31
0.0
  0
LINE
  5
2F
330
1E
100
AcDbEntity
  8
0
100
AcDbLine
 10
16.0
 20
10.787725
 30
0.0
 11
16.396
 21
7.988825000000009
 31
0.0
  0
LINE
  5
30
330
1E
100
AcDbEntity
  8
0
100
AcDbLine
 10
16.0
 20
11.803025
 30
0.0
 11
16.396
 21
9.004125000000009
 31
0.0
  0
LINE
  5
31
330
1E
100
AcDbEntity
  8
0
100
AcDbLine
 10
16.0
 20
11.803025
 30
0.0
 11
16.0
 21
10.787725
 31
0.0
  0
LINE
  5
32
330
1E
100
AcDbEntity
  8
0
100
AcDbLine
 10
16.0
 20
14.117825
 30
0.0
 11
16.0
 21
12.63772499999999
 31
0.0
  0
LINE
  5
33
330
1E
100
AcDbEntity
  8
0
100
AcDbLine
 10
16.0
 20
14.117825
 30
0.0
 11
16.0
 21
16.556525
 31
0.0
  0
LINE
  5
34
330
1E
100
AcDbEntity
  8
0
100
AcDbLine
 10
16.0
 20
16.556525
 30
0.0
 11
16.0
 21
19.91202499999999
 31
0.0
  0
LINE
  5
35
330
1E
100
AcDbEntity
  8
0
100
AcDbLine
 10
16.0
 20
16.556525
 30
0.0
 11
16.0
 21
14.117825
 31
0.0
  0
LINE
  5
36
330
1E
100
AcDbEntity
  8
0
100
AcDbLine
 10
16.0
 20
19.91202499999999
 30
0.0
 11
16.0
 21
16.556525
 31
0.0
  0
LINE
  5
37
330
1E
100
AcDbEntity
  8
0
100
AcDbLine
 10
16.0
 20
19.91202499999999
 30
0.0
 11
16.0
 21
24.12702499999999
 31
0.0
  0
LINE
  5
38
330
1E
100
AcDbEntity
  8
0
100
AcDbLine
 10
16.0
 20
24.12702499999999
 30
0.0
 11
16.0
 21
29.129325
 31
0.0
  0
LINE
  5
39
330
1E
100
AcDbEntity
  8
0
100
AcDbLine
 10
16.0
 20
24.12702499999999
 30
0.0
 11
16.0
 21
19.91202499999999
 31
0.0
  0
LINE
  5
3A
330
1E
100
AcDbEntity
  8
0
100
AcDbLine
 10
16.0
 20
41.141525
 30
0.0
 11
16.0
 21
47.945925
 31
0.0
  0
LINE
  5
3B
330
1E
100
AcDbEntity
  8
0
100
AcDbLine
 10
16.0
 20
41.141525
 30
0.0
 11
16.0
 21
34.833325
 31
0.0
  0
LINE
  5
3C
330
1E
100
AcDbEntity
  8
0
100
AcDbLine
 10
16.0
 20
62.571025
 30
0.0
 11
16.0
 21
70.141525
 31
0.0
  0
LINE
  5
3D
330
1E
100
AcDbEntity
  8
0
100
AcDbLine
 10
16.0
 20
62.571025
 30
0.0
 11
16.0
 21
55.130025
 31
0.0
  0
LINE
  5
3E
330
1E
100
AcDbEntity
  8
0
100
AcDbLine
 10
16.0
 20
55.130025
 30
0.0
 11
16.0
 21
47.945925
 31
0.0
  0
LINE
  5
3F
330
1E
100
AcDbEntity
  8
0
100
AcDbLine
 10
16.0
 20
55.130025
 30
0.0
 11
16.0
 21
62.571025
 31
0.0
  0
LINE
  5
40
330
1E
100
AcDbEntity
  8
0
100
AcDbLine
 10
16.0
 20
47.945925
 30
0.0
 11
16.0
 21
41.141525
 31
0.0
  0
LINE
  5
41
330
1E
100
AcDbEntity
  8
0
100
AcDbLine
 10
16.0
 20
47.945925
 30
0.0
 11
16.0
 21
55.130025
 31
0.0
  0
LINE
  5
42
330
1E
100
AcDbEntity
  8
0
100
AcDbLine
 10
16.0
 20
34.833325
 30
0.0
 11
16.0
 21
29.129325
 31
0.0
  0
LINE
  5
43
330
1E
100
AcDbEntity
  8
0
100
AcDbLine
 10
16.0
 20
34.833325
 30
0.0
 11
16.0
 21
41.141525
 31
0.0
  0
LINE
  5
44
330
1E
100
AcDbEntity
  8
0
100
AcDbLine
 10
16.0
 20
29.129325
 30
0.0
 11
16.0
 21
24.12702499999999
 31
0.0
  0
LINE
  5
45
330
1E
100
AcDbEntity
  8
0
100
AcDbLine
 10
16.0
 20
29.129325
 30
0.0
 11
16.0
 21
34.833325
 31
0.0
  0
LINE
  5
46
330
1E
100
AcDbEntity
  8
0
100
AcDbLine
 10
16.0
 20
70.141525
 30
0.0
 11
16.0
 21
77.712025
 31
0.0
  0
LINE
  5
47
330
1E
100
AcDbEntity
  8
0
100
AcDbLine
 10
16.0
 20
70.141525
 30
0.0
 11
16.0
 21
62.571025
 31
0.0
  0
LINE
  5
48
330
1E
100
AcDbEntity
  8
0
100
AcDbLine
 10
16.0
 20
77.712025
 30
0.0
 11
16.0
 21
85.153025
 31
0.0
  0
LINE
  5
49
330
1E
100
AcDbEntity
  8
0
100
AcDbLine
 10
16.0
 20
77.712025
 30
0.0
 11
16.0
 21
70.141525
 31
0.0
  0
LINE
  5
4A
330
1E
100
AcDbEntity
  8
0
100
AcDbLine
 10
16.0
 20
85.153025
 30
0.0
 11
16.0
 21
77.712025
 31
0.0
  0
LINE
  5
4B
330
1E
100
AcDbEntity
  8
0
100
AcDbLine
 10
16.0
 20
85.153025
 30
0.0
 11
16.0
 21
92.33712500000001
 31
0.0
  0
LINE
  5
4C
330
1E
100
AcDbEntity
  8
0
100
AcDbLine
 10
16.0
 20
92.33712500000001
 30
0.0
 11
16.0
 21
99.141525
 31
0.0
  0
LINE
  5
4D
330
1E
100
AcDbEntity
  8
0
100
AcDbLine
 10
16.0
 20
92.33712500000001
 30
0.0
 11
16.0
 21
85.153025
 31
0.0
  0
LINE
  5
4E
330
1E
100
AcDbEntity
  8
0
100
AcDbLine
 10
16.0
 20
99.141525
 30
0.0
 11
16.0
 21
92.33712500000001
 31
0.0
  0
LINE
  5
4F
330
1E
100
AcDbEntity
  8
0
100
AcDbLine
 10
16.0
 20
99.141525
 30
0.0
 11
16.0
 21
105.4495249999999
 31
0.0
  0
LINE
  5
50
330
1E
100
AcDbEntity
  8
0
100
AcDbLine
 10
16.0
 20
12.63772499999999
 30
0.0
 11
16.0
 21
11.88762499999999
 31
0.0
  0
LINE
  5
51
330
1E
100
AcDbEntity
  8
0
100
AcDbLine
 10
16.0
 20
12.63772499999999
 30
0.0
 11
16.0
 21
14.117825
 31
0.0
  0
LINE
  5
52
330
1E
100
AcDbEntity
  8
0
100
AcDbLine
 10
17.452
 20
5.364835000000009
 30
0.0
 11
19.21199999999999
 21
3.046985000000009
 31
0.0
  0
LINE
  5
53
330
1E
100
AcDbEntity
  8
0
100
AcDbLine
 10
16.396
 20
7.988825000000009
 30
0.0
 11
17.452
 21
5.364835000000009
 31
0.0
  0
LINE
  5
54
330
1E
100
AcDbEntity
  8
0
100
AcDbLine
 10
17.452
 20
6.380105000000009
 30
0.0
 11
19.21199999999999
 21
4.062255000000009
 31
0.0
  0
LINE
  5
55
330
1E
100
AcDbEntity
  8
0
100
AcDbLine
 10
16.396
 20
9.004125000000009
 30
0.0
 11
17.452
 21
6.380105000000009
 31
0.0
  0
LINE
  5
56
330
1E
100
AcDbEntity
  8
0
100
AcDbLine
 10
21.544
 20
1.29766500000001
 30
0.0
 11
24.184
 21
0.248065000000011
 31
0.0
  0
LINE
  5
57
330
1E
100
AcDbEntity
  8
0
100
AcDbLine
 10
21.544
 20
1.29766500000001
 30
0.0
 11
24.184
 21
0.248065000000011
 31
0.0
  0
LINE
  5
58
330
1E
100
AcDbEntity
  8
0
100
AcDbLine
 10
19.21199999999999
 20
3.046985000000009
 30
0.0
 11
21.544
 21
1.29766500000001
 31
0.0
  0
LINE
  5
59
330
1E
100
AcDbEntity
  8
0
100
AcDbLine
 10
21.544
 20
2.312935000000009
 30
0.0
 11
24.184
 21
1.26333500000001
 31
0.0
  0
LINE
  5
5A
330
1E
100
AcDbEntity
  8
0
100
AcDbLine
 10
19.21199999999999
 20
4.062255000000009
 30
0.0
 11
21.544
 21
2.312935000000009
 31
0.0
  0
LINE
  5
5B
330
1E
100
AcDbEntity
  8
0
100
AcDbLine
 10
24.184
 20
0.248065000000011
 30
0.0
 11
27.0
 21
-0.145524999999989
 31
0.0
  0
LINE
  5
5C
330
1E
100
AcDbEntity
  8
0
100
AcDbLine
 10
24.184
 20
0.248065000000011
 30
0.0
 11
27.0
 21
-0.145524999999989
 31
0.0
  0
LINE
  5
5D
330
1E
100
AcDbEntity
  8
0
100
AcDbLine
 10
27.0
 20
-0.145524999999989
 30
0.0
 11
29.816
 21
0.248065000000011
 31
0.0
  0
LINE
  5
5E
330
1E
100
AcDbEntity
  8
0
100
AcDbLine
 10
27.0
 20
-0.145524999999989
 30
0.0
 11
29.816
 21
0.248065000000011
 31
0.0
  0
LINE
  5
5F
330
1E
100
AcDbEntity
  8
0
100
AcDbLine
 10
27.0
 20
0.869745000000012
 30
0.0
 11
29.816
 21
1.26333500000001
 31
0.0
  0
LINE
  5
60
330
1E
100
AcDbEntity
  8
0
100
AcDbLine
 10
29.816
 20
0.248065000000011
 30
0.0
 11
32.45599999999999
 21
1.29766500000001
 31
0.0
  0
LINE
  5
61
330
1E
100
AcDbEntity
  8
0
100
AcDbLine
 10
29.816
 20
0.248065000000011
 30
0.0
 11
32.45599999999999
 21
1.29766500000001
 31
0.0
  0
LINE
  5
62
330
1E
100
AcDbEntity
  8
0
100
AcDbLine
 10
32.45599999999999
 20
1.29766500000001
 30
0.0
 11
34.788
 21
3.046985000000009
 31
0.0
  0
LINE
  5
63
330
1E
100
AcDbEntity
  8
0
100
AcDbLine
 10
29.816
 20
1.26333500000001
 30
0.0
 11
32.45599999999999
 21
2.312935000000009
 31
0.0
  0
LINE
  5
64
330
1E
100
AcDbEntity
  8
0
100
AcDbLine
 10
27.0
 20
0.954345000000012
 30
0.0
 11
29.816
 21
1.34794500000001
 31
0.0
  0
LINE
  5
65
330
1E
100
AcDbEntity
  8
0
100
AcDbLine
 10
29.816
 20
1.34794500000001
 30
0.0
 11
32.45599999999999
 21
2.397535000000009
 31
0.0
  0
LINE
  5
66
330
1E
100
AcDbEntity
  8
0
100
AcDbLine
 10
24.184
 20
1.26333500000001
 30
0.0
 11
27.0
 21
0.869745000000012
 31
0.0
  0
LINE
  5
67
330
1E
100
AcDbEntity
  8
0
100
AcDbLine
 10
32.45599999999999
 20
2.312935000000009
 30
0.0
 11
34.788
 21
4.062255000000009
 31
0.0
  0
LINE
  5
68
330
1E
100
AcDbEntity
  8
0
100
AcDbLine
 10
34.788
 20
3.046985000000009
 30
0.0
 11
36.548
 21
5.364835000000009
 31
0.0
  0
LINE
  5
69
330
1E
100
AcDbEntity
  8
0
100
AcDbLine
 10
34.788
 20
4.062255000000009
 30
0.0
 11
36.548
 21
6.380105000000009
 31
0.0
  0
LINE
  5
6A
330
1E
100
AcDbEntity
  8
0
100
AcDbLine
 10
32.45599999999999
 20
2.397535000000009
 30
0.0
 11
34.788
 21
4.146855000000009
 31
0.0
  0
LINE
  5
6B
330
1E
100
AcDbEntity
  8
0
100
AcDbLine
 10
34.788
 20
4.146855000000009
 30
0.0
 11
36.548
 21
6.464705000000009
 31
0.0
  0
LINE
  5
6C
330
1E
100
AcDbEntity
  8
0
100
AcDbLine
 10
24.184
 20
1.34794500000001
 30
0.0
 11
27.0
 21
0.954345000000012
 31
0.0
  0
LINE
  5
6D
330
1E
100
AcDbEntity
  8
0
100
AcDbLine
 10
21.544
 20
2.397535000000009
 30
0.0
 11
24.184
 21
1.34794500000001
 31
0.0
  0
LINE
  5
6E
330
1E
100
AcDbEntity
  8
0
100
AcDbLine
 10
36.548
 20
5.364835000000009
 30
0.0
 11
37.604
 21
7.988825000000009
 31
0.0
  0
LINE
  5
6F
330
1E
100
AcDbEntity
  8
0
100
AcDbLine
 10
36.548
 20
6.380105000000009
 30
0.0
 11
37.604
 21
9.004125000000009
 31
0.0
  0
LINE
  5
70
330
1E
100
AcDbEntity
  8
0
100
AcDbLine
 10
37.604
 20
7.988825000000009
 30
0.0
 11
38.0
 21
10.787725
 31
0.0
  0
LINE
  5
71
330
1E
100
AcDbEntity
  8
0
100
AcDbLine
 10
37.604
 20
9.004125000000009
 30
0.0
 11
38.0
 21
11.803025
 31
0.0
  0
LINE
  5
72
330
1E
100
AcDbEntity
  8
0
100
AcDbLine
 10
36.548
 20
6.464705000000009
 30
0.0
 11
37.604
 21
9.088725000000009
 31
0.0
  0
LINE
  5
73
330
1E
100
AcDbEntity
  8
0
100
AcDbLine
 10
37.604
 20
9.088725000000009
 30
0.0
 11
38.0
 21
11.88762499999999
 31
0.0
  0
LINE
  5
74
330
1E
100
AcDbEntity
  8
0
100
AcDbLine
 10
19.21199999999999
 20
4.146855000000009
 30
0.0
 11
21.544
 21
2.397535000000009
 31
0.0
  0
LINE
  5
75
330
1E
100
AcDbEntity
  8
0
100
AcDbLine
 10
17.452
 20
6.464705000000009
 30
0.0
 11
19.21199999999999
 21
4.146855000000009
 31
0.0
  0
LINE
  5
76
330
1E
100
AcDbEntity
  8
0
100
AcDbLine
 10
38.0
 20
10.787725
 30
0.0
 11
38.0
 21
11.803025
 31
0.0
  0
LINE
  5
77
330
1E
100
AcDbEntity
  8
0
100
AcDbLine
 10
38.0
 20
11.803025
 30
0.0
 11
38.0
 21
10.787725
 31
0.0
  0
LINE
  5
78
330
1E
100
AcDbEntity
  8
0
100
AcDbLine
 10
38.0
 20
16.556525
 30
0.0
 11
38.0
 21
14.117825
 31
0.0
  0
LINE
  5
79
330
1E
100
AcDbEntity
  8
0
100
AcDbLine
 10
38.0
 20
16.556525
 30
0.0
 11
38.0
 21
19.91202499999999
 31
0.0
  0
LINE
  5
7A
330
1E
100
AcDbEntity
  8
0
100
AcDbLine
 10
38.0
 20
14.117825
 30
0.0
 11
38.0
 21
16.556525
 31
0.0
  0
LINE
  5
7B
330
1E
100
AcDbEntity
  8
0
100
AcDbLine
 10
38.0
 20
14.117825
 30
0.0
 11
38.0
 21
12.63772499999999
 31
0.0
  0
LINE
  5
7C
330
1E
100
AcDbEntity
  8
0
100
AcDbLine
 10
38.0
 20
24.12702499999999
 30
0.0
 11
38.0
 21
19.91202499999999
 31
0.0
  0
LINE
  5
7D
330
1E
100
AcDbEntity
  8
0
100
AcDbLine
 10
38.0
 20
24.12702499999999
 30
0.0
 11
38.0
 21
29.129325
 31
0.0
  0
LINE
  5
7E
330
1E
100
AcDbEntity
  8
0
100
AcDbLine
 10
38.0
 20
19.91202499999999
 30
0.0
 11
38.0
 21
24.12702499999999
 31
0.0
  0
LINE
  5
7F
330
1E
100
AcDbEntity
  8
0
100
AcDbLine
 10
38.0
 20
19.91202499999999
 30
0.0
 11
38.0
 21
16.556525
 31
0.0
  0
LINE
  5
80
330
1E
100
AcDbEntity
  8
0
100
AcDbLine
 10
38.0
 20
29.129325
 30
0.0
 11
38.0
 21
34.833325
 31
0.0
  0
LINE
  5
81
330
1E
100
AcDbEntity
  8
0
100
AcDbLine
 10
38.0
 20
29.129325
 30
0.0
 11
38.0
 21
24.12702499999999
 31
0.0
  0
LINE
  5
82
330
1E
100
AcDbEntity
  8
0
100
AcDbLine
 10
38.0
 20
55.130025
 30
0.0
 11
38.0
 21
62.571025
 31
0.0
  0
LINE
  5
83
330
1E
100
AcDbEntity
  8
0
100
AcDbLine
 10
38.0
 20
55.130025
 30
0.0
 11
38.0
 21
47.945925
 31
0.0
  0
LINE
  5
84
330
1E
100
AcDbEntity
  8
0
100
AcDbLine
 10
38.0
 20
47.945925
 30
0.0
 11
38.0
 21
41.141525
 31
0.0
  0
LINE
  5
85
330
1E
100
AcDbEntity
  8
0
100
AcDbLine
 10
38.0
 20
47.945925
 30
0.0
 11
38.0
 21
55.130025
 31
0.0
  0
LINE
  5
86
330
1E
100
AcDbEntity
  8
0
100
AcDbLine
 10
38.0
 20
41.141525
 30
0.0
 11
38.0
 21
34.833325
 31
0.0
  0
LINE
  5
87
330
1E
100
AcDbEntity
  8
0
100
AcDbLine
 10
38.0
 20
41.141525
 30
0.0
 11
38.0
 21
47.945925
 31
0.0
  0
LINE
  5
88
330
1E
100
AcDbEntity
  8
0
100
AcDbLine
 10
38.0
 20
34.833325
 30
0.0
 11
38.0
 21
41.141525
 31
0.0
  0
LINE
  5
89
330
1E
100
AcDbEntity
  8
0
100
AcDbLine
 10
38.0
 20
34.833325
 30
0.0
 11
38.0
 21
29.129325
 31
0.0
  0
LINE
  5
8A
330
1E
100
AcDbEntity
  8
0
100
AcDbLine
 10
38.0
 20
11.88762499999999
 30
0.0
 11
38.0
 21
12.63772499999999
 31
0.0
  0
LINE
  5
8B
330
1E
100
AcDbEntity
  8
0
100
AcDbLine
 10
38.0
 20
12.63772499999999
 30
0.0
 11
38.0
 21
11.88762499999999
 31
0.0
  0
LINE
  5
8C
330
1E
100
AcDbEntity
  8
0
100
AcDbLine
 10
38.0
 20
12.63772499999999
 30
0.0
 11
38.0
 21
14.117825
 31
0.0
  0
LINE
  5
8D
330
1E
100
AcDbEntity
  8
0
100
AcDbLine
 10
38.0
 20
77.712025
 30
0.0
 11
38.0
 21
70.141525
 31
0.0
  0
LINE
  5
8E
330
1E
100
AcDbEntity
  8
0
100
AcDbLine
 10
38.0
 20
77.712025
 30
0.0
 11
38.0
 21
85.153025
 31
0.0
  0
LINE
  5
8F
330
1E
100
AcDbEntity
  8
0
100
AcDbLine
 10
38.0
 20
70.141525
 30
0.0
 11
38.0
 21
62.571025
 31
0.0
  0
LINE
  5
90
330
1E
100
AcDbEntity
  8
0
100
AcDbLine
 10
38.0
 20
70.141525
 30
0.0
 11
38.0
 21
77.712025
 31
0.0
  0
LINE
  5
91
330
1E
100
AcDbEntity
  8
0
100
AcDbLine
 10
38.0
 20
62.571025
 30
0.0
 11
38.0
 21
70.141525
 31
0.0
  0
LINE
  5
92
330
1E
100
AcDbEntity
  8
0
100
AcDbLine
 10
38.0
 20
62.571025
 30
0.0
 11
38.0
 21
55.130025
 31
0.0
  0
LINE
  5
93
330
1E
100
AcDbEntity
  8
0
100
AcDbLine
 10
38.0
 20
85.153025
 30
0.0
 11
38.0
 21
92.33712500000001
 31
0.0
  0
LINE
  5
94
330
1E
100
AcDbEntity
  8
0
100
AcDbLine
 10
38.0
 20
85.153025
 30
0.0
 11
38.0
 21
77.712025
 31
0.0
  0
LINE
  5
95
330
1E
100
AcDbEntity
  8
0
100
AcDbLine
 10
38.0
 20
99.141525
 30
0.0
 11
38.0
 21
92.33712500000001
 31
0.0
  0
LINE
  5
96
330
1E
100
AcDbEntity
  8
0
100
AcDbLine
 10
38.0
 20
99.141525
 30
0.0
 11
38.0
 21
105.4495249999999
 31
0.0
  0
LINE
  5
97
330
1E
100
AcDbEntity
  8
0
100
AcDbLine
 10
38.0
 20
92.33712500000001
 30
0.0
 11
38.0
 21
99.141525
 31
0.0
  0
LINE
  5
98
330
1E
100
AcDbEntity
  8
0
100
AcDbLine
 10
38.0
 20
92.33712500000001
 30
0.0
 11
38.0
 21
85.153025
 31
0.0
  0
LINE
  5
99
330
1E
100
AcDbEntity
  8
0
100
AcDbLine
 10
16.396
 20
9.088725000000009
 30
0.0
 11
17.452
 21
6.464705000000009
 31
0.0
  0
LINE
  5
9A
330
1E
100
AcDbEntity
  8
0
100
AcDbLine
 10
16.0
 20
11.88762499999999
 30
0.0
 11
16.0
 21
12.63772499999999
 31
0.0
  0
LINE
  5
9B
330
1E
100
AcDbEntity
  8
0
100
AcDbLine
 10
16.0
 20
11.88762499999999
 30
0.0
 11
16.396
 21
9.088725000000009
 31
0.0
  0
LINE
  5
9C
330
1E
100
AcDbEntity
  8
0
100
AcDbLine
 10
13.6
 20
104.741525
 30
0.0
 11
16.0
 21
103.7815249999999
 31
0.0
  0
LINE
  5
9D
330
1E
100
AcDbEntity
  8
0
100
AcDbLine
 10
38.0
 20
104.28215
 30
0.0
 11
40.2
 21
105.141525
 31
0.0
  0
LINE
  5
9E
330
1E
100
AcDbEntity
  8
0
100
AcDbLine
 10
38.0
 20
103.7815249999999
 30
0.0
 11
40.4
 21
104.741525
 31
0.0
  0
LINE
  5
9F
330
1E
100
AcDbEntity
  8
0
100
AcDbLine
 10
38.0
 20
105.4495249999999
 30
0.0
 11
38.0
 21
99.141525
 31
0.0
  0
LINE
  5
A0
330
1E
100
AcDbEntity
  8
0
100
AcDbLine
 10
38.0
 20
105.4495249999999
 30
0.0
 11
38.0
 21
111.1535249999999
 31
0.0
  0
LINE
  5
A1
330
1E
100
AcDbEntity
  8
0
100
AcDbLine
 10
16.0
 20
105.4495249999999
 30
0.0
 11
16.0
 21
99.141525
 31
0.0
  0
LINE
  5
A2
330
1E
100
AcDbEntity
  8
0
100
AcDbLine
 10
16.0
 20
105.4495249999999
 30
0.0
 11
16.0
 21
111.1535249999999
 31
0.0
  0
LINE
  5
A3
330
1E
100
AcDbEntity
  8
0
100
AcDbLine
 10
38.0
 20
107.141525
 30
0.0
 11
58.0
 21
107.141525
 31
0.0
  0
LINE
  5
A4
330
1E
100
AcDbEntity
  8
0
100
AcDbLine
 10
13.8
 20
105.141525
 30
0.0
 11
16.0
 21
104.28215
 31
0.0
  0
LINE
  5
A5
330
1E
100
AcDbEntity
  8
0
100
AcDbLine
 10
58.0
 20
107.941525
 30
0.0
 11
58.0
 21
109.941525
 31
0.0
  0
LINE
  5
A6
330
1E
100
AcDbEntity
  8
0
100
AcDbLine
 10
58.0
 20
107.941525
 30
0.0
 11
58.0
 21
107.141525
 31
0.0
  0
LINE
  5
A7
330
1E
100
AcDbEntity
  8
0
100
AcDbLine
 10
58.0
 20
107.141525
 30
0.0
 11
58.0
 21
107.941525
 31
0.0
  0
LINE
  5
A8
330
1E
100
AcDbEntity
  8
0
100
AcDbLine
 10
58.0
 20
107.141525
 30
0.0
 11
59.0
 21
108.141525
 31
0.0
  0
LINE
  5
A9
330
1E
100
AcDbEntity
  8
0
100
AcDbLine
 10
40.2
 20
105.141525
 30
0.0
 11
42.7581395348837
 21
107.141525
 31
0.0
  0
LINE
  5
AA
330
1E
100
AcDbEntity
  8
0
100
AcDbLine
 10
40.4
 20
104.741525
 30
0.0
 11
43.4545454545455
 21
107.141525
 31
0.0
  0
LINE
  5
AB
330
1E
100
AcDbEntity
  8
0
100
AcDbLine
 10
62.396
 20
107.141525
 30
0.0
 11
92.88200000000001
 21
107.141525
 31
0.0
  0
LINE
  5
AC
330
1E
100
AcDbEntity
  8
0
100
AcDbLine
 10
62.072
 20
107.891525
 30
0.0
 11
62.396
 21
107.141525
 31
0.0
  0
LINE
  5
AD
330
1E
100
AcDbEntity
  8
0
100
AcDbLine
 10
59.593
 20
108.141525
 30
0.0
 11
61.99450806931171
 21
108.3814812478109
 31
0.0
  0
LINE
  5
AE
330
1E
100
AcDbEntity
  8
0
100
AcDbLine
 10
58.0
 20
109.941525
 30
0.0
 11
58.0
 21
113.341525
 31
0.0
  0
LINE
  5
AF
330
1E
100
AcDbEntity
  8
0
100
AcDbLine
 10
58.0
 20
109.941525
 30
0.0
 11
58.0
 21
107.941525
 31
0.0
  0
LINE
  5
B0
330
1E
100
AcDbEntity
  8
0
100
AcDbLine
 10
38.0
 20
110.405161363636
 30
0.0
 11
41.79999999999999
 21
113.341525
 31
0.0
  0
LINE
  5
B1
330
1E
100
AcDbEntity
  8
0
100
AcDbLine
 10
8.3
 20
109.4415249999999
 30
0.0
 11
13.8
 21
105.141525
 31
0.0
  0
LINE
  5
B2
330
1E
100
AcDbEntity
  8
0
100
AcDbLine
 10
8.0
 20
109.141525
 30
0.0
 11
13.6
 21
104.741525
 31
0.0
  0
LINE
  5
B3
330
1E
100
AcDbEntity
  8
0
100
AcDbLine
 10
38.0
 20
111.1535249999999
 30
0.0
 11
38.0
 21
105.4495249999999
 31
0.0
  0
LINE
  5
B4
330
1E
100
AcDbEntity
  8
0
100
AcDbLine
 10
38.0
 20
111.1535249999999
 30
0.0
 11
38.0
 21
116.1555249999999
 31
0.0
  0
LINE
  5
B5
330
1E
100
AcDbEntity
  8
0
100
AcDbLine
 10
16.0
 20
111.1535249999999
 30
0.0
 11
16.0
 21
116.1555249999999
 31
0.0
  0
LINE
  5
B6
330
1E
100
AcDbEntity
  8
0
100
AcDbLine
 10
16.0
 20
111.1535249999999
 30
0.0
 11
16.0
 21
105.4495249999999
 31
0.0
  0
LINE
  5
B7
330
1E
100
AcDbEntity
  8
0
100
AcDbLine
 10
59.0
 20
110.8415249999999
 30
0.0
 11
59.0
 21
114.0415249999999
 31
0.0
  0
LINE
  5
B8
330
1E
100
AcDbEntity
  8
0
100
AcDbLine
 10
59.0
 20
110.8415249999999
 30
0.0
 11
59.0
 21
108.841525
 31
0.0
  0
LINE
  5
B9
330
1E
100
AcDbEntity
  8
0
100
AcDbLine
 10
38.0
 20
111.6796202380949
 30
0.0
 11
41.1
 21
114.0415249999999
 31
0.0
  0
LINE
  5
BA
330
1E
100
AcDbEntity
  8
0
100
AcDbLine
 10
12.19999999999999
 20
113.341525
 30
0.0
 11
16.0
 21
110.405161363636
 31
0.0
  0
LINE
  5
BB
330
1E
100
AcDbEntity
  8
0
100
AcDbLine
 10
38.0
 20
116.1555249999999
 30
0.0
 11
38.0
 21
111.1535249999999
 31
0.0
  0
LINE
  5
BC
330
1E
100
AcDbEntity
  8
0
100
AcDbLine
 10
38.0
 20
116.1555249999999
 30
0.0
 11
38.0
 21
120.370525
 31
0.0
  0
LINE
  5
BD
330
1E
100
AcDbEntity
  8
0
100
AcDbLine
 10
16.0
 20
116.1555249999999
 30
0.0
 11
16.0
 21
120.370525
 31
0.0
  0
LINE
  5
BE
330
1E
100
AcDbEntity
  8
0
100
AcDbLine
 10
16.0
 20
116.1555249999999
 30
0.0
 11
16.0
 21
111.1535249999999
 31
0.0
  0
LINE
  5
BF
330
1E
100
AcDbEntity
  8
0
100
AcDbLine
 10
12.9
 20
114.0415249999999
 30
0.0
 11
16.0
 21
111.6796202380949
 31
0.0
  0
LINE
  5
C0
330
1E
100
AcDbEntity
  8
0
100
AcDbLine
 10
8.8
 20
117.7415249999999
 30
0.0
 11
12.19999999999999
 21
113.341525
 31
0.0
  0
LINE
  5
C1
330
1E
100
AcDbEntity
  8
0
100
AcDbLine
 10
41.1
 20
114.0415249999999
 30
0.0
 11
44.29999999999999
 21
118.241525
 31
0.0
  0
LINE
  5
C2
330
1E
100
AcDbEntity
  8
0
100
AcDbLine
 10
41.79999999999999
 20
113.341525
 30
0.0
 11
45.2
 21
117.7415249999999
 31
0.0
  0
LINE
  5
C3
330
1E
100
AcDbEntity
  8
0
100
AcDbLine
 10
59.0
 20
114.0415249999999
 30
0.0
 11
59.0
 21
118.241525
 31
0.0
  0
LINE
  5
C4
330
1E
100
AcDbEntity
  8
0
100
AcDbLine
 10
59.0
 20
114.0415249999999
 30
0.0
 11
59.0
 21
110.8415249999999
 31
0.0
  0
LINE
  5
C5
330
1E
100
AcDbEntity
  8
0
100
AcDbLine
 10
58.0
 20
117.7415249999999
 30
0.0
 11
58.0
 21
122.7415249999999
 31
0.0
  0
LINE
  5
C6
330
1E
100
AcDbEntity
  8
0
100
AcDbLine
 10
58.0
 20
117.7415249999999
 30
0.0
 11
58.0
 21
113.341525
 31
0.0
  0
LINE
  5
C7
330
1E
100
AcDbEntity
  8
0
100
AcDbLine
 10
58.0
 20
113.341525
 30
0.0
 11
58.0
 21
117.7415249999999
 31
0.0
  0
LINE
  5
C8
330
1E
100
AcDbEntity
  8
0
100
AcDbLine
 10
58.0
 20
113.341525
 30
0.0
 11
58.0
 21
109.941525
 31
0.0
  0
LINE
  5
C9
330
1E
100
AcDbEntity
  8
0
100
AcDbLine
 10
45.2
 20
117.7415249999999
 30
0.0
 11
47.2
 21
122.7415249999999
 31
0.0
  0
LINE
  5
CA
330
1E
100
AcDbEntity
  8
0
100
AcDbLine
 10
11.8
 20
112.941525
 30
0.0
 11
16.0
 21
109.768191666667
 31
0.0
  0
LINE
  5
CB
330
1E
100
AcDbEntity
  8
0
100
AcDbLine
 10
8.4
 20
117.441525
 30
0.0
 11
11.8
 21
112.941525
 31
0.0
  0
LINE
  5
CC
330
1E
100
AcDbEntity
  8
0
100
AcDbLine
 10
38.0
 20
120.370525
 30
0.0
 11
38.0
 21
123.7265249999999
 31
0.0
  0
LINE
  5
CD
330
1E
100
AcDbEntity
  8
0
100
AcDbLine
 10
38.0
 20
120.370525
 30
0.0
 11
38.0
 21
116.1555249999999
 31
0.0
  0
LINE
  5
CE
330
1E
100
AcDbEntity
  8
0
100
AcDbLine
 10
16.0
 20
120.370525
 30
0.0
 11
16.0
 21
116.1555249999999
 31
0.0
  0
LINE
  5
CF
330
1E
100
AcDbEntity
  8
0
100
AcDbLine
 10
16.0
 20
120.370525
 30
0.0
 11
16.0
 21
123.7265249999999
 31
0.0
  0
LINE
  5
D0
330
1E
100
AcDbEntity
  8
0
100
AcDbLine
 10
9.699999999999999
 20
118.241525
 30
0.0
 11
12.9
 21
114.0415249999999
 31
0.0
  0
LINE
  5
D1
330
1E
100
AcDbEntity
  8
0
100
AcDbLine
 10
59.0
 20
118.241525
 30
0.0
 11
59.0
 21
123.0415249999999
 31
0.0
  0
LINE
  5
D2
330
1E
100
AcDbEntity
  8
0
100
AcDbLine
 10
59.0
 20
118.241525
 30
0.0
 11
59.0
 21
114.0415249999999
 31
0.0
  0
LINE
  5
D3
330
1E
100
AcDbEntity
  8
0
100
AcDbLine
 10
44.29999999999999
 20
118.241525
 30
0.0
 11
46.29999999999999
 21
123.0415249999999
 31
0.0
  0
LINE
  5
D4
330
1E
100
AcDbEntity
  8
0
100
AcDbLine
 10
7.7
 20
123.0415249999999
 30
0.0
 11
9.699999999999999
 21
118.241525
 31
0.0
  0
LINE
  5
D5
330
1E
100
AcDbEntity
  8
0
100
AcDbLine
 10
6.799999999999999
 20
122.7415249999999
 30
0.0
 11
8.8
 21
117.7415249999999
 31
0.0
  0
LINE
  5
D6
330
1E
100
AcDbEntity
  8
0
100
AcDbLine
 10
16.0
 20
123.7265249999999
 30
0.0
 11
16.0
 21
126.165525
 31
0.0
  0
LINE
  5
D7
330
1E
100
AcDbEntity
  8
0
100
AcDbLine
 10
16.0
 20
123.7265249999999
 30
0.0
 11
16.0
 21
120.370525
 31
0.0
  0
LINE
  5
D8
330
1E
100
AcDbEntity
  8
0
100
AcDbLine
 10
16.0
 20
126.165525
 30
0.0
 11
16.0
 21
127.645525
 31
0.0
  0
LINE
  5
D9
330
1E
100
AcDbEntity
  8
0
100
AcDbLine
 10
16.0
 20
126.165525
 30
0.0
 11
16.0
 21
123.7265249999999
 31
0.0
  0
LINE
  5
DA
330
1E
100
AcDbEntity
  8
0
100
AcDbLine
 10
38.0
 20
127.645525
 30
0.0
 11
38.0
 21
126.165525
 31
0.0
  0
LINE
  5
DB
330
1E
100
AcDbEntity
  8
0
100
AcDbLine
 10
38.0
 20
127.645525
 30
0.0
 11
38.0
 21
128.141525
 31
0.0
  0
LINE
  5
DC
330
1E
100
AcDbEntity
  8
0
100
AcDbLine
 10
38.0
 20
126.165525
 30
0.0
 11
38.0
 21
127.645525
 31
0.0
  0
LINE
  5
DD
330
1E
100
AcDbEntity
  8
0
100
AcDbLine
 10
38.0
 20
126.165525
 30
0.0
 11
38.0
 21
123.7265249999999
 31
0.0
  0
LINE
  5
DE
330
1E
100
AcDbEntity
  8
0
100
AcDbLine
 10
38.0
 20
123.7265249999999
 30
0.0
 11
38.0
 21
120.370525
 31
0.0
  0
LINE
  5
DF
330
1E
100
AcDbEntity
  8
0
100
AcDbLine
 10
38.0
 20
123.7265249999999
 30
0.0
 11
38.0
 21
126.165525
 31
0.0
  0
LINE
  5
E0
330
1E
100
AcDbEntity
  8
0
100
AcDbLine
 10
16.0
 20
127.645525
 30
0.0
 11
16.0
 21
126.165525
 31
0.0
  0
LINE
  5
E1
330
1E
100
AcDbEntity
  8
0
100
AcDbLine
 10
16.0
 20
127.645525
 30
0.0
 11
16.0
 21
128.141525
 31
0.0
  0
LINE
  5
E2
330
1E
100
AcDbEntity
  8
0
100
AcDbLine
 10
46.29999999999999
 20
123.0415249999999
 30
0.0
 11
47.0
 21
128.141525
 31
0.0
  0
LINE
  5
E3
330
1E
100
AcDbEntity
  8
0
100
AcDbLine
 10
58.0
 20
128.141525
 30
0.0
 11
58.0
 21
122.7415249999999
 31
0.0
  0
LINE
  5
E4
330
1E
100
AcDbEntity
  8
0
100
AcDbLine
 10
58.0
 20
128.141525
 30
0.0
 11
58.0
 21
133.541525
 31
0.0
  0
LINE
  5
E5
330
1E
100
AcDbEntity
  8
0
100
AcDbLine
 10
58.0
 20
122.7415249999999
 30
0.0
 11
58.0
 21
128.141525
 31
0.0
  0
LINE
  5
E6
330
1E
100
AcDbEntity
  8
0
100
AcDbLine
 10
58.0
 20
122.7415249999999
 30
0.0
 11
58.0
 21
117.7415249999999
 31
0.0
  0
LINE
  5
E7
330
1E
100
AcDbEntity
  8
0
100
AcDbLine
 10
47.2
 20
122.7415249999999
 30
0.0
 11
48.0
 21
128.141525
 31
0.0
  0
LINE
  5
E8
330
1E
100
AcDbEntity
  8
0
100
AcDbLine
 10
47.2
 20
122.7415249999999
 30
0.0
 11
48.0
 21
128.141525
 31
0.0
  0
LINE
  5
E9
330
1E
100
AcDbEntity
  8
0
100
AcDbLine
 10
6.299999999999999
 20
122.641525
 30
0.0
 11
8.4
 21
117.441525
 31
0.0
  0
LINE
  5
EA
330
1E
100
AcDbEntity
  8
0
100
AcDbLine
 10
59.0
 20
123.0415249999999
 30
0.0
 11
59.0
 21
122.956525
 31
0.0
  0
LINE
  5
EB
330
1E
100
AcDbEntity
  8
0
100
AcDbLine
 10
59.0
 20
123.0415249999999
 30
0.0
 11
59.0
 21
128.141525
 31
0.0
  0
LINE
  5
EC
330
1E
100
AcDbEntity
  8
0
100
AcDbLine
 10
59.0
 20
123.0415249999999
 30
0.0
 11
59.0
 21
118.241525
 31
0.0
  0
LINE
  5
ED
330
1E
100
AcDbEntity
  8
0
100
AcDbLine
 10
38.0
 20
128.141525
 30
0.0
 11
38.0
 21
127.645525
 31
0.0
  0
LINE
  5
EE
330
1E
100
AcDbEntity
  8
0
100
AcDbLine
 10
16.0
 20
128.141525
 30
0.0
 11
16.396
 21
130.9575249999999
 31
0.0
  0
LINE
  5
EF
330
1E
100
AcDbEntity
  8
0
100
AcDbLine
 10
16.0
 20
128.141525
 30
0.0
 11
16.0
 21
127.645525
 31
0.0
  0
LINE
  5
F0
330
1E
100
AcDbEntity
  8
0
100
AcDbLine
 10
7.0
 20
128.141525
 30
0.0
 11
7.7
 21
133.2415249999999
 31
0.0
  0
LINE
  5
F1
330
1E
100
AcDbEntity
  8
0
100
AcDbLine
 10
7.0
 20
128.141525
 30
0.0
 11
7.7
 21
123.0415249999999
 31
0.0
  0
LINE
  5
F2
330
1E
100
AcDbEntity
  8
0
100
AcDbLine
 10
59.0
 20
128.141525
 30
0.0
 11
59.0
 21
123.0415249999999
 31
0.0
  0
LINE
  5
F3
330
1E
100
AcDbEntity
  8
0
100
AcDbLine
 10
59.0
 20
128.141525
 30
0.0
 11
59.0
 21
133.2415249999999
 31
0.0
  0
LINE
  5
F4
330
1E
100
AcDbEntity
  8
0
100
AcDbLine
 10
59.0
 20
122.956525
 30
0.0
 11
59.0
 21
118.215525
 31
0.0
  0
LINE
  5
F5
330
1E
100
AcDbEntity
  8
0
100
AcDbLine
 10
59.0
 20
118.215525
 30
0.0
 11
59.0
 21
113.993525
 31
0.0
  0
LINE
  5
F6
330
1E
100
AcDbEntity
  8
0
100
AcDbLine
 10
59.0
 20
113.993525
 30
0.0
 11
59.0
 21
110.808525
 31
0.0
  0
LINE
  5
F7
330
1E
100
AcDbEntity
  8
0
100
AcDbLine
 10
59.0
 20
110.808525
 30
0.0
 11
59.0
 21
108.8825249999999
 31
0.0
  0
LINE
  5
F8
330
1E
100
AcDbEntity
  8
0
100
AcDbLine
 10
61.0
 20
128.141525
 30
0.0
 11
61.05
 21
123.2665249999999
 31
0.0
  0
LINE
  5
F9
330
1E
100
AcDbEntity
  8
0
100
AcDbLine
 10
61.0
 20
128.141525
 30
0.0
 11
61.05
 21
133.016525
 31
0.0
  0
LINE
  5
FA
330
1E
100
AcDbEntity
  8
0
100
AcDbLine
 10
61.05
 20
123.2665249999999
 30
0.0
 11
61.19399999999999
 21
118.0915249999999
 31
0.0
  0
LINE
  5
FB
330
1E
100
AcDbEntity
  8
0
100
AcDbLine
 10
61.19399999999999
 20
118.0915249999999
 30
0.0
 11
61.424
 21
113.516525
 31
0.0
  0
LINE
  5
FC
330
1E
100
AcDbEntity
  8
0
100
AcDbLine
 10
81.0
 20
119.441525
 30
0.0
 11
81.0
 21
119.241525
 31
0.0
  0
LINE
  5
FD
330
1E
100
AcDbEntity
  8
0
100
AcDbLine
 10
81.0
 20
119.441525
 30
0.0
 11
81.0
 21
119.841525
 31
0.0
  0
LINE
  5
FE
330
1E
100
AcDbEntity
  8
0
100
AcDbLine
 10
81.0
 20
119.241525
 30
0.0
 11
81.0
 21
119.141525
 31
0.0
  0
LINE
  5
FF
330
1E
100
AcDbEntity
  8
0
100
AcDbLine
 10
81.0
 20
119.241525
 30
0.0
 11
81.0
 21
119.441525
 31
0.0
  0
LINE
  5
100
330
1E
100
AcDbEntity
  8
0
100
AcDbLine
 10
81.0
 20
119.841525
 30
0.0
 11
81.0
 21
120.2975249999999
 31
0.0
  0
LINE
  5
101
330
1E
100
AcDbEntity
  8
0
100
AcDbLine
 10
81.0
 20
119.841525
 30
0.0
 11
81.0
 21
119.441525
 31
0.0
  0
LINE
  5
102
330
1E
100
AcDbEntity
  8
0
100
AcDbLine
 10
81.0
 20
120.2975249999999
 30
0.0
 11
81.0
 21
120.899525
 31
0.0
  0
LINE
  5
103
330
1E
100
AcDbEntity
  8
0
100
AcDbLine
 10
81.0
 20
120.2975249999999
 30
0.0
 11
81.0
 21
119.841525
 31
0.0
  0
LINE
  5
104
330
1E
100
AcDbEntity
  8
0
100
AcDbLine
 10
81.0
 20
120.899525
 30
0.0
 11
81.0
 21
121.7115249999999
 31
0.0
  0
LINE
  5
105
330
1E
100
AcDbEntity
  8
0
100
AcDbLine
 10
81.0
 20
120.899525
 30
0.0
 11
81.0
 21
120.2975249999999
 31
0.0
  0
LINE
  5
106
330
1E
100
AcDbEntity
  8
0
100
AcDbLine
 10
81.0
 20
125.841525
 30
0.0
 11
81.0
 21
126.9415249999999
 31
0.0
  0
LINE
  5
107
330
1E
100
AcDbEntity
  8
0
100
AcDbLine
 10
81.0
 20
125.841525
 30
0.0
 11
81.0
 21
124.7415249999999
 31
0.0
  0
LINE
  5
108
330
1E
100
AcDbEntity
  8
0
100
AcDbLine
 10
81.0
 20
126.9415249999999
 30
0.0
 11
81.0
 21
128.141525
 31
0.0
  0
LINE
  5
109
330
1E
100
AcDbEntity
  8
0
100
AcDbLine
 10
81.0
 20
126.9415249999999
 30
0.0
 11
81.0
 21
125.841525
 31
0.0
  0
LINE
  5
10A
330
1E
100
AcDbEntity
  8
0
100
AcDbLine
 10
81.0
 20
124.7415249999999
 30
0.0
 11
81.0
 21
123.663525
 31
0.0
  0
LINE
  5
10B
330
1E
100
AcDbEntity
  8
0
100
AcDbLine
 10
81.0
 20
124.7415249999999
 30
0.0
 11
81.0
 21
125.841525
 31
0.0
  0
LINE
  5
10C
330
1E
100
AcDbEntity
  8
0
100
AcDbLine
 10
81.0
 20
123.663525
 30
0.0
 11
81.0
 21
122.7215249999999
 31
0.0
  0
LINE
  5
10D
330
1E
100
AcDbEntity
  8
0
100
AcDbLine
 10
81.0
 20
123.663525
 30
0.0
 11
81.0
 21
124.7415249999999
 31
0.0
  0
LINE
  5
10E
330
1E
100
AcDbEntity
  8
0
100
AcDbLine
 10
81.0
 20
122.7215249999999
 30
0.0
 11
81.0
 21
121.7115249999999
 31
0.0
  0
LINE
  5
10F
330
1E
100
AcDbEntity
  8
0
100
AcDbLine
 10
81.0
 20
122.7215249999999
 30
0.0
 11
81.0
 21
123.663525
 31
0.0
  0
LINE
  5
110
330
1E
100
AcDbEntity
  8
0
100
AcDbLine
 10
81.0
 20
121.7115249999999
 30
0.0
 11
81.0
 21
122.7215249999999
 31
0.0
  0
LINE
  5
111
330
1E
100
AcDbEntity
  8
0
100
AcDbLine
 10
81.0
 20
121.7115249999999
 30
0.0
 11
81.0
 21
120.899525
 31
0.0
  0
LINE
  5
113
330
1E
100
AcDbEntity
  8
0
100
AcDbLine
 10
81.0
 20
119.141525
 30
0.0
 11
81.0
 21
119.241525
 31
0.0
  0
LINE
  5
114
330
1E
100
AcDbEntity
  8
0
100
AcDbLine
 10
61.424
 20
113.516525
 30
0.0
 11
61.728
 21
110.066525
 31
0.0
  0
LINE
  5
115
330
1E
100
AcDbEntity
  8
0
100
AcDbLine
 10
61.728
 20
110.066525
 30
0.0
 11
62.072
 21
107.891525
 31
0.0
  0
LINE
  5
116
330
1E
100
AcDbEntity
  8
0
100
AcDbLine
 10
59.0
 20
108.841525
 30
0.0
 11
59.0
 21
108.141525
 31
0.0
  0
LINE
  5
117
330
1E
100
AcDbEntity
  8
0
100
AcDbLine
 10
59.0
 20
108.841525
 30
0.0
 11
59.0
 21
110.8415249999999
 31
0.0
  0
LINE
  5
118
330
1E
100
AcDbEntity
  8
0
100
AcDbLine
 10
59.0
 20
108.141525
 30
0.0
 11
59.593
 21
108.141525
 31
0.0
  0
LINE
  5
119
330
1E
100
AcDbEntity
  8
0
100
AcDbLine
 10
59.0
 20
108.141525
 30
0.0
 11
59.0
 21
108.841525
 31
0.0
  0
LINE
  5
11B
330
1E
100
AcDbEntity
  8
0
100
AcDbLine
 10
87.0
 20
119.441525
 30
0.0
 11
87.0
 21
119.241525
 31
0.0
  0
LINE
  5
11C
330
1E
100
AcDbEntity
  8
0
100
AcDbLine
 10
87.0
 20
119.441525
 30
0.0
 11
87.0
 21
119.841525
 31
0.0
  0
LINE
  5
11D
330
1E
100
AcDbEntity
  8
0
100
AcDbLine
 10
87.0
 20
119.141525
 30
0.0
 11
87.0
 21
119.241525
 31
0.0
  0
LINE
  5
11E
330
1E
100
AcDbEntity
  8
0
100
AcDbLine
 10
87.0
 20
119.241525
 30
0.0
 11
87.0
 21
119.141525
 31
0.0
  0
LINE
  5
11F
330
1E
100
AcDbEntity
  8
0
100
AcDbLine
 10
87.0
 20
119.241525
 30
0.0
 11
87.0
 21
119.441525
 31
0.0
  0
LINE
  5
120
330
1E
100
AcDbEntity
  8
0
100
AcDbLine
 10
87.0
 20
119.841525
 30
0.0
 11
87.0
 21
120.2975249999999
 31
0.0
  0
LINE
  5
121
330
1E
100
AcDbEntity
  8
0
100
AcDbLine
 10
87.0
 20
119.841525
 30
0.0
 11
87.0
 21
119.441525
 31
0.0
  0
LINE
  5
122
330
1E
100
AcDbEntity
  8
0
100
AcDbLine
 10
87.0
 20
120.2975249999999
 30
0.0
 11
87.0
 21
120.899525
 31
0.0
  0
LINE
  5
123
330
1E
100
AcDbEntity
  8
0
100
AcDbLine
 10
87.0
 20
120.2975249999999
 30
0.0
 11
87.0
 21
119.841525
 31
0.0
  0
LINE
  5
124
330
1E
100
AcDbEntity
  8
0
100
AcDbLine
 10
87.0
 20
120.899525
 30
0.0
 11
87.0
 21
121.7115249999999
 31
0.0
  0
LINE
  5
125
330
1E
100
AcDbEntity
  8
0
100
AcDbLine
 10
87.0
 20
120.899525
 30
0.0
 11
87.0
 21
120.2975249999999
 31
0.0
  0
LINE
  5
126
330
1E
100
AcDbEntity
  8
0
100
AcDbLine
 10
87.0
 20
121.7115249999999
 30
0.0
 11
87.0
 21
122.7215249999999
 31
0.0
  0
LINE
  5
127
330
1E
100
AcDbEntity
  8
0
100
AcDbLine
 10
87.0
 20
121.7115249999999
 30
0.0
 11
87.0
 21
120.899525
 31
0.0
  0
LINE
  5
128
330
1E
100
AcDbEntity
  8
0
100
AcDbLine
 10
87.0
 20
123.663525
 30
0.0
 11
87.0
 21
122.7215249999999
 31
0.0
  0
LINE
  5
129
330
1E
100
AcDbEntity
  8
0
100
AcDbLine
 10
87.0
 20
123.663525
 30
0.0
 11
87.0
 21
124.7415249999999
 31
0.0
  0
LINE
  5
12A
330
1E
100
AcDbEntity
  8
0
100
AcDbLine
 10
87.0
 20
122.7215249999999
 30
0.0
 11
87.0
 21
121.7115249999999
 31
0.0
  0
LINE
  5
12B
330
1E
100
AcDbEntity
  8
0
100
AcDbLine
 10
87.0
 20
122.7215249999999
 30
0.0
 11
87.0
 21
123.663525
 31
0.0
  0
LINE
  5
12C
330
1E
100
AcDbEntity
  8
0
100
AcDbLine
 10
87.0
 20
124.7415249999999
 30
0.0
 11
87.0
 21
125.841525
 31
0.0
  0
LINE
  5
12D
330
1E
100
AcDbEntity
  8
0
100
AcDbLine
 10
87.0
 20
124.7415249999999
 30
0.0
 11
87.0
 21
123.663525
 31
0.0
  0
LINE
  5
12E
330
1E
100
AcDbEntity
  8
0
100
AcDbLine
 10
87.0
 20
125.841525
 30
0.0
 11
87.0
 21
126.9415249999999
 31
0.0
  0
LINE
  5
12F
330
1E
100
AcDbEntity
  8
0
100
AcDbLine
 10
87.0
 20
125.841525
 30
0.0
 11
87.0
 21
124.7415249999999
 31
0.0
  0
LINE
  5
130
330
1E
100
AcDbEntity
  8
0
100
AcDbLine
 10
87.0
 20
126.9415249999999
 30
0.0
 11
87.0
 21
128.141525
 31
0.0
  0
LINE
  5
131
330
1E
100
AcDbEntity
  8
0
100
AcDbLine
 10
87.0
 20
126.9415249999999
 30
0.0
 11
87.0
 21
125.841525
 31
0.0
  0
LINE
  5
134
330
1E
100
AcDbEntity
  8
0
100
AcDbLine
 10
81.0
 20
128.141525
 30
0.0
 11
81.0
 21
129.341525
 31
0.0
  0
LINE
  5
135
330
1E
100
AcDbEntity
  8
0
100
AcDbLine
 10
81.0
 20
128.141525
 30
0.0
 11
81.0
 21
126.9415249999999
 31
0.0
  0
LINE
  5
136
330
1E
100
AcDbEntity
  8
0
100
AcDbLine
 10
37.604
 20
130.9575249999999
 30
0.0
 11
38.0
 21
128.141525
 31
0.0
  0
LINE
  5
137
330
1E
100
AcDbEntity
  8
0
100
AcDbLine
 10
16.396
 20
130.9575249999999
 30
0.0
 11
17.452
 21
133.5975249999999
 31
0.0
  0
LINE
  5
138
330
1E
100
AcDbEntity
  8
0
100
AcDbLine
 10
81.0
 20
131.541525
 30
0.0
 11
81.0
 21
130.441525
 31
0.0
  0
LINE
  5
139
330
1E
100
AcDbEntity
  8
0
100
AcDbLine
 10
81.0
 20
131.541525
 30
0.0
 11
81.0
 21
132.619525
 31
0.0
  0
LINE
  5
13A
330
1E
100
AcDbEntity
  8
0
100
AcDbLine
 10
81.0
 20
130.441525
 30
0.0
 11
81.0
 21
129.341525
 31
0.0
  0
LINE
  5
13B
330
1E
100
AcDbEntity
  8
0
100
AcDbLine
 10
81.0
 20
130.441525
 30
0.0
 11
81.0
 21
131.541525
 31
0.0
  0
LINE
  5
13C
330
1E
100
AcDbEntity
  8
0
100
AcDbLine
 10
81.0
 20
129.341525
 30
0.0
 11
81.0
 21
128.141525
 31
0.0
  0
LINE
  5
13D
330
1E
100
AcDbEntity
  8
0
100
AcDbLine
 10
81.0
 20
129.341525
 30
0.0
 11
81.0
 21
130.441525
 31
0.0
  0
LINE
  5
13E
330
1E
100
AcDbEntity
  8
0
100
AcDbLine
 10
7.7
 20
133.2415249999999
 30
0.0
 11
9.699999999999999
 21
138.041525
 31
0.0
  0
LINE
  5
13F
330
1E
100
AcDbEntity
  8
0
100
AcDbLine
 10
59.0
 20
133.2415249999999
 30
0.0
 11
59.0
 21
138.041525
 31
0.0
  0
LINE
  5
140
330
1E
100
AcDbEntity
  8
0
100
AcDbLine
 10
59.0
 20
133.2415249999999
 30
0.0
 11
59.0
 21
128.141525
 31
0.0
  0
LINE
  5
141
330
1E
100
AcDbEntity
  8
0
100
AcDbLine
 10
58.0
 20
133.541525
 30
0.0
 11
58.0
 21
138.541525
 31
0.0
  0
LINE
  5
142
330
1E
100
AcDbEntity
  8
0
100
AcDbLine
 10
58.0
 20
133.541525
 30
0.0
 11
58.0
 21
128.141525
 31
0.0
  0
LINE
  5
143
330
1E
100
AcDbEntity
  8
0
100
AcDbLine
 10
46.29999999999999
 20
133.2415249999999
 30
0.0
 11
47.0
 21
128.141525
 31
0.0
  0
LINE
  5
144
330
1E
100
AcDbEntity
  8
0
100
AcDbLine
 10
47.2
 20
133.541525
 30
0.0
 11
48.0
 21
128.141525
 31
0.0
  0
LINE
  5
145
330
1E
100
AcDbEntity
  8
0
100
AcDbLine
 10
81.0
 20
132.619525
 30
0.0
 11
81.0
 21
133.5615249999999
 31
0.0
  0
LINE
  5
146
330
1E
100
AcDbEntity
  8
0
100
AcDbLine
 10
81.0
 20
132.619525
 30
0.0
 11
81.0
 21
131.541525
 31
0.0
  0
LINE
  5
147
330
1E
100
AcDbEntity
  8
0
100
AcDbLine
 10
87.0
 20
132.619525
 30
0.0
 11
87.0
 21
133.5615249999999
 31
0.0
  0
LINE
  5
148
330
1E
100
AcDbEntity
  8
0
100
AcDbLine
 10
87.0
 20
132.619525
 30
0.0
 11
87.0
 21
131.541525
 31
0.0
  0
LINE
  5
149
330
1E
100
AcDbEntity
  8
0
100
AcDbLine
 10
61.05
 20
133.016525
 30
0.0
 11
61.19399999999999
 21
138.191525
 31
0.0
  0
LINE
  5
14A
330
1E
100
AcDbEntity
  8
0
100
AcDbLine
 10
59.0
 20
133.3265249999999
 30
0.0
 11
59.0
 21
128.141525
 31
0.0
  0
LINE
  5
14B
330
1E
100
AcDbEntity
  8
0
100
AcDbLine
 10
87.0
 20
131.541525
 30
0.0
 11
87.0
 21
130.441525
 31
0.0
  0
LINE
  5
14C
330
1E
100
AcDbEntity
  8
0
100
AcDbLine
 10
87.0
 20
131.541525
 30
0.0
 11
87.0
 21
132.619525
 31
0.0
  0
LINE
  5
14D
330
1E
100
AcDbEntity
  8
0
100
AcDbLine
 10
87.0
 20
130.441525
 30
0.0
 11
87.0
 21
129.341525
 31
0.0
  0
LINE
  5
14E
330
1E
100
AcDbEntity
  8
0
100
AcDbLine
 10
87.0
 20
130.441525
 30
0.0
 11
87.0
 21
131.541525
 31
0.0
  0
LINE
  5
14F
330
1E
100
AcDbEntity
  8
0
100
AcDbLine
 10
87.0
 20
128.141525
 30
0.0
 11
87.0
 21
129.341525
 31
0.0
  0
LINE
  5
150
330
1E
100
AcDbEntity
  8
0
100
AcDbLine
 10
87.0
 20
128.141525
 30
0.0
 11
87.0
 21
126.9415249999999
 31
0.0
  0
LINE
  5
151
330
1E
100
AcDbEntity
  8
0
100
AcDbLine
 10
92.88200000000001
 20
107.141525
 30
0.0
 11
93.87
 21
107.5915249999999
 31
0.0
  0
LINE
  5
152
330
1E
100
AcDbEntity
  8
0
100
AcDbLine
 10
93.87
 20
132.866525
 30
0.0
 11
93.87
 21
137.9665249999999
 31
0.0
  0
LINE
  5
153
330
1E
100
AcDbEntity
  8
0
100
AcDbLine
 10
93.87
 20
132.866525
 30
0.0
 11
93.87
 21
128.141525
 31
0.0
  0
LINE
  5
154
330
1E
100
AcDbEntity
  8
0
100
AcDbLine
 10
93.87
 20
128.141525
 30
0.0
 11
93.87
 21
123.4165249999999
 31
0.0
  0
LINE
  5
155
330
1E
100
AcDbEntity
  8
0
100
AcDbLine
 10
93.87
 20
128.141525
 30
0.0
 11
93.87
 21
132.866525
 31
0.0
  0
LINE
  5
156
330
1E
100
AcDbEntity
  8
0
100
AcDbLine
 10
93.87
 20
123.4165249999999
 30
0.0
 11
93.87
 21
128.141525
 31
0.0
  0
LINE
  5
157
330
1E
100
AcDbEntity
  8
0
100
AcDbLine
 10
93.87
 20
123.4165249999999
 30
0.0
 11
93.87
 21
118.316525
 31
0.0
  0
LINE
  5
158
330
1E
100
AcDbEntity
  8
0
100
AcDbLine
 10
93.87
 20
118.316525
 30
0.0
 11
93.87
 21
123.4165249999999
 31
0.0
  0
LINE
  5
159
330
1E
100
AcDbEntity
  8
0
100
AcDbLine
 10
93.87
 20
118.316525
 30
0.0
 11
93.87
 21
113.8915249999999
 31
0.0
  0
LINE
  5
15A
330
1E
100
AcDbEntity
  8
0
100
AcDbLine
 10
93.87
 20
113.8915249999999
 30
0.0
 11
93.87
 21
118.316525
 31
0.0
  0
LINE
  5
15B
330
1E
100
AcDbEntity
  8
0
100
AcDbLine
 10
93.87
 20
113.8915249999999
 30
0.0
 11
93.87
 21
110.4415249999999
 31
0.0
  0
LINE
  5
15C
330
1E
100
AcDbEntity
  8
0
100
AcDbLine
 10
93.87
 20
110.4415249999999
 30
0.0
 11
93.87
 21
113.8915249999999
 31
0.0
  0
LINE
  5
15D
330
1E
100
AcDbEntity
  8
0
100
AcDbLine
 10
93.87
 20
110.4415249999999
 30
0.0
 11
93.87
 21
108.341525
 31
0.0
  0
LINE
  5
15E
330
1E
100
AcDbEntity
  8
0
100
AcDbLine
 10
94.4243049382716
 20
120.336525
 30
0.0
 11
94.762
 21
120.336525
 31
0.0
  0
LINE
  5
15F
330
1E
100
AcDbEntity
  8
0
100
AcDbLine
 10
94.5214888888889
 20
118.336525
 30
0.0
 11
94.762
 21
118.336525
 31
0.0
  0
LINE
  5
160
330
1E
100
AcDbEntity
  8
0
100
AcDbLine
 10
94.71200000000001
 20
119.5925249999999
 30
0.0
 11
94.71700000000002
 21
119.832525
 31
0.0
  0
LINE
  5
161
330
1E
100
AcDbEntity
  8
0
100
AcDbLine
 10
94.71
 20
119.336525
 30
0.0
 11
94.71200000000001
 21
119.0805249999999
 31
0.0
  0
LINE
  5
162
330
1E
100
AcDbEntity
  8
0
100
AcDbLine
 10
94.71
 20
119.336525
 30
0.0
 11
94.71200000000001
 21
119.5925249999999
 31
0.0
  0
LINE
  5
163
330
1E
100
AcDbEntity
  8
0
100
AcDbLine
 10
94.71700000000002
 20
119.832525
 30
0.0
 11
94.725
 21
120.044525
 31
0.0
  0
LINE
  5
164
330
1E
100
AcDbEntity
  8
0
100
AcDbLine
 10
94.725
 20
120.044525
 30
0.0
 11
94.73600000000001
 21
120.204525
 31
0.0
  0
LINE
  5
165
330
1E
100
AcDbEntity
  8
0
100
AcDbLine
 10
94.71200000000001
 20
119.0805249999999
 30
0.0
 11
94.71700000000002
 21
118.8405249999999
 31
0.0
  0
LINE
  5
166
330
1E
100
AcDbEntity
  8
0
100
AcDbLine
 10
94.71700000000002
 20
118.8405249999999
 30
0.0
 11
94.725
 21
118.628525
 31
0.0
  0
LINE
  5
167
330
1E
100
AcDbEntity
  8
0
100
AcDbLine
 10
94.73600000000001
 20
120.204525
 30
0.0
 11
94.74899999999999
 21
120.3005249999999
 31
0.0
  0
LINE
  5
168
330
1E
100
AcDbEntity
  8
0
100
AcDbLine
 10
94.725
 20
118.628525
 30
0.0
 11
94.73600000000001
 21
118.468525
 31
0.0
  0
LINE
  5
169
330
1E
100
AcDbEntity
  8
0
100
AcDbLine
 10
94.73600000000001
 20
118.468525
 30
0.0
 11
94.74899999999999
 21
118.3725249999999
 31
0.0
  0
LINE
  5
16A
330
1E
100
AcDbEntity
  8
0
100
AcDbLine
 10
94.775
 20
118.3725249999999
 30
0.0
 11
94.78799999999999
 21
118.468525
 31
0.0
  0
LINE
  5
16B
330
1E
100
AcDbEntity
  8
0
100
AcDbLine
 10
94.79899999999998
 20
118.628525
 30
0.0
 11
94.807
 21
118.8405249999999
 31
0.0
  0
LINE
  5
16C
330
1E
100
AcDbEntity
  8
0
100
AcDbLine
 10
94.78799999999999
 20
118.468525
 30
0.0
 11
94.79899999999998
 21
118.628525
 31
0.0
  0
LINE
  5
16D
330
1E
100
AcDbEntity
  8
0
100
AcDbLine
 10
94.81200000000001
 20
119.0805249999999
 30
0.0
 11
94.81399999999998
 21
119.336525
 31
0.0
  0
LINE
  5
16E
330
1E
100
AcDbEntity
  8
0
100
AcDbLine
 10
94.807
 20
118.8405249999999
 30
0.0
 11
94.81200000000001
 21
119.0805249999999
 31
0.0
  0
LINE
  5
16F
330
1E
100
AcDbEntity
  8
0
100
AcDbLine
 10
94.81200000000001
 20
119.5925249999999
 30
0.0
 11
94.81399999999998
 21
119.336525
 31
0.0
  0
LINE
  5
170
330
1E
100
AcDbEntity
  8
0
100
AcDbLine
 10
94.807
 20
119.832525
 30
0.0
 11
94.81200000000001
 21
119.5925249999999
 31
0.0
  0
LINE
  5
171
330
1E
100
AcDbEntity
  8
0
100
AcDbLine
 10
94.79899999999998
 20
120.044525
 30
0.0
 11
94.807
 21
119.832525
 31
0.0
  0
LINE
  5
172
330
1E
100
AcDbEntity
  8
0
100
AcDbLine
 10
94.78799999999999
 20
120.204525
 30
0.0
 11
94.79899999999998
 21
120.044525
 31
0.0
  0
LINE
  5
173
330
1E
100
AcDbEntity
  8
0
100
AcDbLine
 10
94.775
 20
120.3005249999999
 30
0.0
 11
94.78799999999999
 21
120.204525
 31
0.0
  0
LINE
  5
174
330
1E
100
AcDbEntity
  8
0
100
AcDbLine
 10
94.7550964444445
 20
120.336525
 30
0.0
 11
95.0
 21
128.141525
 31
0.0
  0
LINE
  5
175
330
1E
100
AcDbEntity
  8
0
100
AcDbLine
 10
94.647
 20
116.8915249999999
 30
0.0
 11
94.69234088888891
 21
118.336525
 31
0.0
  0
LINE
  5
176
330
1E
100
AcDbEntity
  8
0
100
AcDbLine
 10
94.29399999999999
 20
108.6415249999999
 30
0.0
 11
94.647
 21
116.8915249999999
 31
0.0
  0
LINE
  5
177
330
1E
100
AcDbEntity
  8
0
100
AcDbLine
 10
93.87
 20
108.341525
 30
0.0
 11
93.87
 21
110.4415249999999
 31
0.0
  0
LINE
  5
178
330
1E
100
AcDbEntity
  8
0
100
AcDbLine
 10
93.87
 20
108.341525
 30
0.0
 11
93.87
 21
107.5915249999999
 31
0.0
  0
LINE
  5
179
330
1E
100
AcDbEntity
  8
0
100
AcDbLine
 10
93.87
 20
107.5915249999999
 30
0.0
 11
93.87
 21
108.341525
 31
0.0
  0
LINE
  5
17A
330
1E
100
AcDbEntity
  8
0
100
AcDbLine
 10
93.87
 20
107.5915249999999
 30
0.0
 11
94.29399999999999
 21
108.6415249999999
 31
0.0
  0
LINE
  5
17B
330
1E
100
AcDbEntity
  8
0
100
AcDbLine
 10
87.0
 20
129.341525
 30
0.0
 11
87.0
 21
128.141525
 31
0.0
  0
LINE
  5
17C
330
1E
100
AcDbEntity
  8
0
100
AcDbLine
 10
87.0
 20
129.341525
 30
0.0
 11
87.0
 21
130.441525
 31
0.0
  0
LINE
  5
17D
330
1E
100
AcDbEntity
  8
0
100
AcDbLine
 10
36.548
 20
133.5975249999999
 30
0.0
 11
37.604
 21
130.9575249999999
 31
0.0
  0
LINE
  5
17E
330
1E
100
AcDbEntity
  8
0
100
AcDbLine
 10
17.452
 20
133.5975249999999
 30
0.0
 11
19.21199999999999
 21
135.929525
 31
0.0
  0
LINE
  5
17F
330
1E
100
AcDbEntity
  8
0
100
AcDbLine
 10
81.0
 20
133.5615249999999
 30
0.0
 11
81.0
 21
134.571525
 31
0.0
  0
LINE
  5
180
330
1E
100
AcDbEntity
  8
0
100
AcDbLine
 10
81.0
 20
133.5615249999999
 30
0.0
 11
81.0
 21
132.619525
 31
0.0
  0
LINE
  5
181
330
1E
100
AcDbEntity
  8
0
100
AcDbLine
 10
87.0
 20
133.5615249999999
 30
0.0
 11
87.0
 21
134.571525
 31
0.0
  0
LINE
  5
182
330
1E
100
AcDbEntity
  8
0
100
AcDbLine
 10
87.0
 20
133.5615249999999
 30
0.0
 11
87.0
 21
132.619525
 31
0.0
  0
LINE
  5
183
330
1E
100
AcDbEntity
  8
0
100
AcDbLine
 10
6.799999999999999
 20
133.541525
 30
0.0
 11
8.8
 21
138.541525
 31
0.0
  0
LINE
  5
184
330
1E
100
AcDbEntity
  8
0
100
AcDbLine
 10
19.21199999999999
 20
135.929525
 30
0.0
 11
21.544
 21
137.689525
 31
0.0
  0
LINE
  5
185
330
1E
100
AcDbEntity
  8
0
100
AcDbLine
 10
34.788
 20
135.929525
 30
0.0
 11
36.548
 21
133.5975249999999
 31
0.0
  0
LINE
  5
186
330
1E
100
AcDbEntity
  8
0
100
AcDbLine
 10
32.45599999999999
 20
137.689525
 30
0.0
 11
34.788
 21
135.929525
 31
0.0
  0
LINE
  5
187
330
1E
100
AcDbEntity
  8
0
100
AcDbLine
 10
21.544
 20
137.689525
 30
0.0
 11
24.184
 21
138.7455249999999
 31
0.0
  0
LINE
  5
188
330
1E
100
AcDbEntity
  8
0
100
AcDbLine
 10
9.699999999999999
 20
138.041525
 30
0.0
 11
12.9
 21
142.241525
 31
0.0
  0
LINE
  5
189
330
1E
100
AcDbEntity
  8
0
100
AcDbLine
 10
59.0
 20
138.041525
 30
0.0
 11
59.0
 21
142.241525
 31
0.0
  0
LINE
  5
18A
330
1E
100
AcDbEntity
  8
0
100
AcDbLine
 10
59.0
 20
138.041525
 30
0.0
 11
59.0
 21
133.2415249999999
 31
0.0
  0
LINE
  5
18B
330
1E
100
AcDbEntity
  8
0
100
AcDbLine
 10
58.0
 20
138.541525
 30
0.0
 11
58.0
 21
142.941525
 31
0.0
  0
LINE
  5
18C
330
1E
100
AcDbEntity
  8
0
100
AcDbLine
 10
58.0
 20
138.541525
 30
0.0
 11
58.0
 21
133.541525
 31
0.0
  0
LINE
  5
18D
330
1E
100
AcDbEntity
  8
0
100
AcDbLine
 10
44.29999999999999
 20
138.041525
 30
0.0
 11
46.29999999999999
 21
133.2415249999999
 31
0.0
  0
LINE
  5
18E
330
1E
100
AcDbEntity
  8
0
100
AcDbLine
 10
45.2
 20
138.541525
 30
0.0
 11
47.2
 21
133.541525
 31
0.0
  0
LINE
  5
18F
330
1E
100
AcDbEntity
  8
0
100
AcDbLine
 10
81.0
 20
135.985525
 30
0.0
 11
81.0
 21
135.3835249999999
 31
0.0
  0
LINE
  5
190
330
1E
100
AcDbEntity
  8
0
100
AcDbLine
 10
81.0
 20
135.985525
 30
0.0
 11
81.0
 21
136.441525
 31
0.0
  0
LINE
  5
191
330
1E
100
AcDbEntity
  8
0
100
AcDbLine
 10
81.0
 20
135.3835249999999
 30
0.0
 11
81.0
 21
134.571525
 31
0.0
  0
LINE
  5
192
330
1E
100
AcDbEntity
  8
0
100
AcDbLine
 10
81.0
 20
135.3835249999999
 30
0.0
 11
81.0
 21
135.985525
 31
0.0
  0
LINE
  5
193
330
1E
100
AcDbEntity
  8
0
100
AcDbLine
 10
81.0
 20
136.441525
 30
0.0
 11
81.0
 21
136.8415249999999
 31
0.0
  0
LINE
  5
194
330
1E
100
AcDbEntity
  8
0
100
AcDbLine
 10
81.0
 20
136.441525
 30
0.0
 11
81.0
 21
135.985525
 31
0.0
  0
LINE
  5
195
330
1E
100
AcDbEntity
  8
0
100
AcDbLine
 10
81.0
 20
136.8415249999999
 30
0.0
 11
81.0
 21
137.041525
 31
0.0
  0
LINE
  5
196
330
1E
100
AcDbEntity
  8
0
100
AcDbLine
 10
81.0
 20
136.8415249999999
 30
0.0
 11
81.0
 21
136.441525
 31
0.0
  0
LINE
  5
197
330
1E
100
AcDbEntity
  8
0
100
AcDbLine
 10
81.0
 20
137.041525
 30
0.0
 11
81.0
 21
137.141525
 31
0.0
  0
LINE
  5
198
330
1E
100
AcDbEntity
  8
0
100
AcDbLine
 10
81.0
 20
137.041525
 30
0.0
 11
81.0
 21
136.8415249999999
 31
0.0
  0
LINE
  5
199
330
1E
100
AcDbEntity
  8
0
100
AcDbLine
 10
81.0
 20
134.571525
 30
0.0
 11
81.0
 21
133.5615249999999
 31
0.0
  0
LINE
  5
19A
330
1E
100
AcDbEntity
  8
0
100
AcDbLine
 10
81.0
 20
134.571525
 30
0.0
 11
81.0
 21
135.3835249999999
 31
0.0
  0
LINE
  5
19B
330
1E
100
AcDbEntity
  8
0
100
AcDbLine
 10
81.0
 20
137.141525
 30
0.0
 11
81.09999999999999
 21
137.941525
 31
0.0
  0
LINE
  5
19C
330
1E
100
AcDbEntity
  8
0
100
AcDbLine
 10
81.0
 20
137.141525
 30
0.0
 11
81.0
 21
137.041525
 31
0.0
  0
LINE
  5
19D
330
1E
100
AcDbEntity
  8
0
100
AcDbLine
 10
87.0
 20
136.8415249999999
 30
0.0
 11
87.0
 21
137.041525
 31
0.0
  0
LINE
  5
19E
330
1E
100
AcDbEntity
  8
0
100
AcDbLine
 10
87.0
 20
136.8415249999999
 30
0.0
 11
87.0
 21
136.441525
 31
0.0
  0
LINE
  5
19F
330
1E
100
AcDbEntity
  8
0
100
AcDbLine
 10
87.0
 20
137.041525
 30
0.0
 11
87.0
 21
137.141525
 31
0.0
  0
LINE
  5
1A0
330
1E
100
AcDbEntity
  8
0
100
AcDbLine
 10
87.0
 20
137.041525
 30
0.0
 11
87.0
 21
136.8415249999999
 31
0.0
  0
LINE
  5
1A1
330
1E
100
AcDbEntity
  8
0
100
AcDbLine
 10
87.0
 20
137.141525
 30
0.0
 11
87.0
 21
137.041525
 31
0.0
  0
LINE
  5
1A2
330
1E
100
AcDbEntity
  8
0
100
AcDbLine
 10
87.0
 20
136.441525
 30
0.0
 11
87.0
 21
135.985525
 31
0.0
  0
LINE
  5
1A3
330
1E
100
AcDbEntity
  8
0
100
AcDbLine
 10
87.0
 20
136.441525
 30
0.0
 11
87.0
 21
136.8415249999999
 31
0.0
  0
LINE
  5
1A4
330
1E
100
AcDbEntity
  8
0
100
AcDbLine
 10
87.0
 20
135.985525
 30
0.0
 11
87.0
 21
135.3835249999999
 31
0.0
  0
LINE
  5
1A5
330
1E
100
AcDbEntity
  8
0
100
AcDbLine
 10
87.0
 20
135.985525
 30
0.0
 11
87.0
 21
136.441525
 31
0.0
  0
LINE
  5
1A6
330
1E
100
AcDbEntity
  8
0
100
AcDbLine
 10
87.0
 20
135.3835249999999
 30
0.0
 11
87.0
 21
134.571525
 31
0.0
  0
LINE
  5
1A7
330
1E
100
AcDbEntity
  8
0
100
AcDbLine
 10
87.0
 20
135.3835249999999
 30
0.0
 11
87.0
 21
135.985525
 31
0.0
  0
LINE
  5
1A8
330
1E
100
AcDbEntity
  8
0
100
AcDbLine
 10
87.0
 20
134.571525
 30
0.0
 11
87.0
 21
133.5615249999999
 31
0.0
  0
LINE
  5
1A9
330
1E
100
AcDbEntity
  8
0
100
AcDbLine
 10
87.0
 20
134.571525
 30
0.0
 11
87.0
 21
135.3835249999999
 31
0.0
  0
LINE
  5
1AA
330
1E
100
AcDbEntity
  8
0
100
AcDbLine
 10
81.09999999999999
 20
137.941525
 30
0.0
 11
81.4
 21
138.6415249999999
 31
0.0
  0
LINE
  5
1AB
330
1E
100
AcDbEntity
  8
0
100
AcDbLine
 10
86.90000000000001
 20
137.941525
 30
0.0
 11
87.0
 21
137.141525
 31
0.0
  0
LINE
  5
1AC
330
1E
100
AcDbEntity
  8
0
100
AcDbLine
 10
94.4243049382716
 20
135.946525
 30
0.0
 11
94.762
 21
135.946525
 31
0.0
  0
LINE
  5
1AD
330
1E
100
AcDbEntity
  8
0
100
AcDbLine
 10
94.71200000000001
 20
136.690525
 30
0.0
 11
94.71700000000002
 21
136.450525
 31
0.0
  0
LINE
  5
1AE
330
1E
100
AcDbEntity
  8
0
100
AcDbLine
 10
94.71700000000002
 20
136.450525
 30
0.0
 11
94.725
 21
136.238525
 31
0.0
  0
LINE
  5
1AF
330
1E
100
AcDbEntity
  8
0
100
AcDbLine
 10
94.71
 20
136.946525
 30
0.0
 11
94.71200000000001
 21
137.202525
 31
0.0
  0
LINE
  5
1B0
330
1E
100
AcDbEntity
  8
0
100
AcDbLine
 10
94.71
 20
136.946525
 30
0.0
 11
94.71200000000001
 21
136.690525
 31
0.0
  0
LINE
  5
1B1
330
1E
100
AcDbEntity
  8
0
100
AcDbLine
 10
94.71200000000001
 20
137.202525
 30
0.0
 11
94.71700000000002
 21
137.4425249999999
 31
0.0
  0
LINE
  5
1B2
330
1E
100
AcDbEntity
  8
0
100
AcDbLine
 10
94.725
 20
136.238525
 30
0.0
 11
94.73600000000001
 21
136.078525
 31
0.0
  0
LINE
  5
1B3
330
1E
100
AcDbEntity
  8
0
100
AcDbLine
 10
94.73600000000001
 20
136.078525
 30
0.0
 11
94.74899999999999
 21
135.982525
 31
0.0
  0
LINE
  5
1B4
330
1E
100
AcDbEntity
  8
0
100
AcDbLine
 10
94.71700000000002
 20
137.4425249999999
 30
0.0
 11
94.725
 21
137.654525
 31
0.0
  0
LINE
  5
1B5
330
1E
100
AcDbEntity
  8
0
100
AcDbLine
 10
94.725
 20
137.654525
 30
0.0
 11
94.73600000000001
 21
137.8145249999999
 31
0.0
  0
LINE
  5
1B6
330
1E
100
AcDbEntity
  8
0
100
AcDbLine
 10
94.73600000000001
 20
137.8145249999999
 30
0.0
 11
94.74899999999999
 21
137.910525
 31
0.0
  0
LINE
  5
1B7
330
1E
100
AcDbEntity
  8
0
100
AcDbLine
 10
94.5214888888889
 20
137.946525
 30
0.0
 11
94.762
 21
137.946525
 31
0.0
  0
LINE
  5
1B8
330
1E
100
AcDbEntity
  8
0
100
AcDbLine
 10
94.78799999999999
 20
137.8145249999999
 30
0.0
 11
94.79899999999998
 21
137.654525
 31
0.0
  0
LINE
  5
1B9
330
1E
100
AcDbEntity
  8
0
100
AcDbLine
 10
94.775
 20
137.910525
 30
0.0
 11
94.78799999999999
 21
137.8145249999999
 31
0.0
  0
LINE
  5
1BA
330
1E
100
AcDbEntity
  8
0
100
AcDbLine
 10
94.807
 20
137.4425249999999
 30
0.0
 11
94.81200000000001
 21
137.202525
 31
0.0
  0
LINE
  5
1BB
330
1E
100
AcDbEntity
  8
0
100
AcDbLine
 10
94.79899999999998
 20
137.654525
 30
0.0
 11
94.807
 21
137.4425249999999
 31
0.0
  0
LINE
  5
1BC
330
1E
100
AcDbEntity
  8
0
100
AcDbLine
 10
94.81200000000001
 20
137.202525
 30
0.0
 11
94.81399999999998
 21
136.946525
 31
0.0
  0
LINE
  5
1BD
330
1E
100
AcDbEntity
  8
0
100
AcDbLine
 10
94.81200000000001
 20
136.690525
 30
0.0
 11
94.81399999999998
 21
136.946525
 31
0.0
  0
LINE
  5
1BE
330
1E
100
AcDbEntity
  8
0
100
AcDbLine
 10
94.807
 20
136.450525
 30
0.0
 11
94.81200000000001
 21
136.690525
 31
0.0
  0
LINE
  5
1BF
330
1E
100
AcDbEntity
  8
0
100
AcDbLine
 10
94.79899999999998
 20
136.238525
 30
0.0
 11
94.807
 21
136.450525
 31
0.0
  0
LINE
  5
1C0
330
1E
100
AcDbEntity
  8
0
100
AcDbLine
 10
94.78799999999999
 20
136.078525
 30
0.0
 11
94.79899999999998
 21
136.238525
 31
0.0
  0
LINE
  5
1C1
330
1E
100
AcDbEntity
  8
0
100
AcDbLine
 10
94.775
 20
135.982525
 30
0.0
 11
94.78799999999999
 21
136.078525
 31
0.0
  0
LINE
  5
1C2
330
1E
100
AcDbEntity
  8
0
100
AcDbLine
 10
94.7550964444445
 20
135.946525
 30
0.0
 11
95.0
 21
128.141525
 31
0.0
  0
LINE
  5
1C3
330
1E
100
AcDbEntity
  8
0
100
AcDbLine
 10
93.87
 20
137.9665249999999
 30
0.0
 11
93.87
 21
142.391525
 31
0.0
  0
LINE
  5
1C4
330
1E
100
AcDbEntity
  8
0
100
AcDbLine
 10
93.87
 20
137.9665249999999
 30
0.0
 11
93.87
 21
132.866525
 31
0.0
  0
LINE
  5
1C5
330
1E
100
AcDbEntity
  8
0
100
AcDbLine
 10
61.19399999999999
 20
138.191525
 30
0.0
 11
61.424
 21
142.7665249999999
 31
0.0
  0
LINE
  5
1C6
330
1E
100
AcDbEntity
  8
0
100
AcDbLine
 10
59.0
 20
138.0675249999999
 30
0.0
 11
59.0
 21
133.3265249999999
 31
0.0
  0
LINE
  5
1C7
330
1E
100
AcDbEntity
  8
0
100
AcDbLine
 10
29.816
 20
138.7455249999999
 30
0.0
 11
32.45599999999999
 21
137.689525
 31
0.0
  0
LINE
  5
1C8
330
1E
100
AcDbEntity
  8
0
100
AcDbLine
 10
27.0
 20
139.141525
 30
0.0
 11
29.816
 21
138.7455249999999
 31
0.0
  0
LINE
  5
1C9
330
1E
100
AcDbEntity
  8
0
100
AcDbLine
 10
24.184
 20
138.7455249999999
 30
0.0
 11
27.0
 21
139.141525
 31
0.0
  0
LINE
  5
1CA
330
1E
100
AcDbEntity
  8
0
100
AcDbLine
 10
81.4
 20
138.6415249999999
 30
0.0
 11
81.90000000000001
 21
139.2415249999999
 31
0.0
  0
LINE
  5
1CB
330
1E
100
AcDbEntity
  8
0
100
AcDbLine
 10
81.90000000000001
 20
139.2415249999999
 30
0.0
 11
82.5
 21
139.7415249999999
 31
0.0
  0
LINE
  5
1CC
330
1E
100
AcDbEntity
  8
0
100
AcDbLine
 10
82.5
 20
139.7415249999999
 30
0.0
 11
83.2
 21
140.041525
 31
0.0
  0
LINE
  5
1CD
330
1E
100
AcDbEntity
  8
0
100
AcDbLine
 10
83.2
 20
140.041525
 30
0.0
 11
84.0
 21
140.141525
 31
0.0
  0
LINE
  5
1CE
330
1E
100
AcDbEntity
  8
0
100
AcDbLine
 10
86.6
 20
138.6415249999999
 30
0.0
 11
86.90000000000001
 21
137.941525
 31
0.0
  0
LINE
  5
1CF
330
1E
100
AcDbEntity
  8
0
100
AcDbLine
 10
86.09999999999999
 20
139.2415249999999
 30
0.0
 11
86.6
 21
138.6415249999999
 31
0.0
  0
LINE
  5
1D0
330
1E
100
AcDbEntity
  8
0
100
AcDbLine
 10
85.5
 20
139.7415249999999
 30
0.0
 11
86.09999999999999
 21
139.2415249999999
 31
0.0
  0
LINE
  5
1D1
330
1E
100
AcDbEntity
  8
0
100
AcDbLine
 10
84.8
 20
140.041525
 30
0.0
 11
85.5
 21
139.7415249999999
 31
0.0
  0
LINE
  5
1D2
330
1E
100
AcDbEntity
  8
0
100
AcDbLine
 10
84.0
 20
140.141525
 30
0.0
 11
84.8
 21
140.041525
 31
0.0
  0
LINE
  5
1D3
330
1E
100
AcDbEntity
  8
0
100
AcDbLine
 10
94.647
 20
139.391525
 30
0.0
 11
94.69234088888891
 21
137.946525
 31
0.0
  0
LINE
  5
1D4
330
1E
100
AcDbEntity
  8
0
100
AcDbLine
 10
8.8
 20
138.541525
 30
0.0
 11
12.19999999999999
 21
142.941525
 31
0.0
  0
LINE
  5
1D5
330
1E
100
AcDbEntity
  8
0
100
AcDbLine
 10
8.4
 20
138.8415249999999
 30
0.0
 11
11.8
 21
143.3415249999999
 31
0.0
  0
LINE
  5
1D6
330
1E
100
AcDbEntity
  8
0
100
AcDbLine
 10
6.299999999999999
 20
133.6415249999999
 30
0.0
 11
8.4
 21
138.8415249999999
 31
0.0
  0
LINE
  5
1D7
330
1E
100
AcDbEntity
  8
0
100
AcDbLine
 10
5.5
 20
128.141525
 30
0.0
 11
6.299999999999999
 21
133.6415249999999
 31
0.0
  0
LINE
  5
1D8
330
1E
100
AcDbEntity
  8
0
100
AcDbLine
 10
5.5
 20
128.141525
 30
0.0
 11
6.299999999999999
 21
122.641525
 31
0.0
  0
LINE
  5
1D9
330
1E
100
AcDbEntity
  8
0
100
AcDbLine
 10
4.0
 20
141.3415249999999
 30
0.0
 11
8.3
 21
146.8415249999999
 31
0.0
  0
LINE
  5
1DA
330
1E
100
AcDbEntity
  8
0
100
AcDbLine
 10
1.5
 20
134.941525
 30
0.0
 11
4.0
 21
141.3415249999999
 31
0.0
  0
LINE
  5
1DB
330
1E
100
AcDbEntity
  8
0
100
AcDbLine
 10
12.9
 20
142.241525
 30
0.0
 11
17.1
 21
145.441525
 31
0.0
  0
LINE
  5
1DC
330
1E
100
AcDbEntity
  8
0
100
AcDbLine
 10
59.0
 20
142.241525
 30
0.0
 11
59.0
 21
145.441525
 31
0.0
  0
LINE
  5
1DD
330
1E
100
AcDbEntity
  8
0
100
AcDbLine
 10
59.0
 20
142.241525
 30
0.0
 11
59.0
 21
138.041525
 31
0.0
  0
LINE
  5
1DE
330
1E
100
AcDbEntity
  8
0
100
AcDbLine
 10
41.1
 20
142.241525
 30
0.0
 11
44.29999999999999
 21
138.041525
 31
0.0
  0
LINE
  5
1DF
330
1E
100
AcDbEntity
  8
0
100
AcDbLine
 10
17.1
 20
145.441525
 30
0.0
 11
21.89999999999999
 21
147.441525
 31
0.0
  0
LINE
  5
1E0
330
1E
100
AcDbEntity
  8
0
100
AcDbLine
 10
12.19999999999999
 20
142.941525
 30
0.0
 11
16.6
 21
146.3415249999999
 31
0.0
  0
LINE
  5
1E1
330
1E
100
AcDbEntity
  8
0
100
AcDbLine
 10
16.6
 20
146.3415249999999
 30
0.0
 11
21.6
 21
148.341525
 31
0.0
  0
LINE
  5
1E2
330
1E
100
AcDbEntity
  8
0
100
AcDbLine
 10
36.89999999999999
 20
145.441525
 30
0.0
 11
41.1
 21
142.241525
 31
0.0
  0
LINE
  5
1E3
330
1E
100
AcDbEntity
  8
0
100
AcDbLine
 10
37.4
 20
146.3415249999999
 30
0.0
 11
41.79999999999999
 21
142.941525
 31
0.0
  0
LINE
  5
1E4
330
1E
100
AcDbEntity
  8
0
100
AcDbLine
 10
59.0
 20
145.441525
 30
0.0
 11
59.0
 21
147.441525
 31
0.0
  0
LINE
  5
1E5
330
1E
100
AcDbEntity
  8
0
100
AcDbLine
 10
59.0
 20
145.441525
 30
0.0
 11
59.0
 21
142.241525
 31
0.0
  0
LINE
  5
1E6
330
1E
100
AcDbEntity
  8
0
100
AcDbLine
 10
58.0
 20
142.941525
 30
0.0
 11
58.0
 21
146.3415249999999
 31
0.0
  0
LINE
  5
1E7
330
1E
100
AcDbEntity
  8
0
100
AcDbLine
 10
58.0
 20
142.941525
 30
0.0
 11
58.0
 21
138.541525
 31
0.0
  0
LINE
  5
1E8
330
1E
100
AcDbEntity
  8
0
100
AcDbLine
 10
58.0
 20
146.3415249999999
 30
0.0
 11
58.0
 21
148.341525
 31
0.0
  0
LINE
  5
1E9
330
1E
100
AcDbEntity
  8
0
100
AcDbLine
 10
58.0
 20
146.3415249999999
 30
0.0
 11
58.0
 21
142.941525
 31
0.0
  0
LINE
  5
1EA
330
1E
100
AcDbEntity
  8
0
100
AcDbLine
 10
41.79999999999999
 20
142.941525
 30
0.0
 11
45.2
 21
138.541525
 31
0.0
  0
LINE
  5
1EB
330
1E
100
AcDbEntity
  8
0
100
AcDbLine
 10
59.0
 20
142.289525
 30
0.0
 11
59.0
 21
138.0675249999999
 31
0.0
  0
LINE
  5
1EC
330
1E
100
AcDbEntity
  8
0
100
AcDbLine
 10
93.87
 20
142.391525
 30
0.0
 11
93.87
 21
145.8415249999999
 31
0.0
  0
LINE
  5
1ED
330
1E
100
AcDbEntity
  8
0
100
AcDbLine
 10
93.87
 20
142.391525
 30
0.0
 11
93.87
 21
137.9665249999999
 31
0.0
  0
LINE
  5
1EE
330
1E
100
AcDbEntity
  8
0
100
AcDbLine
 10
93.87
 20
145.8415249999999
 30
0.0
 11
93.87
 21
147.941525
 31
0.0
  0
LINE
  5
1EF
330
1E
100
AcDbEntity
  8
0
100
AcDbLine
 10
93.87
 20
145.8415249999999
 30
0.0
 11
93.87
 21
142.391525
 31
0.0
  0
LINE
  5
1F0
330
1E
100
AcDbEntity
  8
0
100
AcDbLine
 10
61.424
 20
142.7665249999999
 30
0.0
 11
61.728
 21
146.2165249999999
 31
0.0
  0
LINE
  5
1F1
330
1E
100
AcDbEntity
  8
0
100
AcDbLine
 10
61.728
 20
146.2165249999999
 30
0.0
 11
62.072
 21
148.391525
 31
0.0
  0
LINE
  5
1F2
330
1E
100
AcDbEntity
  8
0
100
AcDbLine
 10
59.0
 20
145.474525
 30
0.0
 11
59.0
 21
142.289525
 31
0.0
  0
LINE
  5
1F3
330
1E
100
AcDbEntity
  8
0
100
AcDbLine
 10
59.0
 20
147.441525
 30
0.0
 11
59.0
 21
148.1415249999999
 31
0.0
  0
LINE
  5
1F4
330
1E
100
AcDbEntity
  8
0
100
AcDbLine
 10
59.0
 20
147.441525
 30
0.0
 11
59.0
 21
145.441525
 31
0.0
  0
LINE
  5
1F5
330
1E
100
AcDbEntity
  8
0
100
AcDbLine
 10
21.89999999999999
 20
147.441525
 30
0.0
 11
27.0
 21
148.1415249999999
 31
0.0
  0
LINE
  5
1F6
330
1E
100
AcDbEntity
  8
0
100
AcDbLine
 10
27.0
 20
148.1415249999999
 30
0.0
 11
32.1
 21
147.441525
 31
0.0
  0
LINE
  5
1F7
330
1E
100
AcDbEntity
  8
0
100
AcDbLine
 10
32.1
 20
147.441525
 30
0.0
 11
36.89999999999999
 21
145.441525
 31
0.0
  0
LINE
  5
1F8
330
1E
100
AcDbEntity
  8
0
100
AcDbLine
 10
94.29399999999999
 20
147.641525
 30
0.0
 11
94.647
 21
139.391525
 31
0.0
  0
LINE
  5
1F9
330
1E
100
AcDbEntity
  8
0
100
AcDbLine
 10
93.87
 20
147.941525
 30
0.0
 11
93.87
 21
148.691525
 31
0.0
  0
LINE
  5
1FA
330
1E
100
AcDbEntity
  8
0
100
AcDbLine
 10
93.87
 20
147.941525
 30
0.0
 11
93.87
 21
145.8415249999999
 31
0.0
  0
LINE
  5
1FB
330
1E
100
AcDbEntity
  8
0
100
AcDbLine
 10
59.593
 20
148.1415249999999
 30
0.0
 11
61.99450806931171
 21
147.901568752189
 31
0.0
  0
LINE
  5
1FC
330
1E
100
AcDbEntity
  8
0
100
AcDbLine
 10
59.0
 20
147.4005249999999
 30
0.0
 11
59.0
 21
145.474525
 31
0.0
  0
LINE
  5
1FD
330
1E
100
AcDbEntity
  8
0
100
AcDbLine
 10
58.0
 20
148.341525
 30
0.0
 11
58.0
 21
149.141525
 31
0.0
  0
LINE
  5
1FE
330
1E
100
AcDbEntity
  8
0
100
AcDbLine
 10
58.0
 20
148.341525
 30
0.0
 11
58.0
 21
146.3415249999999
 31
0.0
  0
LINE
  5
1FF
330
1E
100
AcDbEntity
  8
0
100
AcDbLine
 10
21.6
 20
148.341525
 30
0.0
 11
27.0
 21
149.141525
 31
0.0
  0
LINE
  5
200
330
1E
100
AcDbEntity
  8
0
100
AcDbLine
 10
26.99699999999999
 20
150.813525
 30
0.0
 11
27.954
 21
150.977525
 31
0.0
  0
LINE
  5
201
330
1E
100
AcDbEntity
  8
0
100
AcDbLine
 10
26.9969
 20
150.795525
 30
0.0
 11
27.9539
 21
150.959525
 31
0.0
  0
LINE
  5
202
330
1E
100
AcDbEntity
  8
0
100
AcDbLine
 10
26.0405
 20
150.9795249999999
 30
0.0
 11
26.99699999999999
 21
150.813525
 31
0.0
  0
LINE
  5
203
330
1E
100
AcDbEntity
  8
0
100
AcDbLine
 10
26.0405
 20
150.9615249999999
 30
0.0
 11
26.9969
 21
150.795525
 31
0.0
  0
LINE
  5
204
330
1E
100
AcDbEntity
  8
0
100
AcDbLine
 10
27.954
 20
150.977525
 30
0.0
 11
28.7658
 21
151.446525
 31
0.0
  0
LINE
  5
205
330
1E
100
AcDbEntity
  8
0
100
AcDbLine
 10
27.9539
 20
150.959525
 30
0.0
 11
28.7658
 21
151.428525
 31
0.0
  0
LINE
  5
206
330
1E
100
AcDbEntity
  8
0
100
AcDbLine
 10
58.0
 20
149.141525
 30
0.0
 11
58.0
 21
148.341525
 31
0.0
  0
LINE
  5
207
330
1E
100
AcDbEntity
  8
0
100
AcDbLine
 10
58.0
 20
149.141525
 30
0.0
 11
59.0
 21
148.1415249999999
 31
0.0
  0
LINE
  5
208
330
1E
100
AcDbEntity
  8
0
100
AcDbLine
 10
29.50795717424469
 20
149.2767312292009
 30
0.0
 11
30.4374999999999
 21
149.141525
 31
0.0
  0
LINE
  5
209
330
1E
100
AcDbEntity
  8
0
100
AcDbLine
 10
40.2
 20
151.1415249999999
 30
0.0
 11
42.7581395348837
 21
149.141525
 31
0.0
  0
LINE
  5
20A
330
1E
100
AcDbEntity
  8
0
100
AcDbLine
 10
27.0
 20
149.141525
 30
0.0
 11
32.4
 21
148.341525
 31
0.0
  0
LINE
  5
20B
330
1E
100
AcDbEntity
  8
0
100
AcDbLine
 10
27.0
 20
149.141525
 30
0.0
 11
58.0
 21
149.141525
 31
0.0
  0
LINE
  5
20C
330
1E
100
AcDbEntity
  8
0
100
AcDbLine
 10
32.4
 20
148.341525
 30
0.0
 11
37.4
 21
146.3415249999999
 31
0.0
  0
LINE
  5
20D
330
1E
100
AcDbEntity
  8
0
100
AcDbLine
 10
93.87
 20
148.691525
 30
0.0
 11
93.87
 21
147.941525
 31
0.0
  0
LINE
  5
20E
330
1E
100
AcDbEntity
  8
0
100
AcDbLine
 10
93.87
 20
148.691525
 30
0.0
 11
94.29399999999999
 21
147.641525
 31
0.0
  0
LINE
  5
20F
330
1E
100
AcDbEntity
  8
0
100
AcDbLine
 10
92.88200000000001
 20
149.141525
 30
0.0
 11
93.87
 21
148.691525
 31
0.0
  0
LINE
  5
210
330
1E
100
AcDbEntity
  8
0
100
AcDbLine
 10
62.396
 20
149.141525
 30
0.0
 11
92.88200000000001
 21
149.141525
 31
0.0
  0
LINE
  5
211
330
1E
100
AcDbEntity
  8
0
100
AcDbLine
 10
62.072
 20
148.391525
 30
0.0
 11
62.396
 21
149.141525
 31
0.0
  0
LINE
  5
212
330
1E
100
AcDbEntity
  8
0
100
AcDbLine
 10
59.0
 20
148.1415249999999
 30
0.0
 11
59.0
 21
147.441525
 31
0.0
  0
LINE
  5
213
330
1E
100
AcDbEntity
  8
0
100
AcDbLine
 10
59.0
 20
148.1415249999999
 30
0.0
 11
59.593
 21
148.1415249999999
 31
0.0
  0
LINE
  5
214
330
1E
100
AcDbEntity
  8
0
100
AcDbLine
 10
21.49999999999999
 20
148.8415249999999
 30
0.0
 11
24.5079337761168
 21
149.279042640162
 31
0.0
  0
LINE
  5
215
330
1E
100
AcDbEntity
  8
0
100
AcDbLine
 10
16.3
 20
146.7415249999999
 30
0.0
 11
21.49999999999999
 21
148.8415249999999
 31
0.0
  0
LINE
  5
216
330
1E
100
AcDbEntity
  8
0
100
AcDbLine
 10
11.8
 20
143.3415249999999
 30
0.0
 11
16.3
 21
146.7415249999999
 31
0.0
  0
LINE
  5
217
330
1E
100
AcDbEntity
  8
0
100
AcDbLine
 10
28.7658
 20
151.428525
 30
0.0
 11
29.3089
 21
152.130525
 31
0.0
  0
LINE
  5
218
330
1E
100
AcDbEntity
  8
0
100
AcDbLine
 10
28.7658
 20
151.446525
 30
0.0
 11
29.309
 21
152.148525
 31
0.0
  0
LINE
  5
219
330
1E
100
AcDbEntity
  8
0
100
AcDbLine
 10
25.2303
 20
151.4495249999999
 30
0.0
 11
26.0405
 21
150.9795249999999
 31
0.0
  0
LINE
  5
21A
330
1E
100
AcDbEntity
  8
0
100
AcDbLine
 10
25.2303
 20
151.4315249999999
 30
0.0
 11
26.0405
 21
150.9615249999999
 31
0.0
  0
LINE
  5
21B
330
1E
100
AcDbEntity
  8
0
100
AcDbLine
 10
40.4
 20
151.541525
 30
0.0
 11
43.4545454545455
 21
149.141525
 31
0.0
  0
LINE
  5
21C
330
1E
100
AcDbEntity
  8
0
100
AcDbLine
 10
13.8
 20
151.1415249999999
 30
0.0
 11
20.2
 21
153.641525
 31
0.0
  0
LINE
  5
21D
330
1E
100
AcDbEntity
  8
0
100
AcDbLine
 10
8.3
 20
146.8415249999999
 30
0.0
 11
13.8
 21
151.1415249999999
 31
0.0
  0
LINE
  5
21E
330
1E
100
AcDbEntity
  8
0
100
AcDbLine
 10
24.68949999999999
 20
152.151525
 30
0.0
 11
25.2303
 21
151.4495249999999
 31
0.0
  0
LINE
  5
21F
330
1E
100
AcDbEntity
  8
0
100
AcDbLine
 10
29.309
 20
152.148525
 30
0.0
 11
29.5007
 21
152.976525
 31
0.0
  0
LINE
  5
220
330
1E
100
AcDbEntity
  8
0
100
AcDbLine
 10
29.3089
 20
152.130525
 30
0.0
 11
29.5007
 21
152.959525
 31
0.0
  0
LINE
  5
221
330
1E
100
AcDbEntity
  8
0
100
AcDbLine
 10
24.68949999999999
 20
152.1345249999999
 30
0.0
 11
25.2303
 21
151.4315249999999
 31
0.0
  0
LINE
  5
222
330
1E
100
AcDbEntity
  8
0
100
AcDbLine
 10
24.5002
 20
153.352525
 30
0.0
 11
24.5007
 21
152.980525
 31
0.0
  0
LINE
  5
223
330
1E
100
AcDbEntity
  8
0
100
AcDbLine
 10
24.5007
 20
152.980525
 30
0.0
 11
24.68949999999999
 21
152.151525
 31
0.0
  0
LINE
  5
224
330
1E
100
AcDbEntity
  8
0
100
AcDbLine
 10
24.5007
 20
152.963525
 30
0.0
 11
24.5089283201491
 21
148.772477343726
 31
0.0
  0
LINE
  5
225
330
1E
100
AcDbEntity
  8
0
100
AcDbLine
 10
24.5007
 20
152.963525
 30
0.0
 11
24.68949999999999
 21
152.1345249999999
 31
0.0
  0
LINE
  5
226
330
1E
100
AcDbEntity
  8
0
100
AcDbLine
 10
29.5002
 20
153.348525
 30
0.0
 11
29.5007
 21
152.976525
 31
0.0
  0
LINE
  5
227
330
1E
100
AcDbEntity
  8
0
100
AcDbLine
 10
29.5007
 20
152.959525
 30
0.0
 11
29.508223606531
 21
149.141525
 31
0.0
  0
LINE
  5
228
330
1E
100
AcDbEntity
  8
0
100
AcDbLine
 10
33.79999999999999
 20
153.641525
 30
0.0
 11
40.2
 21
151.1415249999999
 31
0.0
  0
LINE
  5
229
330
1E
100
AcDbEntity
  8
0
100
AcDbLine
 10
29.5
 20
153.730525
 30
0.0
 11
29.5002
 21
153.348525
 31
0.0
  0
LINE
  5
22A
330
1E
100
AcDbEntity
  8
0
100
AcDbLine
 10
29.5
 20
153.730525
 30
0.0
 11
29.5
 21
154.168525
 31
0.0
  0
LINE
  5
22B
330
1E
100
AcDbEntity
  8
0
100
AcDbLine
 10
24.5001
 20
154.648525
 30
0.0
 11
24.50039999999999
 21
155.145525
 31
0.0
  0
LINE
  5
22C
330
1E
100
AcDbEntity
  8
0
100
AcDbLine
 10
29.5
 20
154.168525
 30
0.0
 11
29.5
 21
153.730525
 31
0.0
  0
LINE
  5
22D
330
1E
100
AcDbEntity
  8
0
100
AcDbLine
 10
29.5
 20
154.168525
 30
0.0
 11
29.5001
 21
154.6445249999999
 31
0.0
  0
LINE
  5
22E
330
1E
100
AcDbEntity
  8
0
100
AcDbLine
 10
24.5
 20
154.172525
 30
0.0
 11
24.5
 21
153.7345249999999
 31
0.0
  0
LINE
  5
22F
330
1E
100
AcDbEntity
  8
0
100
AcDbLine
 10
24.5
 20
154.172525
 30
0.0
 11
24.5001
 21
154.648525
 31
0.0
  0
LINE
  5
230
330
1E
100
AcDbEntity
  8
0
100
AcDbLine
 10
24.5
 20
153.7345249999999
 30
0.0
 11
24.5002
 21
153.352525
 31
0.0
  0
LINE
  5
231
330
1E
100
AcDbEntity
  8
0
100
AcDbLine
 10
24.5
 20
153.7345249999999
 30
0.0
 11
24.5
 21
154.172525
 31
0.0
  0
LINE
  5
232
330
1E
100
AcDbEntity
  8
0
100
AcDbLine
 10
29.5001
 20
154.6445249999999
 30
0.0
 11
29.50039999999999
 21
155.1415249999999
 31
0.0
  0
LINE
  5
233
330
1E
100
AcDbEntity
  8
0
100
AcDbLine
 10
29.5001812806158
 20
154.779179886867
 30
0.0
 11
33.9
 21
154.141525
 31
0.0
  0
LINE
  5
234
330
1E
100
AcDbEntity
  8
0
100
AcDbLine
 10
29.5000221322871
 20
154.273874686428
 30
0.0
 11
33.79999999999999
 21
153.641525
 31
0.0
  0
LINE
  5
235
330
1E
100
AcDbEntity
  8
0
100
AcDbLine
 10
24.50039999999999
 20
155.145525
 30
0.0
 11
24.5124
 21
165.1455249999999
 31
0.0
  0
LINE
  5
236
330
1E
100
AcDbEntity
  8
0
100
AcDbLine
 10
24.5124
 20
165.1455249999999
 30
0.0
 11
24.7011
 21
165.1455249999999
 31
0.0
  0
LINE
  5
237
330
1E
100
AcDbEntity
  8
0
100
AcDbLine
 10
25.24739999999999
 20
165.1455249999999
 30
0.0
 11
26.0593
 21
165.1445249999999
 31
0.0
  0
LINE
  5
238
330
1E
100
AcDbEntity
  8
0
100
AcDbLine
 10
24.7011
 20
165.1455249999999
 30
0.0
 11
25.2418
 21
165.1455249999999
 31
0.0
  0
LINE
  5
239
330
1E
100
AcDbEntity
  8
0
100
AcDbLine
 10
25.2418
 20
165.1455249999999
 30
0.0
 11
26.0519
 21
165.1445249999999
 31
0.0
  0
LINE
  5
23A
330
1E
100
AcDbEntity
  8
0
100
AcDbLine
 10
27.0084
 20
165.143525
 30
0.0
 11
27.9654
 21
165.142525
 31
0.0
  0
LINE
  5
23B
330
1E
100
AcDbEntity
  8
0
100
AcDbLine
 10
27.9654
 20
165.142525
 30
0.0
 11
28.7773
 21
165.142525
 31
0.0
  0
LINE
  5
23C
330
1E
100
AcDbEntity
  8
0
100
AcDbLine
 10
29.32059999999999
 20
165.141525
 30
0.0
 11
29.5124
 21
165.141525
 31
0.0
  0
LINE
  5
23D
330
1E
100
AcDbEntity
  8
0
100
AcDbLine
 10
29.50039999999999
 20
155.1415249999999
 30
0.0
 11
29.5124
 21
165.141525
 31
0.0
  0
LINE
  5
23E
330
1E
100
AcDbEntity
  8
0
100
AcDbLine
 10
28.7829
 20
165.142525
 30
0.0
 11
29.3236
 21
165.141525
 31
0.0
  0
LINE
  5
23F
330
1E
100
AcDbEntity
  8
0
100
AcDbLine
 10
28.7773
 20
165.142525
 30
0.0
 11
29.32059999999999
 21
165.141525
 31
0.0
  0
LINE
  5
240
330
1E
100
AcDbEntity
  8
0
100
AcDbLine
 10
27.0163
 20
165.143525
 30
0.0
 11
27.9728
 21
165.142525
 31
0.0
  0
LINE
  5
241
330
1E
100
AcDbEntity
  8
0
100
AcDbLine
 10
26.0593
 20
165.1445249999999
 30
0.0
 11
27.0163
 21
165.143525
 31
0.0
  0
LINE
  5
242
330
1E
100
AcDbEntity
  8
0
100
AcDbLine
 10
26.0519
 20
165.1445249999999
 30
0.0
 11
27.0084
 21
165.143525
 31
0.0
  0
LINE
  5
243
330
1E
100
AcDbEntity
  8
0
100
AcDbLine
 10
26.0519
 20
165.1445249999999
 30
0.0
 11
28.7773
 21
165.142525
 31
0.0
  0
LINE
  5
244
330
1E
100
AcDbEntity
  8
0
100
AcDbLine
 10
29.5001812806158
 20
154.779179886867
 30
0.0
 11
33.9
 21
154.141525
 31
0.0
  0
LINE
  5
245
330
1E
100
AcDbEntity
  8
0
100
AcDbLine
 10
33.9
 20
154.141525
 30
0.0
 11
40.4
 21
151.541525
 31
0.0
  0
LINE
  5
246
330
1E
100
AcDbEntity
  8
0
100
AcDbLine
 10
20.2
 20
153.641525
 30
0.0
 11
24.5000212932926
 21
154.2738810725429
 31
0.0
  0
LINE
  5
247
330
1E
100
AcDbEntity
  8
0
100
AcDbLine
 10
20.1
 20
154.141525
 30
0.0
 11
24.5001788976378
 21
154.779232086614
 31
0.0
  0
LINE
  5
248
330
1E
100
AcDbEntity
  8
0
100
AcDbLine
 10
13.6
 20
151.541525
 30
0.0
 11
20.1
 21
154.141525
 31
0.0
  0
LINE
  5
249
330
1E
100
AcDbEntity
  8
0
100
AcDbLine
 10
8.0
 20
147.1415249999999
 30
0.0
 11
13.6
 21
151.541525
 31
0.0
  0
LINE
  5
24A
330
1E
100
AcDbEntity
  8
0
100
AcDbLine
 10
3.6
 20
141.541525
 30
0.0
 11
8.0
 21
147.1415249999999
 31
0.0
  0
LINE
  5
24B
330
1E
100
AcDbEntity
  8
0
100
AcDbLine
 10
1.0
 20
135.041525
 30
0.0
 11
3.6
 21
141.541525
 31
0.0
  0
LINE
  5
250
330
1E
100
AcDbEntity
  8
0
100
AcDbLine
 10
84.0
 20
116.141475
 30
0.0
 11
84.8
 21
116.241475
 31
0.0
  0
LINE
  5
251
330
1E
100
AcDbEntity
  8
0
100
AcDbLine
 10
82.5
 20
116.541475
 30
0.0
 11
83.2
 21
116.241475
 31
0.0
  0
LINE
  5
252
330
1E
100
AcDbEntity
  8
0
100
AcDbLine
 10
81.0
 20
119.141475
 30
0.0
 11
81.09999999999999
 21
118.341475
 31
0.0
  0
LINE
  5
253
330
1E
100
AcDbEntity
  8
0
100
AcDbLine
 10
81.4
 20
117.641475
 30
0.0
 11
81.90000000000001
 21
117.041475
 31
0.0
  0
LINE
  5
254
330
1E
100
AcDbEntity
  8
0
100
AcDbLine
 10
81.09999999999999
 20
118.341475
 30
0.0
 11
81.4
 21
117.641475
 31
0.0
  0
LINE
  5
255
330
1E
100
AcDbEntity
  8
0
100
AcDbLine
 10
81.90000000000001
 20
117.041475
 30
0.0
 11
82.5
 21
116.541475
 31
0.0
  0
LINE
  5
256
330
1E
100
AcDbEntity
  8
0
100
AcDbLine
 10
83.2
 20
116.241475
 30
0.0
 11
84.0
 21
116.141475
 31
0.0
  0
LINE
  5
257
330
1E
100
AcDbEntity
  8
0
100
AcDbLine
 10
86.09999999999999
 20
117.041475
 30
0.0
 11
86.6
 21
117.641475
 31
0.0
  0
LINE
  5
258
330
1E
100
AcDbEntity
  8
0
100
AcDbLine
 10
85.5
 20
116.541475
 30
0.0
 11
86.09999999999999
 21
117.041475
 31
0.0
  0
LINE
  5
259
330
1E
100
AcDbEntity
  8
0
100
AcDbLine
 10
84.8
 20
116.241475
 30
0.0
 11
85.5
 21
116.541475
 31
0.0
  0
LINE
  5
25A
330
1E
100
AcDbEntity
  8
0
100
AcDbLine
 10
86.90000000000001
 20
118.341475
 30
0.0
 11
87.0
 21
119.141475
 31
0.0
  0
LINE
  5
25B
330
1E
100
AcDbEntity
  8
0
100
AcDbLine
 10
86.6
 20
117.641475
 30
0.0
 11
86.90000000000001
 21
118.341475
 31
0.0
  0
ENDSEC
  0
SECTION
  2
OBJECTS
  0
DICTIONARY
  5
C
330
0
100
AcDbDictionary
  3
ACAD_GROUP
350
D
  3
ACAD_LAYOUT
350
19
  3
ACAD_MLINESTYLE
350
16
  3
ACAD_PLOTSETTINGS
350
18
  3
ACAD_PLOTSTYLENAME
350
E
  3
ACDBHEADERROUNDTRIPXREC
350
25F
  3
ACDBVARIABLEDICTIONARY
350
25C
  0
DICTIONARY
  5
281
330
1E
100
AcDbDictionary
280
     1
  3
ACAD_LAYOUTSELFREF
360
282
  0
DICTIONARY
  5
27F
330
1A
100
AcDbDictionary
280
     1
  3
ACAD_LAYOUTSELFREF
360
280
  0
DICTIONARY
  5
D
102
{ACAD_REACTORS
330
C
102
}
330
C
100
AcDbDictionary
  0
DICTIONARY
  5
19
102
{ACAD_REACTORS
330
C
102
}
330
C
100
AcDbDictionary
  0
DICTIONARY
  5
16
102
{ACAD_REACTORS
330
C
102
}
330
C
100
AcDbDictionary
  3
STANDARD
350
17
  0
DICTIONARY
  5
18
102
{ACAD_REACTORS
330
C
102
}
330
C
100
AcDbDictionary
  0
ACDBDICTIONARYWDFLT
  5
E
102
{ACAD_REACTORS
330
C
102
}
330
C
100
AcDbDictionary
281
     1
  3
Normal
350
F
100
AcDbDictionaryWithDefault
340
F
  0
DICTIONARY
  5
25F
102
{ACAD_REACTORS
330
C
102
}
330
C
100
AcDbDictionary
  3
CEPSNTYPE
350
269
  3
FINGERPRINTGUID
350
26A
  3
HYPERLINKBASE
350
262
  3
INSUNITS
350
268
  3
LAYOUTDICT
350
264
  3
LWETCUNION
350
267
  3
PLOTSETDICT
350
265
  3
PLOTSTYLNAMDICT
350
266
  3
PSVPSCALE
350
26C
  3
PUCSBASE
350
26F
  3
PUCSORGBACK
350
275
  3
PUCSORGBOTTOM
350
271
  3
PUCSORGFRONT
350
274
  3
PUCSORGLEFT
350
272
  3
PUCSORGRIGHT
350
273
  3
PUCSORGTOP
350
270
  3
PUCSORTHOREF
350
26D
  3
PUCSORTHOVIEW
350
26E
  3
STYLESHEET
350
263
  3
TSTACKALIGN
350
260
  3
TSTACKSIZE
350
261
  3
UCSBASE
350
278
  3
UCSORGBACK
350
27E
  3
UCSORGBOTTOM
350
27A
  3
UCSORGFRONT
350
27D
  3
UCSORGLEFT
350
27B
  3
UCSORGRIGHT
350
27C
  3
UCSORGTOP
350
279
  3
UCSORTHOREF
350
276
  3
UCSORTHOVIEW
350
277
  3
VERSIONGUID
350
26B
  0
DICTIONARY
  5
25C
102
{ACAD_REACTORS
330
C
102
}
330
C
100
AcDbDictionary
  3
DIMASSOC
350
25D
  0
XRECORD
  5
282
102
{ACAD_REACTORS
330
281
102
}
330
281
100
AcDbXrecord
340
1E
  0
XRECORD
  5
280
102
{ACAD_REACTORS
330
27F
102
}
330
27F
100
AcDbXrecord
340
1A
  0
MLINESTYLE
  5
17
102
{ACAD_REACTORS
330
16
102
}
330
16
100
AcDbMlineStyle
  2
STANDARD
 70
     0
  3

 62
   256
 51
90.0
 52
90.0
 71
     2
 49
0.5
 62
   256
  6
BYLAYER
 49
-0.5
 62
   256
  6
BYLAYER
  0
ACDBPLACEHOLDER
  5
F
102
{ACAD_REACTORS
330
E
102
}
330
E
100
AcDbPlaceHolder
280
     0
  0
XRECORD
  5
269
102
{ACAD_REACTORS
330
25F
102
}
330
25F
100
AcDbXrecord
 90
        0
  0
XRECORD
  5
26A
102
{ACAD_REACTORS
330
25F
102
}
330
25F
100
AcDbXrecord
  1
{1E0F5859-AA3C-4A18-BA0E-C3E4E10781C7}
  0
XRECORD
  5
262
102
{ACAD_REACTORS
330
25F
102
}
330
25F
100
AcDbXrecord
  1

  0
XRECORD
  5
268
102
{ACAD_REACTORS
330
25F
102
}
330
25F
100
AcDbXrecord
 90
        0
  0
XRECORD
  5
264
102
{ACAD_REACTORS
330
25F
102
}
330
25F
100
AcDbXrecord
340
19
  0
XRECORD
  5
267
102
{ACAD_REACTORS
330
25F
102
}
330
25F
100
AcDbXrecord
 90
    10781
  0
XRECORD
  5
265
102
{ACAD_REACTORS
330
25F
102
}
330
25F
100
AcDbXrecord
340
18
  0
XRECORD
  5
266
102
{ACAD_REACTORS
330
25F
102
}
330
25F
100
AcDbXrecord
340
E
  0
XRECORD
  5
26C
102
{ACAD_REACTORS
330
25F
102
}
330
25F
100
AcDbXrecord
 40
0.0
  0
XRECORD
  5
26F
102
{ACAD_REACTORS
330
25F
102
}
330
25F
100
AcDbXrecord
340
0
  0
XRECORD
  5
275
102
{ACAD_REACTORS
330
25F
102
}
330
25F
100
AcDbXrecord
 10
0.0
 20
0.0
 30
0.0
  0
XRECORD
  5
271
102
{ACAD_REACTORS
330
25F
102
}
330
25F
100
AcDbXrecord
 10
0.0
 20
0.0
 30
0.0
  0
XRECORD
  5
274
102
{ACAD_REACTORS
330
25F
102
}
330
25F
100
AcDbXrecord
 10
0.0
 20
0.0
 30
0.0
  0
XRECORD
  5
272
102
{ACAD_REACTORS
330
25F
102
}
330
25F
100
AcDbXrecord
 10
0.0
 20
0.0
 30
0.0
  0
XRECORD
  5
273
102
{ACAD_REACTORS
330
25F
102
}
330
25F
100
AcDbXrecord
 10
0.0
 20
0.0
 30
0.0
  0
XRECORD
  5
270
102
{ACAD_REACTORS
330
25F
102
}
330
25F
100
AcDbXrecord
 10
0.0
 20
0.0
 30
0.0
  0
XRECORD
  5
26D
102
{ACAD_REACTORS
330
25F
102
}
330
25F
100
AcDbXrecord
340
0
  0
XRECORD
  5
26E
102
{ACAD_REACTORS
330
25F
102
}
330
25F
100
AcDbXrecord
 70
     0
  0
XRECORD
  5
263
102
{ACAD_REACTORS
330
25F
102
}
330
25F
100
AcDbXrecord
  1

  0
XRECORD
  5
260
102
{ACAD_REACTORS
330
25F
102
}
330
25F
100
AcDbXrecord
 90
        1
  0
XRECORD
  5
261
102
{ACAD_REACTORS
330
25F
102
}
330
25F
100
AcDbXrecord
 90
       70
  0
XRECORD
  5
278
102
{ACAD_REACTORS
330
25F
102
}
330
25F
100
AcDbXrecord
340
0
  0
XRECORD
  5
27E
102
{ACAD_REACTORS
330
25F
102
}
330
25F
100
AcDbXrecord
 10
0.0
 20
0.0
 30
0.0
  0
XRECORD
  5
27A
102
{ACAD_REACTORS
330
25F
102
}
330
25F
100
AcDbXrecord
 10
0.0
 20
0.0
 30
0.0
  0
XRECORD
  5
27D
102
{ACAD_REACTORS
330
25F
102
}
330
25F
100
AcDbXrecord
 10
0.0
 20
0.0
 30
0.0
  0
XRECORD
  5
27B
102
{ACAD_REACTORS
330
25F
102
}
330
25F
100
AcDbXrecord
 10
0.0
 20
0.0
 30
0.0
  0
XRECORD
  5
27C
102
{ACAD_REACTORS
330
25F
102
}
330
25F
100
AcDbXrecord
 10
0.0
 20
0.0
 30
0.0
  0
XRECORD
  5
279
102
{ACAD_REACTORS
330
25F
102
}
330
25F
100
AcDbXrecord
 10
0.0
 20
0.0
 30
0.0
  0
XRECORD
  5
276
102
{ACAD_REACTORS
330
25F
102
}
330
25F
100
AcDbXrecord
340
0
  0
XRECORD
  5
277
102
{ACAD_REACTORS
330
25F
102
}
330
25F
100
AcDbXrecord
 70
     1
  0
XRECORD
  5
26B
102
{ACAD_REACTORS
330
25F
102
}
330
25F
100
AcDbXrecord
  1
{A5D47CAD-3C4F-43B8-A9AD-84DF1182A59F}
  0
DICTIONARYVAR
  5
25D
102
{ACAD_REACTORS
330
25C
102
}
330
25C
100
DictionaryVariables
280
     0
  1
1
  0
ENDSEC
  0
EOF
