  0
SECTION
  2
HEADER
  9
$ACADVER
  1
AC1014
  9
$ACADMAINTVER
 70
     9
  9
$DWGCODEPAGE
  3
ANSI_1252
  9
$INSBASE
 10
0.0
 20
0.0
 30
0.0
  9
$EXTMIN
 10
-0.0000000000000226
 20
0.193999999999976
 30
0.0
  9
$EXTMAX
 10
204.0
 20
275.8059999999999
 30
0.0
  9
$LIMMIN
 10
0.0
 20
0.0
  9
$LIMMAX
 10
12.0
 20
9.0
  9
$ORTHOMODE
 70
     0
  9
$REGENMODE
 70
     1
  9
$FILLMODE
 70
     1
  9
$QTEXTMODE
 70
     0
  9
$MIRRTEXT
 70
     1
  9
$DRAGMODE
 70
     2
  9
$LTSCALE
 40
1.0
  9
$OSMODE
 70
    37
  9
$ATTMODE
 70
     1
  9
$TEXTSIZE
 40
0.2
  9
$TRACEWID
 40
0.05
  9
$TEXTSTYLE
  7
STANDARD
  9
$CLAYER
  8
0
  9
$CELTYPE
  6
CONTINUOUS
  9
$CECOLOR
 62
   256
  9
$CELTSCALE
 40
1.0
  9
$DELOBJ
 70
     1
  9
$DISPSILH
 70
     0
  9
$DIMSCALE
 40
1.0
  9
$DIMASZ
 40
0.18
  9
$DIMEXO
 40
0.0625
  9
$DIMDLI
 40
0.38
  9
$DIMRND
 40
0.0
  9
$DIMDLE
 40
0.0
  9
$DIMEXE
 40
0.18
  9
$DIMTP
 40
0.0
  9
$DIMTM
 40
0.0
  9
$DIMTXT
 40
0.18
  9
$DIMCEN
 40
0.09
  9
$DIMTSZ
 40
0.0
  9
$DIMTOL
 70
     0
  9
$DIMLIM
 70
     0
  9
$DIMTIH
 70
     1
  9
$DIMTOH
 70
     1
  9
$DIMSE1
 70
     0
  9
$DIMSE2
 70
     0
  9
$DIMTAD
 70
     0
  9
$DIMZIN
 70
     0
  9
$DIMBLK
  1

  9
$DIMASO
 70
     1
  9
$DIMSHO
 70
     1
  9
$DIMPOST
  1

  9
$DIMAPOST
  1

  9
$DIMALT
 70
     0
  9
$DIMALTD
 70
     2
  9
$DIMALTF
 40
25.4
  9
$DIMLFAC
 40
1.0
  9
$DIMTOFL
 70
     0
  9
$DIMTVP
 40
0.0
  9
$DIMTIX
 70
     0
  9
$DIMSOXD
 70
     0
  9
$DIMSAH
 70
     0
  9
$DIMBLK1
  1

  9
$DIMBLK2
  1

  9
$DIMSTYLE
  2
STANDARD
  9
$DIMCLRD
 70
     0
  9
$DIMCLRE
 70
     0
  9
$DIMCLRT
 70
     0
  9
$DIMTFAC
 40
1.0
  9
$DIMGAP
 40
0.09
  9
$DIMJUST
 70
     0
  9
$DIMSD1
 70
     0
  9
$DIMSD2
 70
     0
  9
$DIMTOLJ
 70
     1
  9
$DIMTZIN
 70
     0
  9
$DIMALTZ
 70
     0
  9
$DIMALTTZ
 70
     0
  9
$DIMFIT
 70
     3
  9
$DIMUPT
 70
     0
  9
$DIMUNIT
 70
     2
  9
$DIMDEC
 70
     4
  9
$DIMTDEC
 70
     4
  9
$DIMALTU
 70
     2
  9
$DIMALTTD
 70
     2
  9
$DIMTXSTY
  7
STANDARD
  9
$DIMAUNIT
 70
     0
  9
$LUNITS
 70
     2
  9
$LUPREC
 70
     4
  9
$SKETCHINC
 40
0.1
  9
$FILLETRAD
 40
0.0
  9
$AUNITS
 70
     0
  9
$AUPREC
 70
     0
  9
$MENU
  1
.
  9
$ELEVATION
 40
0.0
  9
$PELEVATION
 40
0.0
  9
$THICKNESS
 40
0.0
  9
$LIMCHECK
 70
     0
  9
$BLIPMODE
 70
     0
  9
$CHAMFERA
 40
0.0
  9
$CHAMFERB
 40
0.0
  9
$CHAMFERC
 40
0.0
  9
$CHAMFERD
 40
0.0
  9
$SKPOLY
 70
     0
  9
$TDCREATE
 40
2455236.848317048
  9
$TDUPDATE
 40
2455236.851127557
  9
$TDINDWG
 40
0.0028106944
  9
$TDUSRTIMER
 40
0.0028106944
  9
$USRTIMER
 70
     1
  9
$ANGBASE
 50
0.0
  9
$ANGDIR
 70
     0
  9
$PDMODE
 70
     0
  9
$PDSIZE
 40
0.0
  9
$PLINEWID
 40
0.0
  9
$COORDS
 70
     1
  9
$SPLFRAME
 70
     0
  9
$SPLINETYPE
 70
     6
  9
$SPLINESEGS
 70
     8
  9
$ATTDIA
 70
     0
  9
$ATTREQ
 70
     1
  9
$HANDLING
 70
 22529
  9
$HANDSEED
  5
463
  9
$SURFTAB1
 70
     6
  9
$SURFTAB2
 70
     6
  9
$SURFTYPE
 70
     6
  9
$SURFU
 70
     6
  9
$SURFV
 70
     6
  9
$UCSNAME
  2

  9
$UCSORG
 10
0.0
 20
0.0
 30
0.0
  9
$UCSXDIR
 10
1.0
 20
0.0
 30
0.0
  9
$UCSYDIR
 10
0.0
 20
1.0
 30
0.0
  9
$PUCSNAME
  2

  9
$PUCSORG
 10
0.0
 20
0.0
 30
0.0
  9
$PUCSXDIR
 10
1.0
 20
0.0
 30
0.0
  9
$PUCSYDIR
 10
0.0
 20
1.0
 30
0.0
  9
$USERI1
 70
     0
  9
$USERI2
 70
     0
  9
$USERI3
 70
     0
  9
$USERI4
 70
     0
  9
$USERI5
 70
     0
  9
$USERR1
 40
0.0
  9
$USERR2
 40
0.0
  9
$USERR3
 40
0.0
  9
$USERR4
 40
0.0
  9
$USERR5
 40
0.0
  9
$WORLDVIEW
 70
     1
  9
$SHADEDGE
 70
     3
  9
$SHADEDIF
 70
    70
  9
$TILEMODE
 70
     1
  9
$MAXACTVP
 70
    64
  9
$PINSBASE
 10
0.0
 20
0.0
 30
0.0
  9
$PLIMCHECK
 70
     0
  9
$PEXTMIN
 10
1.000000000000000E+20
 20
1.000000000000000E+20
 30
1.000000000000000E+20
  9
$PEXTMAX
 10
-1.000000000000000E+20
 20
-1.000000000000000E+20
 30
-1.000000000000000E+20
  9
$PLIMMIN
 10
0.0
 20
0.0
  9
$PLIMMAX
 10
12.0
 20
9.0
  9
$UNITMODE
 70
     0
  9
$VISRETAIN
 70
     1
  9
$PLINEGEN
 70
     0
  9
$PSLTSCALE
 70
     1
  9
$TREEDEPTH
 70
  3020
  9
$PICKSTYLE
 70
     1
  9
$CMLSTYLE
  2
STANDARD
  9
$CMLJUST
 70
     0
  9
$CMLSCALE
 40
1.0
  9
$PROXYGRAPHICS
 70
     1
  9
$MEASUREMENT
 70
     0
  0
ENDSEC
  0
SECTION
  2
CLASSES
  0
CLASS
  1
ACDBDICTIONARYWDFLT
  2
AcDbDictionaryWithDefault
  3
AutoCAD 2000
 90
        0
280
     0
281
     0
  0
CLASS
  1
ACDBPLACEHOLDER
  2
AcDbPlaceHolder
  3
AutoCAD 2000
 90
        0
280
     0
281
     0
  0
CLASS
  1
LAYOUT
  2
AcDbLayout
  3
AutoCAD 2000
 90
        0
280
     0
281
     0
  0
CLASS
  1
DICTIONARYVAR
  2
AcDbDictionaryVar
  3
AutoCAD 2000
 90
        0
280
     0
281
     0
  0
CLASS
  1
LONG_TRANSACTION
  2
AcDbLongTransaction
  3
AutoCAD 2000
 90
        0
280
     0
281
     0
  0
CLASS
  1
LWPOLYLINE
  2
AcDbPolyline
  3
AutoCAD 2000
 90
        0
280
     0
281
     1
  0
CLASS
  1
HATCH
  2
AcDbHatch
  3
AutoCAD 2000
 90
        0
280
     0
281
     1
  0
CLASS
  1
XRECORD
  2
AcDbXrecord
  3
AutoCAD 2000
 90
        0
280
     0
281
     0
  0
ENDSEC
  0
SECTION
  2
TABLES
  0
TABLE
  2
VPORT
  5
8
330
0
100
AcDbSymbolTable
 70
     3
  0
VPORT
  5
43E
330
8
100
AcDbSymbolTableRecord
100
AcDbViewportTableRecord
  2
*ACTIVE
 70
     0
 10
0.0
 20
0.0
 11
1.0
 21
1.0
 12
101.9999999999999
 22
138.0
 13
0.0
 23
0.0
 14
1.0
 24
1.0
 15
0.0
 25
0.0
 16
0.0
 26
0.0
 36
1.0
 17
0.0
 27
0.0
 37
0.0
 40
277.4212691466083
 41
2.041621029572836
 42
50.0
 43
0.0
 44
0.0
 50
0.0
 51
0.0
 71
     0
 72
   100
 73
     1
 74
     3
 75
     0
 76
     0
 77
     0
 78
     0
  0
ENDTAB
  0
TABLE
  2
LTYPE
  5
5
330
0
100
AcDbSymbolTable
 70
     1
  0
LTYPE
  5
13
330
5
100
AcDbSymbolTableRecord
100
AcDbLinetypeTableRecord
  2
BYBLOCK
 70
     0
  3

 72
    65
 73
     0
 40
0.0
  0
LTYPE
  5
14
330
5
100
AcDbSymbolTableRecord
100
AcDbLinetypeTableRecord
  2
BYLAYER
 70
     0
  3

 72
    65
 73
     0
 40
0.0
  0
LTYPE
  5
15
330
5
100
AcDbSymbolTableRecord
100
AcDbLinetypeTableRecord
  2
CONTINUOUS
 70
     0
  3
Solid line
 72
    65
 73
     0
 40
0.0
  0
ENDTAB
  0
TABLE
  2
LAYER
  5
2
330
0
100
AcDbSymbolTable
 70
     1
  0
LAYER
  5
10
330
2
100
AcDbSymbolTableRecord
100
AcDbLayerTableRecord
  2
0
 70
     0
 62
     7
  6
CONTINUOUS
  0
ENDTAB
  0
TABLE
  2
STYLE
  5
3
330
0
100
AcDbSymbolTable
 70
     1
  0
STYLE
  5
11
330
3
100
AcDbSymbolTableRecord
100
AcDbTextStyleTableRecord
  2
STANDARD
 70
     0
 40
0.0
 41
1.0
 50
0.0
 71
     0
 42
0.2
  3
txt
  4

  0
ENDTAB
  0
TABLE
  2
VIEW
  5
6
330
0
100
AcDbSymbolTable
 70
     0
  0
ENDTAB
  0
TABLE
  2
UCS
  5
7
330
0
100
AcDbSymbolTable
 70
     0
  0
ENDTAB
  0
TABLE
  2
APPID
  5
9
330
0
100
AcDbSymbolTable
 70
     1
  0
APPID
  5
12
330
9
100
AcDbSymbolTableRecord
100
AcDbRegAppTableRecord
  2
ACAD
 70
     0
  0
ENDTAB
  0
TABLE
  2
DIMSTYLE
  5
A
330
0
100
AcDbSymbolTable
 70
     1
  0
DIMSTYLE
105
3E6
330
A
100
AcDbSymbolTableRecord
100
AcDbDimStyleTableRecord
  2
STANDARD
 70
     0
  3

  4

  5

  6

  7

 40
1.0
 41
0.18
 42
0.0625
 43
0.38
 44
0.18
 45
0.0
 46
0.0
 47
0.0
 48
0.0
140
0.18
141
0.09
142
0.0
143
25.4
144
1.0
145
0.0
146
1.0
147
0.09
 71
     0
 72
     0
 73
     1
 74
     1
 75
     0
 76
     0
 77
     0
 78
     0
170
     0
171
     2
172
     0
173
     0
174
     0
175
     0
176
     0
177
     0
178
     0
270
     2
271
     4
272
     4
273
     2
274
     2
340
11
275
     0
280
     0
281
     0
282
     0
283
     1
284
     0
285
     0
286
     0
287
     3
288
     0
  0
ENDTAB
  0
TABLE
  2
BLOCK_RECORD
  5
1
330
0
100
AcDbSymbolTable
 70
     0
  0
BLOCK_RECORD
  5
1E
102
{ACAD_XDICTIONARY
360
461
102
}
330
1
100
AcDbSymbolTableRecord
100
AcDbBlockTableRecord
  2
*MODEL_SPACE
  0
BLOCK_RECORD
  5
1A
102
{ACAD_XDICTIONARY
360
45F
102
}
330
1
100
AcDbSymbolTableRecord
100
AcDbBlockTableRecord
  2
*PAPER_SPACE
  0
ENDTAB
  0
ENDSEC
  0
SECTION
  2
BLOCKS
  0
BLOCK
  5
1F
330
1E
100
AcDbEntity
  8
0
100
AcDbBlockBegin
  2
*MODEL_SPACE
 70
     0
 10
0.0
 20
0.0
 30
0.0
  3
*MODEL_SPACE
  1

  0
ENDBLK
  5
20
330
1E
100
AcDbEntity
  8
0
100
AcDbBlockEnd
  0
BLOCK
  5
1B
330
1A
100
AcDbEntity
 67
     1
  8
0
100
AcDbBlockBegin
  2
*PAPER_SPACE
 70
     0
 10
0.0
 20
0.0
 30
0.0
  3
*PAPER_SPACE
  1

  0
ENDBLK
  5
1C
330
1A
100
AcDbEntity
 67
     1
  8
0
100
AcDbBlockEnd
  0
ENDSEC
  0
SECTION
  2
ENTITIES
  0
LINE
  5
22
330
1E
100
AcDbEntity
  8
0
100
AcDbLine
 10
12.076
 20
1.701999999999979
 30
0.0
 11
12.65
 21
1.69699999999998
 31
0.0
  0
LINE
  5
23
330
1E
100
AcDbEntity
  8
0
100
AcDbLine
 10
14.524
 20
1.69599999999998
 30
0.0
 11
16.07179788975819
 21
1.699692559577929
 31
0.0
  0
LINE
  5
24
330
1E
100
AcDbEntity
  8
0
100
AcDbLine
 10
12.88658375914919
 20
1.69779837039081
 30
0.0
 11
14.524
 21
1.69599999999998
 31
0.0
  0
LINE
  5
25
330
1E
100
AcDbEntity
  8
0
100
AcDbLine
 10
12.65
 20
1.69699999999998
 30
0.0
 11
14.428
 21
1.70299999999998
 31
0.0
  0
LINE
  5
26
330
1E
100
AcDbEntity
  8
0
100
AcDbLine
 10
14.428
 20
1.70299999999998
 30
0.0
 11
16.913
 21
1.697999999999979
 31
0.0
  0
LINE
  5
27
330
1E
100
AcDbEntity
  8
0
100
AcDbLine
 10
27.449
 20
1.693999999999979
 30
0.0
 11
28.076
 21
1.70099999999998
 31
0.0
  0
LINE
  5
28
330
1E
100
AcDbEntity
  8
0
100
AcDbLine
 10
25.628
 20
1.69699999999998
 30
0.0
 11
27.449
 21
1.693999999999979
 31
0.0
  0
LINE
  5
29
330
1E
100
AcDbEntity
  8
0
100
AcDbLine
 10
23.113
 20
1.70099999999998
 30
0.0
 11
25.628
 21
1.69699999999998
 31
0.0
  0
LINE
  5
2A
330
1E
100
AcDbEntity
  8
0
100
AcDbLine
 10
20.00799999999999
 20
1.69899999999998
 30
0.0
 11
23.113
 21
1.70099999999998
 31
0.0
  0
LINE
  5
2B
330
1E
100
AcDbEntity
  8
0
100
AcDbLine
 10
16.913
 20
1.697999999999979
 30
0.0
 11
20.00799999999999
 21
1.69899999999998
 31
0.0
  0
LINE
  5
2C
330
1E
100
AcDbEntity
  8
0
100
AcDbLine
 10
7.087999999999969
 20
69.9657
 30
0.0
 11
8.495999999999989
 21
69.60779999999999
 31
0.0
  0
LINE
  5
2E
330
1E
100
AcDbEntity
  8
0
100
AcDbLine
 10
6.06799999999997
 20
70.4258
 30
0.0
 11
7.087999999999969
 21
69.9657
 31
0.0
  0
LINE
  5
30
330
1E
100
AcDbEntity
  8
0
100
AcDbLine
 10
5.43999999999999
 20
70.82460000000001
 30
0.0
 11
6.06799999999997
 21
70.4258
 31
0.0
  0
LINE
  5
31
330
1E
100
AcDbEntity
  8
0
100
AcDbLine
 10
5.147999999999949
 20
71.0922
 30
0.0
 11
5.43999999999999
 21
70.82460000000001
 31
0.0
  0
LINE
  5
33
330
1E
100
AcDbEntity
  8
0
100
AcDbLine
 10
4.99999999999998
 20
71.3391
 30
0.0
 11
5.147999999999949
 21
71.0922
 31
0.0
  0
LINE
  5
34
330
1E
100
AcDbEntity
  8
0
100
AcDbLine
 10
4.99999999999998
 20
71.3391
 30
0.0
 11
4.99999999999998
 21
77.60229999999999
 31
0.0
  0
LINE
  5
36
330
1E
100
AcDbEntity
  8
0
100
AcDbLine
 10
8.495999999999989
 20
69.60779999999999
 30
0.0
 11
10.82699999999999
 21
69.83369999999999
 31
0.0
  0
LINE
  5
37
330
1E
100
AcDbEntity
  8
0
100
AcDbLine
 10
4.99999999999998
 20
77.60229999999999
 30
0.0
 11
4.99999999999998
 21
117.574
 31
0.0
  0
LINE
  5
38
330
1E
100
AcDbEntity
  8
0
100
AcDbLine
 10
4.99999999999998
 20
77.60229999999999
 30
0.0
 11
4.99999999999998
 21
127.6079999999999
 31
0.0
  0
LINE
  5
39
330
1E
100
AcDbEntity
  8
0
100
AcDbLine
 10
4.99999999999998
 20
77.60229999999999
 30
0.0
 11
4.99999999999998
 21
71.3391
 31
0.0
  0
LINE
  5
3A
330
1E
100
AcDbEntity
  8
0
100
AcDbLine
 10
10.81963626217919
 20
72.939811638803
 30
0.0
 11
11.822
 21
73.2231
 31
0.0
  0
LINE
  5
3B
330
1E
100
AcDbEntity
  8
0
100
AcDbLine
 10
11.822
 20
73.2231
 30
0.0
 11
12.0056584205943
 21
73.25239391718449
 31
0.0
  0
LINE
  5
3C
330
1E
100
AcDbEntity
  8
0
100
AcDbLine
 10
11.3
 20
88.224
 30
0.0
 11
12.19999999999999
 21
87.6546
 31
0.0
  0
LINE
  5
3D
330
1E
100
AcDbEntity
  8
0
100
AcDbLine
 10
8.519999999999969
 20
116.0239999999999
 30
0.0
 11
10.717
 21
116.2329999999999
 31
0.0
  0
LINE
  5
40
330
1E
100
AcDbEntity
  8
0
100
AcDbLine
 10
6.571999999999969
 20
116.495
 30
0.0
 11
8.519999999999969
 21
116.0239999999999
 31
0.0
  0
LINE
  5
41
330
1E
100
AcDbEntity
  8
0
100
AcDbLine
 10
9.40999999999998
 20
116.5989999999999
 30
0.0
 11
10.717
 21
116.2329999999999
 31
0.0
  0
LINE
  5
42
330
1E
100
AcDbEntity
  8
0
100
AcDbLine
 10
10.717
 20
116.2329999999999
 30
0.0
 11
10.82699999999999
 21
69.83369999999999
 31
0.0
  0
LINE
  5
43
330
1E
100
AcDbEntity
  8
0
100
AcDbLine
 10
5.688999999999969
 20
116.857
 30
0.0
 11
6.571999999999969
 21
116.495
 31
0.0
  0
LINE
  5
44
330
1E
100
AcDbEntity
  8
0
100
AcDbLine
 10
4.99999999999998
 20
117.574
 30
0.0
 11
5.115999999999959
 21
117.3349999999999
 31
0.0
  0
LINE
  5
45
330
1E
100
AcDbEntity
  8
0
100
AcDbLine
 10
4.99999999999998
 20
117.574
 30
0.0
 11
4.99999999999998
 21
77.60229999999999
 31
0.0
  0
LINE
  5
46
330
1E
100
AcDbEntity
  8
0
100
AcDbLine
 10
4.99999999999998
 20
117.574
 30
0.0
 11
4.99999999999998
 21
127.6079999999999
 31
0.0
  0
LINE
  5
49
330
1E
100
AcDbEntity
  8
0
100
AcDbLine
 10
5.115999999999959
 20
117.3349999999999
 30
0.0
 11
5.688999999999969
 21
116.857
 31
0.0
  0
LINE
  5
4A
330
1E
100
AcDbEntity
  8
0
100
AcDbLine
 10
8.124999999999991
 20
117.59
 30
0.0
 11
8.124999999999991
 21
118.0409999999999
 31
0.0
  0
LINE
  5
4B
330
1E
100
AcDbEntity
  8
0
100
AcDbLine
 10
8.124999999999991
 20
117.59
 30
0.0
 11
8.403999999999991
 21
117.11
 31
0.0
  0
LINE
  5
4C
330
1E
100
AcDbEntity
  8
0
100
AcDbLine
 10
7.99999999999999
 20
154.359
 30
0.0
 11
7.99999999999999
 21
120.772
 31
0.0
  0
LINE
  5
4D
330
1E
100
AcDbEntity
  8
0
100
AcDbLine
 10
7.99999999999999
 20
154.359
 30
0.0
 11
7.99999999999999
 21
183.472
 31
0.0
  0
LINE
  5
4E
330
1E
100
AcDbEntity
  8
0
100
AcDbLine
 10
7.99999999999999
 20
120.772
 30
0.0
 11
8.999999999999991
 21
118.524
 31
0.0
  0
LINE
  5
4F
330
1E
100
AcDbEntity
  8
0
100
AcDbLine
 10
7.99999999999999
 20
120.772
 30
0.0
 11
7.99999999999999
 21
154.359
 31
0.0
  0
LINE
  5
50
330
1E
100
AcDbEntity
  8
0
100
AcDbLine
 10
4.99999999999998
 20
127.6079999999999
 30
0.0
 11
4.99999999999998
 21
117.574
 31
0.0
  0
LINE
  5
51
330
1E
100
AcDbEntity
  8
0
100
AcDbLine
 10
4.99999999999998
 20
127.6079999999999
 30
0.0
 11
4.99999999999998
 21
77.60229999999999
 31
0.0
  0
LINE
  5
52
330
1E
100
AcDbEntity
  8
0
100
AcDbLine
 10
4.99999999999998
 20
127.6079999999999
 30
0.0
 11
8.0
 21
127.6079999999999
 31
0.0
  0
LINE
  5
53
330
1E
100
AcDbEntity
  8
0
100
AcDbLine
 10
4.99999999999998
 20
127.6079999999999
 30
0.0
 11
7.99999999999999
 21
127.6079999999999
 31
0.0
  0
LINE
  5
54
330
1E
100
AcDbEntity
  8
0
100
AcDbLine
 10
8.124999999999991
 20
118.0409999999999
 30
0.0
 11
8.128225421996489
 21
117.584450886888
 31
0.0
  0
LINE
  5
55
330
1E
100
AcDbEntity
  8
0
100
AcDbLine
 10
8.124999999999991
 20
118.0409999999999
 30
0.0
 11
8.131135915439619
 21
117.57944358634
 31
0.0
  0
LINE
  5
56
330
1E
100
AcDbEntity
  8
0
100
AcDbLine
 10
8.124999999999991
 20
118.0409999999999
 30
0.0
 11
8.347999999999981
 21
118.671
 31
0.0
  0
LINE
  5
57
330
1E
100
AcDbEntity
  8
0
100
AcDbLine
 10
8.124999999999991
 20
118.0409999999999
 30
0.0
 11
8.124999999999991
 21
117.59
 31
0.0
  0
LINE
  5
58
330
1E
100
AcDbEntity
  8
0
100
AcDbLine
 10
10.72699999999999
 20
117.047
 30
0.0
 11
12.3
 21
116.5999999999999
 31
0.0
  0
LINE
  5
59
330
1E
100
AcDbEntity
  8
0
100
AcDbLine
 10
9.504999999999981
 20
117.693
 30
0.0
 11
10.72699999999999
 21
117.047
 31
0.0
  0
LINE
  5
5A
330
1E
100
AcDbEntity
  8
0
100
AcDbLine
 10
9.504999999999981
 20
117.693
 30
0.0
 11
10.38
 21
116.833
 31
0.0
  0
LINE
  5
5B
330
1E
100
AcDbEntity
  8
0
100
AcDbLine
 10
8.999999999999991
 20
118.524
 30
0.0
 11
9.504999999999981
 21
117.693
 31
0.0
  0
LINE
  5
5C
330
1E
100
AcDbEntity
  8
0
100
AcDbLine
 10
8.403999999999991
 20
117.11
 30
0.0
 11
9.40999999999998
 21
116.5989999999999
 31
0.0
  0
LINE
  5
5E
330
1E
100
AcDbEntity
  8
0
100
AcDbLine
 10
8.347999999999981
 20
118.671
 30
0.0
 11
8.82649014170664
 21
118.914050161443
 31
0.0
  0
LINE
  5
61
330
1E
100
AcDbEntity
  8
0
100
AcDbLine
 10
10.77476970549809
 20
91.86505548800409
 30
0.0
 11
11.0
 21
88.8193
 31
0.0
  0
LINE
  5
62
330
1E
100
AcDbEntity
  8
0
100
AcDbLine
 10
11.0
 20
88.8193
 30
0.0
 11
11.3
 21
88.224
 31
0.0
  0
LINE
  5
63
330
1E
100
AcDbEntity
  8
0
100
AcDbLine
 10
28.06
 20
34.702
 30
0.0
 11
28.076
 21
1.70099999999998
 31
0.0
  0
LINE
  5
64
330
1E
100
AcDbEntity
  8
0
100
AcDbLine
 10
28.06
 20
34.702
 30
0.0
 11
28.076
 21
1.70099999999998
 31
0.0
  0
LINE
  5
65
330
1E
100
AcDbEntity
  8
0
100
AcDbLine
 10
28.0053033727878
 20
73.25064548731941
 30
0.0
 11
28.178
 21
73.2231
 31
0.0
  0
LINE
  5
66
330
1E
100
AcDbEntity
  8
0
100
AcDbLine
 10
28.178
 20
73.2231
 30
0.0
 11
29.1803637378208
 21
72.939811638803
 31
0.0
  0
LINE
  5
67
330
1E
100
AcDbEntity
  8
0
100
AcDbLine
 10
35.0
 20
71.3391
 30
0.0
 11
35.0
 21
77.60229999999999
 31
0.0
  0
LINE
  5
68
330
1E
100
AcDbEntity
  8
0
100
AcDbLine
 10
34.85199999999999
 20
71.0922
 30
0.0
 11
35.0
 21
71.3391
 31
0.0
  0
LINE
  5
69
330
1E
100
AcDbEntity
  8
0
100
AcDbLine
 10
34.56
 20
70.82460000000001
 30
0.0
 11
34.85199999999999
 21
71.0922
 31
0.0
  0
LINE
  5
6B
330
1E
100
AcDbEntity
  8
0
100
AcDbLine
 10
33.93199999999999
 20
70.4258
 30
0.0
 11
34.56
 21
70.82460000000001
 31
0.0
  0
LINE
  5
6C
330
1E
100
AcDbEntity
  8
0
100
AcDbLine
 10
32.91199999999999
 20
69.9657
 30
0.0
 11
33.93199999999999
 21
70.4258
 31
0.0
  0
LINE
  5
6E
330
1E
100
AcDbEntity
  8
0
100
AcDbLine
 10
29.173
 20
69.83369999999999
 30
0.0
 11
31.504
 21
69.60779999999999
 31
0.0
  0
LINE
  5
6F
330
1E
100
AcDbEntity
  8
0
100
AcDbLine
 10
29.173
 20
69.83369999999999
 30
0.0
 11
29.283
 21
116.2329999999999
 31
0.0
  0
LINE
  5
70
330
1E
100
AcDbEntity
  8
0
100
AcDbLine
 10
31.504
 20
69.60779999999999
 30
0.0
 11
32.91199999999999
 21
69.9657
 31
0.0
  0
LINE
  5
72
330
1E
100
AcDbEntity
  8
0
100
AcDbLine
 10
35.0
 20
77.60229999999999
 30
0.0
 11
35.0
 21
71.3391
 31
0.0
  0
LINE
  5
73
330
1E
100
AcDbEntity
  8
0
100
AcDbLine
 10
35.0
 20
77.60229999999999
 30
0.0
 11
35.0
 21
117.574
 31
0.0
  0
LINE
  5
74
330
1E
100
AcDbEntity
  8
0
100
AcDbLine
 10
28.031
 20
57.7092
 30
0.0
 11
28.06
 21
34.702
 31
0.0
  0
LINE
  5
75
330
1E
100
AcDbEntity
  8
0
100
AcDbLine
 10
12.06
 20
34.703
 30
0.0
 11
12.076
 21
1.701999999999979
 31
0.0
  0
LINE
  5
76
330
1E
100
AcDbEntity
  8
0
100
AcDbLine
 10
12.06
 20
34.703
 30
0.0
 11
12.076
 21
1.701999999999979
 31
0.0
  0
LINE
  5
77
330
1E
100
AcDbEntity
  8
0
100
AcDbLine
 10
12.032
 20
57.7002
 30
0.0
 11
12.06
 21
34.703
 31
0.0
  0
LINE
  5
78
330
1E
100
AcDbEntity
  8
0
100
AcDbLine
 10
13.6
 20
87.16289999999998
 30
0.0
 11
15.5
 21
86.80049999999999
 31
0.0
  0
LINE
  5
79
330
1E
100
AcDbEntity
  8
0
100
AcDbLine
 10
15.5
 20
86.80049999999999
 30
0.0
 11
17.7
 21
86.5676
 31
0.0
  0
LINE
  5
7A
330
1E
100
AcDbEntity
  8
0
100
AcDbLine
 10
26.4
 20
87.16289999999998
 30
0.0
 11
27.8
 21
87.6546
 31
0.0
  0
LINE
  5
7B
330
1E
100
AcDbEntity
  8
0
100
AcDbLine
 10
27.8
 20
87.6546
 30
0.0
 11
28.7
 21
88.224
 31
0.0
  0
LINE
  5
7C
330
1E
100
AcDbEntity
  8
0
100
AcDbLine
 10
24.5
 20
86.80049999999999
 30
0.0
 11
26.4
 21
87.16289999999998
 31
0.0
  0
LINE
  5
7D
330
1E
100
AcDbEntity
  8
0
100
AcDbLine
 10
22.29999999999999
 20
86.5676
 30
0.0
 11
24.5
 21
86.80049999999999
 31
0.0
  0
LINE
  5
7E
330
1E
100
AcDbEntity
  8
0
100
AcDbLine
 10
20.0
 20
86.48990000000001
 30
0.0
 11
22.29999999999999
 21
86.5676
 31
0.0
  0
LINE
  5
7F
330
1E
100
AcDbEntity
  8
0
100
AcDbLine
 10
17.7
 20
86.5676
 30
0.0
 11
20.0
 21
86.48990000000001
 31
0.0
  0
LINE
  5
80
330
1E
100
AcDbEntity
  8
0
100
AcDbLine
 10
12.3
 20
116.5999999999999
 30
0.0
 11
14.28099999999999
 21
116.196
 31
0.0
  0
LINE
  5
81
330
1E
100
AcDbEntity
  8
0
100
AcDbLine
 10
22.6
 20
115.312
 30
0.0
 11
25.0
 21
115.545
 31
0.0
  0
LINE
  5
82
330
1E
100
AcDbEntity
  8
0
100
AcDbLine
 10
20.0
 20
115.209
 30
0.0
 11
22.6
 21
115.312
 31
0.0
  0
LINE
  5
83
330
1E
100
AcDbEntity
  8
0
100
AcDbLine
 10
14.28099999999999
 20
116.196
 30
0.0
 11
16.947
 21
115.882
 31
0.0
  0
LINE
  5
84
330
1E
100
AcDbEntity
  8
0
100
AcDbLine
 10
12.9
 20
115.9599999999999
 30
0.0
 11
15.0
 21
115.545
 31
0.0
  0
LINE
  5
85
330
1E
100
AcDbEntity
  8
0
100
AcDbLine
 10
20.0
 20
115.776
 30
0.0
 11
23.053
 21
115.882
 31
0.0
  0
LINE
  5
86
330
1E
100
AcDbEntity
  8
0
100
AcDbLine
 10
23.053
 20
115.882
 30
0.0
 11
25.719
 21
116.196
 31
0.0
  0
LINE
  5
87
330
1E
100
AcDbEntity
  8
0
100
AcDbLine
 10
25.719
 20
116.196
 30
0.0
 11
27.7
 21
116.5999999999999
 31
0.0
  0
LINE
  5
88
330
1E
100
AcDbEntity
  8
0
100
AcDbLine
 10
16.947
 20
115.882
 30
0.0
 11
20.0
 21
115.776
 31
0.0
  0
LINE
  5
89
330
1E
100
AcDbEntity
  8
0
100
AcDbLine
 10
27.7
 20
116.5999999999999
 30
0.0
 11
29.273
 21
117.047
 31
0.0
  0
LINE
  5
8A
330
1E
100
AcDbEntity
  8
0
100
AcDbLine
 10
27.1
 20
115.9599999999999
 30
0.0
 11
27.6301979298592
 21
116.139935922446
 31
0.0
  0
LINE
  5
8B
330
1E
100
AcDbEntity
  8
0
100
AcDbLine
 10
25.0
 20
115.545
 30
0.0
 11
27.1
 21
115.9599999999999
 31
0.0
  0
LINE
  5
8C
330
1E
100
AcDbEntity
  8
0
100
AcDbLine
 10
15.0
 20
115.545
 30
0.0
 11
17.4
 21
115.312
 31
0.0
  0
LINE
  5
8D
330
1E
100
AcDbEntity
  8
0
100
AcDbLine
 10
17.4
 20
115.312
 30
0.0
 11
20.0
 21
115.209
 31
0.0
  0
LINE
  5
8E
330
1E
100
AcDbEntity
  8
0
100
AcDbLine
 10
12.3698020701407
 20
116.139935922446
 30
0.0
 11
12.9
 21
115.9599999999999
 31
0.0
  0
LINE
  5
8F
330
1E
100
AcDbEntity
  8
0
100
AcDbLine
 10
12.19999999999999
 20
87.6546
 30
0.0
 11
13.6
 21
87.16289999999998
 31
0.0
  0
LINE
  5
90
330
1E
100
AcDbEntity
  8
0
100
AcDbLine
 10
28.7
 20
88.224
 30
0.0
 11
29.0
 21
88.8193
 31
0.0
  0
LINE
  5
91
330
1E
100
AcDbEntity
  8
0
100
AcDbLine
 10
29.273
 20
117.047
 30
0.0
 11
30.495
 21
117.693
 31
0.0
  0
LINE
  5
92
330
1E
100
AcDbEntity
  8
0
100
AcDbLine
 10
29.62
 20
116.833
 30
0.0
 11
30.495
 21
117.693
 31
0.0
  0
LINE
  5
95
330
1E
100
AcDbEntity
  8
0
100
AcDbLine
 10
31.596
 20
117.11
 30
0.0
 11
31.875
 21
117.59
 31
0.0
  0
LINE
  5
96
330
1E
100
AcDbEntity
  8
0
100
AcDbLine
 10
30.59
 20
116.5989999999999
 30
0.0
 11
31.596
 21
117.11
 31
0.0
  0
LINE
  5
97
330
1E
100
AcDbEntity
  8
0
100
AcDbLine
 10
34.884
 20
117.3349999999999
 30
0.0
 11
35.0
 21
117.574
 31
0.0
  0
LINE
  5
98
330
1E
100
AcDbEntity
  8
0
100
AcDbLine
 10
34.311
 20
116.857
 30
0.0
 11
34.884
 21
117.3349999999999
 31
0.0
  0
LINE
  5
9A
330
1E
100
AcDbEntity
  8
0
100
AcDbLine
 10
33.428
 20
116.495
 30
0.0
 11
34.311
 21
116.857
 31
0.0
  0
LINE
  5
9C
330
1E
100
AcDbEntity
  8
0
100
AcDbLine
 10
31.47899999999999
 20
116.0239999999999
 30
0.0
 11
33.428
 21
116.495
 31
0.0
  0
LINE
  5
9D
330
1E
100
AcDbEntity
  8
0
100
AcDbLine
 10
31.47899999999999
 20
116.0239999999999
 30
0.0
 11
31.504
 21
69.60779999999999
 31
0.0
  0
LINE
  5
9E
330
1E
100
AcDbEntity
  8
0
100
AcDbLine
 10
29.283
 20
116.2329999999999
 30
0.0
 11
31.47899999999999
 21
116.0239999999999
 31
0.0
  0
LINE
  5
9F
330
1E
100
AcDbEntity
  8
0
100
AcDbLine
 10
29.283
 20
116.2329999999999
 30
0.0
 11
30.59
 21
116.5989999999999
 31
0.0
  0
LINE
  5
A0
330
1E
100
AcDbEntity
  8
0
100
AcDbLine
 10
31.86886408456039
 20
117.57944358634
 30
0.0
 11
31.875
 21
118.0409999999999
 31
0.0
  0
LINE
  5
A1
330
1E
100
AcDbEntity
  8
0
100
AcDbLine
 10
31.0
 20
118.524
 30
0.0
 11
32.0
 21
120.772
 31
0.0
  0
LINE
  5
A2
330
1E
100
AcDbEntity
  8
0
100
AcDbLine
 10
30.495
 20
117.693
 30
0.0
 11
31.0
 21
118.524
 31
0.0
  0
LINE
  5
A3
330
1E
100
AcDbEntity
  8
0
100
AcDbLine
 10
31.1734131338801
 20
118.913832724962
 30
0.0
 11
31.651
 21
118.671
 31
0.0
  0
LINE
  5
A4
330
1E
100
AcDbEntity
  8
0
100
AcDbLine
 10
32.0
 20
120.772
 30
0.0
 11
32.0
 21
154.359
 31
0.0
  0
LINE
  5
A5
330
1E
100
AcDbEntity
  8
0
100
AcDbLine
 10
32.0
 20
154.359
 30
0.0
 11
32.0
 21
120.772
 31
0.0
  0
LINE
  5
A6
330
1E
100
AcDbEntity
  8
0
100
AcDbLine
 10
32.0
 20
154.359
 30
0.0
 11
32.0
 21
183.472
 31
0.0
  0
LINE
  5
A7
330
1E
100
AcDbEntity
  8
0
100
AcDbLine
 10
31.875
 20
118.0409999999999
 30
0.0
 11
31.875
 21
117.59
 31
0.0
  0
LINE
  5
A8
330
1E
100
AcDbEntity
  8
0
100
AcDbLine
 10
31.651
 20
118.671
 30
0.0
 11
31.875
 21
118.0409999999999
 31
0.0
  0
LINE
  5
A9
330
1E
100
AcDbEntity
  8
0
100
AcDbLine
 10
31.875
 20
117.59
 30
0.0
 11
31.875
 21
118.0409999999999
 31
0.0
  0
LINE
  5
AA
330
1E
100
AcDbEntity
  8
0
100
AcDbLine
 10
35.0
 20
117.574
 30
0.0
 11
35.0
 21
77.60229999999999
 31
0.0
  0
LINE
  5
AB
330
1E
100
AcDbEntity
  8
0
100
AcDbLine
 10
35.0
 20
117.574
 30
0.0
 11
35.0
 21
127.6079999999999
 31
0.0
  0
LINE
  5
AC
330
1E
100
AcDbEntity
  8
0
100
AcDbLine
 10
35.0
 20
127.6079999999999
 30
0.0
 11
35.0
 21
117.574
 31
0.0
  0
LINE
  5
AD
330
1E
100
AcDbEntity
  8
0
100
AcDbLine
 10
32.0
 20
127.6079999999999
 30
0.0
 11
35.0
 21
127.6079999999999
 31
0.0
  0
LINE
  5
AF
330
1E
100
AcDbEntity
  8
0
100
AcDbLine
 10
29.0
 20
88.8193
 30
0.0
 11
29.2252302945019
 21
91.86505548800459
 31
0.0
  0
LINE
  5
B0
330
1E
100
AcDbEntity
  8
0
100
AcDbLine
 10
27.98999999999999
 20
82.50620000000001
 30
0.0
 11
28.031
 21
57.7092
 31
0.0
  0
LINE
  5
B1
330
1E
100
AcDbEntity
  8
0
100
AcDbLine
 10
27.97846975898469
 20
87.76751186751758
 30
0.0
 11
27.98999999999999
 21
82.50620000000001
 31
0.0
  0
LINE
  5
B2
330
1E
100
AcDbEntity
  8
0
100
AcDbLine
 10
11.99
 20
82.49720000000001
 30
0.0
 11
12.032
 21
57.7002
 31
0.0
  0
LINE
  5
B3
330
1E
100
AcDbEntity
  8
0
100
AcDbLine
 10
11.9786015964163
 20
87.79467139000059
 30
0.0
 11
11.99
 21
82.49720000000001
 31
0.0
  0
LINE
  5
B4
330
1E
100
AcDbEntity
  8
0
100
AcDbLine
 10
150.0
 20
2.693999999999979
 30
0.0
 11
150.0
 21
0.193999999999978
 31
0.0
  0
LINE
  5
B5
330
1E
100
AcDbEntity
  8
0
100
AcDbLine
 10
150.0
 20
2.693999999999979
 30
0.0
 11
151.0
 21
2.693999999999979
 31
0.0
  0
LINE
  5
B6
330
1E
100
AcDbEntity
  8
0
100
AcDbLine
 10
150.0
 20
2.693999999999979
 30
0.0
 11
150.5
 21
3.193999999999979
 31
0.0
  0
LINE
  5
B7
330
1E
100
AcDbEntity
  8
0
100
AcDbLine
 10
153.6
 20
0.193999999999977
 30
0.0
 11
158.0
 21
0.193999999999977
 31
0.0
  0
LINE
  5
B8
330
1E
100
AcDbEntity
  8
0
100
AcDbLine
 10
151.0
 20
0.193999999999978
 30
0.0
 11
153.6
 21
0.193999999999977
 31
0.0
  0
LINE
  5
B9
330
1E
100
AcDbEntity
  8
0
100
AcDbLine
 10
151.5
 20
3.193999999999979
 30
0.0
 11
154.0
 21
3.193999999999979
 31
0.0
  0
LINE
  5
BA
330
1E
100
AcDbEntity
  8
0
100
AcDbLine
 10
150.5
 20
3.193999999999979
 30
0.0
 11
151.5
 21
3.193999999999979
 31
0.0
  0
LINE
  5
BB
330
1E
100
AcDbEntity
  8
0
100
AcDbLine
 10
153.6
 20
2.693999999999979
 30
0.0
 11
158.0
 21
2.693999999999979
 31
0.0
  0
LINE
  5
BC
330
1E
100
AcDbEntity
  8
0
100
AcDbLine
 10
151.0
 20
2.693999999999979
 30
0.0
 11
153.6
 21
2.693999999999979
 31
0.0
  0
LINE
  5
BD
330
1E
100
AcDbEntity
  8
0
100
AcDbLine
 10
154.4999999999999
 20
3.193999999999979
 30
0.0
 11
155.4999999999999
 21
3.693999999999979
 31
0.0
  0
LINE
  5
BE
330
1E
100
AcDbEntity
  8
0
100
AcDbLine
 10
156.0
 20
5.19399999999998
 30
0.0
 11
156.0
 21
125.194
 31
0.0
  0
LINE
  5
BF
330
1E
100
AcDbEntity
  8
0
100
AcDbLine
 10
156.0
 20
125.194
 30
0.0
 11
156.0
 21
5.19399999999998
 31
0.0
  0
LINE
  5
C0
330
1E
100
AcDbEntity
  8
0
100
AcDbLine
 10
156.0
 20
125.194
 30
0.0
 11
156.8
 21
125.194
 31
0.0
  0
LINE
  5
C1
330
1E
100
AcDbEntity
  8
0
100
AcDbLine
 10
156.0
 20
125.194
 30
0.0
 11
157.0
 21
126.194
 31
0.0
  0
LINE
  5
C3
330
1E
100
AcDbEntity
  8
0
100
AcDbLine
 10
155.4999999999999
 20
3.693999999999979
 30
0.0
 11
156.0
 21
5.19399999999998
 31
0.0
  0
LINE
  5
C4
330
1E
100
AcDbEntity
  8
0
100
AcDbLine
 10
154.0
 20
3.193999999999979
 30
0.0
 11
158.3
 21
3.193999999999979
 31
0.0
  0
LINE
  5
C5
330
1E
100
AcDbEntity
  8
0
100
AcDbLine
 10
153.6
 20
0.193999999999979
 30
0.0
 11
158.0
 21
0.193999999999979
 31
0.0
  0
LINE
  5
C6
330
1E
100
AcDbEntity
  8
0
100
AcDbLine
 10
151.0
 20
0.193999999999979
 30
0.0
 11
153.6
 21
0.193999999999979
 31
0.0
  0
LINE
  5
C7
330
1E
100
AcDbEntity
  8
0
100
AcDbLine
 10
150.0
 20
0.193999999999978
 30
0.0
 11
151.0
 21
0.193999999999979
 31
0.0
  0
LINE
  5
C8
330
1E
100
AcDbEntity
  8
0
100
AcDbLine
 10
150.0
 20
0.193999999999978
 30
0.0
 11
151.0
 21
0.193999999999978
 31
0.0
  0
LINE
  5
C9
330
1E
100
AcDbEntity
  8
0
100
AcDbLine
 10
150.0
 20
0.193999999999978
 30
0.0
 11
150.0
 21
2.693999999999979
 31
0.0
  0
LINE
  5
CA
330
1E
100
AcDbEntity
  8
0
100
AcDbLine
 10
2.61299999999997
 20
245.827
 30
0.0
 11
4.41099999999999
 21
241.649
 31
0.0
  0
LINE
  5
CB
330
1E
100
AcDbEntity
  8
0
100
AcDbLine
 10
3.578999999999969
 20
245.827
 30
0.0
 11
5.27699999999999
 21
241.8809999999999
 31
0.0
  0
LINE
  5
CC
330
1E
100
AcDbEntity
  8
0
100
AcDbLine
 10
7.0
 20
249.703
 30
0.0
 11
7.45899999999999
 21
246.5009999999999
 31
0.0
  0
LINE
  5
CD
330
1E
100
AcDbEntity
  8
0
100
AcDbLine
 10
7.0
 20
249.703
 30
0.0
 11
7.0
 21
249.7957247153379
 31
0.0
  0
LINE
  5
CE
330
1E
100
AcDbEntity
  8
0
100
AcDbLine
 10
7.190999999999999
 20
249.609
 30
0.0
 11
7.64999999999997
 21
252.774
 31
0.0
  0
LINE
  5
CF
330
1E
100
AcDbEntity
  8
0
100
AcDbLine
 10
7.190999999999999
 20
249.609
 30
0.0
 11
7.64999999999997
 21
246.444
 31
0.0
  0
LINE
  5
D0
330
1E
100
AcDbEntity
  8
0
100
AcDbLine
 10
7.0
 20
249.7957247153379
 30
0.0
 11
7.0
 21
249.703
 31
0.0
  0
LINE
  5
D1
330
1E
100
AcDbEntity
  8
0
100
AcDbLine
 10
5.27699999999999
 20
241.8809999999999
 30
0.0
 11
7.978999999999969
 21
238.492
 31
0.0
  0
LINE
  5
D2
330
1E
100
AcDbEntity
  8
0
100
AcDbLine
 10
4.41099999999999
 20
241.649
 30
0.0
 11
7.27199999999997
 21
238.0609999999999
 31
0.0
  0
LINE
  5
D3
330
1E
100
AcDbEntity
  8
0
100
AcDbLine
 10
2.99999999999999
 20
250.062
 30
0.0
 11
3.578999999999969
 21
245.827
 31
0.0
  0
LINE
  5
D4
330
1E
100
AcDbEntity
  8
0
100
AcDbLine
 10
2.99999999999999
 20
250.062
 30
0.0
 11
3.578999999999969
 21
254.2969999999999
 31
0.0
  0
LINE
  5
D5
330
1E
100
AcDbEntity
  8
0
100
AcDbLine
 10
1.999999999999989
 20
250.312
 30
0.0
 11
2.61299999999997
 21
245.827
 31
0.0
  0
LINE
  5
D6
330
1E
100
AcDbEntity
  8
0
100
AcDbLine
 10
1.999999999999989
 20
250.312
 30
0.0
 11
2.61299999999997
 21
254.7959999999999
 31
0.0
  0
LINE
  5
D7
330
1E
100
AcDbEntity
  8
0
100
AcDbLine
 10
1.646999999999989
 20
248.8249999999999
 30
0.0
 11
2.61299999999997
 21
245.827
 31
0.0
  0
LINE
  5
D8
330
1E
100
AcDbEntity
  8
0
100
AcDbLine
 10
3.578999999999969
 20
254.2969999999999
 30
0.0
 11
5.27699999999999
 21
258.243
 31
0.0
  0
LINE
  5
D9
330
1E
100
AcDbEntity
  8
0
100
AcDbLine
 10
2.61299999999997
 20
254.7959999999999
 30
0.0
 11
4.41099999999999
 21
258.9739999999999
 31
0.0
  0
LINE
  5
DA
330
1E
100
AcDbEntity
  8
0
100
AcDbLine
 10
0.6819999999999821
 20
261.538
 30
0.0
 11
2.67999999999996
 21
266.181
 31
0.0
  0
LINE
  5
DB
330
1E
100
AcDbEntity
  8
0
100
AcDbLine
 10
5.27699999999999
 20
258.243
 30
0.0
 11
7.978999999999969
 21
261.6319999999999
 31
0.0
  0
LINE
  5
DC
330
1E
100
AcDbEntity
  8
0
100
AcDbLine
 10
4.41099999999999
 20
258.9739999999999
 30
0.0
 11
7.27199999999997
 21
262.562
 31
0.0
  0
LINE
  5
DD
330
1E
100
AcDbEntity
  8
0
100
AcDbLine
 10
2.67999999999996
 20
266.181
 30
0.0
 11
5.857999999999981
 21
270.168
 31
0.0
  0
LINE
  5
DE
330
1E
100
AcDbEntity
  8
0
100
AcDbLine
 10
7.27199999999997
 20
262.562
 30
0.0
 11
11.0
 21
265.315
 31
0.0
  0
LINE
  5
DF
330
1E
100
AcDbEntity
  8
0
100
AcDbLine
 10
5.857999999999981
 20
270.168
 30
0.0
 11
9.999999999999991
 21
273.227
 31
0.0
  0
LINE
  5
E0
330
1E
100
AcDbEntity
  8
0
100
AcDbLine
 10
-0.0000000000000226
 20
256.556
 30
0.0
 11
0.6819999999999821
 21
251.574
 31
0.0
  0
LINE
  5
E1
330
1E
100
AcDbEntity
  8
0
100
AcDbLine
 10
-0.0000000000000226
 20
256.556
 30
0.0
 11
0.6819999999999821
 21
261.538
 31
0.0
  0
LINE
  5
E2
330
1E
100
AcDbEntity
  8
0
100
AcDbLine
 10
0.6819999999999821
 20
251.574
 30
0.0
 11
1.646999999999989
 21
248.8249999999999
 31
0.0
  0
LINE
  5
E3
330
1E
100
AcDbEntity
  8
0
100
AcDbLine
 10
7.99999999999999
 20
237.523396995708
 30
0.0
 11
7.99999999999999
 21
236.2359999999999
 31
0.0
  0
LINE
  5
E4
330
1E
100
AcDbEntity
  8
0
100
AcDbLine
 10
7.99999999999999
 20
236.2359999999999
 30
0.0
 11
7.99999999999999
 21
210.1859999999999
 31
0.0
  0
LINE
  5
E5
330
1E
100
AcDbEntity
  8
0
100
AcDbLine
 10
7.99999999999999
 20
236.2359999999999
 30
0.0
 11
7.99999999999999
 21
237.523396995708
 31
0.0
  0
LINE
  5
E6
330
1E
100
AcDbEntity
  8
0
100
AcDbLine
 10
7.99999999999999
 20
210.1859999999999
 30
0.0
 11
7.99999999999999
 21
183.472
 31
0.0
  0
LINE
  5
E7
330
1E
100
AcDbEntity
  8
0
100
AcDbLine
 10
7.99999999999999
 20
210.1859999999999
 30
0.0
 11
7.99999999999999
 21
236.2359999999999
 31
0.0
  0
LINE
  5
E8
330
1E
100
AcDbEntity
  8
0
100
AcDbLine
 10
7.99999999999999
 20
183.472
 30
0.0
 11
7.99999999999999
 21
154.359
 31
0.0
  0
LINE
  5
E9
330
1E
100
AcDbEntity
  8
0
100
AcDbLine
 10
7.99999999999999
 20
183.472
 30
0.0
 11
7.99999999999999
 21
210.1859999999999
 31
0.0
  0
LINE
  5
EA
330
1E
100
AcDbEntity
  8
0
100
AcDbLine
 10
16.0
 20
206.177
 30
0.0
 11
16.144
 21
207.1699999999999
 31
0.0
  0
LINE
  5
EB
330
1E
100
AcDbEntity
  8
0
100
AcDbLine
 10
16.0
 20
206.177
 30
0.0
 11
16.0
 21
175.1559999999999
 31
0.0
  0
LINE
  5
EC
330
1E
100
AcDbEntity
  8
0
100
AcDbLine
 10
16.144
 20
207.1699999999999
 30
0.0
 11
16.528
 21
208.0999999999999
 31
0.0
  0
LINE
  5
ED
330
1E
100
AcDbEntity
  8
0
100
AcDbLine
 10
16.528
 20
208.0999999999999
 30
0.0
 11
17.168
 21
208.922
 31
0.0
  0
LINE
  5
EE
330
1E
100
AcDbEntity
  8
0
100
AcDbLine
 10
16.0
 20
175.1559999999999
 30
0.0
 11
16.144
 21
174.1629999999999
 31
0.0
  0
LINE
  5
EF
330
1E
100
AcDbEntity
  8
0
100
AcDbLine
 10
16.0
 20
175.1559999999999
 30
0.0
 11
16.0
 21
206.177
 31
0.0
  0
LINE
  5
F0
330
1E
100
AcDbEntity
  8
0
100
AcDbLine
 10
16.144
 20
174.1629999999999
 30
0.0
 11
16.528
 21
173.233
 31
0.0
  0
LINE
  5
F1
330
1E
100
AcDbEntity
  8
0
100
AcDbLine
 10
17.168
 20
208.922
 30
0.0
 11
18.01599999999999
 21
209.5429999999999
 31
0.0
  0
LINE
  5
F2
330
1E
100
AcDbEntity
  8
0
100
AcDbLine
 10
18.01599999999999
 20
209.5429999999999
 30
0.0
 11
18.97599999999999
 21
209.9149999999999
 31
0.0
  0
LINE
  5
F3
330
1E
100
AcDbEntity
  8
0
100
AcDbLine
 10
16.528
 20
173.233
 30
0.0
 11
17.168
 21
172.4099999999999
 31
0.0
  0
LINE
  5
F4
330
1E
100
AcDbEntity
  8
0
100
AcDbLine
 10
17.168
 20
172.4099999999999
 30
0.0
 11
18.01599999999999
 21
171.789
 31
0.0
  0
LINE
  5
F5
330
1E
100
AcDbEntity
  8
0
100
AcDbLine
 10
18.97599999999999
 20
209.9149999999999
 30
0.0
 11
20.0
 21
210.055
 31
0.0
  0
LINE
  5
F6
330
1E
100
AcDbEntity
  8
0
100
AcDbLine
 10
18.01599999999999
 20
171.789
 30
0.0
 11
18.97599999999999
 21
171.417
 31
0.0
  0
LINE
  5
F7
330
1E
100
AcDbEntity
  8
0
100
AcDbLine
 10
18.97599999999999
 20
171.417
 30
0.0
 11
20.0
 21
171.277
 31
0.0
  0
LINE
  5
F8
330
1E
100
AcDbEntity
  8
0
100
AcDbLine
 10
21.024
 20
209.9149999999999
 30
0.0
 11
21.984
 21
209.5429999999999
 31
0.0
  0
LINE
  5
F9
330
1E
100
AcDbEntity
  8
0
100
AcDbLine
 10
20.0
 20
210.055
 30
0.0
 11
21.024
 21
209.9149999999999
 31
0.0
  0
LINE
  5
FA
330
1E
100
AcDbEntity
  8
0
100
AcDbLine
 10
22.83199999999999
 20
208.922
 30
0.0
 11
23.47199999999999
 21
208.0999999999999
 31
0.0
  0
LINE
  5
FB
330
1E
100
AcDbEntity
  8
0
100
AcDbLine
 10
21.984
 20
209.5429999999999
 30
0.0
 11
22.83199999999999
 21
208.922
 31
0.0
  0
LINE
  5
FC
330
1E
100
AcDbEntity
  8
0
100
AcDbLine
 10
23.85599999999999
 20
207.1699999999999
 30
0.0
 11
24.0
 21
206.177
 31
0.0
  0
LINE
  5
FD
330
1E
100
AcDbEntity
  8
0
100
AcDbLine
 10
23.47199999999999
 20
208.0999999999999
 30
0.0
 11
23.85599999999999
 21
207.1699999999999
 31
0.0
  0
LINE
  5
FE
330
1E
100
AcDbEntity
  8
0
100
AcDbLine
 10
24.0
 20
206.177
 30
0.0
 11
24.0
 21
175.1559999999999
 31
0.0
  0
LINE
  5
FF
330
1E
100
AcDbEntity
  8
0
100
AcDbLine
 10
24.0
 20
175.1559999999999
 30
0.0
 11
24.0
 21
206.177
 31
0.0
  0
LINE
  5
100
330
1E
100
AcDbEntity
  8
0
100
AcDbLine
 10
23.85599999999999
 20
174.1629999999999
 30
0.0
 11
24.0
 21
175.1559999999999
 31
0.0
  0
LINE
  5
101
330
1E
100
AcDbEntity
  8
0
100
AcDbLine
 10
23.47199999999999
 20
173.233
 30
0.0
 11
23.85599999999999
 21
174.1629999999999
 31
0.0
  0
LINE
  5
102
330
1E
100
AcDbEntity
  8
0
100
AcDbLine
 10
22.83199999999999
 20
172.4099999999999
 30
0.0
 11
23.47199999999999
 21
173.233
 31
0.0
  0
LINE
  5
103
330
1E
100
AcDbEntity
  8
0
100
AcDbLine
 10
21.984
 20
171.789
 30
0.0
 11
22.83199999999999
 21
172.4099999999999
 31
0.0
  0
LINE
  5
104
330
1E
100
AcDbEntity
  8
0
100
AcDbLine
 10
21.024
 20
171.417
 30
0.0
 11
21.984
 21
171.789
 31
0.0
  0
LINE
  5
105
330
1E
100
AcDbEntity
  8
0
100
AcDbLine
 10
20.0
 20
171.277
 30
0.0
 11
21.024
 21
171.417
 31
0.0
  0
LINE
  5
106
330
1E
100
AcDbEntity
  8
0
100
AcDbLine
 10
32.0
 20
183.472
 30
0.0
 11
32.0
 21
210.1859999999999
 31
0.0
  0
LINE
  5
107
330
1E
100
AcDbEntity
  8
0
100
AcDbLine
 10
32.0
 20
183.472
 30
0.0
 11
32.0
 21
154.359
 31
0.0
  0
LINE
  5
109
330
1E
100
AcDbEntity
  8
0
100
AcDbLine
 10
20.0
 20
233.6999999999999
 30
0.0
 11
24.39999999999999
 21
234.257
 31
0.0
  0
LINE
  5
10A
330
1E
100
AcDbEntity
  8
0
100
AcDbLine
 10
24.39999999999999
 20
234.257
 30
0.0
 11
28.5
 21
235.8919999999999
 31
0.0
  0
LINE
  5
10B
330
1E
100
AcDbEntity
  8
0
100
AcDbLine
 10
24.659
 20
233.577
 30
0.0
 11
29.0
 21
235.3079999999999
 31
0.0
  0
LINE
  5
10C
330
1E
100
AcDbEntity
  8
0
100
AcDbLine
 10
20.0
 20
232.987
 30
0.0
 11
24.659
 21
233.577
 31
0.0
  0
LINE
  5
10D
330
1E
100
AcDbEntity
  8
0
100
AcDbLine
 10
32.0
 20
210.1859999999999
 30
0.0
 11
32.0
 21
183.472
 31
0.0
  0
LINE
  5
10E
330
1E
100
AcDbEntity
  8
0
100
AcDbLine
 10
32.0
 20
210.1859999999999
 30
0.0
 11
32.0
 21
236.2359999999999
 31
0.0
  0
LINE
  5
110
330
1E
100
AcDbEntity
  8
0
100
AcDbLine
 10
29.0
 20
235.3079999999999
 30
0.0
 11
32.728
 21
238.0609999999999
 31
0.0
  0
LINE
  5
111
330
1E
100
AcDbEntity
  8
0
100
AcDbLine
 10
28.5
 20
235.8919999999999
 30
0.0
 11
32.021
 21
238.492
 31
0.0
  0
LINE
  5
112
330
1E
100
AcDbEntity
  8
0
100
AcDbLine
 10
15.6
 20
234.257
 30
0.0
 11
20.0
 21
233.6999999999999
 31
0.0
  0
LINE
  5
113
330
1E
100
AcDbEntity
  8
0
100
AcDbLine
 10
15.341
 20
233.577
 30
0.0
 11
20.0
 21
232.987
 31
0.0
  0
LINE
  5
114
330
1E
100
AcDbEntity
  8
0
100
AcDbLine
 10
19.3
 20
238.1759999999999
 30
0.0
 11
20.0
 21
237.888
 31
0.0
  0
LINE
  5
116
330
1E
100
AcDbEntity
  8
0
100
AcDbLine
 10
20.0
 20
237.888
 30
0.0
 11
20.69999999999999
 21
238.1759999999999
 31
0.0
  0
LINE
  5
118
330
1E
100
AcDbEntity
  8
0
100
AcDbLine
 10
20.69999999999999
 20
238.1759999999999
 30
0.0
 11
21.0
 21
238.85
 31
0.0
  0
LINE
  5
119
330
1E
100
AcDbEntity
  8
0
100
AcDbLine
 10
16.71199999999999
 20
237.722
 30
0.0
 11
20.0
 21
237.2809999999999
 31
0.0
  0
LINE
  5
11A
330
1E
100
AcDbEntity
  8
0
100
AcDbLine
 10
16.673
 20
237.632
 30
0.0
 11
20.0
 21
237.19
 31
0.0
  0
LINE
  5
11B
330
1E
100
AcDbEntity
  8
0
100
AcDbLine
 10
23.288
 20
237.722
 30
0.0
 11
26.385
 21
238.9369999999999
 31
0.0
  0
LINE
  5
11C
330
1E
100
AcDbEntity
  8
0
100
AcDbLine
 10
20.0
 20
237.2809999999999
 30
0.0
 11
23.288
 21
237.722
 31
0.0
  0
LINE
  5
11D
330
1E
100
AcDbEntity
  8
0
100
AcDbLine
 10
23.326
 20
237.632
 30
0.0
 11
26.462
 21
238.883
 31
0.0
  0
LINE
  5
11E
330
1E
100
AcDbEntity
  8
0
100
AcDbLine
 10
20.0
 20
237.19
 30
0.0
 11
23.326
 21
237.632
 31
0.0
  0
LINE
  5
11F
330
1E
100
AcDbEntity
  8
0
100
AcDbLine
 10
32.0
 20
237.523396995708
 30
0.0
 11
32.0
 21
236.2359999999999
 31
0.0
  0
LINE
  5
120
330
1E
100
AcDbEntity
  8
0
100
AcDbLine
 10
32.0
 20
236.2359999999999
 30
0.0
 11
32.0
 21
210.1859999999999
 31
0.0
  0
LINE
  5
121
330
1E
100
AcDbEntity
  8
0
100
AcDbLine
 10
32.0
 20
236.2359999999999
 30
0.0
 11
32.0
 21
237.523396995708
 31
0.0
  0
LINE
  5
122
330
1E
100
AcDbEntity
  8
0
100
AcDbLine
 10
32.728
 20
238.0609999999999
 30
0.0
 11
35.58899999999999
 21
241.649
 31
0.0
  0
LINE
  5
123
330
1E
100
AcDbEntity
  8
0
100
AcDbLine
 10
32.021
 20
238.492
 30
0.0
 11
34.722
 21
241.8809999999999
 31
0.0
  0
LINE
  5
124
330
1E
100
AcDbEntity
  8
0
100
AcDbLine
 10
11.5
 20
235.8919999999999
 30
0.0
 11
15.6
 21
234.257
 31
0.0
  0
LINE
  5
125
330
1E
100
AcDbEntity
  8
0
100
AcDbLine
 10
11.0
 20
235.3079999999999
 30
0.0
 11
15.341
 21
233.577
 31
0.0
  0
LINE
  5
126
330
1E
100
AcDbEntity
  8
0
100
AcDbLine
 10
7.64999999999997
 20
246.444
 30
0.0
 11
8.91199999999997
 21
243.4629999999999
 31
0.0
  0
LINE
  5
127
330
1E
100
AcDbEntity
  8
0
100
AcDbLine
 10
7.45899999999999
 20
246.5009999999999
 30
0.0
 11
8.759000000000009
 21
243.483
 31
0.0
  0
LINE
  5
128
330
1E
100
AcDbEntity
  8
0
100
AcDbLine
 10
7.99999999999999
 20
249.562
 30
0.0
 11
7.99999999999999
 21
249.4369999999999
 31
0.0
  0
LINE
  5
129
330
1E
100
AcDbEntity
  8
0
100
AcDbLine
 10
8.29999999999999
 20
250.111
 30
0.0
 11
8.999999999999991
 21
250.4
 31
0.0
  0
LINE
  5
12A
330
1E
100
AcDbEntity
  8
0
100
AcDbLine
 10
7.99999999999999
 20
249.4369999999999
 30
0.0
 11
8.29999999999999
 21
248.764
 31
0.0
  0
LINE
  5
12B
330
1E
100
AcDbEntity
  8
0
100
AcDbLine
 10
7.99999999999999
 20
249.4369999999999
 30
0.0
 11
8.29999999999999
 21
250.111
 31
0.0
  0
LINE
  5
12C
330
1E
100
AcDbEntity
  8
0
100
AcDbLine
 10
7.99999999999999
 20
249.4369999999999
 30
0.0
 11
7.99999999999999
 21
249.562
 31
0.0
  0
LINE
  5
12D
330
1E
100
AcDbEntity
  8
0
100
AcDbLine
 10
8.29999999999999
 20
248.764
 30
0.0
 11
8.999999999999991
 21
248.475
 31
0.0
  0
LINE
  5
12E
330
1E
100
AcDbEntity
  8
0
100
AcDbLine
 10
10.217
 20
243.223
 30
0.0
 11
10.974
 21
243.31
 31
0.0
  0
LINE
  5
12F
330
1E
100
AcDbEntity
  8
0
100
AcDbLine
 10
10.974
 20
243.31
 30
0.0
 11
11.43
 21
243.897
 31
0.0
  0
LINE
  5
130
330
1E
100
AcDbEntity
  8
0
100
AcDbLine
 10
10.93799999999999
 20
240.8869999999999
 30
0.0
 11
13.615
 21
238.9369999999999
 31
0.0
  0
LINE
  5
131
330
1E
100
AcDbEntity
  8
0
100
AcDbLine
 10
10.824
 20
240.8709999999999
 30
0.0
 11
13.538
 21
238.883
 31
0.0
  0
LINE
  5
132
330
1E
100
AcDbEntity
  8
0
100
AcDbLine
 10
8.999999999999991
 20
248.475
 30
0.0
 11
9.69999999999997
 21
248.764
 31
0.0
  0
LINE
  5
133
330
1E
100
AcDbEntity
  8
0
100
AcDbLine
 10
9.517999999999959
 20
244.3899999999999
 30
0.0
 11
9.60799999999997
 21
243.663
 31
0.0
  0
LINE
  5
134
330
1E
100
AcDbEntity
  8
0
100
AcDbLine
 10
9.517999999999959
 20
244.3899999999999
 30
0.0
 11
9.97399999999997
 21
244.977
 31
0.0
  0
LINE
  5
135
330
1E
100
AcDbEntity
  8
0
100
AcDbLine
 10
9.60799999999997
 20
243.663
 30
0.0
 11
10.217
 21
243.223
 31
0.0
  0
LINE
  5
136
330
1E
100
AcDbEntity
  8
0
100
AcDbLine
 10
9.97399999999997
 20
244.977
 30
0.0
 11
10.73
 21
245.064
 31
0.0
  0
LINE
  5
137
330
1E
100
AcDbEntity
  8
0
100
AcDbLine
 10
10.73
 20
245.064
 30
0.0
 11
11.34
 21
244.625
 31
0.0
  0
LINE
  5
138
330
1E
100
AcDbEntity
  8
0
100
AcDbLine
 10
9.999999999999991
 20
249.4369999999999
 30
0.0
 11
9.999999999999991
 21
249.562
 31
0.0
  0
LINE
  5
139
330
1E
100
AcDbEntity
  8
0
100
AcDbLine
 10
9.999999999999991
 20
249.562
 30
0.0
 11
9.999999999999991
 21
249.4369999999999
 31
0.0
  0
LINE
  5
13A
330
1E
100
AcDbEntity
  8
0
100
AcDbLine
 10
9.69999999999997
 20
248.764
 30
0.0
 11
9.999999999999991
 21
249.4369999999999
 31
0.0
  0
LINE
  5
13B
330
1E
100
AcDbEntity
  8
0
100
AcDbLine
 10
9.97399999999997
 20
253.898
 30
0.0
 11
10.73
 21
253.8109999999999
 31
0.0
  0
LINE
  5
13C
330
1E
100
AcDbEntity
  8
0
100
AcDbLine
 10
9.517999999999959
 20
254.485
 30
0.0
 11
9.60799999999997
 21
255.212
 31
0.0
  0
LINE
  5
13D
330
1E
100
AcDbEntity
  8
0
100
AcDbLine
 10
9.517999999999959
 20
254.485
 30
0.0
 11
9.97399999999997
 21
253.898
 31
0.0
  0
LINE
  5
13E
330
1E
100
AcDbEntity
  8
0
100
AcDbLine
 10
9.60799999999997
 20
255.328670141474
 30
0.0
 11
9.60799999999997
 21
255.212
 31
0.0
  0
LINE
  5
13F
330
1E
100
AcDbEntity
  8
0
100
AcDbLine
 10
9.60799999999997
 20
255.212
 30
0.0
 11
10.217
 21
255.652
 31
0.0
  0
LINE
  5
140
330
1E
100
AcDbEntity
  8
0
100
AcDbLine
 10
9.60799999999997
 20
255.212
 30
0.0
 11
9.60799999999997
 21
255.328670141474
 31
0.0
  0
LINE
  5
141
330
1E
100
AcDbEntity
  8
0
100
AcDbLine
 10
10.974
 20
255.5649999999999
 30
0.0
 11
11.43
 21
254.9779999999999
 31
0.0
  0
LINE
  5
142
330
1E
100
AcDbEntity
  8
0
100
AcDbLine
 10
10.73
 20
253.8109999999999
 30
0.0
 11
11.34
 21
254.2499999999999
 31
0.0
  0
LINE
  5
143
330
1E
100
AcDbEntity
  8
0
100
AcDbLine
 10
10.217
 20
255.652
 30
0.0
 11
10.974
 21
255.5649999999999
 31
0.0
  0
LINE
  5
144
330
1E
100
AcDbEntity
  8
0
100
AcDbLine
 10
9.69999999999997
 20
250.111
 30
0.0
 11
9.999999999999991
 21
249.4369999999999
 31
0.0
  0
LINE
  5
145
330
1E
100
AcDbEntity
  8
0
100
AcDbLine
 10
8.999999999999991
 20
250.4
 30
0.0
 11
9.69999999999997
 21
250.111
 31
0.0
  0
LINE
  5
146
330
1E
100
AcDbEntity
  8
0
100
AcDbLine
 10
8.91199999999997
 20
243.4629999999999
 30
0.0
 11
10.93799999999999
 21
240.8869999999999
 31
0.0
  0
LINE
  5
147
330
1E
100
AcDbEntity
  8
0
100
AcDbLine
 10
8.759000000000009
 20
243.483
 30
0.0
 11
10.824
 21
240.8709999999999
 31
0.0
  0
LINE
  5
148
330
1E
100
AcDbEntity
  8
0
100
AcDbLine
 10
10.93799999999999
 20
258.3309999999999
 30
0.0
 11
13.615
 21
260.281
 31
0.0
  0
LINE
  5
149
330
1E
100
AcDbEntity
  8
0
100
AcDbLine
 10
8.91199999999997
 20
255.7549999999999
 30
0.0
 11
10.93799999999999
 21
258.3309999999999
 31
0.0
  0
LINE
  5
14A
330
1E
100
AcDbEntity
  8
0
100
AcDbLine
 10
7.64999999999997
 20
252.774
 30
0.0
 11
8.91199999999997
 21
255.7549999999999
 31
0.0
  0
LINE
  5
14B
330
1E
100
AcDbEntity
  8
0
100
AcDbLine
 10
7.978999999999969
 20
261.6319999999999
 30
0.0
 11
11.5
 21
264.232
 31
0.0
  0
LINE
  5
14C
330
1E
100
AcDbEntity
  8
0
100
AcDbLine
 10
11.34
 20
254.2499999999999
 30
0.0
 11
11.43
 21
254.9779999999999
 31
0.0
  0
LINE
  5
14D
330
1E
100
AcDbEntity
  8
0
100
AcDbLine
 10
12.273
 20
251.558313836898
 30
0.0
 11
12.273
 21
251.4299999999999
 31
0.0
  0
LINE
  5
14E
330
1E
100
AcDbEntity
  8
0
100
AcDbLine
 10
12.98
 20
250.252
 30
0.0
 11
13.734
 21
250.3559999999999
 31
0.0
  0
LINE
  5
14F
330
1E
100
AcDbEntity
  8
0
100
AcDbLine
 10
12.38099999999999
 20
250.705
 30
0.0
 11
12.98
 21
250.252
 31
0.0
  0
LINE
  5
150
330
1E
100
AcDbEntity
  8
0
100
AcDbLine
 10
12.273
 20
251.4299999999999
 30
0.0
 11
12.743
 21
252.0059999999999
 31
0.0
  0
LINE
  5
151
330
1E
100
AcDbEntity
  8
0
100
AcDbLine
 10
12.273
 20
251.4299999999999
 30
0.0
 11
12.38099999999999
 21
250.705
 31
0.0
  0
LINE
  5
152
330
1E
100
AcDbEntity
  8
0
100
AcDbLine
 10
12.273
 20
251.4299999999999
 30
0.0
 11
12.273
 21
251.558313836898
 31
0.0
  0
LINE
  5
153
330
1E
100
AcDbEntity
  8
0
100
AcDbLine
 10
13.497
 20
252.1109999999999
 30
0.0
 11
14.096
 21
251.6579999999999
 31
0.0
  0
LINE
  5
154
330
1E
100
AcDbEntity
  8
0
100
AcDbLine
 10
12.743
 20
252.0059999999999
 30
0.0
 11
13.497
 21
252.1109999999999
 31
0.0
  0
LINE
  5
155
330
1E
100
AcDbEntity
  8
0
100
AcDbLine
 10
11.34
 20
244.757247580045
 30
0.0
 11
11.34
 21
244.625
 31
0.0
  0
LINE
  5
156
330
1E
100
AcDbEntity
  8
0
100
AcDbLine
 10
11.34
 20
244.625
 30
0.0
 11
11.43
 21
243.897
 31
0.0
  0
LINE
  5
157
330
1E
100
AcDbEntity
  8
0
100
AcDbLine
 10
11.34
 20
244.625
 30
0.0
 11
11.34
 21
244.757247580045
 31
0.0
  0
LINE
  5
158
330
1E
100
AcDbEntity
  8
0
100
AcDbLine
 10
13.544
 20
258.8529999999999
 30
0.0
 11
14.0
 21
259.4399999999999
 31
0.0
  0
LINE
  5
159
330
1E
100
AcDbEntity
  8
0
100
AcDbLine
 10
13.544
 20
258.8529999999999
 30
0.0
 11
13.634
 21
258.125
 31
0.0
  0
LINE
  5
15A
330
1E
100
AcDbEntity
  8
0
100
AcDbLine
 10
13.544
 20
240.022
 30
0.0
 11
14.0
 21
239.435
 31
0.0
  0
LINE
  5
15B
330
1E
100
AcDbEntity
  8
0
100
AcDbLine
 10
13.544
 20
240.022
 30
0.0
 11
13.634
 21
240.75
 31
0.0
  0
LINE
  5
15C
330
1E
100
AcDbEntity
  8
0
100
AcDbLine
 10
13.734
 20
250.3559999999999
 30
0.0
 11
14.204
 21
250.932
 31
0.0
  0
LINE
  5
15D
330
1E
100
AcDbEntity
  8
0
100
AcDbLine
 10
14.0
 20
259.579113335486
 30
0.0
 11
14.0
 21
259.4399999999999
 31
0.0
  0
LINE
  5
15E
330
1E
100
AcDbEntity
  8
0
100
AcDbLine
 10
13.634
 20
258.125
 30
0.0
 11
14.244
 21
257.6859999999999
 31
0.0
  0
LINE
  5
15F
330
1E
100
AcDbEntity
  8
0
100
AcDbLine
 10
14.0
 20
259.4399999999999
 30
0.0
 11
14.756
 21
259.5269999999999
 31
0.0
  0
LINE
  5
160
330
1E
100
AcDbEntity
  8
0
100
AcDbLine
 10
14.0
 20
259.4399999999999
 30
0.0
 11
14.0
 21
259.579113335486
 31
0.0
  0
LINE
  5
161
330
1E
100
AcDbEntity
  8
0
100
AcDbLine
 10
13.634
 20
240.75
 30
0.0
 11
14.244
 21
241.189
 31
0.0
  0
LINE
  5
162
330
1E
100
AcDbEntity
  8
0
100
AcDbLine
 10
14.204
 20
250.932
 30
0.0
 11
14.204
 21
251.059429144385
 31
0.0
  0
LINE
  5
163
330
1E
100
AcDbEntity
  8
0
100
AcDbLine
 10
14.204
 20
251.059429144385
 30
0.0
 11
14.204
 21
250.932
 31
0.0
  0
LINE
  5
164
330
1E
100
AcDbEntity
  8
0
100
AcDbLine
 10
14.096
 20
251.6579999999999
 30
0.0
 11
14.204
 21
250.932
 31
0.0
  0
LINE
  5
165
330
1E
100
AcDbEntity
  8
0
100
AcDbLine
 10
14.244
 20
257.6859999999999
 30
0.0
 11
15.0
 21
257.7729999999999
 31
0.0
  0
LINE
  5
166
330
1E
100
AcDbEntity
  8
0
100
AcDbLine
 10
14.343
 20
245.354
 30
0.0
 11
15.05
 21
245.6259999999999
 31
0.0
  0
LINE
  5
167
330
1E
100
AcDbEntity
  8
0
100
AcDbLine
 10
14.06
 20
244.673
 30
0.0
 11
14.343
 21
243.9929999999999
 31
0.0
  0
LINE
  5
168
330
1E
100
AcDbEntity
  8
0
100
AcDbLine
 10
14.06
 20
244.673
 30
0.0
 11
14.343
 21
245.354
 31
0.0
  0
LINE
  5
169
330
1E
100
AcDbEntity
  8
0
100
AcDbLine
 10
14.756
 20
259.5269999999999
 30
0.0
 11
15.36599999999999
 21
259.0879999999999
 31
0.0
  0
LINE
  5
16A
330
1E
100
AcDbEntity
  8
0
100
AcDbLine
 10
14.343
 20
243.9929999999999
 30
0.0
 11
15.05
 21
243.7209999999999
 31
0.0
  0
LINE
  5
16B
330
1E
100
AcDbEntity
  8
0
100
AcDbLine
 10
14.244
 20
241.189
 30
0.0
 11
15.0
 21
241.102
 31
0.0
  0
LINE
  5
16C
330
1E
100
AcDbEntity
  8
0
100
AcDbLine
 10
14.0
 20
239.435
 30
0.0
 11
14.756
 21
239.3479999999999
 31
0.0
  0
LINE
  5
16D
330
1E
100
AcDbEntity
  8
0
100
AcDbLine
 10
14.756
 20
239.3479999999999
 30
0.0
 11
15.36599999999999
 21
239.787
 31
0.0
  0
LINE
  5
16E
330
1E
100
AcDbEntity
  8
0
100
AcDbLine
 10
13.615
 20
260.281
 30
0.0
 11
16.71199999999999
 21
261.4959999999999
 31
0.0
  0
LINE
  5
16F
330
1E
100
AcDbEntity
  8
0
100
AcDbLine
 10
13.615
 20
238.9369999999999
 30
0.0
 11
16.71199999999999
 21
237.722
 31
0.0
  0
LINE
  5
170
330
1E
100
AcDbEntity
  8
0
100
AcDbLine
 10
13.538
 20
238.883
 30
0.0
 11
16.673
 21
237.632
 31
0.0
  0
LINE
  5
171
330
1E
100
AcDbEntity
  8
0
100
AcDbLine
 10
11.5
 20
264.232
 30
0.0
 11
15.6
 21
265.867
 31
0.0
  0
LINE
  5
172
330
1E
100
AcDbEntity
  8
0
100
AcDbLine
 10
11.0
 20
265.315
 30
0.0
 11
15.341
 21
267.047
 31
0.0
  0
LINE
  5
173
330
1E
100
AcDbEntity
  8
0
100
AcDbLine
 10
9.999999999999991
 20
273.227
 30
0.0
 11
14.824
 21
275.151
 31
0.0
  0
LINE
  5
174
330
1E
100
AcDbEntity
  8
0
100
AcDbLine
 10
15.36599999999999
 20
239.787
 30
0.0
 11
15.456
 21
240.5149999999999
 31
0.0
  0
LINE
  5
175
330
1E
100
AcDbEntity
  8
0
100
AcDbLine
 10
15.0
 20
257.7729999999999
 30
0.0
 11
15.456
 21
258.36
 31
0.0
  0
LINE
  5
176
330
1E
100
AcDbEntity
  8
0
100
AcDbLine
 10
15.36599999999999
 20
259.0879999999999
 30
0.0
 11
15.456
 21
258.36
 31
0.0
  0
LINE
  5
177
330
1E
100
AcDbEntity
  8
0
100
AcDbLine
 10
15.05
 20
245.6259999999999
 30
0.0
 11
15.757
 21
245.354
 31
0.0
  0
LINE
  5
178
330
1E
100
AcDbEntity
  8
0
100
AcDbLine
 10
15.05
 20
243.7209999999999
 30
0.0
 11
15.757
 21
243.9929999999999
 31
0.0
  0
LINE
  5
179
330
1E
100
AcDbEntity
  8
0
100
AcDbLine
 10
15.0
 20
241.214405553762
 30
0.0
 11
15.0
 21
241.102
 31
0.0
  0
LINE
  5
17A
330
1E
100
AcDbEntity
  8
0
100
AcDbLine
 10
15.0
 20
241.102
 30
0.0
 11
15.456
 21
240.5149999999999
 31
0.0
  0
LINE
  5
17B
330
1E
100
AcDbEntity
  8
0
100
AcDbLine
 10
15.0
 20
241.102
 30
0.0
 11
15.0
 21
241.214405553762
 31
0.0
  0
LINE
  5
17D
330
1E
100
AcDbEntity
  8
0
100
AcDbLine
 10
19.0
 20
238.85
 30
0.0
 11
19.3
 21
238.1759999999999
 31
0.0
  0
LINE
  5
17E
330
1E
100
AcDbEntity
  8
0
100
AcDbLine
 10
19.0
 20
238.85
 30
0.0
 11
19.3
 21
239.524
 31
0.0
  0
LINE
  5
184
330
1E
100
AcDbEntity
  8
0
100
AcDbLine
 10
20.69999999999999
 20
239.524
 30
0.0
 11
21.0
 21
238.85
 31
0.0
  0
LINE
  5
186
330
1E
100
AcDbEntity
  8
0
100
AcDbLine
 10
20.0
 20
239.813
 30
0.0
 11
20.69999999999999
 21
239.524
 31
0.0
  0
LINE
  5
188
330
1E
100
AcDbEntity
  8
0
100
AcDbLine
 10
19.3
 20
239.524
 30
0.0
 11
20.0
 21
239.813
 31
0.0
  0
LINE
  5
18A
330
1E
100
AcDbEntity
  8
0
100
AcDbLine
 10
20.846
 20
242.68
 30
0.0
 11
21.31699999999999
 21
242.104
 31
0.0
  0
LINE
  5
18B
330
1E
100
AcDbEntity
  8
0
100
AcDbLine
 10
20.846
 20
242.68
 30
0.0
 11
20.954
 21
243.4059999999999
 31
0.0
  0
LINE
  5
18C
330
1E
100
AcDbEntity
  8
0
100
AcDbLine
 10
21.31699999999999
 20
242.104
 30
0.0
 11
22.071
 21
242.0
 31
0.0
  0
LINE
  5
18E
330
1E
100
AcDbEntity
  8
0
100
AcDbLine
 10
22.071
 20
242.0
 30
0.0
 11
22.669
 21
242.453
 31
0.0
  0
LINE
  5
18F
330
1E
100
AcDbEntity
  8
0
100
AcDbLine
 10
26.0
 20
239.435
 30
0.0
 11
26.45599999999999
 21
240.022
 31
0.0
  0
LINE
  5
190
330
1E
100
AcDbEntity
  8
0
100
AcDbLine
 10
25.24399999999999
 20
239.3479999999999
 30
0.0
 11
26.0
 21
239.435
 31
0.0
  0
LINE
  5
191
330
1E
100
AcDbEntity
  8
0
100
AcDbLine
 10
24.544
 20
240.5149999999999
 30
0.0
 11
25.0
 21
241.102
 31
0.0
  0
LINE
  5
192
330
1E
100
AcDbEntity
  8
0
100
AcDbLine
 10
24.544
 20
240.5149999999999
 30
0.0
 11
24.634
 21
239.787
 31
0.0
  0
LINE
  5
193
330
1E
100
AcDbEntity
  8
0
100
AcDbLine
 10
25.0
 20
241.102
 30
0.0
 11
25.756
 21
241.189
 31
0.0
  0
LINE
  5
194
330
1E
100
AcDbEntity
  8
0
100
AcDbLine
 10
25.0
 20
241.102
 30
0.0
 11
25.0
 21
241.214405553762
 31
0.0
  0
LINE
  5
195
330
1E
100
AcDbEntity
  8
0
100
AcDbLine
 10
25.0
 20
241.214405553762
 30
0.0
 11
25.0
 21
241.102
 31
0.0
  0
LINE
  5
196
330
1E
100
AcDbEntity
  8
0
100
AcDbLine
 10
25.756
 20
241.189
 30
0.0
 11
26.366
 21
240.75
 31
0.0
  0
LINE
  5
197
330
1E
100
AcDbEntity
  8
0
100
AcDbLine
 10
26.366
 20
240.75
 30
0.0
 11
26.45599999999999
 21
240.022
 31
0.0
  0
LINE
  5
198
330
1E
100
AcDbEntity
  8
0
100
AcDbLine
 10
24.634
 20
239.787
 30
0.0
 11
25.24399999999999
 21
239.3479999999999
 31
0.0
  0
LINE
  5
199
330
1E
100
AcDbEntity
  8
0
100
AcDbLine
 10
22.669
 20
242.453
 30
0.0
 11
22.778
 21
243.1789999999999
 31
0.0
  0
LINE
  5
19A
330
1E
100
AcDbEntity
  8
0
100
AcDbLine
 10
15.757
 20
245.478221059814
 30
0.0
 11
15.757
 21
245.354
 31
0.0
  0
LINE
  5
19B
330
1E
100
AcDbEntity
  8
0
100
AcDbLine
 10
15.757
 20
243.9929999999999
 30
0.0
 11
16.04
 21
244.673
 31
0.0
  0
LINE
  5
19C
330
1E
100
AcDbEntity
  8
0
100
AcDbLine
 10
15.757
 20
245.354
 30
0.0
 11
16.04
 21
244.673
 31
0.0
  0
LINE
  5
19D
330
1E
100
AcDbEntity
  8
0
100
AcDbLine
 10
15.757
 20
245.354
 30
0.0
 11
15.757
 21
245.478221059814
 31
0.0
  0
LINE
  5
19E
330
1E
100
AcDbEntity
  8
0
100
AcDbLine
 10
20.0
 20
245.588
 30
0.0
 11
20.69999999999999
 21
245.8759999999999
 31
0.0
  0
LINE
  5
19F
330
1E
100
AcDbEntity
  8
0
100
AcDbLine
 10
22.307
 20
243.7549999999999
 30
0.0
 11
22.778
 21
243.1789999999999
 31
0.0
  0
LINE
  5
1A0
330
1E
100
AcDbEntity
  8
0
100
AcDbLine
 10
21.55299999999999
 20
243.993054171856
 30
0.0
 11
21.55299999999999
 21
243.859
 31
0.0
  0
LINE
  5
1A2
330
1E
100
AcDbEntity
  8
0
100
AcDbLine
 10
21.55299999999999
 20
243.859
 30
0.0
 11
22.307
 21
243.7549999999999
 31
0.0
  0
LINE
  5
1A3
330
1E
100
AcDbEntity
  8
0
100
AcDbLine
 10
21.55299999999999
 20
243.859
 30
0.0
 11
21.55299999999999
 21
243.993054171856
 31
0.0
  0
LINE
  5
1A5
330
1E
100
AcDbEntity
  8
0
100
AcDbLine
 10
20.954
 20
243.4059999999999
 30
0.0
 11
21.55299999999999
 21
243.859
 31
0.0
  0
LINE
  5
1AA
330
1E
100
AcDbEntity
  8
0
100
AcDbLine
 10
29.02599999999999
 20
243.31
 30
0.0
 11
29.783
 21
243.223
 31
0.0
  0
LINE
  5
1AB
330
1E
100
AcDbEntity
  8
0
100
AcDbLine
 10
29.062
 20
240.8869999999999
 30
0.0
 11
31.088
 21
243.4629999999999
 31
0.0
  0
LINE
  5
1AC
330
1E
100
AcDbEntity
  8
0
100
AcDbLine
 10
29.783
 20
243.223
 30
0.0
 11
30.392
 21
243.663
 31
0.0
  0
LINE
  5
1AD
330
1E
100
AcDbEntity
  8
0
100
AcDbLine
 10
31.088
 20
243.4629999999999
 30
0.0
 11
32.35
 21
246.444
 31
0.0
  0
LINE
  5
1AE
330
1E
100
AcDbEntity
  8
0
100
AcDbLine
 10
29.176
 20
240.8709999999999
 30
0.0
 11
31.241
 21
243.483
 31
0.0
  0
LINE
  5
1AF
330
1E
100
AcDbEntity
  8
0
100
AcDbLine
 10
28.66
 20
244.757247580045
 30
0.0
 11
28.66
 21
244.625
 31
0.0
  0
LINE
  5
1B0
330
1E
100
AcDbEntity
  8
0
100
AcDbLine
 10
28.57
 20
243.897
 30
0.0
 11
28.66
 21
244.625
 31
0.0
  0
LINE
  5
1B1
330
1E
100
AcDbEntity
  8
0
100
AcDbLine
 10
28.57
 20
243.897
 30
0.0
 11
29.02599999999999
 21
243.31
 31
0.0
  0
LINE
  5
1B2
330
1E
100
AcDbEntity
  8
0
100
AcDbLine
 10
28.66
 20
244.625
 30
0.0
 11
29.26999999999999
 21
245.064
 31
0.0
  0
LINE
  5
1B3
330
1E
100
AcDbEntity
  8
0
100
AcDbLine
 10
28.66
 20
244.625
 30
0.0
 11
28.66
 21
244.757247580045
 31
0.0
  0
LINE
  5
1B4
330
1E
100
AcDbEntity
  8
0
100
AcDbLine
 10
29.26999999999999
 20
245.064
 30
0.0
 11
30.026
 21
244.977
 31
0.0
  0
LINE
  5
1B5
330
1E
100
AcDbEntity
  8
0
100
AcDbLine
 10
30.026
 20
244.977
 30
0.0
 11
30.482
 21
244.3899999999999
 31
0.0
  0
LINE
  5
1B6
330
1E
100
AcDbEntity
  8
0
100
AcDbLine
 10
30.392
 20
243.663
 30
0.0
 11
30.482
 21
244.3899999999999
 31
0.0
  0
LINE
  5
1B7
330
1E
100
AcDbEntity
  8
0
100
AcDbLine
 10
31.241
 20
243.483
 30
0.0
 11
32.54099999999999
 21
246.5009999999999
 31
0.0
  0
LINE
  5
1B8
330
1E
100
AcDbEntity
  8
0
100
AcDbLine
 10
26.385
 20
238.9369999999999
 30
0.0
 11
29.062
 21
240.8869999999999
 31
0.0
  0
LINE
  5
1B9
330
1E
100
AcDbEntity
  8
0
100
AcDbLine
 10
26.462
 20
238.883
 30
0.0
 11
29.176
 21
240.8709999999999
 31
0.0
  0
LINE
  5
1BA
330
1E
100
AcDbEntity
  8
0
100
AcDbLine
 10
35.58899999999999
 20
241.649
 30
0.0
 11
37.387
 21
245.827
 31
0.0
  0
LINE
  5
1BB
330
1E
100
AcDbEntity
  8
0
100
AcDbLine
 10
34.722
 20
241.8809999999999
 30
0.0
 11
36.421
 21
245.827
 31
0.0
  0
LINE
  5
1BC
330
1E
100
AcDbEntity
  8
0
100
AcDbLine
 10
19.3
 20
245.8759999999999
 30
0.0
 11
20.0
 21
245.588
 31
0.0
  0
LINE
  5
1BD
330
1E
100
AcDbEntity
  8
0
100
AcDbLine
 10
20.69999999999999
 20
245.8759999999999
 30
0.0
 11
21.0
 21
246.55
 31
0.0
  0
LINE
  5
1BE
330
1E
100
AcDbEntity
  8
0
100
AcDbLine
 10
16.53599999999999
 20
251.4842233804909
 30
0.0
 11
16.53599999999999
 21
251.3619999999999
 31
0.0
  0
LINE
  5
1BF
330
1E
100
AcDbEntity
  8
0
100
AcDbLine
 10
16.44599999999999
 20
250.6349999999999
 30
0.0
 11
16.53599999999999
 21
251.3619999999999
 31
0.0
  0
LINE
  5
1C0
330
1E
100
AcDbEntity
  8
0
100
AcDbLine
 10
16.44599999999999
 20
250.6349999999999
 30
0.0
 11
16.902
 21
250.048
 31
0.0
  0
LINE
  5
1C1
330
1E
100
AcDbEntity
  8
0
100
AcDbLine
 10
16.53599999999999
 20
251.3619999999999
 30
0.0
 11
17.146
 21
251.802
 31
0.0
  0
LINE
  5
1C2
330
1E
100
AcDbEntity
  8
0
100
AcDbLine
 10
16.53599999999999
 20
251.3619999999999
 30
0.0
 11
16.53599999999999
 21
251.4842233804909
 31
0.0
  0
LINE
  5
1C3
330
1E
100
AcDbEntity
  8
0
100
AcDbLine
 10
16.44599999999999
 20
248.24
 30
0.0
 11
16.53599999999999
 21
247.5119999999999
 31
0.0
  0
LINE
  5
1C4
330
1E
100
AcDbEntity
  8
0
100
AcDbLine
 10
16.44599999999999
 20
248.24
 30
0.0
 11
16.902
 21
248.8269999999999
 31
0.0
  0
LINE
  5
1C5
330
1E
100
AcDbEntity
  8
0
100
AcDbLine
 10
18.268
 20
248.601049516009
 30
0.0
 11
18.268
 21
248.475
 31
0.0
  0
LINE
  5
1C6
330
1E
100
AcDbEntity
  8
0
100
AcDbLine
 10
17.902
 20
247.16
 30
0.0
 11
18.358
 21
247.747
 31
0.0
  0
LINE
  5
1C7
330
1E
100
AcDbEntity
  8
0
100
AcDbLine
 10
18.358
 20
247.747
 30
0.0
 11
18.358
 21
247.981617011599
 31
0.0
  0
LINE
  5
1C8
330
1E
100
AcDbEntity
  8
0
100
AcDbLine
 10
18.358
 20
247.981617011599
 30
0.0
 11
18.358
 21
247.747
 31
0.0
  0
LINE
  5
1C9
330
1E
100
AcDbEntity
  8
0
100
AcDbLine
 10
18.268
 20
248.475
 30
0.0
 11
18.358
 21
247.747
 31
0.0
  0
LINE
  5
1CA
330
1E
100
AcDbEntity
  8
0
100
AcDbLine
 10
18.268
 20
248.475
 30
0.0
 11
18.268
 21
248.601049516009
 31
0.0
  0
LINE
  5
1CB
330
1E
100
AcDbEntity
  8
0
100
AcDbLine
 10
16.902
 20
250.048
 30
0.0
 11
17.658
 21
249.961
 31
0.0
  0
LINE
  5
1CC
330
1E
100
AcDbEntity
  8
0
100
AcDbLine
 10
17.222
 20
255.696
 30
0.0
 11
17.331
 21
256.422
 31
0.0
  0
LINE
  5
1CD
330
1E
100
AcDbEntity
  8
0
100
AcDbLine
 10
17.222
 20
255.696
 30
0.0
 11
17.69299999999999
 21
255.12
 31
0.0
  0
LINE
  5
1CE
330
1E
100
AcDbEntity
  8
0
100
AcDbLine
 10
17.658
 20
249.961
 30
0.0
 11
18.268
 21
250.4
 31
0.0
  0
LINE
  5
1CF
330
1E
100
AcDbEntity
  8
0
100
AcDbLine
 10
17.146
 20
251.802
 30
0.0
 11
17.902
 21
251.7149999999999
 31
0.0
  0
LINE
  5
1D0
330
1E
100
AcDbEntity
  8
0
100
AcDbLine
 10
17.902
 20
251.7149999999999
 30
0.0
 11
18.358
 21
251.1279999999999
 31
0.0
  0
LINE
  5
1D1
330
1E
100
AcDbEntity
  8
0
100
AcDbLine
 10
18.268
 20
250.4
 30
0.0
 11
18.358
 21
251.1279999999999
 31
0.0
  0
LINE
  5
1D2
330
1E
100
AcDbEntity
  8
0
100
AcDbLine
 10
18.44699999999999
 20
255.0159999999999
 30
0.0
 11
19.046
 21
255.469
 31
0.0
  0
LINE
  5
1D3
330
1E
100
AcDbEntity
  8
0
100
AcDbLine
 10
17.69299999999999
 20
255.12
 30
0.0
 11
18.44699999999999
 21
255.0159999999999
 31
0.0
  0
LINE
  5
1D4
330
1E
100
AcDbEntity
  8
0
100
AcDbLine
 10
19.0
 20
252.3249999999999
 30
0.0
 11
19.3
 21
252.999
 31
0.0
  0
LINE
  5
1D5
330
1E
100
AcDbEntity
  8
0
100
AcDbLine
 10
19.0
 20
252.3249999999999
 30
0.0
 11
19.3
 21
251.6509999999999
 31
0.0
  0
LINE
  5
1D6
330
1E
100
AcDbEntity
  8
0
100
AcDbLine
 10
17.658
 20
248.914
 30
0.0
 11
18.268
 21
248.475
 31
0.0
  0
LINE
  5
1D7
330
1E
100
AcDbEntity
  8
0
100
AcDbLine
 10
16.902
 20
248.8269999999999
 30
0.0
 11
17.658
 21
248.914
 31
0.0
  0
LINE
  5
1D8
330
1E
100
AcDbEntity
  8
0
100
AcDbLine
 10
16.53599999999999
 20
247.5119999999999
 30
0.0
 11
17.146
 21
247.0729999999999
 31
0.0
  0
LINE
  5
1D9
330
1E
100
AcDbEntity
  8
0
100
AcDbLine
 10
17.146
 20
247.0729999999999
 30
0.0
 11
17.902
 21
247.16
 31
0.0
  0
LINE
  5
1DA
330
1E
100
AcDbEntity
  8
0
100
AcDbLine
 10
22.854
 20
247.0729999999999
 30
0.0
 11
23.464
 21
247.5119999999999
 31
0.0
  0
LINE
  5
1DB
330
1E
100
AcDbEntity
  8
0
100
AcDbLine
 10
22.098
 20
247.16
 30
0.0
 11
22.854
 21
247.0729999999999
 31
0.0
  0
LINE
  5
1DC
330
1E
100
AcDbEntity
  8
0
100
AcDbLine
 10
25.904
 20
247.217
 30
0.0
 11
26.503
 21
246.764
 31
0.0
  0
LINE
  5
1DD
330
1E
100
AcDbEntity
  8
0
100
AcDbLine
 10
27.256
 20
246.8679999999999
 30
0.0
 11
27.72699999999999
 21
247.445
 31
0.0
  0
LINE
  5
1DE
330
1E
100
AcDbEntity
  8
0
100
AcDbLine
 10
26.503
 20
246.764
 30
0.0
 11
27.256
 21
246.8679999999999
 31
0.0
  0
LINE
  5
1DF
330
1E
100
AcDbEntity
  8
0
100
AcDbLine
 10
20.69999999999999
 20
247.224
 30
0.0
 11
21.0
 21
246.55
 31
0.0
  0
LINE
  5
1E0
330
1E
100
AcDbEntity
  8
0
100
AcDbLine
 10
19.3
 20
251.6509999999999
 30
0.0
 11
20.0
 21
251.3619999999999
 31
0.0
  0
LINE
  5
1E1
330
1E
100
AcDbEntity
  8
0
100
AcDbLine
 10
20.0
 20
251.3619999999999
 30
0.0
 11
20.69999999999999
 21
251.6509999999999
 31
0.0
  0
LINE
  5
1E2
330
1E
100
AcDbEntity
  8
0
100
AcDbLine
 10
19.3
 20
252.999
 30
0.0
 11
20.0
 21
253.2869999999999
 31
0.0
  0
LINE
  5
1E3
330
1E
100
AcDbEntity
  8
0
100
AcDbLine
 10
19.046
 20
255.469
 30
0.0
 11
19.15399999999999
 21
256.194
 31
0.0
  0
LINE
  5
1E4
330
1E
100
AcDbEntity
  8
0
100
AcDbLine
 10
20.0
 20
253.2869999999999
 30
0.0
 11
20.69999999999999
 21
252.999
 31
0.0
  0
LINE
  5
1E5
330
1E
100
AcDbEntity
  8
0
100
AcDbLine
 10
21.642
 20
247.981617011599
 30
0.0
 11
21.642
 21
247.747
 31
0.0
  0
LINE
  5
1E6
330
1E
100
AcDbEntity
  8
0
100
AcDbLine
 10
21.642
 20
247.747
 30
0.0
 11
21.732
 21
248.475
 31
0.0
  0
LINE
  5
1E7
330
1E
100
AcDbEntity
  8
0
100
AcDbLine
 10
21.642
 20
247.747
 30
0.0
 11
22.098
 21
247.16
 31
0.0
  0
LINE
  5
1E8
330
1E
100
AcDbEntity
  8
0
100
AcDbLine
 10
21.642
 20
247.747
 30
0.0
 11
21.642
 21
247.981617011599
 31
0.0
  0
LINE
  5
1E9
330
1E
100
AcDbEntity
  8
0
100
AcDbLine
 10
23.464
 20
247.5119999999999
 30
0.0
 11
23.554
 21
248.24
 31
0.0
  0
LINE
  5
1EA
330
1E
100
AcDbEntity
  8
0
100
AcDbLine
 10
25.796
 20
248.0650551470589
 30
0.0
 11
25.796
 21
247.9429999999999
 31
0.0
  0
LINE
  5
1EB
330
1E
100
AcDbEntity
  8
0
100
AcDbLine
 10
27.72699999999999
 20
247.445
 30
0.0
 11
27.72699999999999
 21
247.566331801471
 31
0.0
  0
LINE
  5
1EC
330
1E
100
AcDbEntity
  8
0
100
AcDbLine
 10
27.72699999999999
 20
247.566331801471
 30
0.0
 11
27.72699999999999
 21
247.445
 31
0.0
  0
LINE
  5
1ED
330
1E
100
AcDbEntity
  8
0
100
AcDbLine
 10
25.796
 20
247.9429999999999
 30
0.0
 11
26.267
 21
248.519
 31
0.0
  0
LINE
  5
1EE
330
1E
100
AcDbEntity
  8
0
100
AcDbLine
 10
25.796
 20
247.9429999999999
 30
0.0
 11
25.904
 21
247.217
 31
0.0
  0
LINE
  5
1EF
330
1E
100
AcDbEntity
  8
0
100
AcDbLine
 10
25.796
 20
247.9429999999999
 30
0.0
 11
25.796
 21
248.0650551470589
 31
0.0
  0
LINE
  5
1F0
330
1E
100
AcDbEntity
  8
0
100
AcDbLine
 10
21.732
 20
248.475
 30
0.0
 11
22.34199999999999
 21
248.914
 31
0.0
  0
LINE
  5
1F1
330
1E
100
AcDbEntity
  8
0
100
AcDbLine
 10
21.732
 20
248.475
 30
0.0
 11
21.732
 21
248.601049516009
 31
0.0
  0
LINE
  5
1F2
330
1E
100
AcDbEntity
  8
0
100
AcDbLine
 10
21.732
 20
248.601049516009
 30
0.0
 11
21.732
 21
248.475
 31
0.0
  0
LINE
  5
1F3
330
1E
100
AcDbEntity
  8
0
100
AcDbLine
 10
21.642
 20
251.1279999999999
 30
0.0
 11
21.732
 21
250.4
 31
0.0
  0
LINE
  5
1F4
330
1E
100
AcDbEntity
  8
0
100
AcDbLine
 10
21.642
 20
251.1279999999999
 30
0.0
 11
22.098
 21
251.7149999999999
 31
0.0
  0
LINE
  5
1F5
330
1E
100
AcDbEntity
  8
0
100
AcDbLine
 10
21.732
 20
250.4
 30
0.0
 11
22.34199999999999
 21
249.961
 31
0.0
  0
LINE
  5
1F6
330
1E
100
AcDbEntity
  8
0
100
AcDbLine
 10
22.34199999999999
 20
248.914
 30
0.0
 11
23.098
 21
248.8269999999999
 31
0.0
  0
LINE
  5
1F7
330
1E
100
AcDbEntity
  8
0
100
AcDbLine
 10
23.098
 20
248.8269999999999
 30
0.0
 11
23.554
 21
248.24
 31
0.0
  0
LINE
  5
1F8
330
1E
100
AcDbEntity
  8
0
100
AcDbLine
 10
22.34199999999999
 20
249.961
 30
0.0
 11
23.098
 21
250.048
 31
0.0
  0
LINE
  5
1F9
330
1E
100
AcDbEntity
  8
0
100
AcDbLine
 10
23.464
 20
251.4842233804909
 30
0.0
 11
23.464
 21
251.3619999999999
 31
0.0
  0
LINE
  5
1FA
330
1E
100
AcDbEntity
  8
0
100
AcDbLine
 10
23.098
 20
250.048
 30
0.0
 11
23.554
 21
250.6349999999999
 31
0.0
  0
LINE
  5
1FB
330
1E
100
AcDbEntity
  8
0
100
AcDbLine
 10
23.464
 20
251.3619999999999
 30
0.0
 11
23.554
 21
250.6349999999999
 31
0.0
  0
LINE
  5
1FC
330
1E
100
AcDbEntity
  8
0
100
AcDbLine
 10
23.464
 20
251.3619999999999
 30
0.0
 11
23.464
 21
251.4842233804909
 31
0.0
  0
LINE
  5
1FD
330
1E
100
AcDbEntity
  8
0
100
AcDbLine
 10
22.854
 20
251.802
 30
0.0
 11
23.464
 21
251.3619999999999
 31
0.0
  0
LINE
  5
1FE
330
1E
100
AcDbEntity
  8
0
100
AcDbLine
 10
22.098
 20
251.7149999999999
 30
0.0
 11
22.854
 21
251.802
 31
0.0
  0
LINE
  5
1FF
330
1E
100
AcDbEntity
  8
0
100
AcDbLine
 10
26.267
 20
248.519
 30
0.0
 11
27.01999999999999
 21
248.6229999999999
 31
0.0
  0
LINE
  5
200
330
1E
100
AcDbEntity
  8
0
100
AcDbLine
 10
30.3
 20
248.764
 30
0.0
 11
31.0
 21
248.475
 31
0.0
  0
LINE
  5
201
330
1E
100
AcDbEntity
  8
0
100
AcDbLine
 10
30.0
 20
249.562
 30
0.0
 11
30.0
 21
249.4369999999999
 31
0.0
  0
LINE
  5
202
330
1E
100
AcDbEntity
  8
0
100
AcDbLine
 10
30.0
 20
249.4369999999999
 30
0.0
 11
30.3
 21
250.111
 31
0.0
  0
LINE
  5
203
330
1E
100
AcDbEntity
  8
0
100
AcDbLine
 10
30.0
 20
249.4369999999999
 30
0.0
 11
30.3
 21
248.764
 31
0.0
  0
LINE
  5
204
330
1E
100
AcDbEntity
  8
0
100
AcDbLine
 10
30.0
 20
249.4369999999999
 30
0.0
 11
30.0
 21
249.562
 31
0.0
  0
LINE
  5
205
330
1E
100
AcDbEntity
  8
0
100
AcDbLine
 10
30.3
 20
250.111
 30
0.0
 11
31.0
 21
250.4
 31
0.0
  0
LINE
  5
206
330
1E
100
AcDbEntity
  8
0
100
AcDbLine
 10
31.0
 20
250.4
 30
0.0
 11
31.69999999999999
 21
250.111
 31
0.0
  0
LINE
  5
207
330
1E
100
AcDbEntity
  8
0
100
AcDbLine
 10
31.69999999999999
 20
250.111
 30
0.0
 11
32.0
 21
249.4369999999999
 31
0.0
  0
LINE
  5
208
330
1E
100
AcDbEntity
  8
0
100
AcDbLine
 10
32.0
 20
249.4369999999999
 30
0.0
 11
32.0
 21
249.562
 31
0.0
  0
LINE
  5
209
330
1E
100
AcDbEntity
  8
0
100
AcDbLine
 10
32.0
 20
249.562
 30
0.0
 11
32.0
 21
249.4369999999999
 31
0.0
  0
LINE
  5
20A
330
1E
100
AcDbEntity
  8
0
100
AcDbLine
 10
31.69999999999999
 20
248.764
 30
0.0
 11
32.0
 21
249.4369999999999
 31
0.0
  0
LINE
  5
20B
330
1E
100
AcDbEntity
  8
0
100
AcDbLine
 10
31.0
 20
248.475
 30
0.0
 11
31.69999999999999
 21
248.764
 31
0.0
  0
LINE
  5
20C
330
1E
100
AcDbEntity
  8
0
100
AcDbLine
 10
27.01999999999999
 20
248.6229999999999
 30
0.0
 11
27.619
 21
248.17
 31
0.0
  0
LINE
  5
20D
330
1E
100
AcDbEntity
  8
0
100
AcDbLine
 10
27.619
 20
248.17
 30
0.0
 11
27.72699999999999
 21
247.445
 31
0.0
  0
LINE
  5
20E
330
1E
100
AcDbEntity
  8
0
100
AcDbLine
 10
20.69999999999999
 20
251.6509999999999
 30
0.0
 11
21.0
 21
252.3249999999999
 31
0.0
  0
LINE
  5
20F
330
1E
100
AcDbEntity
  8
0
100
AcDbLine
 10
24.243
 20
253.5209999999999
 30
0.0
 11
24.95
 21
253.249
 31
0.0
  0
LINE
  5
210
330
1E
100
AcDbEntity
  8
0
100
AcDbLine
 10
24.95
 20
253.249
 30
0.0
 11
25.65699999999999
 21
253.5209999999999
 31
0.0
  0
LINE
  5
211
330
1E
100
AcDbEntity
  8
0
100
AcDbLine
 10
25.65699999999999
 20
253.5209999999999
 30
0.0
 11
25.94
 21
254.2019999999999
 31
0.0
  0
LINE
  5
212
330
1E
100
AcDbEntity
  8
0
100
AcDbLine
 10
23.96
 20
254.2019999999999
 30
0.0
 11
24.243
 21
253.5209999999999
 31
0.0
  0
LINE
  5
213
330
1E
100
AcDbEntity
  8
0
100
AcDbLine
 10
23.96
 20
254.2019999999999
 30
0.0
 11
24.243
 21
254.882
 31
0.0
  0
LINE
  5
214
330
1E
100
AcDbEntity
  8
0
100
AcDbLine
 10
25.65699999999999
 20
254.882
 30
0.0
 11
25.94
 21
254.2019999999999
 31
0.0
  0
LINE
  5
215
330
1E
100
AcDbEntity
  8
0
100
AcDbLine
 10
25.65699999999999
 20
254.882
 30
0.0
 11
25.65699999999999
 21
255.0073610416189
 31
0.0
  0
LINE
  5
216
330
1E
100
AcDbEntity
  8
0
100
AcDbLine
 10
24.243
 20
254.882
 30
0.0
 11
24.95
 21
255.154
 31
0.0
  0
LINE
  5
217
330
1E
100
AcDbEntity
  8
0
100
AcDbLine
 10
25.65699999999999
 20
255.0073610416189
 30
0.0
 11
25.65699999999999
 21
254.882
 31
0.0
  0
LINE
  5
218
330
1E
100
AcDbEntity
  8
0
100
AcDbLine
 10
28.57
 20
254.9779999999999
 30
0.0
 11
28.66
 21
254.2499999999999
 31
0.0
  0
LINE
  5
219
330
1E
100
AcDbEntity
  8
0
100
AcDbLine
 10
28.57
 20
254.9779999999999
 30
0.0
 11
29.02599999999999
 21
255.5649999999999
 31
0.0
  0
LINE
  5
21A
330
1E
100
AcDbEntity
  8
0
100
AcDbLine
 10
28.66
 20
254.2499999999999
 30
0.0
 11
29.26999999999999
 21
253.8109999999999
 31
0.0
  0
LINE
  5
21B
330
1E
100
AcDbEntity
  8
0
100
AcDbLine
 10
29.26999999999999
 20
253.8109999999999
 30
0.0
 11
30.026
 21
253.898
 31
0.0
  0
LINE
  5
21C
330
1E
100
AcDbEntity
  8
0
100
AcDbLine
 10
30.026
 20
253.898
 30
0.0
 11
30.482
 21
254.485
 31
0.0
  0
LINE
  5
21D
330
1E
100
AcDbEntity
  8
0
100
AcDbLine
 10
24.95
 20
255.154
 30
0.0
 11
25.65699999999999
 21
254.882
 31
0.0
  0
LINE
  5
21E
330
1E
100
AcDbEntity
  8
0
100
AcDbLine
 10
30.392
 20
255.328670141474
 30
0.0
 11
30.392
 21
255.212
 31
0.0
  0
LINE
  5
21F
330
1E
100
AcDbEntity
  8
0
100
AcDbLine
 10
30.392
 20
255.212
 30
0.0
 11
30.482
 21
254.485
 31
0.0
  0
LINE
  5
220
330
1E
100
AcDbEntity
  8
0
100
AcDbLine
 10
30.392
 20
255.212
 30
0.0
 11
30.392
 21
255.328670141474
 31
0.0
  0
LINE
  5
221
330
1E
100
AcDbEntity
  8
0
100
AcDbLine
 10
29.783
 20
255.652
 30
0.0
 11
30.392
 21
255.212
 31
0.0
  0
LINE
  5
222
330
1E
100
AcDbEntity
  8
0
100
AcDbLine
 10
29.02599999999999
 20
255.5649999999999
 30
0.0
 11
29.783
 21
255.652
 31
0.0
  0
LINE
  5
223
330
1E
100
AcDbEntity
  8
0
100
AcDbLine
 10
22.307
 20
255.12
 30
0.0
 11
22.778
 21
255.696
 31
0.0
  0
LINE
  5
224
330
1E
100
AcDbEntity
  8
0
100
AcDbLine
 10
21.55299999999999
 20
255.0159999999999
 30
0.0
 11
22.307
 21
255.12
 31
0.0
  0
LINE
  5
225
330
1E
100
AcDbEntity
  8
0
100
AcDbLine
 10
20.954
 20
255.469
 30
0.0
 11
21.55299999999999
 21
255.0159999999999
 31
0.0
  0
LINE
  5
226
330
1E
100
AcDbEntity
  8
0
100
AcDbLine
 10
20.69999999999999
 20
252.999
 30
0.0
 11
21.0
 21
252.3249999999999
 31
0.0
  0
LINE
  5
227
330
1E
100
AcDbEntity
  8
0
100
AcDbLine
 10
20.0
 20
247.5119999999999
 30
0.0
 11
20.69999999999999
 21
247.224
 31
0.0
  0
LINE
  5
228
330
1E
100
AcDbEntity
  8
0
100
AcDbLine
 10
19.3
 20
247.224
 30
0.0
 11
20.0
 21
247.5119999999999
 31
0.0
  0
LINE
  5
229
330
1E
100
AcDbEntity
  8
0
100
AcDbLine
 10
19.0
 20
246.55
 30
0.0
 11
19.3
 21
245.8759999999999
 31
0.0
  0
LINE
  5
22A
330
1E
100
AcDbEntity
  8
0
100
AcDbLine
 10
19.0
 20
246.55
 30
0.0
 11
19.3
 21
247.224
 31
0.0
  0
LINE
  5
22B
330
1E
100
AcDbEntity
  8
0
100
AcDbLine
 10
17.331
 20
256.422
 30
0.0
 11
17.929
 21
256.875
 31
0.0
  0
LINE
  5
22C
330
1E
100
AcDbEntity
  8
0
100
AcDbLine
 10
17.929
 20
256.989101183064
 30
0.0
 11
17.929
 21
256.875
 31
0.0
  0
LINE
  5
22D
330
1E
100
AcDbEntity
  8
0
100
AcDbLine
 10
17.929
 20
256.875
 30
0.0
 11
18.68299999999999
 21
256.7709999999999
 31
0.0
  0
LINE
  5
22E
330
1E
100
AcDbEntity
  8
0
100
AcDbLine
 10
17.929
 20
256.875
 30
0.0
 11
17.929
 21
256.989101183064
 31
0.0
  0
LINE
  5
22F
330
1E
100
AcDbEntity
  8
0
100
AcDbLine
 10
18.68299999999999
 20
256.7709999999999
 30
0.0
 11
19.15399999999999
 21
256.194
 31
0.0
  0
LINE
  5
231
330
1E
100
AcDbEntity
  8
0
100
AcDbLine
 10
19.3
 20
259.351
 30
0.0
 11
20.0
 21
259.062
 31
0.0
  0
LINE
  5
233
330
1E
100
AcDbEntity
  8
0
100
AcDbLine
 10
19.0
 20
260.0249999999999
 30
0.0
 11
19.3
 21
260.699
 31
0.0
  0
LINE
  5
234
330
1E
100
AcDbEntity
  8
0
100
AcDbLine
 10
19.0
 20
260.0249999999999
 30
0.0
 11
19.3
 21
259.351
 31
0.0
  0
LINE
  5
236
330
1E
100
AcDbEntity
  8
0
100
AcDbLine
 10
20.0
 20
259.062
 30
0.0
 11
20.69999999999999
 21
259.351
 31
0.0
  0
LINE
  5
237
330
1E
100
AcDbEntity
  8
0
100
AcDbLine
 10
19.3
 20
260.699
 30
0.0
 11
20.0
 21
260.987
 31
0.0
  0
LINE
  5
239
330
1E
100
AcDbEntity
  8
0
100
AcDbLine
 10
20.0
 20
260.987
 30
0.0
 11
20.69999999999999
 21
260.699
 31
0.0
  0
LINE
  5
23B
330
1E
100
AcDbEntity
  8
0
100
AcDbLine
 10
20.846
 20
256.194
 30
0.0
 11
21.31699999999999
 21
256.7709999999999
 31
0.0
  0
LINE
  5
23C
330
1E
100
AcDbEntity
  8
0
100
AcDbLine
 10
20.846
 20
256.194
 30
0.0
 11
20.954
 21
255.469
 31
0.0
  0
LINE
  5
23D
330
1E
100
AcDbEntity
  8
0
100
AcDbLine
 10
22.071
 20
256.989101183064
 30
0.0
 11
22.071
 21
256.875
 31
0.0
  0
LINE
  5
23E
330
1E
100
AcDbEntity
  8
0
100
AcDbLine
 10
21.31699999999999
 20
256.7709999999999
 30
0.0
 11
22.071
 21
256.875
 31
0.0
  0
LINE
  5
23F
330
1E
100
AcDbEntity
  8
0
100
AcDbLine
 10
24.544
 20
258.36
 30
0.0
 11
25.0
 21
257.7729999999999
 31
0.0
  0
LINE
  5
240
330
1E
100
AcDbEntity
  8
0
100
AcDbLine
 10
24.544
 20
258.36
 30
0.0
 11
24.634
 21
259.0879999999999
 31
0.0
  0
LINE
  5
241
330
1E
100
AcDbEntity
  8
0
100
AcDbLine
 10
25.0
 20
257.7729999999999
 30
0.0
 11
25.756
 21
257.6859999999999
 31
0.0
  0
LINE
  5
242
330
1E
100
AcDbEntity
  8
0
100
AcDbLine
 10
25.756
 20
257.6859999999999
 30
0.0
 11
26.366
 21
258.125
 31
0.0
  0
LINE
  5
243
330
1E
100
AcDbEntity
  8
0
100
AcDbLine
 10
26.366
 20
258.125
 30
0.0
 11
26.45599999999999
 21
258.8529999999999
 31
0.0
  0
LINE
  5
244
330
1E
100
AcDbEntity
  8
0
100
AcDbLine
 10
26.0
 20
259.579113335486
 30
0.0
 11
26.0
 21
259.4399999999999
 31
0.0
  0
LINE
  5
245
330
1E
100
AcDbEntity
  8
0
100
AcDbLine
 10
26.0
 20
259.4399999999999
 30
0.0
 11
26.45599999999999
 21
258.8529999999999
 31
0.0
  0
LINE
  5
246
330
1E
100
AcDbEntity
  8
0
100
AcDbLine
 10
26.0
 20
259.4399999999999
 30
0.0
 11
26.0
 21
259.579113335486
 31
0.0
  0
LINE
  5
247
330
1E
100
AcDbEntity
  8
0
100
AcDbLine
 10
25.24399999999999
 20
259.5269999999999
 30
0.0
 11
26.0
 21
259.4399999999999
 31
0.0
  0
LINE
  5
248
330
1E
100
AcDbEntity
  8
0
100
AcDbLine
 10
24.634
 20
259.0879999999999
 30
0.0
 11
25.24399999999999
 21
259.5269999999999
 31
0.0
  0
LINE
  5
249
330
1E
100
AcDbEntity
  8
0
100
AcDbLine
 10
22.071
 20
256.875
 30
0.0
 11
22.669
 21
256.422
 31
0.0
  0
LINE
  5
24A
330
1E
100
AcDbEntity
  8
0
100
AcDbLine
 10
22.071
 20
256.875
 30
0.0
 11
22.071
 21
256.989101183064
 31
0.0
  0
LINE
  5
24B
330
1E
100
AcDbEntity
  8
0
100
AcDbLine
 10
22.669
 20
256.422
 30
0.0
 11
22.778
 21
255.696
 31
0.0
  0
LINE
  5
24C
330
1E
100
AcDbEntity
  8
0
100
AcDbLine
 10
20.69999999999999
 20
259.351
 30
0.0
 11
21.0
 21
260.0249999999999
 31
0.0
  0
LINE
  5
24D
330
1E
100
AcDbEntity
  8
0
100
AcDbLine
 10
20.69999999999999
 20
260.699
 30
0.0
 11
21.0
 21
260.0249999999999
 31
0.0
  0
LINE
  5
253
330
1E
100
AcDbEntity
  8
0
100
AcDbLine
 10
16.71199999999999
 20
261.4959999999999
 30
0.0
 11
20.0
 21
261.938
 31
0.0
  0
LINE
  5
254
330
1E
100
AcDbEntity
  8
0
100
AcDbLine
 10
26.385
 20
260.281
 30
0.0
 11
29.062
 21
258.3309999999999
 31
0.0
  0
LINE
  5
255
330
1E
100
AcDbEntity
  8
0
100
AcDbLine
 10
23.288
 20
261.4959999999999
 30
0.0
 11
26.385
 21
260.281
 31
0.0
  0
LINE
  5
256
330
1E
100
AcDbEntity
  8
0
100
AcDbLine
 10
29.062
 20
258.3309999999999
 30
0.0
 11
31.088
 21
255.7549999999999
 31
0.0
  0
LINE
  5
257
330
1E
100
AcDbEntity
  8
0
100
AcDbLine
 10
31.088
 20
255.7549999999999
 30
0.0
 11
32.35
 21
252.774
 31
0.0
  0
LINE
  5
258
330
1E
100
AcDbEntity
  8
0
100
AcDbLine
 10
32.35
 20
252.774
 30
0.0
 11
32.80899999999999
 21
249.609
 31
0.0
  0
LINE
  5
259
330
1E
100
AcDbEntity
  8
0
100
AcDbLine
 10
32.35
 20
246.444
 30
0.0
 11
32.80899999999999
 21
249.609
 31
0.0
  0
LINE
  5
25A
330
1E
100
AcDbEntity
  8
0
100
AcDbLine
 10
33.0
 20
249.703
 30
0.0
 11
33.0
 21
249.7957247153379
 31
0.0
  0
LINE
  5
25B
330
1E
100
AcDbEntity
  8
0
100
AcDbLine
 10
33.0
 20
249.7957247153379
 30
0.0
 11
33.0
 21
249.703
 31
0.0
  0
LINE
  5
25C
330
1E
100
AcDbEntity
  8
0
100
AcDbLine
 10
32.54099999999999
 20
246.5009999999999
 30
0.0
 11
33.0
 21
249.703
 31
0.0
  0
LINE
  5
25D
330
1E
100
AcDbEntity
  8
0
100
AcDbLine
 10
20.0
 20
261.938
 30
0.0
 11
23.288
 21
261.4959999999999
 31
0.0
  0
LINE
  5
25E
330
1E
100
AcDbEntity
  8
0
100
AcDbLine
 10
32.728
 20
262.562
 30
0.0
 11
35.58899999999999
 21
258.9739999999999
 31
0.0
  0
LINE
  5
25F
330
1E
100
AcDbEntity
  8
0
100
AcDbLine
 10
32.021
 20
261.6319999999999
 30
0.0
 11
34.722
 21
258.243
 31
0.0
  0
LINE
  5
260
330
1E
100
AcDbEntity
  8
0
100
AcDbLine
 10
35.58899999999999
 20
258.9739999999999
 30
0.0
 11
37.387
 21
254.7959999999999
 31
0.0
  0
LINE
  5
261
330
1E
100
AcDbEntity
  8
0
100
AcDbLine
 10
34.722
 20
258.243
 30
0.0
 11
36.421
 21
254.2969999999999
 31
0.0
  0
LINE
  5
262
330
1E
100
AcDbEntity
  8
0
100
AcDbLine
 10
36.421
 20
245.827
 30
0.0
 11
37.0
 21
250.062
 31
0.0
  0
LINE
  5
263
330
1E
100
AcDbEntity
  8
0
100
AcDbLine
 10
39.318
 20
251.574
 30
0.0
 11
40.0
 21
256.556
 31
0.0
  0
LINE
  5
264
330
1E
100
AcDbEntity
  8
0
100
AcDbLine
 10
38.353
 20
248.8249999999999
 30
0.0
 11
39.318
 21
251.574
 31
0.0
  0
LINE
  5
265
330
1E
100
AcDbEntity
  8
0
100
AcDbLine
 10
39.318
 20
261.538
 30
0.0
 11
40.0
 21
256.556
 31
0.0
  0
LINE
  5
266
330
1E
100
AcDbEntity
  8
0
100
AcDbLine
 10
37.387
 20
254.7959999999999
 30
0.0
 11
38.0
 21
250.312
 31
0.0
  0
LINE
  5
267
330
1E
100
AcDbEntity
  8
0
100
AcDbLine
 10
37.387
 20
245.827
 30
0.0
 11
38.353
 21
248.8249999999999
 31
0.0
  0
LINE
  5
268
330
1E
100
AcDbEntity
  8
0
100
AcDbLine
 10
37.387
 20
245.827
 30
0.0
 11
38.0
 21
250.312
 31
0.0
  0
LINE
  5
269
330
1E
100
AcDbEntity
  8
0
100
AcDbLine
 10
36.421
 20
254.2969999999999
 30
0.0
 11
37.0
 21
250.062
 31
0.0
  0
LINE
  5
26A
330
1E
100
AcDbEntity
  8
0
100
AcDbLine
 10
24.39999999999999
 20
265.867
 30
0.0
 11
28.5
 21
264.232
 31
0.0
  0
LINE
  5
26B
330
1E
100
AcDbEntity
  8
0
100
AcDbLine
 10
20.0
 20
266.424
 30
0.0
 11
24.39999999999999
 21
265.867
 31
0.0
  0
LINE
  5
26C
330
1E
100
AcDbEntity
  8
0
100
AcDbLine
 10
24.659
 20
267.047
 30
0.0
 11
29.0
 21
265.315
 31
0.0
  0
LINE
  5
26D
330
1E
100
AcDbEntity
  8
0
100
AcDbLine
 10
37.32099999999999
 20
266.181
 30
0.0
 11
39.318
 21
261.538
 31
0.0
  0
LINE
  5
26E
330
1E
100
AcDbEntity
  8
0
100
AcDbLine
 10
29.0
 20
265.315
 30
0.0
 11
32.728
 21
262.562
 31
0.0
  0
LINE
  5
26F
330
1E
100
AcDbEntity
  8
0
100
AcDbLine
 10
28.5
 20
264.232
 30
0.0
 11
32.021
 21
261.6319999999999
 31
0.0
  0
LINE
  5
270
330
1E
100
AcDbEntity
  8
0
100
AcDbLine
 10
15.6
 20
265.867
 30
0.0
 11
20.0
 21
266.424
 31
0.0
  0
LINE
  5
271
330
1E
100
AcDbEntity
  8
0
100
AcDbLine
 10
20.0
 20
275.8059999999999
 30
0.0
 11
25.17599999999999
 21
275.151
 31
0.0
  0
LINE
  5
272
330
1E
100
AcDbEntity
  8
0
100
AcDbLine
 10
20.0
 20
267.6369999999999
 30
0.0
 11
24.659
 21
267.047
 31
0.0
  0
LINE
  5
273
330
1E
100
AcDbEntity
  8
0
100
AcDbLine
 10
34.14199999999999
 20
270.168
 30
0.0
 11
37.32099999999999
 21
266.181
 31
0.0
  0
LINE
  5
274
330
1E
100
AcDbEntity
  8
0
100
AcDbLine
 10
30.0
 20
273.227
 30
0.0
 11
34.14199999999999
 21
270.168
 31
0.0
  0
LINE
  5
275
330
1E
100
AcDbEntity
  8
0
100
AcDbLine
 10
25.17599999999999
 20
275.151
 30
0.0
 11
30.0
 21
273.227
 31
0.0
  0
LINE
  5
276
330
1E
100
AcDbEntity
  8
0
100
AcDbLine
 10
15.341
 20
267.047
 30
0.0
 11
20.0
 21
267.6369999999999
 31
0.0
  0
LINE
  5
277
330
1E
100
AcDbEntity
  8
0
100
AcDbLine
 10
14.824
 20
275.151
 30
0.0
 11
20.0
 21
275.8059999999999
 31
0.0
  0
LINE
  5
278
330
1E
100
AcDbEntity
  8
0
100
AcDbLine
 10
7.978999999999969
 20
238.492
 30
0.0
 11
11.5
 21
235.8919999999999
 31
0.0
  0
LINE
  5
279
330
1E
100
AcDbEntity
  8
0
100
AcDbLine
 10
7.27199999999997
 20
238.0609999999999
 30
0.0
 11
11.0
 21
235.3079999999999
 31
0.0
  0
LINE
  5
27A
330
1E
100
AcDbEntity
  8
0
100
AcDbLine
 10
156.0
 20
160.076
 30
0.0
 11
156.0
 21
129.59
 31
0.0
  0
LINE
  5
27B
330
1E
100
AcDbEntity
  8
0
100
AcDbLine
 10
156.0
 20
160.076
 30
0.0
 11
156.4499999999999
 21
161.064
 31
0.0
  0
LINE
  5
27C
330
1E
100
AcDbEntity
  8
0
100
AcDbLine
 10
156.8
 20
125.194
 30
0.0
 11
158.8
 21
125.194
 31
0.0
  0
LINE
  5
27E
330
1E
100
AcDbEntity
  8
0
100
AcDbLine
 10
158.0
 20
0.193999999999977
 30
0.0
 11
163.5999999999999
 21
0.193999999999977
 31
0.0
  0
LINE
  5
27F
330
1E
100
AcDbEntity
  8
0
100
AcDbLine
 10
158.0
 20
2.693999999999979
 30
0.0
 11
163.5999999999999
 21
2.693999999999979
 31
0.0
  0
LINE
  5
280
330
1E
100
AcDbEntity
  8
0
100
AcDbLine
 10
158.8
 20
125.194
 30
0.0
 11
162.1999999999999
 21
125.194
 31
0.0
  0
LINE
  5
282
330
1E
100
AcDbEntity
  8
0
100
AcDbLine
 10
158.3
 20
3.193999999999979
 30
0.0
 11
163.8
 21
3.193999999999979
 31
0.0
  0
LINE
  5
283
330
1E
100
AcDbEntity
  8
0
100
AcDbLine
 10
158.0
 20
0.193999999999979
 30
0.0
 11
163.5999999999999
 21
0.19399999999998
 31
0.0
  0
LINE
  5
284
330
1E
100
AcDbEntity
  8
0
100
AcDbLine
 10
157.7407
 20
126.194
 30
0.0
 11
159.6667
 21
126.194
 31
0.0
  0
LINE
  5
285
330
1E
100
AcDbEntity
  8
0
100
AcDbLine
 10
157.6999999999999
 20
126.194
 30
0.0
 11
159.6999999999999
 21
126.194
 31
0.0
  0
LINE
  5
286
330
1E
100
AcDbEntity
  8
0
100
AcDbLine
 10
157.0
 20
126.787
 30
0.0
 11
157.2402116198919
 21
129.188467679429
 31
0.0
  0
LINE
  5
287
330
1E
100
AcDbEntity
  8
0
100
AcDbLine
 10
157.0
 20
126.787
 30
0.0
 11
157.0
 21
126.194
 31
0.0
  0
LINE
  5
288
330
1E
100
AcDbEntity
  8
0
100
AcDbLine
 10
157.0
 20
126.194
 30
0.0
 11
157.0
 21
126.787
 31
0.0
  0
LINE
  5
289
330
1E
100
AcDbEntity
  8
0
100
AcDbLine
 10
157.0
 20
126.194
 30
0.0
 11
157.6999999999999
 21
126.194
 31
0.0
  0
LINE
  5
28A
330
1E
100
AcDbEntity
  8
0
100
AcDbLine
 10
159.6999999999999
 20
126.194
 30
0.0
 11
162.9
 21
126.194
 31
0.0
  0
LINE
  5
28B
330
1E
100
AcDbEntity
  8
0
100
AcDbLine
 10
162.1999999999999
 20
125.194
 30
0.0
 11
166.5999999999999
 21
125.194
 31
0.0
  0
LINE
  5
28D
330
1E
100
AcDbEntity
  8
0
100
AcDbLine
 10
163.5999999999999
 20
0.193999999999977
 30
0.0
 11
170.1
 21
0.193999999999977
 31
0.0
  0
LINE
  5
28E
330
1E
100
AcDbEntity
  8
0
100
AcDbLine
 10
163.0
 20
93.02939999999999
 30
0.0
 11
163.0
 21
85.9063
 31
0.0
  0
LINE
  5
28F
330
1E
100
AcDbEntity
  8
0
100
AcDbLine
 10
163.0
 20
93.02939999999999
 30
0.0
 11
163.4999999999999
 21
95.0942
 31
0.0
  0
LINE
  5
290
330
1E
100
AcDbEntity
  8
0
100
AcDbLine
 10
163.0
 20
85.9063
 30
0.0
 11
163.4999999999999
 21
87.97119999999999
 31
0.0
  0
LINE
  5
291
330
1E
100
AcDbEntity
  8
0
100
AcDbLine
 10
163.0
 20
85.9063
 30
0.0
 11
163.4999999999999
 21
83.8414
 31
0.0
  0
LINE
  5
292
330
1E
100
AcDbEntity
  8
0
100
AcDbLine
 10
163.0
 20
85.9063
 30
0.0
 11
163.0
 21
93.02939999999999
 31
0.0
  0
LINE
  5
293
330
1E
100
AcDbEntity
  8
0
100
AcDbLine
 10
163.0
 20
93.63879999999999
 30
0.0
 11
163.504
 21
95.69450000000001
 31
0.0
  0
LINE
  5
294
330
1E
100
AcDbEntity
  8
0
100
AcDbLine
 10
163.0
 20
93.63879999999999
 30
0.0
 11
163.074241294165
 21
93.3359868483834
 31
0.0
  0
LINE
  5
295
330
1E
100
AcDbEntity
  8
0
100
AcDbLine
 10
163.0
 20
93.63879999999999
 30
0.0
 11
163.0
 21
95.58899999999999
 31
0.0
  0
LINE
  5
296
330
1E
100
AcDbEntity
  8
0
100
AcDbLine
 10
163.0
 20
99.7417
 30
0.0
 11
163.0
 21
97.7594
 31
0.0
  0
LINE
  5
297
330
1E
100
AcDbEntity
  8
0
100
AcDbLine
 10
163.0
 20
99.7417
 30
0.0
 11
163.0
 21
101.1589999999999
 31
0.0
  0
LINE
  5
298
330
1E
100
AcDbEntity
  8
0
100
AcDbLine
 10
163.0
 20
95.58899999999999
 30
0.0
 11
163.0
 21
97.7594
 31
0.0
  0
LINE
  5
299
330
1E
100
AcDbEntity
  8
0
100
AcDbLine
 10
163.0
 20
95.58899999999999
 30
0.0
 11
163.0
 21
93.63879999999999
 31
0.0
  0
LINE
  5
29A
330
1E
100
AcDbEntity
  8
0
100
AcDbLine
 10
163.0
 20
97.7594
 30
0.0
 11
163.0
 21
95.58899999999999
 31
0.0
  0
LINE
  5
29B
330
1E
100
AcDbEntity
  8
0
100
AcDbLine
 10
163.0
 20
97.7594
 30
0.0
 11
163.0
 21
99.7417
 31
0.0
  0
LINE
  5
29C
330
1E
100
AcDbEntity
  8
0
100
AcDbLine
 10
163.0
 20
101.1589999999999
 30
0.0
 11
163.0
 21
102.3939999999999
 31
0.0
  0
LINE
  5
29D
330
1E
100
AcDbEntity
  8
0
100
AcDbLine
 10
163.0
 20
101.1589999999999
 30
0.0
 11
163.0
 21
99.7417
 31
0.0
  0
LINE
  5
29E
330
1E
100
AcDbEntity
  8
0
100
AcDbLine
 10
163.0
 20
102.3939999999999
 30
0.0
 11
163.0
 21
102.8939999999999
 31
0.0
  0
LINE
  5
29F
330
1E
100
AcDbEntity
  8
0
100
AcDbLine
 10
163.0
 20
102.3939999999999
 30
0.0
 11
163.0
 21
101.1589999999999
 31
0.0
  0
LINE
  5
2A0
330
1E
100
AcDbEntity
  8
0
100
AcDbLine
 10
163.0
 20
102.8939999999999
 30
0.0
 11
163.0
 21
103.194
 31
0.0
  0
LINE
  5
2A1
330
1E
100
AcDbEntity
  8
0
100
AcDbLine
 10
163.0
 20
102.8939999999999
 30
0.0
 11
163.0
 21
102.3939999999999
 31
0.0
  0
LINE
  5
2A2
330
1E
100
AcDbEntity
  8
0
100
AcDbLine
 10
163.4999999999999
 20
83.8414
 30
0.0
 11
164.9
 21
81.8913
 31
0.0
  0
LINE
  5
2A3
330
1E
100
AcDbEntity
  8
0
100
AcDbLine
 10
163.4999999999999
 20
95.0942
 30
0.0
 11
164.9
 21
97.04439999999999
 31
0.0
  0
LINE
  5
2A4
330
1E
100
AcDbEntity
  8
0
100
AcDbLine
 10
163.4999999999999
 20
87.97119999999999
 30
0.0
 11
164.9
 21
89.92130000000001
 31
0.0
  0
LINE
  5
2A5
330
1E
100
AcDbEntity
  8
0
100
AcDbLine
 10
163.504
 20
95.69450000000001
 30
0.0
 11
164.8479999999999
 21
97.62170000000001
 31
0.0
  0
LINE
  5
2A6
330
1E
100
AcDbEntity
  8
0
100
AcDbLine
 10
163.0
 20
103.194
 30
0.0
 11
163.0
 21
102.8939999999999
 31
0.0
  0
LINE
  5
2A7
330
1E
100
AcDbEntity
  8
0
100
AcDbLine
 10
163.0
 20
103.194
 30
0.0
 11
163.4999999999999
 21
106.7939999999999
 31
0.0
  0
LINE
  5
2A8
330
1E
100
AcDbEntity
  8
0
100
AcDbLine
 10
163.4999999999999
 20
106.7939999999999
 30
0.0
 11
164.9
 21
110.194
 31
0.0
  0
LINE
  5
2A9
330
1E
100
AcDbEntity
  8
0
100
AcDbLine
 10
162.9
 20
126.194
 30
0.0
 11
167.1
 21
126.194
 31
0.0
  0
LINE
  5
2AA
330
1E
100
AcDbEntity
  8
0
100
AcDbLine
 10
164.9
 20
81.8913
 30
0.0
 11
167.1
 21
80.2279
 31
0.0
  0
LINE
  5
2AB
330
1E
100
AcDbEntity
  8
0
100
AcDbLine
 10
164.5
 20
83.30119999999999
 30
0.0
 11
165.7
 21
81.4658
 31
0.0
  0
LINE
  5
2AC
330
1E
100
AcDbEntity
  8
0
100
AcDbLine
 10
164.9
 20
97.04439999999999
 30
0.0
 11
167.1
 21
98.70780000000001
 31
0.0
  0
LINE
  5
2AD
330
1E
100
AcDbEntity
  8
0
100
AcDbLine
 10
164.9
 20
89.92130000000001
 30
0.0
 11
167.1
 21
91.58469999999999
 31
0.0
  0
LINE
  5
2AE
330
1E
100
AcDbEntity
  8
0
100
AcDbLine
 10
164.5
 20
87.08679999999999
 30
0.0
 11
165.7
 21
88.9222
 31
0.0
  0
LINE
  5
2AF
330
1E
100
AcDbEntity
  8
0
100
AcDbLine
 10
164.0
 20
85.194
 30
0.0
 11
164.5
 21
87.08679999999999
 31
0.0
  0
LINE
  5
2B0
330
1E
100
AcDbEntity
  8
0
100
AcDbLine
 10
164.0
 20
85.194
 30
0.0
 11
164.5
 21
83.30119999999999
 31
0.0
  0
LINE
  5
2B1
330
1E
100
AcDbEntity
  8
0
100
AcDbLine
 10
164.8479999999999
 20
97.62170000000001
 30
0.0
 11
167.0879999999999
 21
99.3241
 31
0.0
  0
LINE
  5
2B2
330
1E
100
AcDbEntity
  8
0
100
AcDbLine
 10
165.7
 20
81.4658
 30
0.0
 11
167.8
 21
79.91710000000001
 31
0.0
  0
LINE
  5
2B3
330
1E
100
AcDbEntity
  8
0
100
AcDbLine
 10
165.7
 20
88.9222
 30
0.0
 11
167.8
 21
90.4709
 31
0.0
  0
LINE
  5
2B4
330
1E
100
AcDbEntity
  8
0
100
AcDbLine
 10
164.9
 20
110.194
 30
0.0
 11
167.1
 21
113.094
 31
0.0
  0
LINE
  5
2B5
330
1E
100
AcDbEntity
  8
0
100
AcDbLine
 10
166.601321190785
 20
89.58690291817552
 30
0.0
 11
168.5
 21
88.154
 31
0.0
  0
LINE
  5
2B6
330
1E
100
AcDbEntity
  8
0
100
AcDbLine
 10
166.5999999999999
 20
125.194
 30
0.0
 11
171.6
 21
125.194
 31
0.0
  0
LINE
  5
2B8
330
1E
100
AcDbEntity
  8
0
100
AcDbLine
 10
163.8
 20
3.193999999999979
 30
0.0
 11
170.1999999999999
 21
3.193999999999979
 31
0.0
  0
LINE
  5
2B9
330
1E
100
AcDbEntity
  8
0
100
AcDbLine
 10
163.5999999999999
 20
2.693999999999979
 30
0.0
 11
170.1
 21
2.693999999999979
 31
0.0
  0
LINE
  5
2BA
330
1E
100
AcDbEntity
  8
0
100
AcDbLine
 10
163.5999999999999
 20
0.19399999999998
 30
0.0
 11
170.1
 21
0.19399999999998
 31
0.0
  0
LINE
  5
2BB
330
1E
100
AcDbEntity
  8
0
100
AcDbLine
 10
162.8519
 20
126.194
 30
0.0
 11
167.0740999999999
 21
126.194
 31
0.0
  0
LINE
  5
2BC
330
1E
100
AcDbEntity
  8
0
100
AcDbLine
 10
159.6667
 20
126.194
 30
0.0
 11
162.8519
 21
126.194
 31
0.0
  0
LINE
  5
2BD
330
1E
100
AcDbEntity
  8
0
100
AcDbLine
 10
177.0
 20
0.193999999999976
 30
0.0
 11
183.9
 21
0.193999999999977
 31
0.0
  0
LINE
  5
2BE
330
1E
100
AcDbEntity
  8
0
100
AcDbLine
 10
170.1
 20
0.193999999999977
 30
0.0
 11
177.0
 21
0.193999999999976
 31
0.0
  0
LINE
  5
2BF
330
1E
100
AcDbEntity
  8
0
100
AcDbLine
 10
167.1
 20
80.2279
 30
0.0
 11
167.8
 21
79.91710000000001
 31
0.0
  0
LINE
  5
2C0
330
1E
100
AcDbEntity
  8
0
100
AcDbLine
 10
167.8
 20
79.91710000000001
 30
0.0
 11
170.5
 21
78.71259999999999
 31
0.0
  0
LINE
  5
2C1
330
1E
100
AcDbEntity
  8
0
100
AcDbLine
 10
168.5
 20
88.154
 30
0.0
 11
171.0
 21
87.06419999999999
 31
0.0
  0
LINE
  5
2C2
330
1E
100
AcDbEntity
  8
0
100
AcDbLine
 10
167.1
 20
98.70780000000001
 30
0.0
 11
170.0
 21
99.96960000000001
 31
0.0
  0
LINE
  5
2C4
330
1E
100
AcDbEntity
  8
0
100
AcDbLine
 10
170.0
 20
99.96960000000001
 30
0.0
 11
170.3
 21
100.0963999999999
 31
0.0
  0
LINE
  5
2C5
330
1E
100
AcDbEntity
  8
0
100
AcDbLine
 10
170.0
 20
92.8466
 30
0.0
 11
173.3999999999999
 21
93.64960000000001
 31
0.0
  0
LINE
  5
2C6
330
1E
100
AcDbEntity
  8
0
100
AcDbLine
 10
167.1
 20
91.58469999999999
 30
0.0
 11
170.0
 21
92.8466
 31
0.0
  0
LINE
  5
2C7
330
1E
100
AcDbEntity
  8
0
100
AcDbLine
 10
167.8
 20
90.4709
 30
0.0
 11
170.5
 21
91.6754
 31
0.0
  0
LINE
  5
2C8
330
1E
100
AcDbEntity
  8
0
100
AcDbLine
 10
167.0879999999999
 20
99.3241
 30
0.0
 11
170.0559999999999
 21
100.583
 31
0.0
  0
LINE
  5
2C9
330
1E
100
AcDbEntity
  8
0
100
AcDbLine
 10
170.0559999999999
 20
100.583
 30
0.0
 11
173.4159999999999
 21
101.38
 31
0.0
  0
LINE
  5
2CA
330
1E
100
AcDbEntity
  8
0
100
AcDbLine
 10
167.1
 20
126.194
 30
0.0
 11
171.9
 21
126.194
 31
0.0
  0
LINE
  5
2CB
330
1E
100
AcDbEntity
  8
0
100
AcDbLine
 10
177.0
 20
3.193999999999979
 30
0.0
 11
183.8
 21
3.193999999999979
 31
0.0
  0
LINE
  5
2CC
330
1E
100
AcDbEntity
  8
0
100
AcDbLine
 10
177.0
 20
2.693999999999979
 30
0.0
 11
183.9
 21
2.693999999999979
 31
0.0
  0
LINE
  5
2CD
330
1E
100
AcDbEntity
  8
0
100
AcDbLine
 10
177.0
 20
0.19399999999998
 30
0.0
 11
183.9
 21
0.19399999999998
 31
0.0
  0
LINE
  5
2CE
330
1E
100
AcDbEntity
  8
0
100
AcDbLine
 10
170.5
 20
78.71259999999999
 30
0.0
 11
173.6999999999999
 21
78.0243
 31
0.0
  0
LINE
  5
2CF
330
1E
100
AcDbEntity
  8
0
100
AcDbLine
 10
171.0
 20
87.06419999999999
 30
0.0
 11
173.9
 21
86.37590000000001
 31
0.0
  0
LINE
  5
2D0
330
1E
100
AcDbEntity
  8
0
100
AcDbLine
 10
170.3
 20
100.0963999999999
 30
0.0
 11
173.5
 21
100.842
 31
0.0
  0
LINE
  5
2D1
330
1E
100
AcDbEntity
  8
0
100
AcDbLine
 10
170.5
 20
91.6754
 30
0.0
 11
173.6999999999999
 21
92.36369999999999
 31
0.0
  0
LINE
  5
2D3
330
1E
100
AcDbEntity
  8
0
100
AcDbLine
 10
173.3999999999999
 20
93.64960000000001
 30
0.0
 11
177.0
 21
93.93640000000001
 31
0.0
  0
LINE
  5
2D4
330
1E
100
AcDbEntity
  8
0
100
AcDbLine
 10
173.6999999999999
 20
78.0243
 30
0.0
 11
177.0
 21
77.73749999999999
 31
0.0
  0
LINE
  5
2D5
330
1E
100
AcDbEntity
  8
0
100
AcDbLine
 10
177.0
 20
77.73749999999999
 30
0.0
 11
180.3
 21
78.0243
 31
0.0
  0
LINE
  5
2D6
330
1E
100
AcDbEntity
  8
0
100
AcDbLine
 10
177.0
 20
86.14650000000001
 30
0.0
 11
180.0999999999999
 21
86.37590000000001
 31
0.0
  0
LINE
  5
2D7
330
1E
100
AcDbEntity
  8
0
100
AcDbLine
 10
173.9
 20
86.37590000000001
 30
0.0
 11
177.0
 21
86.14650000000001
 31
0.0
  0
LINE
  5
2D8
330
1E
100
AcDbEntity
  8
0
100
AcDbLine
 10
177.0
 20
101.669
 30
0.0
 11
180.584
 21
101.38
 31
0.0
  0
LINE
  5
2D9
330
1E
100
AcDbEntity
  8
0
100
AcDbLine
 10
177.0
 20
101.129
 30
0.0
 11
180.4999999999999
 21
100.842
 31
0.0
  0
LINE
  5
2DB
330
1E
100
AcDbEntity
  8
0
100
AcDbLine
 10
177.0
 20
93.93640000000001
 30
0.0
 11
180.6
 21
93.64960000000001
 31
0.0
  0
LINE
  5
2DC
330
1E
100
AcDbEntity
  8
0
100
AcDbLine
 10
177.0
 20
92.6505
 30
0.0
 11
180.3
 21
92.36369999999999
 31
0.0
  0
LINE
  5
2DD
330
1E
100
AcDbEntity
  8
0
100
AcDbLine
 10
173.5
 20
100.842
 30
0.0
 11
177.0
 21
101.129
 31
0.0
  0
LINE
  5
2DE
330
1E
100
AcDbEntity
  8
0
100
AcDbLine
 10
173.6999999999999
 20
92.36369999999999
 30
0.0
 11
177.0
 21
92.6505
 31
0.0
  0
LINE
  5
2DF
330
1E
100
AcDbEntity
  8
0
100
AcDbLine
 10
173.4159999999999
 20
101.38
 30
0.0
 11
177.0
 21
101.669
 31
0.0
  0
LINE
  5
2E0
330
1E
100
AcDbEntity
  8
0
100
AcDbLine
 10
177.0
 20
125.194
 30
0.0
 11
182.4
 21
125.194
 31
0.0
  0
LINE
  5
2E2
330
1E
100
AcDbEntity
  8
0
100
AcDbLine
 10
171.9
 20
126.194
 30
0.0
 11
177.0
 21
126.194
 31
0.0
  0
LINE
  5
2E3
330
1E
100
AcDbEntity
  8
0
100
AcDbLine
 10
171.6
 20
125.194
 30
0.0
 11
177.0
 21
125.194
 31
0.0
  0
LINE
  5
2E5
330
1E
100
AcDbEntity
  8
0
100
AcDbLine
 10
170.1999999999999
 20
3.193999999999979
 30
0.0
 11
177.0
 21
3.193999999999979
 31
0.0
  0
LINE
  5
2E6
330
1E
100
AcDbEntity
  8
0
100
AcDbLine
 10
170.1
 20
2.693999999999979
 30
0.0
 11
177.0
 21
2.693999999999979
 31
0.0
  0
LINE
  5
2E7
330
1E
100
AcDbEntity
  8
0
100
AcDbLine
 10
170.1
 20
0.19399999999998
 30
0.0
 11
177.0
 21
0.19399999999998
 31
0.0
  0
LINE
  5
2E8
330
1E
100
AcDbEntity
  8
0
100
AcDbLine
 10
180.3
 20
78.0243
 30
0.0
 11
183.4999999999999
 21
78.71259999999999
 31
0.0
  0
LINE
  5
2E9
330
1E
100
AcDbEntity
  8
0
100
AcDbLine
 10
180.0999999999999
 20
86.37590000000001
 30
0.0
 11
183.0
 21
87.06419999999999
 31
0.0
  0
LINE
  5
2EA
330
1E
100
AcDbEntity
  8
0
100
AcDbLine
 10
180.584
 20
101.38
 30
0.0
 11
183.944
 21
100.583
 31
0.0
  0
LINE
  5
2EB
330
1E
100
AcDbEntity
  8
0
100
AcDbLine
 10
180.4999999999999
 20
100.842
 30
0.0
 11
183.6999999999999
 21
100.0963999999999
 31
0.0
  0
LINE
  5
2ED
330
1E
100
AcDbEntity
  8
0
100
AcDbLine
 10
180.6
 20
93.64960000000001
 30
0.0
 11
184.0
 21
92.8466
 31
0.0
  0
LINE
  5
2EE
330
1E
100
AcDbEntity
  8
0
100
AcDbLine
 10
180.3
 20
92.36369999999999
 30
0.0
 11
183.4999999999999
 21
91.6754
 31
0.0
  0
LINE
  5
2EF
330
1E
100
AcDbEntity
  8
0
100
AcDbLine
 10
177.0
 20
126.194
 30
0.0
 11
182.1851999999999
 21
126.194
 31
0.0
  0
LINE
  5
2F0
330
1E
100
AcDbEntity
  8
0
100
AcDbLine
 10
177.0
 20
126.194
 30
0.0
 11
182.0999999999999
 21
126.194
 31
0.0
  0
LINE
  5
2F1
330
1E
100
AcDbEntity
  8
0
100
AcDbLine
 10
171.8148
 20
126.194
 30
0.0
 11
177.0
 21
126.194
 31
0.0
  0
LINE
  5
2F2
330
1E
100
AcDbEntity
  8
0
100
AcDbLine
 10
167.0740999999999
 20
126.194
 30
0.0
 11
171.8148
 21
126.194
 31
0.0
  0
LINE
  5
2F3
330
1E
100
AcDbEntity
  8
0
100
AcDbLine
 10
177.0
 20
128.1939999999999
 30
0.0
 11
181.875
 21
128.244
 31
0.0
  0
LINE
  5
2F4
330
1E
100
AcDbEntity
  8
0
100
AcDbLine
 10
182.0999999999999
 20
126.194
 30
0.0
 11
186.8999999999999
 21
126.194
 31
0.0
  0
LINE
  5
2F5
330
1E
100
AcDbEntity
  8
0
100
AcDbLine
 10
183.9
 20
0.193999999999977
 30
0.0
 11
190.4
 21
0.193999999999977
 31
0.0
  0
LINE
  5
2F6
330
1E
100
AcDbEntity
  8
0
100
AcDbLine
 10
190.4
 20
0.193999999999977
 30
0.0
 11
196.0
 21
0.193999999999977
 31
0.0
  0
LINE
  5
2F7
330
1E
100
AcDbEntity
  8
0
100
AcDbLine
 10
183.4999999999999
 20
78.71259999999999
 30
0.0
 11
186.1999999999999
 21
79.91710000000001
 31
0.0
  0
LINE
  5
2F8
330
1E
100
AcDbEntity
  8
0
100
AcDbLine
 10
183.0
 20
87.06419999999999
 30
0.0
 11
185.5
 21
88.154
 31
0.0
  0
LINE
  5
2F9
330
1E
100
AcDbEntity
  8
0
100
AcDbLine
 10
183.6999999999999
 20
100.0963999999999
 30
0.0
 11
184.0
 21
99.96960000000001
 31
0.0
  0
LINE
  5
2FA
330
1E
100
AcDbEntity
  8
0
100
AcDbLine
 10
183.4999999999999
 20
91.6754
 30
0.0
 11
186.1999999999999
 21
90.4709
 31
0.0
  0
LINE
  5
2FB
330
1E
100
AcDbEntity
  8
0
100
AcDbLine
 10
182.4
 20
125.194
 30
0.0
 11
187.4
 21
125.194
 31
0.0
  0
LINE
  5
2FD
330
1E
100
AcDbEntity
  8
0
100
AcDbLine
 10
183.8
 20
3.193999999999979
 30
0.0
 11
190.1999999999999
 21
3.193999999999979
 31
0.0
  0
LINE
  5
2FE
330
1E
100
AcDbEntity
  8
0
100
AcDbLine
 10
183.9
 20
2.693999999999979
 30
0.0
 11
190.4
 21
2.693999999999979
 31
0.0
  0
LINE
  5
2FF
330
1E
100
AcDbEntity
  8
0
100
AcDbLine
 10
186.8999999999999
 20
80.2279
 30
0.0
 11
189.1
 21
81.8913
 31
0.0
  0
LINE
  5
300
330
1E
100
AcDbEntity
  8
0
100
AcDbLine
 10
186.1999999999999
 20
79.91710000000001
 30
0.0
 11
188.3
 21
81.4658
 31
0.0
  0
LINE
  5
301
330
1E
100
AcDbEntity
  8
0
100
AcDbLine
 10
186.1999999999999
 20
79.91710000000001
 30
0.0
 11
186.8999999999999
 21
80.2279
 31
0.0
  0
LINE
  5
302
330
1E
100
AcDbEntity
  8
0
100
AcDbLine
 10
185.5
 20
88.154
 30
0.0
 11
187.398678809215
 21
89.58690291817552
 31
0.0
  0
LINE
  5
303
330
1E
100
AcDbEntity
  8
0
100
AcDbLine
 10
183.944
 20
100.583
 30
0.0
 11
186.912
 21
99.3241
 31
0.0
  0
LINE
  5
304
330
1E
100
AcDbEntity
  8
0
100
AcDbLine
 10
184.0
 20
99.96960000000001
 30
0.0
 11
186.8999999999999
 21
98.70780000000001
 31
0.0
  0
LINE
  5
305
330
1E
100
AcDbEntity
  8
0
100
AcDbLine
 10
186.8999999999999
 20
98.70780000000001
 30
0.0
 11
189.1
 21
97.04439999999999
 31
0.0
  0
LINE
  5
306
330
1E
100
AcDbEntity
  8
0
100
AcDbLine
 10
184.0
 20
92.8466
 30
0.0
 11
186.8999999999999
 21
91.58469999999999
 31
0.0
  0
LINE
  5
307
330
1E
100
AcDbEntity
  8
0
100
AcDbLine
 10
186.8999999999999
 20
91.58469999999999
 30
0.0
 11
189.1
 21
89.92130000000001
 31
0.0
  0
LINE
  5
308
330
1E
100
AcDbEntity
  8
0
100
AcDbLine
 10
186.1999999999999
 20
90.4709
 30
0.0
 11
188.3
 21
88.9222
 31
0.0
  0
LINE
  5
309
330
1E
100
AcDbEntity
  8
0
100
AcDbLine
 10
186.912
 20
99.3241
 30
0.0
 11
189.152
 21
97.62170000000001
 31
0.0
  0
LINE
  5
30A
330
1E
100
AcDbEntity
  8
0
100
AcDbLine
 10
186.8999999999999
 20
113.094
 30
0.0
 11
189.1
 21
110.194
 31
0.0
  0
LINE
  5
30B
330
1E
100
AcDbEntity
  8
0
100
AcDbLine
 10
186.8999999999999
 20
126.194
 30
0.0
 11
191.0999999999999
 21
126.194
 31
0.0
  0
LINE
  5
30C
330
1E
100
AcDbEntity
  8
0
100
AcDbLine
 10
189.1
 20
81.8913
 30
0.0
 11
190.5
 21
83.8414
 31
0.0
  0
LINE
  5
30D
330
1E
100
AcDbEntity
  8
0
100
AcDbLine
 10
188.3
 20
81.4658
 30
0.0
 11
189.4999999999999
 21
83.30119999999999
 31
0.0
  0
LINE
  5
30E
330
1E
100
AcDbEntity
  8
0
100
AcDbLine
 10
189.4999999999999
 20
83.30119999999999
 30
0.0
 11
190.0
 21
85.194
 31
0.0
  0
LINE
  5
30F
330
1E
100
AcDbEntity
  8
0
100
AcDbLine
 10
189.1
 20
97.04439999999999
 30
0.0
 11
190.5
 21
95.0942
 31
0.0
  0
LINE
  5
310
330
1E
100
AcDbEntity
  8
0
100
AcDbLine
 10
189.152
 20
97.62170000000001
 30
0.0
 11
190.4959999999999
 21
95.69450000000001
 31
0.0
  0
LINE
  5
311
330
1E
100
AcDbEntity
  8
0
100
AcDbLine
 10
189.1
 20
89.92130000000001
 30
0.0
 11
190.5
 21
87.97119999999999
 31
0.0
  0
LINE
  5
312
330
1E
100
AcDbEntity
  8
0
100
AcDbLine
 10
188.3
 20
88.9222
 30
0.0
 11
189.4999999999999
 21
87.08679999999999
 31
0.0
  0
LINE
  5
313
330
1E
100
AcDbEntity
  8
0
100
AcDbLine
 10
189.4999999999999
 20
87.08679999999999
 30
0.0
 11
190.0
 21
85.194
 31
0.0
  0
LINE
  5
314
330
1E
100
AcDbEntity
  8
0
100
AcDbLine
 10
189.1
 20
110.194
 30
0.0
 11
190.5
 21
106.7939999999999
 31
0.0
  0
LINE
  5
315
330
1E
100
AcDbEntity
  8
0
100
AcDbLine
 10
187.4
 20
125.194
 30
0.0
 11
191.8
 21
125.194
 31
0.0
  0
LINE
  5
317
330
1E
100
AcDbEntity
  8
0
100
AcDbLine
 10
190.5
 20
83.8414
 30
0.0
 11
191.0
 21
85.9063
 31
0.0
  0
LINE
  5
318
330
1E
100
AcDbEntity
  8
0
100
AcDbLine
 10
190.4959999999999
 20
95.69450000000001
 30
0.0
 11
191.0
 21
93.63879999999999
 31
0.0
  0
LINE
  5
319
330
1E
100
AcDbEntity
  8
0
100
AcDbLine
 10
190.5
 20
95.0942
 30
0.0
 11
191.0
 21
93.02939999999999
 31
0.0
  0
LINE
  5
31A
330
1E
100
AcDbEntity
  8
0
100
AcDbLine
 10
190.5
 20
87.97119999999999
 30
0.0
 11
191.0
 21
85.9063
 31
0.0
  0
LINE
  5
31B
330
1E
100
AcDbEntity
  8
0
100
AcDbLine
 10
191.0
 20
93.63879999999999
 30
0.0
 11
191.0
 21
95.58899999999999
 31
0.0
  0
LINE
  5
31C
330
1E
100
AcDbEntity
  8
0
100
AcDbLine
 10
190.9257587058349
 20
93.3359868483834
 30
0.0
 11
191.0
 21
93.63879999999999
 31
0.0
  0
LINE
  5
31D
330
1E
100
AcDbEntity
  8
0
100
AcDbLine
 10
191.0
 20
102.3939999999999
 30
0.0
 11
191.0
 21
102.8939999999999
 31
0.0
  0
LINE
  5
31E
330
1E
100
AcDbEntity
  8
0
100
AcDbLine
 10
191.0
 20
102.3939999999999
 30
0.0
 11
191.0
 21
101.1589999999999
 31
0.0
  0
LINE
  5
31F
330
1E
100
AcDbEntity
  8
0
100
AcDbLine
 10
191.0
 20
103.194
 30
0.0
 11
191.0
 21
102.8939999999999
 31
0.0
  0
LINE
  5
320
330
1E
100
AcDbEntity
  8
0
100
AcDbLine
 10
191.0
 20
102.8939999999999
 30
0.0
 11
191.0
 21
103.194
 31
0.0
  0
LINE
  5
321
330
1E
100
AcDbEntity
  8
0
100
AcDbLine
 10
191.0
 20
102.8939999999999
 30
0.0
 11
191.0
 21
102.3939999999999
 31
0.0
  0
LINE
  5
322
330
1E
100
AcDbEntity
  8
0
100
AcDbLine
 10
191.0
 20
101.1589999999999
 30
0.0
 11
191.0
 21
99.7417
 31
0.0
  0
LINE
  5
323
330
1E
100
AcDbEntity
  8
0
100
AcDbLine
 10
191.0
 20
101.1589999999999
 30
0.0
 11
191.0
 21
102.3939999999999
 31
0.0
  0
LINE
  5
324
330
1E
100
AcDbEntity
  8
0
100
AcDbLine
 10
191.0
 20
99.7417
 30
0.0
 11
191.0
 21
97.7594
 31
0.0
  0
LINE
  5
325
330
1E
100
AcDbEntity
  8
0
100
AcDbLine
 10
191.0
 20
99.7417
 30
0.0
 11
191.0
 21
101.1589999999999
 31
0.0
  0
LINE
  5
326
330
1E
100
AcDbEntity
  8
0
100
AcDbLine
 10
191.0
 20
97.7594
 30
0.0
 11
191.0
 21
95.58899999999999
 31
0.0
  0
LINE
  5
327
330
1E
100
AcDbEntity
  8
0
100
AcDbLine
 10
191.0
 20
97.7594
 30
0.0
 11
191.0
 21
99.7417
 31
0.0
  0
LINE
  5
328
330
1E
100
AcDbEntity
  8
0
100
AcDbLine
 10
191.0
 20
95.58899999999999
 30
0.0
 11
191.0
 21
97.7594
 31
0.0
  0
LINE
  5
329
330
1E
100
AcDbEntity
  8
0
100
AcDbLine
 10
191.0
 20
95.58899999999999
 30
0.0
 11
191.0
 21
93.63879999999999
 31
0.0
  0
LINE
  5
32A
330
1E
100
AcDbEntity
  8
0
100
AcDbLine
 10
191.0
 20
93.02939999999999
 30
0.0
 11
191.0
 21
85.9063
 31
0.0
  0
LINE
  5
32B
330
1E
100
AcDbEntity
  8
0
100
AcDbLine
 10
191.0
 20
85.9063
 30
0.0
 11
191.0
 21
93.02939999999999
 31
0.0
  0
LINE
  5
32C
330
1E
100
AcDbEntity
  8
0
100
AcDbLine
 10
190.5
 20
106.7939999999999
 30
0.0
 11
191.0
 21
103.194
 31
0.0
  0
LINE
  5
32D
330
1E
100
AcDbEntity
  8
0
100
AcDbLine
 10
191.0999999999999
 20
126.194
 30
0.0
 11
194.2999999999999
 21
126.194
 31
0.0
  0
LINE
  5
32E
330
1E
100
AcDbEntity
  8
0
100
AcDbLine
 10
190.1999999999999
 20
3.193999999999979
 30
0.0
 11
195.6999999999999
 21
3.193999999999979
 31
0.0
  0
LINE
  5
32F
330
1E
100
AcDbEntity
  8
0
100
AcDbLine
 10
190.4
 20
2.693999999999979
 30
0.0
 11
196.0
 21
2.693999999999979
 31
0.0
  0
LINE
  5
330
330
1E
100
AcDbEntity
  8
0
100
AcDbLine
 10
183.9
 20
0.19399999999998
 30
0.0
 11
190.4
 21
0.19399999999998
 31
0.0
  0
LINE
  5
331
330
1E
100
AcDbEntity
  8
0
100
AcDbLine
 10
190.4
 20
0.19399999999998
 30
0.0
 11
196.0
 21
0.193999999999979
 31
0.0
  0
LINE
  5
332
330
1E
100
AcDbEntity
  8
0
100
AcDbLine
 10
182.1851999999999
 20
126.194
 30
0.0
 11
186.9259
 21
126.194
 31
0.0
  0
LINE
  5
333
330
1E
100
AcDbEntity
  8
0
100
AcDbLine
 10
186.9259
 20
126.194
 30
0.0
 11
191.1482
 21
126.194
 31
0.0
  0
LINE
  5
334
330
1E
100
AcDbEntity
  8
0
100
AcDbLine
 10
196.0
 20
0.193999999999977
 30
0.0
 11
200.4
 21
0.193999999999977
 31
0.0
  0
LINE
  5
335
330
1E
100
AcDbEntity
  8
0
100
AcDbLine
 10
194.2999999999999
 20
126.194
 30
0.0
 11
196.3
 21
126.194
 31
0.0
  0
LINE
  5
336
330
1E
100
AcDbEntity
  8
0
100
AcDbLine
 10
191.8
 20
125.194
 30
0.0
 11
195.1999999999999
 21
125.194
 31
0.0
  0
LINE
  5
337
330
1E
100
AcDbEntity
  8
0
100
AcDbLine
 10
195.1999999999999
 20
125.194
 30
0.0
 11
197.1999999999999
 21
125.194
 31
0.0
  0
LINE
  5
33A
330
1E
100
AcDbEntity
  8
0
100
AcDbLine
 10
195.6999999999999
 20
3.193999999999979
 30
0.0
 11
200.0
 21
3.193999999999979
 31
0.0
  0
LINE
  5
33B
330
1E
100
AcDbEntity
  8
0
100
AcDbLine
 10
196.0
 20
2.693999999999979
 30
0.0
 11
200.4
 21
2.693999999999979
 31
0.0
  0
LINE
  5
33C
330
1E
100
AcDbEntity
  8
0
100
AcDbLine
 10
196.0
 20
0.193999999999979
 30
0.0
 11
200.4
 21
0.193999999999979
 31
0.0
  0
LINE
  5
33D
330
1E
100
AcDbEntity
  8
0
100
AcDbLine
 10
191.1482
 20
126.194
 30
0.0
 11
194.3334
 21
126.194
 31
0.0
  0
LINE
  5
33E
330
1E
100
AcDbEntity
  8
0
100
AcDbLine
 10
194.3334
 20
126.194
 30
0.0
 11
196.2593
 21
126.194
 31
0.0
  0
LINE
  5
33F
330
1E
100
AcDbEntity
  8
0
100
AcDbLine
 10
200.4
 20
0.193999999999977
 30
0.0
 11
203.0
 21
0.193999999999978
 31
0.0
  0
LINE
  5
340
330
1E
100
AcDbEntity
  8
0
100
AcDbLine
 10
203.0
 20
0.193999999999978
 30
0.0
 11
204.0
 21
0.193999999999978
 31
0.0
  0
LINE
  5
341
330
1E
100
AcDbEntity
  8
0
100
AcDbLine
 10
204.0
 20
0.193999999999978
 30
0.0
 11
204.0
 21
2.693999999999979
 31
0.0
  0
LINE
  5
342
330
1E
100
AcDbEntity
  8
0
100
AcDbLine
 10
198.5
 20
3.693999999999979
 30
0.0
 11
199.5
 21
3.193999999999979
 31
0.0
  0
LINE
  5
343
330
1E
100
AcDbEntity
  8
0
100
AcDbLine
 10
198.0
 20
125.194
 30
0.0
 11
198.0
 21
5.19399999999998
 31
0.0
  0
LINE
  5
344
330
1E
100
AcDbEntity
  8
0
100
AcDbLine
 10
197.1999999999999
 20
125.194
 30
0.0
 11
198.0
 21
125.194
 31
0.0
  0
LINE
  5
345
330
1E
100
AcDbEntity
  8
0
100
AcDbLine
 10
198.0
 20
5.19399999999998
 30
0.0
 11
198.5
 21
3.693999999999979
 31
0.0
  0
LINE
  5
346
330
1E
100
AcDbEntity
  8
0
100
AcDbLine
 10
198.0
 20
5.19399999999998
 30
0.0
 11
198.0
 21
125.194
 31
0.0
  0
LINE
  5
348
330
1E
100
AcDbEntity
  8
0
100
AcDbLine
 10
200.0
 20
3.193999999999979
 30
0.0
 11
202.4999999999999
 21
3.193999999999979
 31
0.0
  0
LINE
  5
349
330
1E
100
AcDbEntity
  8
0
100
AcDbLine
 10
200.4
 20
2.693999999999979
 30
0.0
 11
203.0
 21
2.693999999999979
 31
0.0
  0
LINE
  5
34A
330
1E
100
AcDbEntity
  8
0
100
AcDbLine
 10
204.0
 20
2.693999999999979
 30
0.0
 11
204.0
 21
0.193999999999978
 31
0.0
  0
LINE
  5
34B
330
1E
100
AcDbEntity
  8
0
100
AcDbLine
 10
203.5
 20
3.193999999999979
 30
0.0
 11
204.0
 21
2.693999999999979
 31
0.0
  0
LINE
  5
34C
330
1E
100
AcDbEntity
  8
0
100
AcDbLine
 10
202.4999999999999
 20
3.193999999999979
 30
0.0
 11
203.5
 21
3.193999999999979
 31
0.0
  0
LINE
  5
34D
330
1E
100
AcDbEntity
  8
0
100
AcDbLine
 10
203.0
 20
2.693999999999979
 30
0.0
 11
204.0
 21
2.693999999999979
 31
0.0
  0
LINE
  5
34E
330
1E
100
AcDbEntity
  8
0
100
AcDbLine
 10
200.4
 20
0.193999999999979
 30
0.0
 11
203.0
 21
0.193999999999979
 31
0.0
  0
LINE
  5
34F
330
1E
100
AcDbEntity
  8
0
100
AcDbLine
 10
203.0
 20
0.193999999999979
 30
0.0
 11
204.0
 21
0.193999999999978
 31
0.0
  0
LINE
  5
350
330
1E
100
AcDbEntity
  8
0
100
AcDbLine
 10
196.3
 20
126.194
 30
0.0
 11
197.0
 21
126.194
 31
0.0
  0
LINE
  5
351
330
1E
100
AcDbEntity
  8
0
100
AcDbLine
 10
197.0
 20
126.787
 30
0.0
 11
197.0
 21
126.194
 31
0.0
  0
LINE
  5
352
330
1E
100
AcDbEntity
  8
0
100
AcDbLine
 10
197.0
 20
126.194
 30
0.0
 11
197.0
 21
126.787
 31
0.0
  0
LINE
  5
353
330
1E
100
AcDbEntity
  8
0
100
AcDbLine
 10
197.0
 20
126.194
 30
0.0
 11
198.0
 21
125.194
 31
0.0
  0
LINE
  5
354
330
1E
100
AcDbEntity
  8
0
100
AcDbLine
 10
181.875
 20
128.244
 30
0.0
 11
187.05
 21
128.388
 31
0.0
  0
LINE
  5
355
330
1E
100
AcDbEntity
  8
0
100
AcDbLine
 10
187.05
 20
128.388
 30
0.0
 11
191.6249999999999
 21
128.6179999999999
 31
0.0
  0
LINE
  5
356
330
1E
100
AcDbEntity
  8
0
100
AcDbLine
 10
191.6249999999999
 20
128.6179999999999
 30
0.0
 11
195.075
 21
128.922
 31
0.0
  0
LINE
  5
357
330
1E
100
AcDbEntity
  8
0
100
AcDbLine
 10
172.1249999999999
 20
128.244
 30
0.0
 11
177.0
 21
128.1939999999999
 31
0.0
  0
LINE
  5
358
330
1E
100
AcDbEntity
  8
0
100
AcDbLine
 10
166.95
 20
128.388
 30
0.0
 11
172.1249999999999
 21
128.244
 31
0.0
  0
LINE
  5
359
330
1E
100
AcDbEntity
  8
0
100
AcDbLine
 10
196.759788380108
 20
129.188467679429
 30
0.0
 11
197.0
 21
126.787
 31
0.0
  0
LINE
  5
35A
330
1E
100
AcDbEntity
  8
0
100
AcDbLine
 10
195.075
 20
128.922
 30
0.0
 11
197.25
 21
129.2659999999999
 31
0.0
  0
LINE
  5
35B
330
1E
100
AcDbEntity
  8
0
100
AcDbLine
 10
197.25
 20
129.2659999999999
 30
0.0
 11
198.0
 21
129.59
 31
0.0
  0
LINE
  5
35C
330
1E
100
AcDbEntity
  8
0
100
AcDbLine
 10
162.375
 20
128.6179999999999
 30
0.0
 11
166.95
 21
128.388
 31
0.0
  0
LINE
  5
35D
330
1E
100
AcDbEntity
  8
0
100
AcDbLine
 10
158.925
 20
128.922
 30
0.0
 11
162.375
 21
128.6179999999999
 31
0.0
  0
LINE
  5
35E
330
1E
100
AcDbEntity
  8
0
100
AcDbLine
 10
166.5
 20
153.7939999999999
 30
0.0
 11
167.1999999999999
 21
154.0939999999999
 31
0.0
  0
LINE
  5
35F
330
1E
100
AcDbEntity
  8
0
100
AcDbLine
 10
165.8999999999999
 20
153.2939999999999
 30
0.0
 11
166.5
 21
153.7939999999999
 31
0.0
  0
LINE
  5
360
330
1E
100
AcDbEntity
  8
0
100
AcDbLine
 10
165.4
 20
152.6939999999999
 30
0.0
 11
165.8999999999999
 21
153.2939999999999
 31
0.0
  0
LINE
  5
361
330
1E
100
AcDbEntity
  8
0
100
AcDbLine
 10
165.0999999999999
 20
151.994
 30
0.0
 11
165.4
 21
152.6939999999999
 31
0.0
  0
LINE
  5
362
330
1E
100
AcDbEntity
  8
0
100
AcDbLine
 10
165.0
 20
151.1939999999999
 30
0.0
 11
165.0999999999999
 21
151.994
 31
0.0
  0
LINE
  5
36A
330
1E
100
AcDbEntity
  8
0
100
AcDbLine
 10
168.6999999999999
 20
154.1939999999999
 30
0.0
 11
169.1556999999999
 21
154.1939999999999
 31
0.0
  0
LINE
  5
36B
330
1E
100
AcDbEntity
  8
0
100
AcDbLine
 10
169.1556999999999
 20
154.1939999999999
 30
0.0
 11
169.7579
 21
154.1939999999999
 31
0.0
  0
LINE
  5
372
330
1E
100
AcDbEntity
  8
0
100
AcDbLine
 10
173.5999999999999
 20
154.1939999999999
 30
0.0
 11
174.6999999999999
 21
154.1939999999999
 31
0.0
  0
LINE
  5
373
330
1E
100
AcDbEntity
  8
0
100
AcDbLine
 10
174.6999999999999
 20
154.1939999999999
 30
0.0
 11
175.8
 21
154.1939999999999
 31
0.0
  0
LINE
  5
378
330
1E
100
AcDbEntity
  8
0
100
AcDbLine
 10
180.4
 20
154.1939999999999
 30
0.0
 11
181.4781
 21
154.1939999999999
 31
0.0
  0
LINE
  5
379
330
1E
100
AcDbEntity
  8
0
100
AcDbLine
 10
181.4781
 20
154.1939999999999
 30
0.0
 11
182.4201
 21
154.1939999999999
 31
0.0
  0
LINE
  5
37A
330
1E
100
AcDbEntity
  8
0
100
AcDbLine
 10
179.3
 20
154.1939999999999
 30
0.0
 11
180.4
 21
154.1939999999999
 31
0.0
  0
LINE
  5
37B
330
1E
100
AcDbEntity
  8
0
100
AcDbLine
 10
178.2
 20
154.1939999999999
 30
0.0
 11
179.3
 21
154.1939999999999
 31
0.0
  0
LINE
  5
37C
330
1E
100
AcDbEntity
  8
0
100
AcDbLine
 10
177.0
 20
154.1939999999999
 30
0.0
 11
178.2
 21
154.1939999999999
 31
0.0
  0
LINE
  5
37E
330
1E
100
AcDbEntity
  8
0
100
AcDbLine
 10
175.8
 20
154.1939999999999
 30
0.0
 11
177.0
 21
154.1939999999999
 31
0.0
  0
LINE
  5
37F
330
1E
100
AcDbEntity
  8
0
100
AcDbLine
 10
172.5218999999999
 20
154.1939999999999
 30
0.0
 11
173.5999999999999
 21
154.1939999999999
 31
0.0
  0
LINE
  5
380
330
1E
100
AcDbEntity
  8
0
100
AcDbLine
 10
171.5799
 20
154.1939999999999
 30
0.0
 11
172.5218999999999
 21
154.1939999999999
 31
0.0
  0
LINE
  5
381
330
1E
100
AcDbEntity
  8
0
100
AcDbLine
 10
170.5697
 20
154.1939999999999
 30
0.0
 11
171.5799
 21
154.1939999999999
 31
0.0
  0
LINE
  5
382
330
1E
100
AcDbEntity
  8
0
100
AcDbLine
 10
169.7579
 20
154.1939999999999
 30
0.0
 11
170.5697
 21
154.1939999999999
 31
0.0
  0
LINE
  5
383
330
1E
100
AcDbEntity
  8
0
100
AcDbLine
 10
168.3
 20
154.1939999999999
 30
0.0
 11
168.6999999999999
 21
154.1939999999999
 31
0.0
  0
LINE
  5
384
330
1E
100
AcDbEntity
  8
0
100
AcDbLine
 10
168.1
 20
154.1939999999999
 30
0.0
 11
168.3
 21
154.1939999999999
 31
0.0
  0
LINE
  5
385
330
1E
100
AcDbEntity
  8
0
100
AcDbLine
 10
168.0
 20
154.1939999999999
 30
0.0
 11
168.1
 21
154.1939999999999
 31
0.0
  0
LINE
  5
386
330
1E
100
AcDbEntity
  8
0
100
AcDbLine
 10
167.1999999999999
 20
154.0939999999999
 30
0.0
 11
168.0
 21
154.1939999999999
 31
0.0
  0
LINE
  5
387
330
1E
100
AcDbEntity
  8
0
100
AcDbLine
 10
177.0
 20
161.064
 30
0.0
 11
181.7249999999999
 21
161.064
 31
0.0
  0
LINE
  5
38F
330
1E
100
AcDbEntity
  8
0
100
AcDbLine
 10
184.8442999999999
 20
154.1939999999999
 30
0.0
 11
185.3
 21
154.1939999999999
 31
0.0
  0
LINE
  5
390
330
1E
100
AcDbEntity
  8
0
100
AcDbLine
 10
184.2420999999999
 20
154.1939999999999
 30
0.0
 11
184.8442999999999
 21
154.1939999999999
 31
0.0
  0
LINE
  5
391
330
1E
100
AcDbEntity
  8
0
100
AcDbLine
 10
183.4303
 20
154.1939999999999
 30
0.0
 11
184.2420999999999
 21
154.1939999999999
 31
0.0
  0
LINE
  5
392
330
1E
100
AcDbEntity
  8
0
100
AcDbLine
 10
185.3
 20
154.1939999999999
 30
0.0
 11
185.7
 21
154.1939999999999
 31
0.0
  0
LINE
  5
393
330
1E
100
AcDbEntity
  8
0
100
AcDbLine
 10
185.7
 20
154.1939999999999
 30
0.0
 11
185.8999999999999
 21
154.1939999999999
 31
0.0
  0
LINE
  5
394
330
1E
100
AcDbEntity
  8
0
100
AcDbLine
 10
185.8999999999999
 20
154.1939999999999
 30
0.0
 11
186.0
 21
154.1939999999999
 31
0.0
  0
LINE
  5
395
330
1E
100
AcDbEntity
  8
0
100
AcDbLine
 10
182.4201
 20
154.1939999999999
 30
0.0
 11
183.4303
 21
154.1939999999999
 31
0.0
  0
LINE
  5
396
330
1E
100
AcDbEntity
  8
0
100
AcDbLine
 10
186.0
 20
154.1939999999999
 30
0.0
 11
186.8
 21
154.0939999999999
 31
0.0
  0
LINE
  5
397
330
1E
100
AcDbEntity
  8
0
100
AcDbLine
 10
186.8
 20
154.0939999999999
 30
0.0
 11
187.5
 21
153.7939999999999
 31
0.0
  0
LINE
  5
398
330
1E
100
AcDbEntity
  8
0
100
AcDbLine
 10
187.5
 20
153.7939999999999
 30
0.0
 11
188.1
 21
153.2939999999999
 31
0.0
  0
LINE
  5
399
330
1E
100
AcDbEntity
  8
0
100
AcDbLine
 10
188.1
 20
153.2939999999999
 30
0.0
 11
188.5999999999999
 21
152.6939999999999
 31
0.0
  0
LINE
  5
39A
330
1E
100
AcDbEntity
  8
0
100
AcDbLine
 10
188.5999999999999
 20
152.6939999999999
 30
0.0
 11
188.9
 21
151.994
 31
0.0
  0
LINE
  5
39B
330
1E
100
AcDbEntity
  8
0
100
AcDbLine
 10
188.9
 20
151.994
 30
0.0
 11
189.0
 21
151.1939999999999
 31
0.0
  0
LINE
  5
39D
330
1E
100
AcDbEntity
  8
0
100
AcDbLine
 10
181.7249999999999
 20
161.064
 30
0.0
 11
186.8249999999999
 21
161.064
 31
0.0
  0
LINE
  5
39E
330
1E
100
AcDbEntity
  8
0
100
AcDbLine
 10
186.8249999999999
 20
161.064
 30
0.0
 11
191.25
 21
161.064
 31
0.0
  0
LINE
  5
39F
330
1E
100
AcDbEntity
  8
0
100
AcDbLine
 10
191.25
 20
161.064
 30
0.0
 11
194.6999999999999
 21
161.064
 31
0.0
  0
LINE
  5
3A0
330
1E
100
AcDbEntity
  8
0
100
AcDbLine
 10
194.6999999999999
 20
161.064
 30
0.0
 11
196.8
 21
161.064
 31
0.0
  0
LINE
  5
3A1
330
1E
100
AcDbEntity
  8
0
100
AcDbLine
 10
198.0
 20
160.076
 30
0.0
 11
198.0
 21
129.59
 31
0.0
  0
LINE
  5
3A2
330
1E
100
AcDbEntity
  8
0
100
AcDbLine
 10
196.8
 20
161.064
 30
0.0
 11
197.55
 21
161.064
 31
0.0
  0
LINE
  5
3A3
330
1E
100
AcDbEntity
  8
0
100
AcDbLine
 10
197.55
 20
161.064
 30
0.0
 11
198.0
 21
160.076
 31
0.0
  0
LINE
  5
3A4
330
1E
100
AcDbEntity
  8
0
100
AcDbLine
 10
198.0
 20
129.59
 30
0.0
 11
198.0
 21
160.076
 31
0.0
  0
LINE
  5
3A5
330
1E
100
AcDbEntity
  8
0
100
AcDbLine
 10
172.275
 20
161.064
 30
0.0
 11
177.0
 21
161.064
 31
0.0
  0
LINE
  5
3A6
330
1E
100
AcDbEntity
  8
0
100
AcDbLine
 10
167.175
 20
161.064
 30
0.0
 11
172.275
 21
161.064
 31
0.0
  0
LINE
  5
3A7
330
1E
100
AcDbEntity
  8
0
100
AcDbLine
 10
162.7499999999999
 20
161.064
 30
0.0
 11
167.175
 21
161.064
 31
0.0
  0
LINE
  5
3A8
330
1E
100
AcDbEntity
  8
0
100
AcDbLine
 10
159.3
 20
161.064
 30
0.0
 11
162.7499999999999
 21
161.064
 31
0.0
  0
LINE
  5
3C1
330
1E
100
AcDbEntity
  8
0
100
AcDbLine
 10
186.8049
 20
161.8863440266669
 30
0.0
 11
188.25
 21
161.841
 31
0.0
  0
LINE
  5
3C2
330
1E
100
AcDbEntity
  8
0
100
AcDbLine
 10
188.25
 20
161.841
 30
0.0
 11
196.5
 21
161.488
 31
0.0
  0
LINE
  5
3C3
330
1E
100
AcDbEntity
  8
0
100
AcDbLine
 10
196.5
 20
161.488
 30
0.0
 11
197.55
 21
161.064
 31
0.0
  0
LINE
  5
3C4
330
1E
100
AcDbEntity
  8
0
100
AcDbLine
 10
165.7499999999999
 20
161.841
 30
0.0
 11
167.1950999999999
 21
161.8863440266669
 31
0.0
  0
LINE
  5
3DD
330
1E
100
AcDbEntity
  8
0
100
AcDbLine
 10
177.0
 20
162.1939999999999
 30
0.0
 11
186.8049
 21
161.8863440266669
 31
0.0
  0
LINE
  5
3DE
330
1E
100
AcDbEntity
  8
0
100
AcDbLine
 10
167.1950999999999
 20
161.8863440266669
 30
0.0
 11
177.0
 21
162.1939999999999
 31
0.0
  0
LINE
  5
3DF
330
1E
100
AcDbEntity
  8
0
100
AcDbLine
 10
157.5
 20
161.488
 30
0.0
 11
165.7499999999999
 21
161.841
 31
0.0
  0
LINE
  5
3E0
330
1E
100
AcDbEntity
  8
0
100
AcDbLine
 10
157.1999999999999
 20
161.064
 30
0.0
 11
159.3
 21
161.064
 31
0.0
  0
LINE
  5
3E1
330
1E
100
AcDbEntity
  8
0
100
AcDbLine
 10
156.4499999999999
 20
161.064
 30
0.0
 11
157.1999999999999
 21
161.064
 31
0.0
  0
LINE
  5
3E2
330
1E
100
AcDbEntity
  8
0
100
AcDbLine
 10
156.4499999999999
 20
161.064
 30
0.0
 11
157.5
 21
161.488
 31
0.0
  0
LINE
  5
3E3
330
1E
100
AcDbEntity
  8
0
100
AcDbLine
 10
156.75
 20
129.2659999999999
 30
0.0
 11
158.925
 21
128.922
 31
0.0
  0
LINE
  5
3E4
330
1E
100
AcDbEntity
  8
0
100
AcDbLine
 10
156.0
 20
129.59
 30
0.0
 11
156.75
 21
129.2659999999999
 31
0.0
  0
LINE
  5
3E5
330
1E
100
AcDbEntity
  8
0
100
AcDbLine
 10
156.0
 20
129.59
 30
0.0
 11
156.0
 21
160.076
 31
0.0
  0
LINE
  5
40E
330
1E
100
AcDbEntity
  8
0
100
AcDbLine
 10
165.4
 20
149.7059999999999
 30
0.0
 11
165.8999999999999
 21
149.106
 31
0.0
  0
LINE
  5
40F
330
1E
100
AcDbEntity
  8
0
100
AcDbLine
 10
165.0
 20
151.2059999999999
 30
0.0
 11
165.0999999999999
 21
150.4059999999999
 31
0.0
  0
LINE
  5
410
330
1E
100
AcDbEntity
  8
0
100
AcDbLine
 10
165.0999999999999
 20
150.4059999999999
 30
0.0
 11
165.4
 21
149.7059999999999
 31
0.0
  0
LINE
  5
411
330
1E
100
AcDbEntity
  8
0
100
AcDbLine
 10
181.4781
 20
148.2059999999999
 30
0.0
 11
182.4201
 21
148.2059999999999
 31
0.0
  0
LINE
  5
412
330
1E
100
AcDbEntity
  8
0
100
AcDbLine
 10
173.5999999999999
 20
148.2059999999999
 30
0.0
 11
174.6999999999999
 21
148.2059999999999
 31
0.0
  0
LINE
  5
413
330
1E
100
AcDbEntity
  8
0
100
AcDbLine
 10
169.1556999999999
 20
148.2059999999999
 30
0.0
 11
169.7579
 21
148.2059999999999
 31
0.0
  0
LINE
  5
414
330
1E
100
AcDbEntity
  8
0
100
AcDbLine
 10
166.5
 20
148.6059999999999
 30
0.0
 11
167.1999999999999
 21
148.3059999999999
 31
0.0
  0
LINE
  5
415
330
1E
100
AcDbEntity
  8
0
100
AcDbLine
 10
165.8999999999999
 20
149.106
 30
0.0
 11
166.5
 21
148.6059999999999
 31
0.0
  0
LINE
  5
416
330
1E
100
AcDbEntity
  8
0
100
AcDbLine
 10
167.1999999999999
 20
148.3059999999999
 30
0.0
 11
168.0
 21
148.2059999999999
 31
0.0
  0
LINE
  5
417
330
1E
100
AcDbEntity
  8
0
100
AcDbLine
 10
168.0
 20
148.2059999999999
 30
0.0
 11
168.1
 21
148.2059999999999
 31
0.0
  0
LINE
  5
418
330
1E
100
AcDbEntity
  8
0
100
AcDbLine
 10
168.1
 20
148.2059999999999
 30
0.0
 11
168.3
 21
148.2059999999999
 31
0.0
  0
LINE
  5
419
330
1E
100
AcDbEntity
  8
0
100
AcDbLine
 10
168.3
 20
148.2059999999999
 30
0.0
 11
168.6999999999999
 21
148.2059999999999
 31
0.0
  0
LINE
  5
41A
330
1E
100
AcDbEntity
  8
0
100
AcDbLine
 10
168.6999999999999
 20
148.2059999999999
 30
0.0
 11
169.1556999999999
 21
148.2059999999999
 31
0.0
  0
LINE
  5
41B
330
1E
100
AcDbEntity
  8
0
100
AcDbLine
 10
171.5799
 20
148.2059999999999
 30
0.0
 11
172.5218999999999
 21
148.2059999999999
 31
0.0
  0
LINE
  5
41C
330
1E
100
AcDbEntity
  8
0
100
AcDbLine
 10
169.7579
 20
148.2059999999999
 30
0.0
 11
170.5697
 21
148.2059999999999
 31
0.0
  0
LINE
  5
41D
330
1E
100
AcDbEntity
  8
0
100
AcDbLine
 10
170.5697
 20
148.2059999999999
 30
0.0
 11
171.5799
 21
148.2059999999999
 31
0.0
  0
LINE
  5
41E
330
1E
100
AcDbEntity
  8
0
100
AcDbLine
 10
172.5218999999999
 20
148.2059999999999
 30
0.0
 11
173.5999999999999
 21
148.2059999999999
 31
0.0
  0
LINE
  5
41F
330
1E
100
AcDbEntity
  8
0
100
AcDbLine
 10
177.0
 20
148.2059999999999
 30
0.0
 11
178.2
 21
148.2059999999999
 31
0.0
  0
LINE
  5
420
330
1E
100
AcDbEntity
  8
0
100
AcDbLine
 10
174.6999999999999
 20
148.2059999999999
 30
0.0
 11
175.8
 21
148.2059999999999
 31
0.0
  0
LINE
  5
421
330
1E
100
AcDbEntity
  8
0
100
AcDbLine
 10
175.8
 20
148.2059999999999
 30
0.0
 11
177.0
 21
148.2059999999999
 31
0.0
  0
LINE
  5
422
330
1E
100
AcDbEntity
  8
0
100
AcDbLine
 10
179.3
 20
148.2059999999999
 30
0.0
 11
180.4
 21
148.2059999999999
 31
0.0
  0
LINE
  5
423
330
1E
100
AcDbEntity
  8
0
100
AcDbLine
 10
178.2
 20
148.2059999999999
 30
0.0
 11
179.3
 21
148.2059999999999
 31
0.0
  0
LINE
  5
424
330
1E
100
AcDbEntity
  8
0
100
AcDbLine
 10
180.4
 20
148.2059999999999
 30
0.0
 11
181.4781
 21
148.2059999999999
 31
0.0
  0
LINE
  5
425
330
1E
100
AcDbEntity
  8
0
100
AcDbLine
 10
185.3
 20
148.2059999999999
 30
0.0
 11
185.7
 21
148.2059999999999
 31
0.0
  0
LINE
  5
426
330
1E
100
AcDbEntity
  8
0
100
AcDbLine
 10
183.4303
 20
148.2059999999999
 30
0.0
 11
184.2420999999999
 21
148.2059999999999
 31
0.0
  0
LINE
  5
427
330
1E
100
AcDbEntity
  8
0
100
AcDbLine
 10
182.4201
 20
148.2059999999999
 30
0.0
 11
183.4303
 21
148.2059999999999
 31
0.0
  0
LINE
  5
428
330
1E
100
AcDbEntity
  8
0
100
AcDbLine
 10
184.2420999999999
 20
148.2059999999999
 30
0.0
 11
184.8442999999999
 21
148.2059999999999
 31
0.0
  0
LINE
  5
429
330
1E
100
AcDbEntity
  8
0
100
AcDbLine
 10
184.8442999999999
 20
148.2059999999999
 30
0.0
 11
185.3
 21
148.2059999999999
 31
0.0
  0
LINE
  5
42A
330
1E
100
AcDbEntity
  8
0
100
AcDbLine
 10
186.8
 20
148.3059999999999
 30
0.0
 11
187.5
 21
148.6059999999999
 31
0.0
  0
LINE
  5
42B
330
1E
100
AcDbEntity
  8
0
100
AcDbLine
 10
187.5
 20
148.6059999999999
 30
0.0
 11
188.1
 21
149.106
 31
0.0
  0
LINE
  5
42C
330
1E
100
AcDbEntity
  8
0
100
AcDbLine
 10
188.9
 20
150.4059999999999
 30
0.0
 11
189.0
 21
151.2059999999999
 31
0.0
  0
LINE
  5
42D
330
1E
100
AcDbEntity
  8
0
100
AcDbLine
 10
188.5999999999999
 20
149.7059999999999
 30
0.0
 11
188.9
 21
150.4059999999999
 31
0.0
  0
LINE
  5
42E
330
1E
100
AcDbEntity
  8
0
100
AcDbLine
 10
188.1
 20
149.106
 30
0.0
 11
188.5999999999999
 21
149.7059999999999
 31
0.0
  0
LINE
  5
42F
330
1E
100
AcDbEntity
  8
0
100
AcDbLine
 10
186.0
 20
148.2059999999999
 30
0.0
 11
186.8
 21
148.3059999999999
 31
0.0
  0
LINE
  5
430
330
1E
100
AcDbEntity
  8
0
100
AcDbLine
 10
185.8999999999999
 20
148.2059999999999
 30
0.0
 11
186.0
 21
148.2059999999999
 31
0.0
  0
LINE
  5
431
330
1E
100
AcDbEntity
  8
0
100
AcDbLine
 10
185.7
 20
148.2059999999999
 30
0.0
 11
185.8999999999999
 21
148.2059999999999
 31
0.0
  0
LINE
  5
432
330
1E
100
AcDbEntity
  8
0
100
AcDbLine
 10
167.1
 20
113.094
 30
0.0
 11
168.6832771517265
 21
114.2587816484556
 31
0.0
  0
LINE
  5
433
330
1E
100
AcDbEntity
  8
0
100
AcDbLine
 10
168.6832771517265
 20
114.2587816484556
 30
0.0
 11
171.1809916493703
 21
115.0268807621851
 31
0.0
  0
LINE
  5
434
330
1E
100
AcDbEntity
  8
0
100
AcDbLine
 10
171.1809916493703
 20
115.0268807621851
 30
0.0
 11
173.8708381328885
 21
115.36292347852
 31
0.0
  0
LINE
  5
435
330
1E
100
AcDbEntity
  8
0
100
AcDbLine
 10
173.8708381328885
 20
115.36292347852
 30
0.0
 11
177.2811792337554
 21
115.36292347852
 31
0.0
  0
LINE
  5
436
330
1E
100
AcDbEntity
  8
0
100
AcDbLine
 10
177.2811792337554
 20
115.36292347852
 30
0.0
 11
181.6521802639956
 21
114.9308683729689
 31
0.0
  0
LINE
  5
437
330
1E
100
AcDbEntity
  8
0
100
AcDbLine
 10
181.6521802639956
 20
114.9308683729689
 30
0.0
 11
184.6782573931129
 21
114.1627699051612
 31
0.0
  0
LINE
  5
438
330
1E
100
AcDbEntity
  8
0
100
AcDbLine
 10
184.6782573931129
 20
114.1627699051612
 30
0.0
 11
186.8999999999999
 21
113.094
 31
0.0
  0
LINE
  5
439
330
1E
100
AcDbEntity
  8
0
100
AcDbLine
 10
27.6301979298592
 20
116.139935922446
 30
0.0
 11
29.62
 21
116.833
 31
0.0
  0
LINE
  5
43A
330
1E
100
AcDbEntity
  8
0
100
AcDbLine
 10
12.3698020701407
 20
116.139935922446
 30
0.0
 11
10.38
 21
116.833
 31
0.0
  0
ENDSEC
  0
SECTION
  2
OBJECTS
  0
DICTIONARY
  5
C
330
0
100
AcDbDictionary
  3
ACAD_GROUP
350
D
  3
ACAD_LAYOUT
350
19
  3
ACAD_MLINESTYLE
350
16
  3
ACAD_PLOTSETTINGS
350
18
  3
ACAD_PLOTSTYLENAME
350
E
  3
ACDBHEADERROUNDTRIPXREC
350
43F
  3
ACDBVARIABLEDICTIONARY
350
43C
  0
DICTIONARY
  5
461
330
1E
100
AcDbDictionary
280
     1
  3
ACAD_LAYOUTSELFREF
360
462
  0
DICTIONARY
  5
45F
330
1A
100
AcDbDictionary
280
     1
  3
ACAD_LAYOUTSELFREF
360
460
  0
DICTIONARY
  5
D
102
{ACAD_REACTORS
330
C
102
}
330
C
100
AcDbDictionary
  0
DICTIONARY
  5
19
102
{ACAD_REACTORS
330
C
102
}
330
C
100
AcDbDictionary
  0
DICTIONARY
  5
16
102
{ACAD_REACTORS
330
C
102
}
330
C
100
AcDbDictionary
  3
STANDARD
350
17
  0
DICTIONARY
  5
18
102
{ACAD_REACTORS
330
C
102
}
330
C
100
AcDbDictionary
  0
ACDBDICTIONARYWDFLT
  5
E
102
{ACAD_REACTORS
330
C
102
}
330
C
100
AcDbDictionary
281
     1
  3
Normal
350
F
100
AcDbDictionaryWithDefault
340
F
  0
DICTIONARY
  5
43F
102
{ACAD_REACTORS
330
C
102
}
330
C
100
AcDbDictionary
  3
CEPSNTYPE
350
449
  3
FINGERPRINTGUID
350
44A
  3
HYPERLINKBASE
350
442
  3
INSUNITS
350
448
  3
LAYOUTDICT
350
444
  3
LWETCUNION
350
447
  3
PLOTSETDICT
350
445
  3
PLOTSTYLNAMDICT
350
446
  3
PSVPSCALE
350
44C
  3
PUCSBASE
350
44F
  3
PUCSORGBACK
350
455
  3
PUCSORGBOTTOM
350
451
  3
PUCSORGFRONT
350
454
  3
PUCSORGLEFT
350
452
  3
PUCSORGRIGHT
350
453
  3
PUCSORGTOP
350
450
  3
PUCSORTHOREF
350
44D
  3
PUCSORTHOVIEW
350
44E
  3
STYLESHEET
350
443
  3
TSTACKALIGN
350
440
  3
TSTACKSIZE
350
441
  3
UCSBASE
350
458
  3
UCSORGBACK
350
45E
  3
UCSORGBOTTOM
350
45A
  3
UCSORGFRONT
350
45D
  3
UCSORGLEFT
350
45B
  3
UCSORGRIGHT
350
45C
  3
UCSORGTOP
350
459
  3
UCSORTHOREF
350
456
  3
UCSORTHOVIEW
350
457
  3
VERSIONGUID
350
44B
  0
DICTIONARY
  5
43C
102
{ACAD_REACTORS
330
C
102
}
330
C
100
AcDbDictionary
  3
DIMASSOC
350
43D
  0
XRECORD
  5
462
102
{ACAD_REACTORS
330
461
102
}
330
461
100
AcDbXrecord
340
1E
  0
XRECORD
  5
460
102
{ACAD_REACTORS
330
45F
102
}
330
45F
100
AcDbXrecord
340
1A
  0
MLINESTYLE
  5
17
102
{ACAD_REACTORS
330
16
102
}
330
16
100
AcDbMlineStyle
  2
STANDARD
 70
     0
  3

 62
   256
 51
90.0
 52
90.0
 71
     2
 49
0.5
 62
   256
  6
BYLAYER
 49
-0.5
 62
   256
  6
BYLAYER
  0
ACDBPLACEHOLDER
  5
F
102
{ACAD_REACTORS
330
E
102
}
330
E
100
AcDbPlaceHolder
280
     0
  0
XRECORD
  5
449
102
{ACAD_REACTORS
330
43F
102
}
330
43F
100
AcDbXrecord
 90
        0
  0
XRECORD
  5
44A
102
{ACAD_REACTORS
330
43F
102
}
330
43F
100
AcDbXrecord
  1
{C26D2AB3-F8AD-4131-BBF6-1D56BBB7AB86}
  0
XRECORD
  5
442
102
{ACAD_REACTORS
330
43F
102
}
330
43F
100
AcDbXrecord
  1

  0
XRECORD
  5
448
102
{ACAD_REACTORS
330
43F
102
}
330
43F
100
AcDbXrecord
 90
        0
  0
XRECORD
  5
444
102
{ACAD_REACTORS
330
43F
102
}
330
43F
100
AcDbXrecord
340
19
  0
XRECORD
  5
447
102
{ACAD_REACTORS
330
43F
102
}
330
43F
100
AcDbXrecord
 90
    10781
  0
XRECORD
  5
445
102
{ACAD_REACTORS
330
43F
102
}
330
43F
100
AcDbXrecord
340
18
  0
XRECORD
  5
446
102
{ACAD_REACTORS
330
43F
102
}
330
43F
100
AcDbXrecord
340
E
  0
XRECORD
  5
44C
102
{ACAD_REACTORS
330
43F
102
}
330
43F
100
AcDbXrecord
 40
0.0
  0
XRECORD
  5
44F
102
{ACAD_REACTORS
330
43F
102
}
330
43F
100
AcDbXrecord
340
0
  0
XRECORD
  5
455
102
{ACAD_REACTORS
330
43F
102
}
330
43F
100
AcDbXrecord
 10
0.0
 20
0.0
 30
0.0
  0
XRECORD
  5
451
102
{ACAD_REACTORS
330
43F
102
}
330
43F
100
AcDbXrecord
 10
0.0
 20
0.0
 30
0.0
  0
XRECORD
  5
454
102
{ACAD_REACTORS
330
43F
102
}
330
43F
100
AcDbXrecord
 10
0.0
 20
0.0
 30
0.0
  0
XRECORD
  5
452
102
{ACAD_REACTORS
330
43F
102
}
330
43F
100
AcDbXrecord
 10
0.0
 20
0.0
 30
0.0
  0
XRECORD
  5
453
102
{ACAD_REACTORS
330
43F
102
}
330
43F
100
AcDbXrecord
 10
0.0
 20
0.0
 30
0.0
  0
XRECORD
  5
450
102
{ACAD_REACTORS
330
43F
102
}
330
43F
100
AcDbXrecord
 10
0.0
 20
0.0
 30
0.0
  0
XRECORD
  5
44D
102
{ACAD_REACTORS
330
43F
102
}
330
43F
100
AcDbXrecord
340
0
  0
XRECORD
  5
44E
102
{ACAD_REACTORS
330
43F
102
}
330
43F
100
AcDbXrecord
 70
     0
  0
XRECORD
  5
443
102
{ACAD_REACTORS
330
43F
102
}
330
43F
100
AcDbXrecord
  1

  0
XRECORD
  5
440
102
{ACAD_REACTORS
330
43F
102
}
330
43F
100
AcDbXrecord
 90
        1
  0
XRECORD
  5
441
102
{ACAD_REACTORS
330
43F
102
}
330
43F
100
AcDbXrecord
 90
       70
  0
XRECORD
  5
458
102
{ACAD_REACTORS
330
43F
102
}
330
43F
100
AcDbXrecord
340
0
  0
XRECORD
  5
45E
102
{ACAD_REACTORS
330
43F
102
}
330
43F
100
AcDbXrecord
 10
0.0
 20
0.0
 30
0.0
  0
XRECORD
  5
45A
102
{ACAD_REACTORS
330
43F
102
}
330
43F
100
AcDbXrecord
 10
0.0
 20
0.0
 30
0.0
  0
XRECORD
  5
45D
102
{ACAD_REACTORS
330
43F
102
}
330
43F
100
AcDbXrecord
 10
0.0
 20
0.0
 30
0.0
  0
XRECORD
  5
45B
102
{ACAD_REACTORS
330
43F
102
}
330
43F
100
AcDbXrecord
 10
0.0
 20
0.0
 30
0.0
  0
XRECORD
  5
45C
102
{ACAD_REACTORS
330
43F
102
}
330
43F
100
AcDbXrecord
 10
0.0
 20
0.0
 30
0.0
  0
XRECORD
  5
459
102
{ACAD_REACTORS
330
43F
102
}
330
43F
100
AcDbXrecord
 10
0.0
 20
0.0
 30
0.0
  0
XRECORD
  5
456
102
{ACAD_REACTORS
330
43F
102
}
330
43F
100
AcDbXrecord
340
0
  0
XRECORD
  5
457
102
{ACAD_REACTORS
330
43F
102
}
330
43F
100
AcDbXrecord
 70
     1
  0
XRECORD
  5
44B
102
{ACAD_REACTORS
330
43F
102
}
330
43F
100
AcDbXrecord
  1
{5FA454C0-75AE-4832-9EB1-19A846BEEF2F}
  0
DICTIONARYVAR
  5
43D
102
{ACAD_REACTORS
330
43C
102
}
330
43C
100
DictionaryVariables
280
     0
  1
1
  0
ENDSEC
  0
EOF
