  0
SECTION
  2
HEADER
  9
$ACADVER
  1
AC1012
  9
$DWGCODEPAGE
  3
ANSI_1252
  9
$INSBASE
 10
0.0
 20
0.0
 30
0.0
  9
$EXTMIN
 10
0.000000000000007
 20
-0.193979999999986
 30
0.0
  9
$EXTMAX
 10
252.0
 20
214.1939799999999
 30
0.0
  9
$LIMMIN
 10
0.0
 20
0.0
  9
$LIMMAX
 10
12.0
 20
9.0
  9
$ORTHOMODE
 70
     0
  9
$REGENMODE
 70
     1
  9
$FILLMODE
 70
     1
  9
$QTEXTMODE
 70
     0
  9
$MIRRTEXT
 70
     1
  9
$DRAGMODE
 70
     2
  9
$LTSCALE
 40
1.0
  9
$OSMODE
 70
    37
  9
$ATTMODE
 70
     1
  9
$TEXTSIZE
 40
0.2
  9
$TRACEWID
 40
0.05
  9
$TEXTSTYLE
  7
STANDARD
  9
$CLAYER
  8
0
  9
$CELTYPE
  6
CONTINUOUS
  9
$CECOLOR
 62
   256
  9
$CELTSCALE
 40
1.0
  9
$DELOBJ
 70
     1
  9
$DISPSILH
 70
     0
  9
$DIMSCALE
 40
1.0
  9
$DIMASZ
 40
0.18
  9
$DIMEXO
 40
0.0625
  9
$DIMDLI
 40
0.38
  9
$DIMRND
 40
0.0
  9
$DIMDLE
 40
0.0
  9
$DIMEXE
 40
0.18
  9
$DIMTP
 40
0.0
  9
$DIMTM
 40
0.0
  9
$DIMTXT
 40
0.18
  9
$DIMCEN
 40
0.09
  9
$DIMTSZ
 40
0.0
  9
$DIMTOL
 70
     0
  9
$DIMLIM
 70
     0
  9
$DIMTIH
 70
     1
  9
$DIMTOH
 70
     1
  9
$DIMSE1
 70
     0
  9
$DIMSE2
 70
     0
  9
$DIMTAD
 70
     0
  9
$DIMZIN
 70
     0
  9
$DIMBLK
  1

  9
$DIMASO
 70
     1
  9
$DIMSHO
 70
     1
  9
$DIMPOST
  1

  9
$DIMAPOST
  1

  9
$DIMALT
 70
     0
  9
$DIMALTD
 70
     2
  9
$DIMALTF
 40
25.4
  9
$DIMLFAC
 40
1.0
  9
$DIMTOFL
 70
     0
  9
$DIMTVP
 40
0.0
  9
$DIMTIX
 70
     0
  9
$DIMSOXD
 70
     0
  9
$DIMSAH
 70
     0
  9
$DIMBLK1
  1

  9
$DIMBLK2
  1

  9
$DIMSTYLE
  2
STANDARD
  9
$DIMCLRD
 70
     0
  9
$DIMCLRE
 70
     0
  9
$DIMCLRT
 70
     0
  9
$DIMTFAC
 40
1.0
  9
$DIMGAP
 40
0.09
  9
$DIMJUST
 70
     0
  9
$DIMSD1
 70
     0
  9
$DIMSD2
 70
     0
  9
$DIMTOLJ
 70
     1
  9
$DIMTZIN
 70
     0
  9
$DIMALTZ
 70
     0
  9
$DIMALTTZ
 70
     0
  9
$DIMFIT
 70
     3
  9
$DIMUPT
 70
     0
  9
$DIMUNIT
 70
     2
  9
$DIMDEC
 70
     4
  9
$DIMTDEC
 70
     4
  9
$DIMALTU
 70
     2
  9
$DIMALTTD
 70
     2
  9
$DIMTXSTY
  7
STANDARD
  9
$DIMAUNIT
 70
     0
  9
$LUNITS
 70
     2
  9
$LUPREC
 70
     4
  9
$SKETCHINC
 40
0.1
  9
$FILLETRAD
 40
0.0
  9
$AUNITS
 70
     0
  9
$AUPREC
 70
     0
  9
$MENU
  1
.
  9
$ELEVATION
 40
0.0
  9
$PELEVATION
 40
0.0
  9
$THICKNESS
 40
0.0
  9
$LIMCHECK
 70
     0
  9
$BLIPMODE
 70
     0
  9
$CHAMFERA
 40
0.0
  9
$CHAMFERB
 40
0.0
  9
$CHAMFERC
 40
0.0
  9
$CHAMFERD
 40
0.0
  9
$SKPOLY
 70
     0
  9
$TDCREATE
 40
2454691.844242801
  9
$TDUPDATE
 40
2454691.844699791
  9
$TDINDWG
 40
0.0004569907
  9
$TDUSRTIMER
 40
0.0004569907
  9
$USRTIMER
 70
     1
  9
$ANGBASE
 50
0.0
  9
$ANGDIR
 70
     0
  9
$PDMODE
 70
     0
  9
$PDSIZE
 40
0.0
  9
$PLINEWID
 40
0.0
  9
$COORDS
 70
     1
  9
$SPLFRAME
 70
     0
  9
$SPLINETYPE
 70
     6
  9
$SPLINESEGS
 70
     8
  9
$ATTDIA
 70
     0
  9
$ATTREQ
 70
     1
  9
$HANDLING
 70
 22529
  9
$HANDSEED
  5
1D9
  9
$SURFTAB1
 70
     6
  9
$SURFTAB2
 70
     6
  9
$SURFTYPE
 70
     6
  9
$SURFU
 70
     6
  9
$SURFV
 70
     6
  9
$UCSNAME
  2

  9
$UCSORG
 10
0.0
 20
0.0
 30
0.0
  9
$UCSXDIR
 10
1.0
 20
0.0
 30
0.0
  9
$UCSYDIR
 10
0.0
 20
1.0
 30
0.0
  9
$PUCSNAME
  2

  9
$PUCSORG
 10
0.0
 20
0.0
 30
0.0
  9
$PUCSXDIR
 10
1.0
 20
0.0
 30
0.0
  9
$PUCSYDIR
 10
0.0
 20
1.0
 30
0.0
  9
$USERI1
 70
     0
  9
$USERI2
 70
     0
  9
$USERI3
 70
     0
  9
$USERI4
 70
     0
  9
$USERI5
 70
     0
  9
$USERR1
 40
0.0
  9
$USERR2
 40
0.0
  9
$USERR3
 40
0.0
  9
$USERR4
 40
0.0
  9
$USERR5
 40
0.0
  9
$WORLDVIEW
 70
     1
  9
$SHADEDGE
 70
     3
  9
$SHADEDIF
 70
    70
  9
$TILEMODE
 70
     1
  9
$MAXACTVP
 70
    64
  9
$PINSBASE
 10
0.0
 20
0.0
 30
0.0
  9
$PLIMCHECK
 70
     0
  9
$PEXTMIN
 10
1.000000000000000E+20
 20
1.000000000000000E+20
 30
1.000000000000000E+20
  9
$PEXTMAX
 10
-1.000000000000000E+20
 20
-1.000000000000000E+20
 30
-1.000000000000000E+20
  9
$PLIMMIN
 10
0.0
 20
0.0
  9
$PLIMMAX
 10
12.0
 20
9.0
  9
$UNITMODE
 70
     0
  9
$VISRETAIN
 70
     1
  9
$PLINEGEN
 70
     0
  9
$PSLTSCALE
 70
     1
  9
$TREEDEPTH
 70
  3020
  9
$PICKSTYLE
 70
     1
  9
$CMLSTYLE
  2
STANDARD
  9
$CMLJUST
 70
     0
  9
$CMLSCALE
 40
1.0
  9
$SAVEIMAGES
 70
     1
  0
ENDSEC
  0
SECTION
  2
CLASSES
  0
CLASS
  1
ACDBDICTIONARYWDFLT
  2
AcDbDictionaryWithDefault
  3
AutoCAD 2000
 90
    32768
280
     0
281
     0
  0
CLASS
  1
ACDBPLACEHOLDER
  2
AcDbPlaceHolder
  3
AutoCAD 2000
 90
    32768
280
     0
281
     0
  0
CLASS
  1
LAYOUT
  2
AcDbLayout
  3
AutoCAD 2000
 90
    32768
280
     0
281
     0
  0
CLASS
  1
DICTIONARYVAR
  2
AcDbDictionaryVar
  3
AutoCAD 2000
 90
    32768
280
     0
281
     0
  0
CLASS
  1
LONG_TRANSACTION
  2
AcDbLongTransaction
  3
AutoCAD 2000
 90
    32768
280
     0
281
     0
  0
CLASS
  1
LWPOLYLINE
  2
AcDbPolyline
  3
AutoCAD 2000
 90
    32768
280
     0
281
     1
  0
CLASS
  1
HATCH
  2
AcDbHatch
  3
AutoCAD 2000
 90
    32768
280
     0
281
     1
  0
CLASS
  1
XRECORD
  2
AcDbXrecord
  3
AutoCAD 2000
 90
    32768
280
     0
281
     0
  0
ENDSEC
  0
SECTION
  2
TABLES
  0
TABLE
  2
VPORT
  5
8
330
0
100
AcDbSymbolTable
 70
     2
  0
VPORT
  5
1D4
330
8
100
AcDbSymbolTableRecord
100
AcDbViewportTableRecord
  2
*ACTIVE
 70
     0
 10
0.0
 20
0.0
 11
1.0
 21
1.0
 12
126.0
 22
107.0
 13
0.0
 23
0.0
 14
1.0
 24
1.0
 15
0.0
 25
0.0
 16
0.0
 26
0.0
 36
1.0
 17
0.0
 27
0.0
 37
0.0
 40
216.0328804092071
 41
2.078104993597951
 42
50.0
 43
0.0
 44
0.0
 50
0.0
 51
0.0
 71
     0
 72
   100
 73
     1
 74
     3
 75
     0
 76
     0
 77
     0
 78
     0
  0
ENDTAB
  0
TABLE
  2
LTYPE
  5
5
330
0
100
AcDbSymbolTable
 70
     1
  0
LTYPE
  5
13
330
5
100
AcDbSymbolTableRecord
100
AcDbLinetypeTableRecord
  2
BYBLOCK
 70
     0
  3

 72
    65
 73
     0
 40
0.0
  0
LTYPE
  5
14
330
5
100
AcDbSymbolTableRecord
100
AcDbLinetypeTableRecord
  2
BYLAYER
 70
     0
  3

 72
    65
 73
     0
 40
0.0
  0
LTYPE
  5
15
330
5
100
AcDbSymbolTableRecord
100
AcDbLinetypeTableRecord
  2
CONTINUOUS
 70
     0
  3
Solid line
 72
    65
 73
     0
 40
0.0
  0
ENDTAB
  0
TABLE
  2
LAYER
  5
2
330
0
100
AcDbSymbolTable
 70
     1
  0
LAYER
  5
10
330
2
100
AcDbSymbolTableRecord
100
AcDbLayerTableRecord
  2
0
 70
     0
 62
     7
  6
CONTINUOUS
  0
ENDTAB
  0
TABLE
  2
STYLE
  5
3
330
0
100
AcDbSymbolTable
 70
     1
  0
STYLE
  5
11
330
3
100
AcDbSymbolTableRecord
100
AcDbTextStyleTableRecord
  2
STANDARD
 70
     0
 40
0.0
 41
1.0
 50
0.0
 71
     0
 42
0.2
  3
txt
  4

  0
ENDTAB
  0
TABLE
  2
VIEW
  5
6
330
0
100
AcDbSymbolTable
 70
     0
  0
ENDTAB
  0
TABLE
  2
UCS
  5
7
330
0
100
AcDbSymbolTable
 70
     0
  0
ENDTAB
  0
TABLE
  2
APPID
  5
9
330
0
100
AcDbSymbolTable
 70
     1
  0
APPID
  5
12
330
9
100
AcDbSymbolTableRecord
100
AcDbRegAppTableRecord
  2
ACAD
 70
     0
  0
ENDTAB
  0
TABLE
  2
DIMSTYLE
  5
A
330
0
100
AcDbSymbolTable
 70
     1
  0
DIMSTYLE
105
1CD
330
A
100
AcDbSymbolTableRecord
100
AcDbDimStyleTableRecord
  2
STANDARD
 70
     0
  3

  4

  5

  6

  7

 40
1.0
 41
0.18
 42
0.0625
 43
0.38
 44
0.18
 45
0.0
 46
0.0
 47
0.0
 48
0.0
140
0.18
141
0.09
142
0.0
143
25.4
144
1.0
145
0.0
146
1.0
147
0.09
 71
     0
 72
     0
 73
     1
 74
     1
 75
     0
 76
     0
 77
     0
 78
     0
170
     0
171
     2
172
     0
173
     0
174
     0
175
     0
176
     0
177
     0
178
     0
270
     2
271
     4
272
     4
273
     2
274
     2
340
11
275
     0
280
     0
281
     0
282
     0
283
     1
284
     0
285
     0
286
     0
287
     3
288
     0
  0
ENDTAB
  0
TABLE
  2
BLOCK_RECORD
  5
1
330
0
100
AcDbSymbolTable
 70
     0
  0
BLOCK_RECORD
  5
1E
102
{ACAD_XDICTIONARY
360
1D7
102
}
330
1
100
AcDbSymbolTableRecord
100
AcDbBlockTableRecord
  2
*MODEL_SPACE
  0
BLOCK_RECORD
  5
1A
102
{ACAD_XDICTIONARY
360
1D5
102
}
330
1
100
AcDbSymbolTableRecord
100
AcDbBlockTableRecord
  2
*PAPER_SPACE
  0
ENDTAB
  0
ENDSEC
  0
SECTION
  2
BLOCKS
  0
BLOCK
  5
1F
330
1E
100
AcDbEntity
  8
0
100
AcDbBlockBegin
  2
*MODEL_SPACE
 70
     0
 10
0.0
 20
0.0
 30
0.0
  3
*MODEL_SPACE
  1

  0
ENDBLK
  5
20
330
1E
100
AcDbEntity
  8
0
100
AcDbBlockEnd
  0
BLOCK
  5
1B
330
1A
100
AcDbEntity
 67
     1
  8
0
100
AcDbBlockBegin
  2
*PAPER_SPACE
 70
     0
 10
0.0
 20
0.0
 30
0.0
  3
*PAPER_SPACE
  1

  0
ENDBLK
  5
1C
330
1A
100
AcDbEntity
 67
     1
  8
0
100
AcDbBlockEnd
  0
ENDSEC
  0
SECTION
  2
ENTITIES
  0
LINE
  5
22
330
1E
100
AcDbEntity
  8
0
100
AcDbLine
 10
13.3
 20
166.09398
 30
0.0
 11
19.39999999999999
 21
163.59398
 31
0.0
  0
LINE
  5
23
330
1E
100
AcDbEntity
  8
0
100
AcDbLine
 10
8.000000000000008
 20
170.19398
 30
0.0
 11
13.3
 21
166.09398
 31
0.0
  0
LINE
  5
24
330
1E
100
AcDbEntity
  8
0
100
AcDbLine
 10
13.1
 20
165.69398
 30
0.0
 11
19.3
 21
163.09398
 31
0.0
  0
LINE
  5
25
330
1E
100
AcDbEntity
  8
0
100
AcDbLine
 10
7.600000000000009
 20
169.79398
 30
0.0
 11
13.1
 21
165.69398
 31
0.0
  0
LINE
  5
26
330
1E
100
AcDbEntity
  8
0
100
AcDbLine
 10
3.900000000000009
 20
175.49398
 30
0.0
 11
8.000000000000008
 21
170.19398
 31
0.0
  0
LINE
  5
27
330
1E
100
AcDbEntity
  8
0
100
AcDbLine
 10
3.900000000000009
 20
175.49398
 30
0.0
 11
8.000000000000008
 21
170.19398
 31
0.0
  0
LINE
  5
28
330
1E
100
AcDbEntity
  8
0
100
AcDbLine
 10
3.500000000000009
 20
175.29398
 30
0.0
 11
7.600000000000009
 21
169.79398
 31
0.0
  0
LINE
  5
29
330
1E
100
AcDbEntity
  8
0
100
AcDbLine
 10
19.39999999999999
 20
163.59398
 30
0.0
 11
26.0
 21
162.69398
 31
0.0
  0
LINE
  5
2A
330
1E
100
AcDbEntity
  8
0
100
AcDbLine
 10
19.3
 20
163.09398
 30
0.0
 11
26.0
 21
162.1939799999999
 31
0.0
  0
LINE
  5
2B
330
1E
100
AcDbEntity
  8
0
100
AcDbLine
 10
26.0
 20
162.69398
 30
0.0
 11
32.6
 21
163.59398
 31
0.0
  0
LINE
  5
2C
330
1E
100
AcDbEntity
  8
0
100
AcDbLine
 10
26.0
 20
162.1939799999999
 30
0.0
 11
32.7
 21
163.09398
 31
0.0
  0
LINE
  5
2D
330
1E
100
AcDbEntity
  8
0
100
AcDbLine
 10
26.0
 20
174.6939799999999
 30
0.0
 11
29.5
 21
175.19398
 31
0.0
  0
LINE
  5
2E
330
1E
100
AcDbEntity
  8
0
100
AcDbLine
 10
32.6
 20
163.59398
 30
0.0
 11
38.7
 21
166.09398
 31
0.0
  0
LINE
  5
2F
330
1E
100
AcDbEntity
  8
0
100
AcDbLine
 10
32.7
 20
163.09398
 30
0.0
 11
38.9
 21
165.69398
 31
0.0
  0
LINE
  5
30
330
1E
100
AcDbEntity
  8
0
100
AcDbLine
 10
38.7
 20
166.09398
 30
0.0
 11
44.0
 21
170.19398
 31
0.0
  0
LINE
  5
31
330
1E
100
AcDbEntity
  8
0
100
AcDbLine
 10
44.0
 20
170.19398
 30
0.0
 11
48.1
 21
175.49398
 31
0.0
  0
LINE
  5
32
330
1E
100
AcDbEntity
  8
0
100
AcDbLine
 10
38.9
 20
165.69398
 30
0.0
 11
44.4
 21
169.79398
 31
0.0
  0
LINE
  5
33
330
1E
100
AcDbEntity
  8
0
100
AcDbLine
 10
44.4
 20
169.79398
 30
0.0
 11
48.5
 21
175.29398
 31
0.0
  0
LINE
  5
34
330
1E
100
AcDbEntity
  8
0
100
AcDbLine
 10
29.5
 20
175.19398
 30
0.0
 11
32.7
 21
176.49398
 31
0.0
  0
LINE
  5
35
330
1E
100
AcDbEntity
  8
0
100
AcDbLine
 10
29.6
 20
174.6939799999999
 30
0.0
 11
33.0
 21
176.09398
 31
0.0
  0
LINE
  5
36
330
1E
100
AcDbEntity
  8
0
100
AcDbLine
 10
26.0
 20
174.19398
 30
0.0
 11
29.6
 21
174.6939799999999
 31
0.0
  0
LINE
  5
37
330
1E
100
AcDbEntity
  8
0
100
AcDbLine
 10
48.1
 20
175.49398
 30
0.0
 11
50.6
 21
181.59398
 31
0.0
  0
LINE
  5
38
330
1E
100
AcDbEntity
  8
0
100
AcDbLine
 10
48.5
 20
175.29398
 30
0.0
 11
51.1
 21
181.4939799999999
 31
0.0
  0
LINE
  5
39
330
1E
100
AcDbEntity
  8
0
100
AcDbLine
 10
33.0
 20
176.09398
 30
0.0
 11
35.89999999999999
 21
178.29398
 31
0.0
  0
LINE
  5
3A
330
1E
100
AcDbEntity
  8
0
100
AcDbLine
 10
22.5
 20
175.19398
 30
0.0
 11
26.0
 21
174.6939799999999
 31
0.0
  0
LINE
  5
3B
330
1E
100
AcDbEntity
  8
0
100
AcDbLine
 10
22.39999999999999
 20
174.6939799999999
 30
0.0
 11
26.0
 21
174.19398
 31
0.0
  0
LINE
  5
3C
330
1E
100
AcDbEntity
  8
0
100
AcDbLine
 10
32.7
 20
176.49398
 30
0.0
 11
35.5
 21
178.69398
 31
0.0
  0
LINE
  5
3D
330
1E
100
AcDbEntity
  8
0
100
AcDbLine
 10
35.5
 20
178.69398
 30
0.0
 11
37.7
 21
181.4939799999999
 31
0.0
  0
LINE
  5
3E
330
1E
100
AcDbEntity
  8
0
100
AcDbLine
 10
38.1
 20
181.19398
 30
0.0
 11
39.5
 21
184.59398
 31
0.0
  0
LINE
  5
3F
330
1E
100
AcDbEntity
  8
0
100
AcDbLine
 10
35.89999999999999
 20
178.29398
 30
0.0
 11
38.1
 21
181.19398
 31
0.0
  0
LINE
  5
40
330
1E
100
AcDbEntity
  8
0
100
AcDbLine
 10
19.3
 20
176.49398
 30
0.0
 11
22.5
 21
175.19398
 31
0.0
  0
LINE
  5
41
330
1E
100
AcDbEntity
  8
0
100
AcDbLine
 10
16.5
 20
178.69398
 30
0.0
 11
19.3
 21
176.49398
 31
0.0
  0
LINE
  5
42
330
1E
100
AcDbEntity
  8
0
100
AcDbLine
 10
19.0
 20
176.09398
 30
0.0
 11
22.39999999999999
 21
174.6939799999999
 31
0.0
  0
LINE
  5
43
330
1E
100
AcDbEntity
  8
0
100
AcDbLine
 10
16.1
 20
178.29398
 30
0.0
 11
19.0
 21
176.09398
 31
0.0
  0
LINE
  5
44
330
1E
100
AcDbEntity
  8
0
100
AcDbLine
 10
0.9000000000000071
 20
181.4939799999999
 30
0.0
 11
3.500000000000009
 21
175.29398
 31
0.0
  0
LINE
  5
45
330
1E
100
AcDbEntity
  8
0
100
AcDbLine
 10
0.9000000000000071
 20
181.4939799999999
 30
0.0
 11
3.500000000000009
 21
175.29398
 31
0.0
  0
LINE
  5
46
330
1E
100
AcDbEntity
  8
0
100
AcDbLine
 10
51.1
 20
181.4939799999999
 30
0.0
 11
52.0
 21
188.1939799999999
 31
0.0
  0
LINE
  5
47
330
1E
100
AcDbEntity
  8
0
100
AcDbLine
 10
37.7
 20
181.4939799999999
 30
0.0
 11
39.0
 21
184.69398
 31
0.0
  0
LINE
  5
48
330
1E
100
AcDbEntity
  8
0
100
AcDbLine
 10
14.3
 20
181.4939799999999
 30
0.0
 11
16.5
 21
178.69398
 31
0.0
  0
LINE
  5
49
330
1E
100
AcDbEntity
  8
0
100
AcDbLine
 10
13.9
 20
181.19398
 30
0.0
 11
16.1
 21
178.29398
 31
0.0
  0
LINE
  5
4A
330
1E
100
AcDbEntity
  8
0
100
AcDbLine
 10
115.0
 20
12.46218
 30
0.0
 11
115.0
 21
10.63891
 31
0.0
  0
LINE
  5
4B
330
1E
100
AcDbEntity
  8
0
100
AcDbLine
 10
115.0
 20
12.46218
 30
0.0
 11
115.4
 21
9.704750000000018
 31
0.0
  0
LINE
  5
4C
330
1E
100
AcDbEntity
  8
0
100
AcDbLine
 10
115.0
 20
10.63891
 30
0.0
 11
115.4
 21
7.881450000000018
 31
0.0
  0
LINE
  5
4D
330
1E
100
AcDbEntity
  8
0
100
AcDbLine
 10
115.0
 20
10.63891
 30
0.0
 11
115.0
 21
12.46218
 31
0.0
  0
LINE
  5
4E
330
1E
100
AcDbEntity
  8
0
100
AcDbLine
 10
115.0
 20
31.19398
 30
0.0
 11
115.0
 21
24.89397999999999
 31
0.0
  0
LINE
  5
4F
330
1E
100
AcDbEntity
  8
0
100
AcDbLine
 10
115.0
 20
31.19398
 30
0.0
 11
115.0
 21
38.79398
 31
0.0
  0
LINE
  5
50
330
1E
100
AcDbEntity
  8
0
100
AcDbLine
 10
115.0
 20
24.89397999999999
 30
0.0
 11
115.0
 21
19.89397999999999
 31
0.0
  0
LINE
  5
51
330
1E
100
AcDbEntity
  8
0
100
AcDbLine
 10
115.0
 20
24.89397999999999
 30
0.0
 11
115.0
 21
31.19398
 31
0.0
  0
LINE
  5
52
330
1E
100
AcDbEntity
  8
0
100
AcDbLine
 10
115.0
 20
19.89397999999999
 30
0.0
 11
115.0
 21
16.19398
 31
0.0
  0
LINE
  5
53
330
1E
100
AcDbEntity
  8
0
100
AcDbLine
 10
115.0
 20
19.89397999999999
 30
0.0
 11
115.0
 21
24.89397999999999
 31
0.0
  0
LINE
  5
54
330
1E
100
AcDbEntity
  8
0
100
AcDbLine
 10
115.0
 20
16.19398
 30
0.0
 11
115.0
 21
13.89397999999999
 31
0.0
  0
LINE
  5
55
330
1E
100
AcDbEntity
  8
0
100
AcDbLine
 10
115.0
 20
16.19398
 30
0.0
 11
115.0
 21
19.89397999999999
 31
0.0
  0
LINE
  5
56
330
1E
100
AcDbEntity
  8
0
100
AcDbLine
 10
115.0
 20
13.89397999999999
 30
0.0
 11
115.0
 21
12.53168
 31
0.0
  0
LINE
  5
57
330
1E
100
AcDbEntity
  8
0
100
AcDbLine
 10
115.0
 20
13.89397999999999
 30
0.0
 11
115.0
 21
16.19398
 31
0.0
  0
LINE
  5
58
330
1E
100
AcDbEntity
  8
0
100
AcDbLine
 10
115.0
 20
12.53168
 30
0.0
 11
115.4
 21
9.774210000000019
 31
0.0
  0
LINE
  5
59
330
1E
100
AcDbEntity
  8
0
100
AcDbLine
 10
115.0
 20
12.53168
 30
0.0
 11
115.0
 21
13.89397999999999
 31
0.0
  0
LINE
  5
5A
330
1E
100
AcDbEntity
  8
0
100
AcDbLine
 10
115.0
 20
38.79398
 30
0.0
 11
115.0
 21
47.39398
 31
0.0
  0
LINE
  5
5B
330
1E
100
AcDbEntity
  8
0
100
AcDbLine
 10
115.0
 20
38.79398
 30
0.0
 11
115.0
 21
31.19398
 31
0.0
  0
LINE
  5
5C
330
1E
100
AcDbEntity
  8
0
100
AcDbLine
 10
115.0
 20
47.39398
 30
0.0
 11
115.0
 21
56.89398
 31
0.0
  0
LINE
  5
5D
330
1E
100
AcDbEntity
  8
0
100
AcDbLine
 10
115.0
 20
47.39398
 30
0.0
 11
115.0
 21
38.79398
 31
0.0
  0
LINE
  5
5E
330
1E
100
AcDbEntity
  8
0
100
AcDbLine
 10
115.0
 20
56.89398
 30
0.0
 11
115.0
 21
67.29398
 31
0.0
  0
LINE
  5
5F
330
1E
100
AcDbEntity
  8
0
100
AcDbLine
 10
115.0
 20
56.89398
 30
0.0
 11
115.0
 21
47.39398
 31
0.0
  0
LINE
  5
60
330
1E
100
AcDbEntity
  8
0
100
AcDbLine
 10
115.0
 20
67.29398
 30
0.0
 11
115.0
 21
78.09398
 31
0.0
  0
LINE
  5
61
330
1E
100
AcDbEntity
  8
0
100
AcDbLine
 10
115.0
 20
67.29398
 30
0.0
 11
115.0
 21
56.89398
 31
0.0
  0
LINE
  5
62
330
1E
100
AcDbEntity
  8
0
100
AcDbLine
 10
115.0
 20
78.09398
 30
0.0
 11
115.0
 21
89.29398
 31
0.0
  0
LINE
  5
63
330
1E
100
AcDbEntity
  8
0
100
AcDbLine
 10
115.0
 20
78.09398
 30
0.0
 11
115.0
 21
67.29398
 31
0.0
  0
LINE
  5
64
330
1E
100
AcDbEntity
  8
0
100
AcDbLine
 10
115.0
 20
89.29398
 30
0.0
 11
115.0
 21
100.69398
 31
0.0
  0
LINE
  5
65
330
1E
100
AcDbEntity
  8
0
100
AcDbLine
 10
115.0
 20
89.29398
 30
0.0
 11
115.0
 21
78.09398
 31
0.0
  0
LINE
  5
66
330
1E
100
AcDbEntity
  8
0
100
AcDbLine
 10
115.0
 20
100.69398
 30
0.0
 11
115.0
 21
112.09398
 31
0.0
  0
LINE
  5
67
330
1E
100
AcDbEntity
  8
0
100
AcDbLine
 10
115.0
 20
100.69398
 30
0.0
 11
115.0
 21
89.29398
 31
0.0
  0
LINE
  5
68
330
1E
100
AcDbEntity
  8
0
100
AcDbLine
 10
115.0
 20
153.9939799999999
 30
0.0
 11
115.0
 21
144.49398
 31
0.0
  0
LINE
  5
69
330
1E
100
AcDbEntity
  8
0
100
AcDbLine
 10
115.0
 20
153.9939799999999
 30
0.0
 11
115.0
 21
162.59398
 31
0.0
  0
LINE
  5
6A
330
1E
100
AcDbEntity
  8
0
100
AcDbLine
 10
115.0
 20
144.49398
 30
0.0
 11
115.0
 21
134.09398
 31
0.0
  0
LINE
  5
6B
330
1E
100
AcDbEntity
  8
0
100
AcDbLine
 10
115.0
 20
144.49398
 30
0.0
 11
115.0
 21
153.9939799999999
 31
0.0
  0
LINE
  5
6C
330
1E
100
AcDbEntity
  8
0
100
AcDbLine
 10
115.0
 20
134.09398
 30
0.0
 11
115.0
 21
123.29398
 31
0.0
  0
LINE
  5
6D
330
1E
100
AcDbEntity
  8
0
100
AcDbLine
 10
115.0
 20
134.09398
 30
0.0
 11
115.0
 21
144.49398
 31
0.0
  0
LINE
  5
6E
330
1E
100
AcDbEntity
  8
0
100
AcDbLine
 10
115.0
 20
123.29398
 30
0.0
 11
115.0
 21
112.09398
 31
0.0
  0
LINE
  5
6F
330
1E
100
AcDbEntity
  8
0
100
AcDbLine
 10
115.0
 20
123.29398
 30
0.0
 11
115.0
 21
134.09398
 31
0.0
  0
LINE
  5
70
330
1E
100
AcDbEntity
  8
0
100
AcDbLine
 10
115.0
 20
112.09398
 30
0.0
 11
115.0
 21
100.69398
 31
0.0
  0
LINE
  5
71
330
1E
100
AcDbEntity
  8
0
100
AcDbLine
 10
115.0
 20
112.09398
 30
0.0
 11
115.0
 21
123.29398
 31
0.0
  0
LINE
  5
72
330
1E
100
AcDbEntity
  8
0
100
AcDbLine
 10
126.0
 20
-0.193979999999986
 30
0.0
 11
128.8
 21
0.199950000000014
 31
0.0
  0
LINE
  5
73
330
1E
100
AcDbEntity
  8
0
100
AcDbLine
 10
128.8
 20
0.199950000000014
 30
0.0
 11
131.4999999999999
 21
1.283235000000009
 31
0.0
  0
LINE
  5
74
330
1E
100
AcDbEntity
  8
0
100
AcDbLine
 10
126.0
 20
-0.193979999999986
 30
0.0
 11
128.8
 21
0.199950000000014
 31
0.0
  0
LINE
  5
75
330
1E
100
AcDbEntity
  8
0
100
AcDbLine
 10
123.1999999999999
 20
0.199950000000014
 30
0.0
 11
126.0
 21
-0.193979999999986
 31
0.0
  0
LINE
  5
76
330
1E
100
AcDbEntity
  8
0
100
AcDbLine
 10
126.0
 20
1.62932900000001
 30
0.0
 11
128.8
 21
2.02325200000001
 31
0.0
  0
LINE
  5
77
330
1E
100
AcDbEntity
  8
0
100
AcDbLine
 10
128.8
 20
0.199950000000014
 30
0.0
 11
131.4999999999999
 21
1.283235000000009
 31
0.0
  0
LINE
  5
78
330
1E
100
AcDbEntity
  8
0
100
AcDbLine
 10
131.4999999999999
 20
1.283235000000009
 30
0.0
 11
133.8
 21
2.957408000000009
 31
0.0
  0
LINE
  5
79
330
1E
100
AcDbEntity
  8
0
100
AcDbLine
 10
128.8
 20
2.02325200000001
 30
0.0
 11
131.4999999999999
 21
3.106541000000009
 31
0.0
  0
LINE
  5
7A
330
1E
100
AcDbEntity
  8
0
100
AcDbLine
 10
128.8
 20
2.092711000000019
 30
0.0
 11
131.4999999999999
 21
3.17600000000002
 31
0.0
  0
LINE
  5
7B
330
1E
100
AcDbEntity
  8
0
100
AcDbLine
 10
126.0
 20
1.698788000000019
 30
0.0
 11
128.8
 21
2.092711000000019
 31
0.0
  0
LINE
  5
7C
330
1E
100
AcDbEntity
  8
0
100
AcDbLine
 10
123.1999999999999
 20
2.02325200000001
 30
0.0
 11
126.0
 21
1.62932900000001
 31
0.0
  0
LINE
  5
7D
330
1E
100
AcDbEntity
  8
0
100
AcDbLine
 10
123.1999999999999
 20
0.199950000000014
 30
0.0
 11
126.0
 21
-0.193979999999986
 31
0.0
  0
LINE
  5
7E
330
1E
100
AcDbEntity
  8
0
100
AcDbLine
 10
120.5
 20
1.283235000000009
 30
0.0
 11
123.1999999999999
 21
0.199950000000014
 31
0.0
  0
LINE
  5
7F
330
1E
100
AcDbEntity
  8
0
100
AcDbLine
 10
120.5
 20
1.283235000000009
 30
0.0
 11
123.1999999999999
 21
0.199950000000014
 31
0.0
  0
LINE
  5
80
330
1E
100
AcDbEntity
  8
0
100
AcDbLine
 10
118.2
 20
4.780710000000019
 30
0.0
 11
120.5
 21
3.106541000000009
 31
0.0
  0
LINE
  5
81
330
1E
100
AcDbEntity
  8
0
100
AcDbLine
 10
120.5
 20
3.106541000000009
 30
0.0
 11
123.1999999999999
 21
2.02325200000001
 31
0.0
  0
LINE
  5
82
330
1E
100
AcDbEntity
  8
0
100
AcDbLine
 10
118.2
 20
2.957408000000009
 30
0.0
 11
120.5
 21
1.283235000000009
 31
0.0
  0
LINE
  5
83
330
1E
100
AcDbEntity
  8
0
100
AcDbLine
 10
115.4
 20
9.704750000000018
 30
0.0
 11
116.5
 21
7.045770000000018
 31
0.0
  0
LINE
  5
84
330
1E
100
AcDbEntity
  8
0
100
AcDbLine
 10
116.5
 20
7.045770000000018
 30
0.0
 11
118.2
 21
4.780710000000019
 31
0.0
  0
LINE
  5
85
330
1E
100
AcDbEntity
  8
0
100
AcDbLine
 10
116.5
 20
5.222470000000009
 30
0.0
 11
118.2
 21
2.957408000000009
 31
0.0
  0
LINE
  5
86
330
1E
100
AcDbEntity
  8
0
100
AcDbLine
 10
115.4
 20
7.881450000000018
 30
0.0
 11
116.5
 21
5.222470000000009
 31
0.0
  0
LINE
  5
87
330
1E
100
AcDbEntity
  8
0
100
AcDbLine
 10
115.4
 20
9.774210000000019
 30
0.0
 11
116.5
 21
7.115230000000019
 31
0.0
  0
LINE
  5
88
330
1E
100
AcDbEntity
  8
0
100
AcDbLine
 10
116.5
 20
7.115230000000019
 30
0.0
 11
118.2
 21
4.850170000000019
 31
0.0
  0
LINE
  5
89
330
1E
100
AcDbEntity
  8
0
100
AcDbLine
 10
118.2
 20
4.850170000000019
 30
0.0
 11
120.5
 21
3.17600000000002
 31
0.0
  0
LINE
  5
8A
330
1E
100
AcDbEntity
  8
0
100
AcDbLine
 10
131.4999999999999
 20
3.106541000000009
 30
0.0
 11
133.8
 21
4.780710000000019
 31
0.0
  0
LINE
  5
8B
330
1E
100
AcDbEntity
  8
0
100
AcDbLine
 10
133.8
 20
4.780710000000019
 30
0.0
 11
135.4999999999999
 21
7.045770000000018
 31
0.0
  0
LINE
  5
8C
330
1E
100
AcDbEntity
  8
0
100
AcDbLine
 10
133.8
 20
2.957408000000009
 30
0.0
 11
135.4999999999999
 21
5.222470000000009
 31
0.0
  0
LINE
  5
8D
330
1E
100
AcDbEntity
  8
0
100
AcDbLine
 10
135.4999999999999
 20
7.045770000000018
 30
0.0
 11
136.5999999999999
 21
9.704750000000018
 31
0.0
  0
LINE
  5
8E
330
1E
100
AcDbEntity
  8
0
100
AcDbLine
 10
135.4999999999999
 20
5.222470000000009
 30
0.0
 11
136.5999999999999
 21
7.881450000000018
 31
0.0
  0
LINE
  5
8F
330
1E
100
AcDbEntity
  8
0
100
AcDbLine
 10
136.5999999999999
 20
9.704750000000018
 30
0.0
 11
137.0
 21
12.46218
 31
0.0
  0
LINE
  5
90
330
1E
100
AcDbEntity
  8
0
100
AcDbLine
 10
136.5999999999999
 20
7.881450000000018
 30
0.0
 11
137.0
 21
10.63891
 31
0.0
  0
LINE
  5
91
330
1E
100
AcDbEntity
  8
0
100
AcDbLine
 10
137.0
 20
12.46218
 30
0.0
 11
137.0
 21
10.63891
 31
0.0
  0
LINE
  5
92
330
1E
100
AcDbEntity
  8
0
100
AcDbLine
 10
137.0
 20
10.63891
 30
0.0
 11
137.0
 21
12.46218
 31
0.0
  0
LINE
  5
93
330
1E
100
AcDbEntity
  8
0
100
AcDbLine
 10
137.0
 20
47.39398
 30
0.0
 11
137.0
 21
56.89398
 31
0.0
  0
LINE
  5
94
330
1E
100
AcDbEntity
  8
0
100
AcDbLine
 10
137.0
 20
47.39398
 30
0.0
 11
137.0
 21
38.79398
 31
0.0
  0
LINE
  5
95
330
1E
100
AcDbEntity
  8
0
100
AcDbLine
 10
137.0
 20
56.89398
 30
0.0
 11
137.0
 21
67.29398
 31
0.0
  0
LINE
  5
96
330
1E
100
AcDbEntity
  8
0
100
AcDbLine
 10
137.0
 20
56.89398
 30
0.0
 11
137.0
 21
47.39398
 31
0.0
  0
LINE
  5
97
330
1E
100
AcDbEntity
  8
0
100
AcDbLine
 10
137.0
 20
67.29398
 30
0.0
 11
137.0
 21
78.09398
 31
0.0
  0
LINE
  5
98
330
1E
100
AcDbEntity
  8
0
100
AcDbLine
 10
137.0
 20
67.29398
 30
0.0
 11
137.0
 21
56.89398
 31
0.0
  0
LINE
  5
99
330
1E
100
AcDbEntity
  8
0
100
AcDbLine
 10
137.0
 20
78.09398
 30
0.0
 11
137.0
 21
89.29398
 31
0.0
  0
LINE
  5
9A
330
1E
100
AcDbEntity
  8
0
100
AcDbLine
 10
137.0
 20
78.09398
 30
0.0
 11
137.0
 21
67.29398
 31
0.0
  0
LINE
  5
9B
330
1E
100
AcDbEntity
  8
0
100
AcDbLine
 10
137.0
 20
89.29398
 30
0.0
 11
137.0
 21
100.69398
 31
0.0
  0
LINE
  5
9C
330
1E
100
AcDbEntity
  8
0
100
AcDbLine
 10
137.0
 20
89.29398
 30
0.0
 11
137.0
 21
78.09398
 31
0.0
  0
LINE
  5
9D
330
1E
100
AcDbEntity
  8
0
100
AcDbLine
 10
137.0
 20
38.79398
 30
0.0
 11
137.0
 21
31.19398
 31
0.0
  0
LINE
  5
9E
330
1E
100
AcDbEntity
  8
0
100
AcDbLine
 10
137.0
 20
38.79398
 30
0.0
 11
137.0
 21
47.39398
 31
0.0
  0
LINE
  5
9F
330
1E
100
AcDbEntity
  8
0
100
AcDbLine
 10
137.0
 20
31.19398
 30
0.0
 11
137.0
 21
24.89397999999999
 31
0.0
  0
LINE
  5
A0
330
1E
100
AcDbEntity
  8
0
100
AcDbLine
 10
137.0
 20
31.19398
 30
0.0
 11
137.0
 21
38.79398
 31
0.0
  0
LINE
  5
A1
330
1E
100
AcDbEntity
  8
0
100
AcDbLine
 10
137.0
 20
24.89397999999999
 30
0.0
 11
137.0
 21
19.89397999999999
 31
0.0
  0
LINE
  5
A2
330
1E
100
AcDbEntity
  8
0
100
AcDbLine
 10
137.0
 20
24.89397999999999
 30
0.0
 11
137.0
 21
31.19398
 31
0.0
  0
LINE
  5
A3
330
1E
100
AcDbEntity
  8
0
100
AcDbLine
 10
137.0
 20
19.89397999999999
 30
0.0
 11
137.0
 21
16.19398
 31
0.0
  0
LINE
  5
A4
330
1E
100
AcDbEntity
  8
0
100
AcDbLine
 10
137.0
 20
19.89397999999999
 30
0.0
 11
137.0
 21
24.89397999999999
 31
0.0
  0
LINE
  5
A5
330
1E
100
AcDbEntity
  8
0
100
AcDbLine
 10
137.0
 20
16.19398
 30
0.0
 11
137.0
 21
13.89397999999999
 31
0.0
  0
LINE
  5
A6
330
1E
100
AcDbEntity
  8
0
100
AcDbLine
 10
137.0
 20
16.19398
 30
0.0
 11
137.0
 21
19.89397999999999
 31
0.0
  0
LINE
  5
A7
330
1E
100
AcDbEntity
  8
0
100
AcDbLine
 10
137.0
 20
13.89397999999999
 30
0.0
 11
137.0
 21
12.53168
 31
0.0
  0
LINE
  5
A8
330
1E
100
AcDbEntity
  8
0
100
AcDbLine
 10
137.0
 20
13.89397999999999
 30
0.0
 11
137.0
 21
16.19398
 31
0.0
  0
LINE
  5
A9
330
1E
100
AcDbEntity
  8
0
100
AcDbLine
 10
137.0
 20
12.53168
 30
0.0
 11
137.0
 21
13.89397999999999
 31
0.0
  0
LINE
  5
AA
330
1E
100
AcDbEntity
  8
0
100
AcDbLine
 10
136.5999999999999
 20
9.774210000000019
 30
0.0
 11
137.0
 21
12.53168
 31
0.0
  0
LINE
  5
AB
330
1E
100
AcDbEntity
  8
0
100
AcDbLine
 10
135.4999999999999
 20
7.115230000000019
 30
0.0
 11
136.5999999999999
 21
9.774210000000019
 31
0.0
  0
LINE
  5
AC
330
1E
100
AcDbEntity
  8
0
100
AcDbLine
 10
133.8
 20
4.850170000000019
 30
0.0
 11
135.4999999999999
 21
7.115230000000019
 31
0.0
  0
LINE
  5
AD
330
1E
100
AcDbEntity
  8
0
100
AcDbLine
 10
131.4999999999999
 20
3.17600000000002
 30
0.0
 11
133.8
 21
4.850170000000019
 31
0.0
  0
LINE
  5
AE
330
1E
100
AcDbEntity
  8
0
100
AcDbLine
 10
137.0
 20
162.59398
 30
0.0
 11
137.0
 21
153.9939799999999
 31
0.0
  0
LINE
  5
AF
330
1E
100
AcDbEntity
  8
0
100
AcDbLine
 10
137.0
 20
162.59398
 30
0.0
 11
137.0
 21
170.19398
 31
0.0
  0
LINE
  5
B0
330
1E
100
AcDbEntity
  8
0
100
AcDbLine
 10
137.0
 20
153.9939799999999
 30
0.0
 11
137.0
 21
144.49398
 31
0.0
  0
LINE
  5
B1
330
1E
100
AcDbEntity
  8
0
100
AcDbLine
 10
137.0
 20
153.9939799999999
 30
0.0
 11
137.0
 21
162.59398
 31
0.0
  0
LINE
  5
B2
330
1E
100
AcDbEntity
  8
0
100
AcDbLine
 10
137.0
 20
144.49398
 30
0.0
 11
137.0
 21
134.09398
 31
0.0
  0
LINE
  5
B3
330
1E
100
AcDbEntity
  8
0
100
AcDbLine
 10
137.0
 20
144.49398
 30
0.0
 11
137.0
 21
153.9939799999999
 31
0.0
  0
LINE
  5
B4
330
1E
100
AcDbEntity
  8
0
100
AcDbLine
 10
137.0
 20
134.09398
 30
0.0
 11
137.0
 21
123.29398
 31
0.0
  0
LINE
  5
B5
330
1E
100
AcDbEntity
  8
0
100
AcDbLine
 10
137.0
 20
134.09398
 30
0.0
 11
137.0
 21
144.49398
 31
0.0
  0
LINE
  5
B6
330
1E
100
AcDbEntity
  8
0
100
AcDbLine
 10
137.0
 20
123.29398
 30
0.0
 11
137.0
 21
112.09398
 31
0.0
  0
LINE
  5
B7
330
1E
100
AcDbEntity
  8
0
100
AcDbLine
 10
137.0
 20
123.29398
 30
0.0
 11
137.0
 21
134.09398
 31
0.0
  0
LINE
  5
B8
330
1E
100
AcDbEntity
  8
0
100
AcDbLine
 10
137.0
 20
112.09398
 30
0.0
 11
137.0
 21
100.69398
 31
0.0
  0
LINE
  5
B9
330
1E
100
AcDbEntity
  8
0
100
AcDbLine
 10
137.0
 20
112.09398
 30
0.0
 11
137.0
 21
123.29398
 31
0.0
  0
LINE
  5
BA
330
1E
100
AcDbEntity
  8
0
100
AcDbLine
 10
137.0
 20
100.69398
 30
0.0
 11
137.0
 21
112.09398
 31
0.0
  0
LINE
  5
BB
330
1E
100
AcDbEntity
  8
0
100
AcDbLine
 10
137.0
 20
100.69398
 30
0.0
 11
137.0
 21
89.29398
 31
0.0
  0
LINE
  5
BC
330
1E
100
AcDbEntity
  8
0
100
AcDbLine
 10
120.5
 20
3.17600000000002
 30
0.0
 11
123.1999999999999
 21
2.092711000000019
 31
0.0
  0
LINE
  5
BD
330
1E
100
AcDbEntity
  8
0
100
AcDbLine
 10
123.1999999999999
 20
2.092711000000019
 30
0.0
 11
126.0
 21
1.698788000000019
 31
0.0
  0
LINE
  5
BE
330
1E
100
AcDbEntity
  8
0
100
AcDbLine
 10
115.0
 20
162.59398
 30
0.0
 11
115.0
 21
170.19398
 31
0.0
  0
LINE
  5
BF
330
1E
100
AcDbEntity
  8
0
100
AcDbLine
 10
115.0
 20
162.59398
 30
0.0
 11
115.0
 21
153.9939799999999
 31
0.0
  0
LINE
  5
C0
330
1E
100
AcDbEntity
  8
0
100
AcDbLine
 10
137.0
 20
165.3972586885249
 30
0.0
 11
138.7
 21
166.09398
 31
0.0
  0
LINE
  5
C1
330
1E
100
AcDbEntity
  8
0
100
AcDbLine
 10
138.7
 20
166.09398
 30
0.0
 11
144.0
 21
170.19398
 31
0.0
  0
LINE
  5
C2
330
1E
100
AcDbEntity
  8
0
100
AcDbLine
 10
137.0
 20
164.897205806452
 30
0.0
 11
138.9
 21
165.69398
 31
0.0
  0
LINE
  5
C3
330
1E
100
AcDbEntity
  8
0
100
AcDbLine
 10
138.9
 20
165.69398
 30
0.0
 11
144.4
 21
169.79398
 31
0.0
  0
LINE
  5
C4
330
1E
100
AcDbEntity
  8
0
100
AcDbLine
 10
144.4
 20
169.79398
 30
0.0
 11
148.5
 21
175.29398
 31
0.0
  0
LINE
  5
C5
330
1E
100
AcDbEntity
  8
0
100
AcDbLine
 10
113.3
 20
166.09398
 30
0.0
 11
115.0
 21
165.3972586885249
 31
0.0
  0
LINE
  5
C6
330
1E
100
AcDbEntity
  8
0
100
AcDbLine
 10
113.1
 20
165.69398
 30
0.0
 11
115.0
 21
164.897205806452
 31
0.0
  0
LINE
  5
C7
330
1E
100
AcDbEntity
  8
0
100
AcDbLine
 10
144.0
 20
170.19398
 30
0.0
 11
148.0999999999999
 21
175.49398
 31
0.0
  0
LINE
  5
C8
330
1E
100
AcDbEntity
  8
0
100
AcDbLine
 10
137.0
 20
170.19398
 30
0.0
 11
137.0
 21
176.49398
 31
0.0
  0
LINE
  5
C9
330
1E
100
AcDbEntity
  8
0
100
AcDbLine
 10
137.0
 20
170.19398
 30
0.0
 11
137.0
 21
162.59398
 31
0.0
  0
LINE
  5
CA
330
1E
100
AcDbEntity
  8
0
100
AcDbLine
 10
115.0
 20
170.19398
 30
0.0
 11
115.0
 21
176.49398
 31
0.0
  0
LINE
  5
CB
330
1E
100
AcDbEntity
  8
0
100
AcDbLine
 10
115.0
 20
170.19398
 30
0.0
 11
115.0
 21
162.59398
 31
0.0
  0
LINE
  5
CC
330
1E
100
AcDbEntity
  8
0
100
AcDbLine
 10
137.0
 20
176.49398
 30
0.0
 11
137.0
 21
181.4939799999999
 31
0.0
  0
LINE
  5
CD
330
1E
100
AcDbEntity
  8
0
100
AcDbLine
 10
137.0
 20
176.49398
 30
0.0
 11
137.0
 21
170.19398
 31
0.0
  0
LINE
  5
CE
330
1E
100
AcDbEntity
  8
0
100
AcDbLine
 10
115.0
 20
176.49398
 30
0.0
 11
115.0
 21
181.4939799999999
 31
0.0
  0
LINE
  5
CF
330
1E
100
AcDbEntity
  8
0
100
AcDbLine
 10
115.0
 20
176.49398
 30
0.0
 11
115.0
 21
170.19398
 31
0.0
  0
LINE
  5
D0
330
1E
100
AcDbEntity
  8
0
100
AcDbLine
 10
114.3
 20
181.4939799999999
 30
0.0
 11
115.0
 21
180.603070909091
 31
0.0
  0
LINE
  5
D1
330
1E
100
AcDbEntity
  8
0
100
AcDbLine
 10
113.9
 20
181.19398
 30
0.0
 11
115.0
 21
179.74398
 31
0.0
  0
LINE
  5
D2
330
1E
100
AcDbEntity
  8
0
100
AcDbLine
 10
137.0
 20
180.603070909091
 30
0.0
 11
137.7
 21
181.4939799999999
 31
0.0
  0
LINE
  5
D3
330
1E
100
AcDbEntity
  8
0
100
AcDbLine
 10
137.7
 20
181.4939799999999
 30
0.0
 11
139.0
 21
184.69398
 31
0.0
  0
LINE
  5
D4
330
1E
100
AcDbEntity
  8
0
100
AcDbLine
 10
137.0
 20
179.74398
 30
0.0
 11
138.1
 21
181.19398
 31
0.0
  0
LINE
  5
D5
330
1E
100
AcDbEntity
  8
0
100
AcDbLine
 10
138.1
 20
181.19398
 30
0.0
 11
139.5
 21
184.59398
 31
0.0
  0
LINE
  5
D6
330
1E
100
AcDbEntity
  8
0
100
AcDbLine
 10
148.0999999999999
 20
175.49398
 30
0.0
 11
150.6
 21
181.59398
 31
0.0
  0
LINE
  5
D7
330
1E
100
AcDbEntity
  8
0
100
AcDbLine
 10
151.0999999999999
 20
181.4939799999999
 30
0.0
 11
152.0
 21
188.1939799999999
 31
0.0
  0
LINE
  5
D8
330
1E
100
AcDbEntity
  8
0
100
AcDbLine
 10
148.5
 20
175.29398
 30
0.0
 11
151.0999999999999
 21
181.4939799999999
 31
0.0
  0
LINE
  5
D9
330
1E
100
AcDbEntity
  8
0
100
AcDbLine
 10
108.0
 20
170.19398
 30
0.0
 11
113.3
 21
166.09398
 31
0.0
  0
LINE
  5
DA
330
1E
100
AcDbEntity
  8
0
100
AcDbLine
 10
103.9
 20
175.49398
 30
0.0
 11
108.0
 21
170.19398
 31
0.0
  0
LINE
  5
DB
330
1E
100
AcDbEntity
  8
0
100
AcDbLine
 10
107.6
 20
169.79398
 30
0.0
 11
113.1
 21
165.69398
 31
0.0
  0
LINE
  5
DC
330
1E
100
AcDbEntity
  8
0
100
AcDbLine
 10
103.4999999999999
 20
175.29398
 30
0.0
 11
107.6
 21
169.79398
 31
0.0
  0
LINE
  5
DD
330
1E
100
AcDbEntity
  8
0
100
AcDbLine
 10
1.40000000000001
 20
181.59398
 30
0.0
 11
3.900000000000009
 21
175.49398
 31
0.0
  0
LINE
  5
DE
330
1E
100
AcDbEntity
  8
0
100
AcDbLine
 10
0.5000000000000071
 20
188.1939799999999
 30
0.0
 11
1.40000000000001
 21
181.59398
 31
0.0
  0
LINE
  5
DF
330
1E
100
AcDbEntity
  8
0
100
AcDbLine
 10
0.5000000000000071
 20
188.1939799999999
 30
0.0
 11
1.40000000000001
 21
194.79398
 31
0.0
  0
LINE
  5
E0
330
1E
100
AcDbEntity
  8
0
100
AcDbLine
 10
0.000000000000007
 20
188.1939799999999
 30
0.0
 11
0.9000000000000071
 21
181.4939799999999
 31
0.0
  0
LINE
  5
E1
330
1E
100
AcDbEntity
  8
0
100
AcDbLine
 10
0.000000000000007
 20
188.1939799999999
 30
0.0
 11
0.9000000000000071
 21
194.8939799999999
 31
0.0
  0
LINE
  5
E2
330
1E
100
AcDbEntity
  8
0
100
AcDbLine
 10
12.5
 20
188.1939799999999
 30
0.0
 11
13.0
 21
184.69398
 31
0.0
  0
LINE
  5
E3
330
1E
100
AcDbEntity
  8
0
100
AcDbLine
 10
12.5
 20
188.1939799999999
 30
0.0
 11
13.0
 21
191.69398
 31
0.0
  0
LINE
  5
E4
330
1E
100
AcDbEntity
  8
0
100
AcDbLine
 10
39.0
 20
184.69398
 30
0.0
 11
39.5
 21
188.1939799999999
 31
0.0
  0
LINE
  5
E5
330
1E
100
AcDbEntity
  8
0
100
AcDbLine
 10
50.6
 20
181.59398
 30
0.0
 11
51.5
 21
188.1939799999999
 31
0.0
  0
LINE
  5
E6
330
1E
100
AcDbEntity
  8
0
100
AcDbLine
 10
39.5
 20
184.59398
 30
0.0
 11
40.0
 21
188.1939799999999
 31
0.0
  0
LINE
  5
E7
330
1E
100
AcDbEntity
  8
0
100
AcDbLine
 10
13.0
 20
184.69398
 30
0.0
 11
14.3
 21
181.4939799999999
 31
0.0
  0
LINE
  5
E8
330
1E
100
AcDbEntity
  8
0
100
AcDbLine
 10
12.5
 20
184.59398
 30
0.0
 11
13.9
 21
181.19398
 31
0.0
  0
LINE
  5
E9
330
1E
100
AcDbEntity
  8
0
100
AcDbLine
 10
12.0
 20
188.1939799999999
 30
0.0
 11
12.5
 21
184.59398
 31
0.0
  0
LINE
  5
EA
330
1E
100
AcDbEntity
  8
0
100
AcDbLine
 10
12.0
 20
188.1939799999999
 30
0.0
 11
12.5
 21
191.79398
 31
0.0
  0
LINE
  5
EB
330
1E
100
AcDbEntity
  8
0
100
AcDbLine
 10
137.0
 20
181.4939799999999
 30
0.0
 11
137.0
 21
185.19398
 31
0.0
  0
LINE
  5
EC
330
1E
100
AcDbEntity
  8
0
100
AcDbLine
 10
137.0
 20
181.4939799999999
 30
0.0
 11
137.0
 21
176.49398
 31
0.0
  0
LINE
  5
ED
330
1E
100
AcDbEntity
  8
0
100
AcDbLine
 10
115.0
 20
181.4939799999999
 30
0.0
 11
115.0
 21
185.19398
 31
0.0
  0
LINE
  5
EE
330
1E
100
AcDbEntity
  8
0
100
AcDbLine
 10
115.0
 20
181.4939799999999
 30
0.0
 11
115.0
 21
176.49398
 31
0.0
  0
LINE
  5
EF
330
1E
100
AcDbEntity
  8
0
100
AcDbLine
 10
113.0
 20
184.69398
 30
0.0
 11
114.3
 21
181.4939799999999
 31
0.0
  0
LINE
  5
F0
330
1E
100
AcDbEntity
  8
0
100
AcDbLine
 10
112.5
 20
184.59398
 30
0.0
 11
113.9
 21
181.19398
 31
0.0
  0
LINE
  5
F1
330
1E
100
AcDbEntity
  8
0
100
AcDbLine
 10
115.0
 20
185.19398
 30
0.0
 11
115.0
 21
187.4939799999999
 31
0.0
  0
LINE
  5
F2
330
1E
100
AcDbEntity
  8
0
100
AcDbLine
 10
115.0
 20
185.19398
 30
0.0
 11
115.0
 21
181.4939799999999
 31
0.0
  0
LINE
  5
F3
330
1E
100
AcDbEntity
  8
0
100
AcDbLine
 10
137.0
 20
185.19398
 30
0.0
 11
137.0
 21
187.4939799999999
 31
0.0
  0
LINE
  5
F4
330
1E
100
AcDbEntity
  8
0
100
AcDbLine
 10
137.0
 20
185.19398
 30
0.0
 11
137.0
 21
181.4939799999999
 31
0.0
  0
LINE
  5
F5
330
1E
100
AcDbEntity
  8
0
100
AcDbLine
 10
137.0
 20
187.4939799999999
 30
0.0
 11
137.0
 21
188.1939799999999
 31
0.0
  0
LINE
  5
F6
330
1E
100
AcDbEntity
  8
0
100
AcDbLine
 10
137.0
 20
187.4939799999999
 30
0.0
 11
137.0
 21
185.19398
 31
0.0
  0
LINE
  5
F7
330
1E
100
AcDbEntity
  8
0
100
AcDbLine
 10
115.0
 20
187.4939799999999
 30
0.0
 11
115.0
 21
188.1939799999999
 31
0.0
  0
LINE
  5
F8
330
1E
100
AcDbEntity
  8
0
100
AcDbLine
 10
115.0
 20
187.4939799999999
 30
0.0
 11
115.0
 21
185.19398
 31
0.0
  0
LINE
  5
F9
330
1E
100
AcDbEntity
  8
0
100
AcDbLine
 10
139.0
 20
184.69398
 30
0.0
 11
139.5
 21
188.1939799999999
 31
0.0
  0
LINE
  5
FA
330
1E
100
AcDbEntity
  8
0
100
AcDbLine
 10
139.5
 20
184.59398
 30
0.0
 11
140.0
 21
188.1939799999999
 31
0.0
  0
LINE
  5
FB
330
1E
100
AcDbEntity
  8
0
100
AcDbLine
 10
112.5
 20
188.1939799999999
 30
0.0
 11
113.0
 21
191.69398
 31
0.0
  0
LINE
  5
FC
330
1E
100
AcDbEntity
  8
0
100
AcDbLine
 10
112.5
 20
188.1939799999999
 30
0.0
 11
113.0
 21
184.69398
 31
0.0
  0
LINE
  5
FD
330
1E
100
AcDbEntity
  8
0
100
AcDbLine
 10
112.0
 20
188.1939799999999
 30
0.0
 11
112.5
 21
191.79398
 31
0.0
  0
LINE
  5
FE
330
1E
100
AcDbEntity
  8
0
100
AcDbLine
 10
112.0
 20
188.1939799999999
 30
0.0
 11
112.5
 21
184.59398
 31
0.0
  0
LINE
  5
FF
330
1E
100
AcDbEntity
  8
0
100
AcDbLine
 10
150.6
 20
181.59398
 30
0.0
 11
151.5
 21
188.1939799999999
 31
0.0
  0
LINE
  5
100
330
1E
100
AcDbEntity
  8
0
100
AcDbLine
 10
101.4
 20
181.59398
 30
0.0
 11
103.9
 21
175.49398
 31
0.0
  0
LINE
  5
101
330
1E
100
AcDbEntity
  8
0
100
AcDbLine
 10
100.5
 20
188.1939799999999
 30
0.0
 11
101.4
 21
181.59398
 31
0.0
  0
LINE
  5
102
330
1E
100
AcDbEntity
  8
0
100
AcDbLine
 10
100.5
 20
188.1939799999999
 30
0.0
 11
101.4
 21
194.79398
 31
0.0
  0
LINE
  5
103
330
1E
100
AcDbEntity
  8
0
100
AcDbLine
 10
100.0
 20
188.1939799999999
 30
0.0
 11
100.9
 21
181.4939799999999
 31
0.0
  0
LINE
  5
104
330
1E
100
AcDbEntity
  8
0
100
AcDbLine
 10
100.0
 20
188.1939799999999
 30
0.0
 11
100.9
 21
194.8939799999999
 31
0.0
  0
LINE
  5
105
330
1E
100
AcDbEntity
  8
0
100
AcDbLine
 10
100.9
 20
181.4939799999999
 30
0.0
 11
103.4999999999999
 21
175.29398
 31
0.0
  0
LINE
  5
106
330
1E
100
AcDbEntity
  8
0
100
AcDbLine
 10
200.8999999999999
 20
181.4939799999999
 30
0.0
 11
203.5
 21
175.29398
 31
0.0
  0
LINE
  5
107
330
1E
100
AcDbEntity
  8
0
100
AcDbLine
 10
200.4999999999999
 20
188.1939799999999
 30
0.0
 11
201.4
 21
194.79398
 31
0.0
  0
LINE
  5
108
330
1E
100
AcDbEntity
  8
0
100
AcDbLine
 10
200.4999999999999
 20
188.1939799999999
 30
0.0
 11
201.4
 21
181.59398
 31
0.0
  0
LINE
  5
109
330
1E
100
AcDbEntity
  8
0
100
AcDbLine
 10
39.0
 20
191.69398
 30
0.0
 11
39.5
 21
188.1939799999999
 31
0.0
  0
LINE
  5
10A
330
1E
100
AcDbEntity
  8
0
100
AcDbLine
 10
39.5
 20
191.79398
 30
0.0
 11
40.0
 21
188.1939799999999
 31
0.0
  0
LINE
  5
10B
330
1E
100
AcDbEntity
  8
0
100
AcDbLine
 10
13.0
 20
191.69398
 30
0.0
 11
14.3
 21
194.8939799999999
 31
0.0
  0
LINE
  5
10C
330
1E
100
AcDbEntity
  8
0
100
AcDbLine
 10
0.9000000000000071
 20
194.8939799999999
 30
0.0
 11
3.500000000000009
 21
201.09398
 31
0.0
  0
LINE
  5
10D
330
1E
100
AcDbEntity
  8
0
100
AcDbLine
 10
3.900000000000009
 20
200.8939799999999
 30
0.0
 11
8.000000000000008
 21
206.19398
 31
0.0
  0
LINE
  5
10E
330
1E
100
AcDbEntity
  8
0
100
AcDbLine
 10
3.900000000000009
 20
200.8939799999999
 30
0.0
 11
8.000000000000008
 21
206.19398
 31
0.0
  0
LINE
  5
10F
330
1E
100
AcDbEntity
  8
0
100
AcDbLine
 10
1.40000000000001
 20
194.79398
 30
0.0
 11
3.900000000000009
 21
200.8939799999999
 31
0.0
  0
LINE
  5
110
330
1E
100
AcDbEntity
  8
0
100
AcDbLine
 10
0.9000000000000071
 20
194.8939799999999
 30
0.0
 11
3.500000000000009
 21
201.09398
 31
0.0
  0
LINE
  5
111
330
1E
100
AcDbEntity
  8
0
100
AcDbLine
 10
13.3
 20
210.2939799999999
 30
0.0
 11
19.39999999999999
 21
212.7939799999999
 31
0.0
  0
LINE
  5
112
330
1E
100
AcDbEntity
  8
0
100
AcDbLine
 10
8.000000000000008
 20
206.19398
 30
0.0
 11
13.3
 21
210.2939799999999
 31
0.0
  0
LINE
  5
113
330
1E
100
AcDbEntity
  8
0
100
AcDbLine
 10
13.1
 20
210.6939799999999
 30
0.0
 11
19.3
 21
213.2939799999999
 31
0.0
  0
LINE
  5
114
330
1E
100
AcDbEntity
  8
0
100
AcDbLine
 10
7.600000000000009
 20
206.59398
 30
0.0
 11
13.1
 21
210.6939799999999
 31
0.0
  0
LINE
  5
115
330
1E
100
AcDbEntity
  8
0
100
AcDbLine
 10
3.500000000000009
 20
201.09398
 30
0.0
 11
7.600000000000009
 21
206.59398
 31
0.0
  0
LINE
  5
116
330
1E
100
AcDbEntity
  8
0
100
AcDbLine
 10
35.5
 20
197.69398
 30
0.0
 11
37.7
 21
194.8939799999999
 31
0.0
  0
LINE
  5
117
330
1E
100
AcDbEntity
  8
0
100
AcDbLine
 10
37.7
 20
194.8939799999999
 30
0.0
 11
39.0
 21
191.69398
 31
0.0
  0
LINE
  5
118
330
1E
100
AcDbEntity
  8
0
100
AcDbLine
 10
50.6
 20
194.79398
 30
0.0
 11
51.5
 21
188.1939799999999
 31
0.0
  0
LINE
  5
119
330
1E
100
AcDbEntity
  8
0
100
AcDbLine
 10
51.1
 20
194.8939799999999
 30
0.0
 11
52.0
 21
188.1939799999999
 31
0.0
  0
LINE
  5
11A
330
1E
100
AcDbEntity
  8
0
100
AcDbLine
 10
38.1
 20
195.19398
 30
0.0
 11
39.5
 21
191.79398
 31
0.0
  0
LINE
  5
11B
330
1E
100
AcDbEntity
  8
0
100
AcDbLine
 10
35.89999999999999
 20
198.09398
 30
0.0
 11
38.1
 21
195.19398
 31
0.0
  0
LINE
  5
11C
330
1E
100
AcDbEntity
  8
0
100
AcDbLine
 10
16.5
 20
197.69398
 30
0.0
 11
19.3
 21
199.89398
 31
0.0
  0
LINE
  5
11D
330
1E
100
AcDbEntity
  8
0
100
AcDbLine
 10
14.3
 20
194.8939799999999
 30
0.0
 11
16.5
 21
197.69398
 31
0.0
  0
LINE
  5
11E
330
1E
100
AcDbEntity
  8
0
100
AcDbLine
 10
29.5
 20
201.1939799999999
 30
0.0
 11
32.7
 21
199.89398
 31
0.0
  0
LINE
  5
11F
330
1E
100
AcDbEntity
  8
0
100
AcDbLine
 10
32.7
 20
199.89398
 30
0.0
 11
35.5
 21
197.69398
 31
0.0
  0
LINE
  5
120
330
1E
100
AcDbEntity
  8
0
100
AcDbLine
 10
48.1
 20
200.8939799999999
 30
0.0
 11
50.6
 21
194.79398
 31
0.0
  0
LINE
  5
121
330
1E
100
AcDbEntity
  8
0
100
AcDbLine
 10
48.5
 20
201.09398
 30
0.0
 11
51.1
 21
194.8939799999999
 31
0.0
  0
LINE
  5
122
330
1E
100
AcDbEntity
  8
0
100
AcDbLine
 10
33.0
 20
200.29398
 30
0.0
 11
35.89999999999999
 21
198.09398
 31
0.0
  0
LINE
  5
123
330
1E
100
AcDbEntity
  8
0
100
AcDbLine
 10
26.0
 20
201.69398
 30
0.0
 11
29.5
 21
201.1939799999999
 31
0.0
  0
LINE
  5
124
330
1E
100
AcDbEntity
  8
0
100
AcDbLine
 10
29.6
 20
201.69398
 30
0.0
 11
33.0
 21
200.29398
 31
0.0
  0
LINE
  5
125
330
1E
100
AcDbEntity
  8
0
100
AcDbLine
 10
22.5
 20
201.1939799999999
 30
0.0
 11
26.0
 21
201.69398
 31
0.0
  0
LINE
  5
126
330
1E
100
AcDbEntity
  8
0
100
AcDbLine
 10
19.3
 20
199.89398
 30
0.0
 11
22.5
 21
201.1939799999999
 31
0.0
  0
LINE
  5
127
330
1E
100
AcDbEntity
  8
0
100
AcDbLine
 10
19.39999999999999
 20
212.7939799999999
 30
0.0
 11
26.0
 21
213.6939799999999
 31
0.0
  0
LINE
  5
128
330
1E
100
AcDbEntity
  8
0
100
AcDbLine
 10
26.0
 20
213.6939799999999
 30
0.0
 11
32.6
 21
212.7939799999999
 31
0.0
  0
LINE
  5
129
330
1E
100
AcDbEntity
  8
0
100
AcDbLine
 10
26.0
 20
214.1939799999999
 30
0.0
 11
32.7
 21
213.2939799999999
 31
0.0
  0
LINE
  5
12A
330
1E
100
AcDbEntity
  8
0
100
AcDbLine
 10
19.3
 20
213.2939799999999
 30
0.0
 11
26.0
 21
214.1939799999999
 31
0.0
  0
LINE
  5
12B
330
1E
100
AcDbEntity
  8
0
100
AcDbLine
 10
38.7
 20
210.2939799999999
 30
0.0
 11
44.0
 21
206.19398
 31
0.0
  0
LINE
  5
12C
330
1E
100
AcDbEntity
  8
0
100
AcDbLine
 10
44.0
 20
206.19398
 30
0.0
 11
48.1
 21
200.8939799999999
 31
0.0
  0
LINE
  5
12D
330
1E
100
AcDbEntity
  8
0
100
AcDbLine
 10
44.4
 20
206.59398
 30
0.0
 11
48.5
 21
201.09398
 31
0.0
  0
LINE
  5
12E
330
1E
100
AcDbEntity
  8
0
100
AcDbLine
 10
32.6
 20
212.7939799999999
 30
0.0
 11
38.7
 21
210.2939799999999
 31
0.0
  0
LINE
  5
12F
330
1E
100
AcDbEntity
  8
0
100
AcDbLine
 10
32.7
 20
213.2939799999999
 30
0.0
 11
38.9
 21
210.6939799999999
 31
0.0
  0
LINE
  5
130
330
1E
100
AcDbEntity
  8
0
100
AcDbLine
 10
38.9
 20
210.6939799999999
 30
0.0
 11
44.4
 21
206.59398
 31
0.0
  0
LINE
  5
131
330
1E
100
AcDbEntity
  8
0
100
AcDbLine
 10
26.0
 20
202.19398
 30
0.0
 11
29.6
 21
201.69398
 31
0.0
  0
LINE
  5
132
330
1E
100
AcDbEntity
  8
0
100
AcDbLine
 10
22.39999999999999
 20
201.69398
 30
0.0
 11
26.0
 21
202.19398
 31
0.0
  0
LINE
  5
133
330
1E
100
AcDbEntity
  8
0
100
AcDbLine
 10
19.0
 20
200.29398
 30
0.0
 11
22.39999999999999
 21
201.69398
 31
0.0
  0
LINE
  5
134
330
1E
100
AcDbEntity
  8
0
100
AcDbLine
 10
16.1
 20
198.09398
 30
0.0
 11
19.0
 21
200.29398
 31
0.0
  0
LINE
  5
135
330
1E
100
AcDbEntity
  8
0
100
AcDbLine
 10
13.9
 20
195.19398
 30
0.0
 11
16.1
 21
198.09398
 31
0.0
  0
LINE
  5
136
330
1E
100
AcDbEntity
  8
0
100
AcDbLine
 10
12.5
 20
191.79398
 30
0.0
 11
13.9
 21
195.19398
 31
0.0
  0
LINE
  5
137
330
1E
100
AcDbEntity
  8
0
100
AcDbLine
 10
137.0
 20
188.1939799999999
 30
0.0
 11
137.0
 21
187.4939799999999
 31
0.0
  0
LINE
  5
138
330
1E
100
AcDbEntity
  8
0
100
AcDbLine
 10
136.5999999999999
 20
190.99398
 30
0.0
 11
137.0
 21
188.1939799999999
 31
0.0
  0
LINE
  5
139
330
1E
100
AcDbEntity
  8
0
100
AcDbLine
 10
115.0
 20
188.1939799999999
 30
0.0
 11
115.0
 21
187.4939799999999
 31
0.0
  0
LINE
  5
13A
330
1E
100
AcDbEntity
  8
0
100
AcDbLine
 10
115.0
 20
188.1939799999999
 30
0.0
 11
115.4
 21
190.99398
 31
0.0
  0
LINE
  5
13B
330
1E
100
AcDbEntity
  8
0
100
AcDbLine
 10
115.4
 20
190.99398
 30
0.0
 11
116.5
 21
193.69398
 31
0.0
  0
LINE
  5
13C
330
1E
100
AcDbEntity
  8
0
100
AcDbLine
 10
139.0
 20
191.69398
 30
0.0
 11
139.5
 21
188.1939799999999
 31
0.0
  0
LINE
  5
13D
330
1E
100
AcDbEntity
  8
0
100
AcDbLine
 10
135.4999999999999
 20
193.69398
 30
0.0
 11
136.5999999999999
 21
190.99398
 31
0.0
  0
LINE
  5
13E
330
1E
100
AcDbEntity
  8
0
100
AcDbLine
 10
116.5
 20
193.69398
 30
0.0
 11
118.2
 21
195.9939799999999
 31
0.0
  0
LINE
  5
13F
330
1E
100
AcDbEntity
  8
0
100
AcDbLine
 10
139.5
 20
191.79398
 30
0.0
 11
140.0
 21
188.1939799999999
 31
0.0
  0
LINE
  5
140
330
1E
100
AcDbEntity
  8
0
100
AcDbLine
 10
113.0
 20
191.69398
 30
0.0
 11
114.3
 21
194.8939799999999
 31
0.0
  0
LINE
  5
141
330
1E
100
AcDbEntity
  8
0
100
AcDbLine
 10
112.5
 20
191.79398
 30
0.0
 11
113.9
 21
195.19398
 31
0.0
  0
LINE
  5
142
330
1E
100
AcDbEntity
  8
0
100
AcDbLine
 10
137.7
 20
194.8939799999999
 30
0.0
 11
139.0
 21
191.69398
 31
0.0
  0
LINE
  5
143
330
1E
100
AcDbEntity
  8
0
100
AcDbLine
 10
138.1
 20
195.19398
 30
0.0
 11
139.5
 21
191.79398
 31
0.0
  0
LINE
  5
144
330
1E
100
AcDbEntity
  8
0
100
AcDbLine
 10
114.3
 20
194.8939799999999
 30
0.0
 11
116.5
 21
197.69398
 31
0.0
  0
LINE
  5
145
330
1E
100
AcDbEntity
  8
0
100
AcDbLine
 10
118.2
 20
195.9939799999999
 30
0.0
 11
120.5
 21
197.69398
 31
0.0
  0
LINE
  5
146
330
1E
100
AcDbEntity
  8
0
100
AcDbLine
 10
131.4999999999999
 20
197.69398
 30
0.0
 11
133.8
 21
195.9939799999999
 31
0.0
  0
LINE
  5
147
330
1E
100
AcDbEntity
  8
0
100
AcDbLine
 10
120.5
 20
197.69398
 30
0.0
 11
123.1999999999999
 21
198.79398
 31
0.0
  0
LINE
  5
148
330
1E
100
AcDbEntity
  8
0
100
AcDbLine
 10
128.8
 20
198.79398
 30
0.0
 11
131.4999999999999
 21
197.69398
 31
0.0
  0
LINE
  5
149
330
1E
100
AcDbEntity
  8
0
100
AcDbLine
 10
126.0
 20
199.19398
 30
0.0
 11
128.8
 21
198.79398
 31
0.0
  0
LINE
  5
14A
330
1E
100
AcDbEntity
  8
0
100
AcDbLine
 10
123.1999999999999
 20
198.79398
 30
0.0
 11
126.0
 21
199.19398
 31
0.0
  0
LINE
  5
14B
330
1E
100
AcDbEntity
  8
0
100
AcDbLine
 10
132.6999999999999
 20
199.89398
 30
0.0
 11
135.4999999999999
 21
197.69398
 31
0.0
  0
LINE
  5
14C
330
1E
100
AcDbEntity
  8
0
100
AcDbLine
 10
135.4999999999999
 20
197.69398
 30
0.0
 11
137.7
 21
194.8939799999999
 31
0.0
  0
LINE
  5
14D
330
1E
100
AcDbEntity
  8
0
100
AcDbLine
 10
135.8999999999999
 20
198.09398
 30
0.0
 11
138.1
 21
195.19398
 31
0.0
  0
LINE
  5
14E
330
1E
100
AcDbEntity
  8
0
100
AcDbLine
 10
133.0
 20
200.29398
 30
0.0
 11
135.8999999999999
 21
198.09398
 31
0.0
  0
LINE
  5
14F
330
1E
100
AcDbEntity
  8
0
100
AcDbLine
 10
119.3
 20
199.89398
 30
0.0
 11
122.5
 21
201.1939799999999
 31
0.0
  0
LINE
  5
150
330
1E
100
AcDbEntity
  8
0
100
AcDbLine
 10
116.5
 20
197.69398
 30
0.0
 11
119.3
 21
199.89398
 31
0.0
  0
LINE
  5
151
330
1E
100
AcDbEntity
  8
0
100
AcDbLine
 10
119.0
 20
200.29398
 30
0.0
 11
122.3999999999999
 21
201.69398
 31
0.0
  0
LINE
  5
152
330
1E
100
AcDbEntity
  8
0
100
AcDbLine
 10
116.1
 20
198.09398
 30
0.0
 11
119.0
 21
200.29398
 31
0.0
  0
LINE
  5
153
330
1E
100
AcDbEntity
  8
0
100
AcDbLine
 10
113.9
 20
195.19398
 30
0.0
 11
116.1
 21
198.09398
 31
0.0
  0
LINE
  5
154
330
1E
100
AcDbEntity
  8
0
100
AcDbLine
 10
148.0999999999999
 20
200.8939799999999
 30
0.0
 11
150.6
 21
194.79398
 31
0.0
  0
LINE
  5
155
330
1E
100
AcDbEntity
  8
0
100
AcDbLine
 10
150.6
 20
194.79398
 30
0.0
 11
151.5
 21
188.1939799999999
 31
0.0
  0
LINE
  5
156
330
1E
100
AcDbEntity
  8
0
100
AcDbLine
 10
151.0999999999999
 20
194.8939799999999
 30
0.0
 11
152.0
 21
188.1939799999999
 31
0.0
  0
LINE
  5
157
330
1E
100
AcDbEntity
  8
0
100
AcDbLine
 10
148.5
 20
201.09398
 30
0.0
 11
151.0999999999999
 21
194.8939799999999
 31
0.0
  0
LINE
  5
158
330
1E
100
AcDbEntity
  8
0
100
AcDbLine
 10
103.9
 20
200.8939799999999
 30
0.0
 11
108.0
 21
206.19398
 31
0.0
  0
LINE
  5
159
330
1E
100
AcDbEntity
  8
0
100
AcDbLine
 10
101.4
 20
194.79398
 30
0.0
 11
103.9
 21
200.8939799999999
 31
0.0
  0
LINE
  5
15A
330
1E
100
AcDbEntity
  8
0
100
AcDbLine
 10
129.4999999999999
 20
201.1939799999999
 30
0.0
 11
132.6999999999999
 21
199.89398
 31
0.0
  0
LINE
  5
15B
330
1E
100
AcDbEntity
  8
0
100
AcDbLine
 10
126.0
 20
201.69398
 30
0.0
 11
129.4999999999999
 21
201.1939799999999
 31
0.0
  0
LINE
  5
15C
330
1E
100
AcDbEntity
  8
0
100
AcDbLine
 10
126.0
 20
202.19398
 30
0.0
 11
129.6
 21
201.69398
 31
0.0
  0
LINE
  5
15D
330
1E
100
AcDbEntity
  8
0
100
AcDbLine
 10
129.6
 20
201.69398
 30
0.0
 11
133.0
 21
200.29398
 31
0.0
  0
LINE
  5
15E
330
1E
100
AcDbEntity
  8
0
100
AcDbLine
 10
122.5
 20
201.1939799999999
 30
0.0
 11
126.0
 21
201.69398
 31
0.0
  0
LINE
  5
15F
330
1E
100
AcDbEntity
  8
0
100
AcDbLine
 10
122.3999999999999
 20
201.69398
 30
0.0
 11
126.0
 21
202.19398
 31
0.0
  0
LINE
  5
160
330
1E
100
AcDbEntity
  8
0
100
AcDbLine
 10
138.7
 20
210.2939799999999
 30
0.0
 11
144.0
 21
206.19398
 31
0.0
  0
LINE
  5
161
330
1E
100
AcDbEntity
  8
0
100
AcDbLine
 10
144.0
 20
206.19398
 30
0.0
 11
148.0999999999999
 21
200.8939799999999
 31
0.0
  0
LINE
  5
162
330
1E
100
AcDbEntity
  8
0
100
AcDbLine
 10
144.4
 20
206.59398
 30
0.0
 11
148.5
 21
201.09398
 31
0.0
  0
LINE
  5
163
330
1E
100
AcDbEntity
  8
0
100
AcDbLine
 10
138.9
 20
210.6939799999999
 30
0.0
 11
144.4
 21
206.59398
 31
0.0
  0
LINE
  5
164
330
1E
100
AcDbEntity
  8
0
100
AcDbLine
 10
113.3
 20
210.2939799999999
 30
0.0
 11
119.4
 21
212.7939799999999
 31
0.0
  0
LINE
  5
165
330
1E
100
AcDbEntity
  8
0
100
AcDbLine
 10
108.0
 20
206.19398
 30
0.0
 11
113.3
 21
210.2939799999999
 31
0.0
  0
LINE
  5
166
330
1E
100
AcDbEntity
  8
0
100
AcDbLine
 10
132.6
 20
212.7939799999999
 30
0.0
 11
138.7
 21
210.2939799999999
 31
0.0
  0
LINE
  5
167
330
1E
100
AcDbEntity
  8
0
100
AcDbLine
 10
126.0
 20
213.6939799999999
 30
0.0
 11
132.6
 21
212.7939799999999
 31
0.0
  0
LINE
  5
168
330
1E
100
AcDbEntity
  8
0
100
AcDbLine
 10
126.0
 20
214.1939799999999
 30
0.0
 11
132.6999999999999
 21
213.2939799999999
 31
0.0
  0
LINE
  5
169
330
1E
100
AcDbEntity
  8
0
100
AcDbLine
 10
132.6999999999999
 20
213.2939799999999
 30
0.0
 11
138.9
 21
210.6939799999999
 31
0.0
  0
LINE
  5
16A
330
1E
100
AcDbEntity
  8
0
100
AcDbLine
 10
119.4
 20
212.7939799999999
 30
0.0
 11
126.0
 21
213.6939799999999
 31
0.0
  0
LINE
  5
16B
330
1E
100
AcDbEntity
  8
0
100
AcDbLine
 10
119.3
 20
213.2939799999999
 30
0.0
 11
126.0
 21
214.1939799999999
 31
0.0
  0
LINE
  5
16C
330
1E
100
AcDbEntity
  8
0
100
AcDbLine
 10
113.1
 20
210.6939799999999
 30
0.0
 11
119.3
 21
213.2939799999999
 31
0.0
  0
LINE
  5
16D
330
1E
100
AcDbEntity
  8
0
100
AcDbLine
 10
107.6
 20
206.59398
 30
0.0
 11
113.1
 21
210.6939799999999
 31
0.0
  0
LINE
  5
16E
330
1E
100
AcDbEntity
  8
0
100
AcDbLine
 10
103.4999999999999
 20
201.09398
 30
0.0
 11
107.6
 21
206.59398
 31
0.0
  0
LINE
  5
16F
330
1E
100
AcDbEntity
  8
0
100
AcDbLine
 10
100.9
 20
194.8939799999999
 30
0.0
 11
103.4999999999999
 21
201.09398
 31
0.0
  0
LINE
  5
170
330
1E
100
AcDbEntity
  8
0
100
AcDbLine
 10
200.0
 20
188.1939799999999
 30
0.0
 11
200.8999999999999
 21
194.8939799999999
 31
0.0
  0
LINE
  5
171
330
1E
100
AcDbEntity
  8
0
100
AcDbLine
 10
200.0
 20
188.1939799999999
 30
0.0
 11
200.8999999999999
 21
181.4939799999999
 31
0.0
  0
LINE
  5
172
330
1E
100
AcDbEntity
  8
0
100
AcDbLine
 10
201.4
 20
181.59398
 30
0.0
 11
203.9
 21
175.49398
 31
0.0
  0
LINE
  5
173
330
1E
100
AcDbEntity
  8
0
100
AcDbLine
 10
208.0
 20
170.19398
 30
0.0
 11
213.3
 21
166.09398
 31
0.0
  0
LINE
  5
174
330
1E
100
AcDbEntity
  8
0
100
AcDbLine
 10
207.6
 20
169.79398
 30
0.0
 11
213.0999999999999
 21
165.69398
 31
0.0
  0
LINE
  5
175
330
1E
100
AcDbEntity
  8
0
100
AcDbLine
 10
203.9
 20
175.49398
 30
0.0
 11
208.0
 21
170.19398
 31
0.0
  0
LINE
  5
176
330
1E
100
AcDbEntity
  8
0
100
AcDbLine
 10
203.5
 20
175.29398
 30
0.0
 11
207.6
 21
169.79398
 31
0.0
  0
LINE
  5
177
330
1E
100
AcDbEntity
  8
0
100
AcDbLine
 10
212.5
 20
184.59398
 30
0.0
 11
213.9
 21
181.19398
 31
0.0
  0
LINE
  5
178
330
1E
100
AcDbEntity
  8
0
100
AcDbLine
 10
213.3
 20
166.09398
 30
0.0
 11
219.3999999999999
 21
163.59398
 31
0.0
  0
LINE
  5
179
330
1E
100
AcDbEntity
  8
0
100
AcDbLine
 10
213.0999999999999
 20
165.69398
 30
0.0
 11
219.3
 21
163.09398
 31
0.0
  0
LINE
  5
17A
330
1E
100
AcDbEntity
  8
0
100
AcDbLine
 10
216.5
 20
178.69398
 30
0.0
 11
219.3
 21
176.49398
 31
0.0
  0
LINE
  5
17B
330
1E
100
AcDbEntity
  8
0
100
AcDbLine
 10
216.1
 20
178.29398
 30
0.0
 11
219.0
 21
176.09398
 31
0.0
  0
LINE
  5
17C
330
1E
100
AcDbEntity
  8
0
100
AcDbLine
 10
226.0
 20
162.69398
 30
0.0
 11
232.6
 21
163.59398
 31
0.0
  0
LINE
  5
17D
330
1E
100
AcDbEntity
  8
0
100
AcDbLine
 10
232.6
 20
163.59398
 30
0.0
 11
238.7
 21
166.09398
 31
0.0
  0
LINE
  5
17E
330
1E
100
AcDbEntity
  8
0
100
AcDbLine
 10
232.6999999999999
 20
163.09398
 30
0.0
 11
238.9
 21
165.69398
 31
0.0
  0
LINE
  5
17F
330
1E
100
AcDbEntity
  8
0
100
AcDbLine
 10
226.0
 20
162.1939799999999
 30
0.0
 11
232.6999999999999
 21
163.09398
 31
0.0
  0
LINE
  5
180
330
1E
100
AcDbEntity
  8
0
100
AcDbLine
 10
226.0
 20
174.6939799999999
 30
0.0
 11
229.4999999999999
 21
175.19398
 31
0.0
  0
LINE
  5
181
330
1E
100
AcDbEntity
  8
0
100
AcDbLine
 10
229.5999999999999
 20
174.6939799999999
 30
0.0
 11
233.0
 21
176.09398
 31
0.0
  0
LINE
  5
182
330
1E
100
AcDbEntity
  8
0
100
AcDbLine
 10
226.0
 20
174.19398
 30
0.0
 11
229.5999999999999
 21
174.6939799999999
 31
0.0
  0
LINE
  5
183
330
1E
100
AcDbEntity
  8
0
100
AcDbLine
 10
238.7
 20
166.09398
 30
0.0
 11
244.0
 21
170.19398
 31
0.0
  0
LINE
  5
184
330
1E
100
AcDbEntity
  8
0
100
AcDbLine
 10
238.9
 20
165.69398
 30
0.0
 11
244.3999999999999
 21
169.79398
 31
0.0
  0
LINE
  5
185
330
1E
100
AcDbEntity
  8
0
100
AcDbLine
 10
219.3999999999999
 20
163.59398
 30
0.0
 11
226.0
 21
162.69398
 31
0.0
  0
LINE
  5
186
330
1E
100
AcDbEntity
  8
0
100
AcDbLine
 10
219.3
 20
163.09398
 30
0.0
 11
226.0
 21
162.1939799999999
 31
0.0
  0
LINE
  5
187
330
1E
100
AcDbEntity
  8
0
100
AcDbLine
 10
229.4999999999999
 20
175.19398
 30
0.0
 11
232.6999999999999
 21
176.49398
 31
0.0
  0
LINE
  5
188
330
1E
100
AcDbEntity
  8
0
100
AcDbLine
 10
232.6999999999999
 20
176.49398
 30
0.0
 11
235.4999999999999
 21
178.69398
 31
0.0
  0
LINE
  5
189
330
1E
100
AcDbEntity
  8
0
100
AcDbLine
 10
235.4999999999999
 20
178.69398
 30
0.0
 11
237.6999999999999
 21
181.4939799999999
 31
0.0
  0
LINE
  5
18A
330
1E
100
AcDbEntity
  8
0
100
AcDbLine
 10
235.8999999999999
 20
178.29398
 30
0.0
 11
238.0999999999999
 21
181.19398
 31
0.0
  0
LINE
  5
18B
330
1E
100
AcDbEntity
  8
0
100
AcDbLine
 10
238.0999999999999
 20
181.19398
 30
0.0
 11
239.5
 21
184.59398
 31
0.0
  0
LINE
  5
18C
330
1E
100
AcDbEntity
  8
0
100
AcDbLine
 10
233.0
 20
176.09398
 30
0.0
 11
235.8999999999999
 21
178.29398
 31
0.0
  0
LINE
  5
18D
330
1E
100
AcDbEntity
  8
0
100
AcDbLine
 10
222.5
 20
175.19398
 30
0.0
 11
226.0
 21
174.6939799999999
 31
0.0
  0
LINE
  5
18E
330
1E
100
AcDbEntity
  8
0
100
AcDbLine
 10
219.3
 20
176.49398
 30
0.0
 11
222.5
 21
175.19398
 31
0.0
  0
LINE
  5
18F
330
1E
100
AcDbEntity
  8
0
100
AcDbLine
 10
222.4
 20
174.6939799999999
 30
0.0
 11
226.0
 21
174.19398
 31
0.0
  0
LINE
  5
190
330
1E
100
AcDbEntity
  8
0
100
AcDbLine
 10
219.0
 20
176.09398
 30
0.0
 11
222.4
 21
174.6939799999999
 31
0.0
  0
LINE
  5
191
330
1E
100
AcDbEntity
  8
0
100
AcDbLine
 10
237.6999999999999
 20
181.4939799999999
 30
0.0
 11
239.0
 21
184.69398
 31
0.0
  0
LINE
  5
192
330
1E
100
AcDbEntity
  8
0
100
AcDbLine
 10
239.0
 20
184.69398
 30
0.0
 11
239.5
 21
188.1939799999999
 31
0.0
  0
LINE
  5
193
330
1E
100
AcDbEntity
  8
0
100
AcDbLine
 10
214.3
 20
181.4939799999999
 30
0.0
 11
216.5
 21
178.69398
 31
0.0
  0
LINE
  5
194
330
1E
100
AcDbEntity
  8
0
100
AcDbLine
 10
213.0
 20
184.69398
 30
0.0
 11
214.3
 21
181.4939799999999
 31
0.0
  0
LINE
  5
195
330
1E
100
AcDbEntity
  8
0
100
AcDbLine
 10
213.9
 20
181.19398
 30
0.0
 11
216.1
 21
178.29398
 31
0.0
  0
LINE
  5
196
330
1E
100
AcDbEntity
  8
0
100
AcDbLine
 10
244.0
 20
170.19398
 30
0.0
 11
248.0999999999999
 21
175.49398
 31
0.0
  0
LINE
  5
197
330
1E
100
AcDbEntity
  8
0
100
AcDbLine
 10
248.0999999999999
 20
175.49398
 30
0.0
 11
250.5999999999999
 21
181.59398
 31
0.0
  0
LINE
  5
198
330
1E
100
AcDbEntity
  8
0
100
AcDbLine
 10
244.3999999999999
 20
169.79398
 30
0.0
 11
248.4999999999999
 21
175.29398
 31
0.0
  0
LINE
  5
199
330
1E
100
AcDbEntity
  8
0
100
AcDbLine
 10
248.4999999999999
 20
175.29398
 30
0.0
 11
251.1
 21
181.4939799999999
 31
0.0
  0
LINE
  5
19A
330
1E
100
AcDbEntity
  8
0
100
AcDbLine
 10
239.5
 20
184.59398
 30
0.0
 11
240.0
 21
188.1939799999999
 31
0.0
  0
LINE
  5
19B
330
1E
100
AcDbEntity
  8
0
100
AcDbLine
 10
250.5999999999999
 20
181.59398
 30
0.0
 11
251.5
 21
188.1939799999999
 31
0.0
  0
LINE
  5
19C
330
1E
100
AcDbEntity
  8
0
100
AcDbLine
 10
251.1
 20
181.4939799999999
 30
0.0
 11
252.0
 21
188.1939799999999
 31
0.0
  0
LINE
  5
19D
330
1E
100
AcDbEntity
  8
0
100
AcDbLine
 10
239.0
 20
191.69398
 30
0.0
 11
239.5
 21
188.1939799999999
 31
0.0
  0
LINE
  5
19E
330
1E
100
AcDbEntity
  8
0
100
AcDbLine
 10
239.5
 20
191.79398
 30
0.0
 11
240.0
 21
188.1939799999999
 31
0.0
  0
LINE
  5
19F
330
1E
100
AcDbEntity
  8
0
100
AcDbLine
 10
213.0
 20
191.69398
 30
0.0
 11
214.3
 21
194.8939799999999
 31
0.0
  0
LINE
  5
1A0
330
1E
100
AcDbEntity
  8
0
100
AcDbLine
 10
212.5
 20
188.1939799999999
 30
0.0
 11
213.0
 21
191.69398
 31
0.0
  0
LINE
  5
1A1
330
1E
100
AcDbEntity
  8
0
100
AcDbLine
 10
212.5
 20
188.1939799999999
 30
0.0
 11
213.0
 21
184.69398
 31
0.0
  0
LINE
  5
1A2
330
1E
100
AcDbEntity
  8
0
100
AcDbLine
 10
214.3
 20
194.8939799999999
 30
0.0
 11
216.5
 21
197.69398
 31
0.0
  0
LINE
  5
1A3
330
1E
100
AcDbEntity
  8
0
100
AcDbLine
 10
235.4999999999999
 20
197.69398
 30
0.0
 11
237.6999999999999
 21
194.8939799999999
 31
0.0
  0
LINE
  5
1A4
330
1E
100
AcDbEntity
  8
0
100
AcDbLine
 10
237.6999999999999
 20
194.8939799999999
 30
0.0
 11
239.0
 21
191.69398
 31
0.0
  0
LINE
  5
1A5
330
1E
100
AcDbEntity
  8
0
100
AcDbLine
 10
250.5999999999999
 20
194.79398
 30
0.0
 11
251.5
 21
188.1939799999999
 31
0.0
  0
LINE
  5
1A6
330
1E
100
AcDbEntity
  8
0
100
AcDbLine
 10
251.1
 20
194.8939799999999
 30
0.0
 11
252.0
 21
188.1939799999999
 31
0.0
  0
LINE
  5
1A7
330
1E
100
AcDbEntity
  8
0
100
AcDbLine
 10
238.0999999999999
 20
195.19398
 30
0.0
 11
239.5
 21
191.79398
 31
0.0
  0
LINE
  5
1A8
330
1E
100
AcDbEntity
  8
0
100
AcDbLine
 10
232.6999999999999
 20
199.89398
 30
0.0
 11
235.4999999999999
 21
197.69398
 31
0.0
  0
LINE
  5
1A9
330
1E
100
AcDbEntity
  8
0
100
AcDbLine
 10
235.8999999999999
 20
198.09398
 30
0.0
 11
238.0999999999999
 21
195.19398
 31
0.0
  0
LINE
  5
1AA
330
1E
100
AcDbEntity
  8
0
100
AcDbLine
 10
233.0
 20
200.29398
 30
0.0
 11
235.8999999999999
 21
198.09398
 31
0.0
  0
LINE
  5
1AB
330
1E
100
AcDbEntity
  8
0
100
AcDbLine
 10
219.3
 20
199.89398
 30
0.0
 11
222.5
 21
201.1939799999999
 31
0.0
  0
LINE
  5
1AC
330
1E
100
AcDbEntity
  8
0
100
AcDbLine
 10
216.5
 20
197.69398
 30
0.0
 11
219.3
 21
199.89398
 31
0.0
  0
LINE
  5
1AD
330
1E
100
AcDbEntity
  8
0
100
AcDbLine
 10
216.1
 20
198.09398
 30
0.0
 11
219.0
 21
200.29398
 31
0.0
  0
LINE
  5
1AE
330
1E
100
AcDbEntity
  8
0
100
AcDbLine
 10
248.0999999999999
 20
200.8939799999999
 30
0.0
 11
250.5999999999999
 21
194.79398
 31
0.0
  0
LINE
  5
1AF
330
1E
100
AcDbEntity
  8
0
100
AcDbLine
 10
219.0
 20
200.29398
 30
0.0
 11
222.4
 21
201.69398
 31
0.0
  0
LINE
  5
1B0
330
1E
100
AcDbEntity
  8
0
100
AcDbLine
 10
213.9
 20
195.19398
 30
0.0
 11
216.1
 21
198.09398
 31
0.0
  0
LINE
  5
1B1
330
1E
100
AcDbEntity
  8
0
100
AcDbLine
 10
212.5
 20
191.79398
 30
0.0
 11
213.9
 21
195.19398
 31
0.0
  0
LINE
  5
1B2
330
1E
100
AcDbEntity
  8
0
100
AcDbLine
 10
212.0
 20
188.1939799999999
 30
0.0
 11
212.5
 21
191.79398
 31
0.0
  0
LINE
  5
1B3
330
1E
100
AcDbEntity
  8
0
100
AcDbLine
 10
212.0
 20
188.1939799999999
 30
0.0
 11
212.5
 21
184.59398
 31
0.0
  0
LINE
  5
1B4
330
1E
100
AcDbEntity
  8
0
100
AcDbLine
 10
248.4999999999999
 20
201.09398
 30
0.0
 11
251.1
 21
194.8939799999999
 31
0.0
  0
LINE
  5
1B5
330
1E
100
AcDbEntity
  8
0
100
AcDbLine
 10
203.9
 20
200.8939799999999
 30
0.0
 11
208.0
 21
206.19398
 31
0.0
  0
LINE
  5
1B6
330
1E
100
AcDbEntity
  8
0
100
AcDbLine
 10
201.4
 20
194.79398
 30
0.0
 11
203.9
 21
200.8939799999999
 31
0.0
  0
LINE
  5
1B7
330
1E
100
AcDbEntity
  8
0
100
AcDbLine
 10
229.4999999999999
 20
201.1939799999999
 30
0.0
 11
232.6999999999999
 21
199.89398
 31
0.0
  0
LINE
  5
1B8
330
1E
100
AcDbEntity
  8
0
100
AcDbLine
 10
226.0
 20
201.69398
 30
0.0
 11
229.4999999999999
 21
201.1939799999999
 31
0.0
  0
LINE
  5
1B9
330
1E
100
AcDbEntity
  8
0
100
AcDbLine
 10
226.0
 20
202.19398
 30
0.0
 11
229.5999999999999
 21
201.69398
 31
0.0
  0
LINE
  5
1BA
330
1E
100
AcDbEntity
  8
0
100
AcDbLine
 10
244.0
 20
206.19398
 30
0.0
 11
248.0999999999999
 21
200.8939799999999
 31
0.0
  0
LINE
  5
1BB
330
1E
100
AcDbEntity
  8
0
100
AcDbLine
 10
238.7
 20
210.2939799999999
 30
0.0
 11
244.0
 21
206.19398
 31
0.0
  0
LINE
  5
1BC
330
1E
100
AcDbEntity
  8
0
100
AcDbLine
 10
244.3999999999999
 20
206.59398
 30
0.0
 11
248.4999999999999
 21
201.09398
 31
0.0
  0
LINE
  5
1BD
330
1E
100
AcDbEntity
  8
0
100
AcDbLine
 10
229.5999999999999
 20
201.69398
 30
0.0
 11
233.0
 21
200.29398
 31
0.0
  0
LINE
  5
1BE
330
1E
100
AcDbEntity
  8
0
100
AcDbLine
 10
222.5
 20
201.1939799999999
 30
0.0
 11
226.0
 21
201.69398
 31
0.0
  0
LINE
  5
1BF
330
1E
100
AcDbEntity
  8
0
100
AcDbLine
 10
222.4
 20
201.69398
 30
0.0
 11
226.0
 21
202.19398
 31
0.0
  0
LINE
  5
1C0
330
1E
100
AcDbEntity
  8
0
100
AcDbLine
 10
238.9
 20
210.6939799999999
 30
0.0
 11
244.3999999999999
 21
206.59398
 31
0.0
  0
LINE
  5
1C1
330
1E
100
AcDbEntity
  8
0
100
AcDbLine
 10
213.3
 20
210.2939799999999
 30
0.0
 11
219.3999999999999
 21
212.7939799999999
 31
0.0
  0
LINE
  5
1C2
330
1E
100
AcDbEntity
  8
0
100
AcDbLine
 10
208.0
 20
206.19398
 30
0.0
 11
213.3
 21
210.2939799999999
 31
0.0
  0
LINE
  5
1C3
330
1E
100
AcDbEntity
  8
0
100
AcDbLine
 10
232.6
 20
212.7939799999999
 30
0.0
 11
238.7
 21
210.2939799999999
 31
0.0
  0
LINE
  5
1C4
330
1E
100
AcDbEntity
  8
0
100
AcDbLine
 10
226.0
 20
213.6939799999999
 30
0.0
 11
232.6
 21
212.7939799999999
 31
0.0
  0
LINE
  5
1C5
330
1E
100
AcDbEntity
  8
0
100
AcDbLine
 10
226.0
 20
214.1939799999999
 30
0.0
 11
232.6999999999999
 21
213.2939799999999
 31
0.0
  0
LINE
  5
1C6
330
1E
100
AcDbEntity
  8
0
100
AcDbLine
 10
232.6999999999999
 20
213.2939799999999
 30
0.0
 11
238.9
 21
210.6939799999999
 31
0.0
  0
LINE
  5
1C7
330
1E
100
AcDbEntity
  8
0
100
AcDbLine
 10
219.3999999999999
 20
212.7939799999999
 30
0.0
 11
226.0
 21
213.6939799999999
 31
0.0
  0
LINE
  5
1C8
330
1E
100
AcDbEntity
  8
0
100
AcDbLine
 10
219.3
 20
213.2939799999999
 30
0.0
 11
226.0
 21
214.1939799999999
 31
0.0
  0
LINE
  5
1C9
330
1E
100
AcDbEntity
  8
0
100
AcDbLine
 10
213.0999999999999
 20
210.6939799999999
 30
0.0
 11
219.3
 21
213.2939799999999
 31
0.0
  0
LINE
  5
1CA
330
1E
100
AcDbEntity
  8
0
100
AcDbLine
 10
207.6
 20
206.59398
 30
0.0
 11
213.0999999999999
 21
210.6939799999999
 31
0.0
  0
LINE
  5
1CB
330
1E
100
AcDbEntity
  8
0
100
AcDbLine
 10
203.5
 20
201.09398
 30
0.0
 11
207.6
 21
206.59398
 31
0.0
  0
LINE
  5
1CC
330
1E
100
AcDbEntity
  8
0
100
AcDbLine
 10
200.8999999999999
 20
194.8939799999999
 30
0.0
 11
203.5
 21
201.09398
 31
0.0
  0
LINE
  5
1D1
330
1E
100
AcDbEntity
  8
0
100
AcDbLine
 10
133.8
 20
195.9939799999999
 30
0.0
 11
135.4999999999999
 21
193.69398
 31
0.0
  0
ENDSEC
  0
SECTION
  2
OBJECTS
  0
DICTIONARY
  5
C
330
0
100
AcDbDictionary
  3
ACAD_GROUP
350
D
  3
ACAD_LAYOUT
350
19
  3
ACAD_MLINESTYLE
350
16
  3
ACAD_PLOTSETTINGS
350
18
1001
ACAD
1000
TREAT_AS_HARD
1070
     0
  0
DICTIONARY
  5
1D7
330
1E
100
AcDbDictionary
  3
ACAD_LAYOUTSELFREF
350
1D8
  0
DICTIONARY
  5
1D5
330
1A
100
AcDbDictionary
  3
ACAD_LAYOUTSELFREF
350
1D6
  0
DICTIONARY
  5
D
102
{ACAD_REACTORS
330
C
102
}
330
C
100
AcDbDictionary
1001
ACAD
1000
TREAT_AS_HARD
1070
     0
  0
DICTIONARY
  5
19
102
{ACAD_REACTORS
330
C
102
}
330
C
100
AcDbDictionary
1001
ACAD
1000
TREAT_AS_HARD
1070
     0
  0
DICTIONARY
  5
16
102
{ACAD_REACTORS
330
C
102
}
330
C
100
AcDbDictionary
  3
STANDARD
350
17
1001
ACAD
1000
TREAT_AS_HARD
1070
     0
  0
DICTIONARY
  5
18
102
{ACAD_REACTORS
330
C
102
}
330
C
100
AcDbDictionary
1001
ACAD
1000
TREAT_AS_HARD
1070
     0
  0
XRECORD
  5
1D8
102
{ACAD_REACTORS
330
1D7
102
}
330
1D7
100
AcDbXrecord
340
1E
  0
XRECORD
  5
1D6
102
{ACAD_REACTORS
330
1D5
102
}
330
1D5
100
AcDbXrecord
340
1A
  0
MLINESTYLE
  5
17
102
{ACAD_REACTORS
330
16
102
}
330
16
100
AcDbMlineStyle
  2
STANDARD
 70
     0
  3

 62
   256
 51
90.0
 52
90.0
 71
     2
 49
0.5
 62
   256
  6
BYLAYER
 49
-0.5
 62
   256
  6
BYLAYER
  0
ENDSEC
  0
EOF
