  0
SECTION
  2
HEADER
  9
$ACADVER
  1
AC1014
  9
$ACADMAINTVER
 70
     9
  9
$DWGCODEPAGE
  3
ANSI_1252
  9
$INSBASE
 10
0.0
 20
0.0
 30
0.0
  9
$EXTMIN
 10
-0.0000000000000048
 20
0.0570215000000065
 30
0.0
  9
$EXTMAX
 10
150.0
 20
254.9429785
 30
0.0
  9
$LIMMIN
 10
0.0
 20
0.0
  9
$LIMMAX
 10
12.0
 20
9.0
  9
$ORTHOMODE
 70
     0
  9
$REGENMODE
 70
     1
  9
$FILLMODE
 70
     1
  9
$QTEXTMODE
 70
     0
  9
$MIRRTEXT
 70
     1
  9
$DRAGMODE
 70
     2
  9
$LTSCALE
 40
1.0
  9
$OSMODE
 70
    37
  9
$ATTMODE
 70
     1
  9
$TEXTSIZE
 40
0.2
  9
$TRACEWID
 40
0.05
  9
$TEXTSTYLE
  7
STANDARD
  9
$CLAYER
  8
0
  9
$CELTYPE
  6
CONTINUOUS
  9
$CECOLOR
 62
   256
  9
$CELTSCALE
 40
1.0
  9
$DELOBJ
 70
     1
  9
$DISPSILH
 70
     0
  9
$DIMSCALE
 40
1.0
  9
$DIMASZ
 40
0.18
  9
$DIMEXO
 40
0.0625
  9
$DIMDLI
 40
0.38
  9
$DIMRND
 40
0.0
  9
$DIMDLE
 40
0.0
  9
$DIMEXE
 40
0.18
  9
$DIMTP
 40
0.0
  9
$DIMTM
 40
0.0
  9
$DIMTXT
 40
0.18
  9
$DIMCEN
 40
0.09
  9
$DIMTSZ
 40
0.0
  9
$DIMTOL
 70
     0
  9
$DIMLIM
 70
     0
  9
$DIMTIH
 70
     1
  9
$DIMTOH
 70
     1
  9
$DIMSE1
 70
     0
  9
$DIMSE2
 70
     0
  9
$DIMTAD
 70
     0
  9
$DIMZIN
 70
     0
  9
$DIMBLK
  1

  9
$DIMASO
 70
     1
  9
$DIMSHO
 70
     1
  9
$DIMPOST
  1

  9
$DIMAPOST
  1

  9
$DIMALT
 70
     0
  9
$DIMALTD
 70
     2
  9
$DIMALTF
 40
25.4
  9
$DIMLFAC
 40
1.0
  9
$DIMTOFL
 70
     0
  9
$DIMTVP
 40
0.0
  9
$DIMTIX
 70
     0
  9
$DIMSOXD
 70
     0
  9
$DIMSAH
 70
     0
  9
$DIMBLK1
  1

  9
$DIMBLK2
  1

  9
$DIMSTYLE
  2
STANDARD
  9
$DIMCLRD
 70
     0
  9
$DIMCLRE
 70
     0
  9
$DIMCLRT
 70
     0
  9
$DIMTFAC
 40
1.0
  9
$DIMGAP
 40
0.09
  9
$DIMJUST
 70
     0
  9
$DIMSD1
 70
     0
  9
$DIMSD2
 70
     0
  9
$DIMTOLJ
 70
     1
  9
$DIMTZIN
 70
     0
  9
$DIMALTZ
 70
     0
  9
$DIMALTTZ
 70
     0
  9
$DIMFIT
 70
     3
  9
$DIMUPT
 70
     0
  9
$DIMUNIT
 70
     2
  9
$DIMDEC
 70
     4
  9
$DIMTDEC
 70
     4
  9
$DIMALTU
 70
     2
  9
$DIMALTTD
 70
     2
  9
$DIMTXSTY
  7
STANDARD
  9
$DIMAUNIT
 70
     0
  9
$LUNITS
 70
     2
  9
$LUPREC
 70
     4
  9
$SKETCHINC
 40
0.1
  9
$FILLETRAD
 40
0.0
  9
$AUNITS
 70
     0
  9
$AUPREC
 70
     0
  9
$MENU
  1
.
  9
$ELEVATION
 40
0.0
  9
$PELEVATION
 40
0.0
  9
$THICKNESS
 40
0.0
  9
$LIMCHECK
 70
     0
  9
$BLIPMODE
 70
     0
  9
$CHAMFERA
 40
0.0
  9
$CHAMFERB
 40
0.0
  9
$CHAMFERC
 40
0.0
  9
$CHAMFERD
 40
0.0
  9
$SKPOLY
 70
     0
  9
$TDCREATE
 40
2454691.844887153
  9
$TDUPDATE
 40
2454691.845197118
  9
$TDINDWG
 40
0.0003099653
  9
$TDUSRTIMER
 40
0.0003099653
  9
$USRTIMER
 70
     1
  9
$ANGBASE
 50
0.0
  9
$ANGDIR
 70
     0
  9
$PDMODE
 70
     0
  9
$PDSIZE
 40
0.0
  9
$PLINEWID
 40
0.0
  9
$COORDS
 70
     1
  9
$SPLFRAME
 70
     0
  9
$SPLINETYPE
 70
     6
  9
$SPLINESEGS
 70
     8
  9
$ATTDIA
 70
     0
  9
$ATTREQ
 70
     1
  9
$HANDLING
 70
 22529
  9
$HANDSEED
  5
258
  9
$SURFTAB1
 70
     6
  9
$SURFTAB2
 70
     6
  9
$SURFTYPE
 70
     6
  9
$SURFU
 70
     6
  9
$SURFV
 70
     6
  9
$UCSNAME
  2

  9
$UCSORG
 10
0.0
 20
0.0
 30
0.0
  9
$UCSXDIR
 10
1.0
 20
0.0
 30
0.0
  9
$UCSYDIR
 10
0.0
 20
1.0
 30
0.0
  9
$PUCSNAME
  2

  9
$PUCSORG
 10
0.0
 20
0.0
 30
0.0
  9
$PUCSXDIR
 10
1.0
 20
0.0
 30
0.0
  9
$PUCSYDIR
 10
0.0
 20
1.0
 30
0.0
  9
$USERI1
 70
     0
  9
$USERI2
 70
     0
  9
$USERI3
 70
     0
  9
$USERI4
 70
     0
  9
$USERI5
 70
     0
  9
$USERR1
 40
0.0
  9
$USERR2
 40
0.0
  9
$USERR3
 40
0.0
  9
$USERR4
 40
0.0
  9
$USERR5
 40
0.0
  9
$WORLDVIEW
 70
     1
  9
$SHADEDGE
 70
     3
  9
$SHADEDIF
 70
    70
  9
$TILEMODE
 70
     1
  9
$MAXACTVP
 70
    64
  9
$PINSBASE
 10
0.0
 20
0.0
 30
0.0
  9
$PLIMCHECK
 70
     0
  9
$PEXTMIN
 10
1.000000000000000E+20
 20
1.000000000000000E+20
 30
1.000000000000000E+20
  9
$PEXTMAX
 10
-1.000000000000000E+20
 20
-1.000000000000000E+20
 30
-1.000000000000000E+20
  9
$PLIMMIN
 10
0.0
 20
0.0
  9
$PLIMMAX
 10
12.0
 20
9.0
  9
$UNITMODE
 70
     0
  9
$VISRETAIN
 70
     1
  9
$PLINEGEN
 70
     0
  9
$PSLTSCALE
 70
     1
  9
$TREEDEPTH
 70
  3020
  9
$PICKSTYLE
 70
     1
  9
$CMLSTYLE
  2
STANDARD
  9
$CMLJUST
 70
     0
  9
$CMLSCALE
 40
1.0
  9
$PROXYGRAPHICS
 70
     1
  9
$MEASUREMENT
 70
     0
  0
ENDSEC
  0
SECTION
  2
CLASSES
  0
CLASS
  1
ACDBDICTIONARYWDFLT
  2
AcDbDictionaryWithDefault
  3
AutoCAD 2000
 90
        0
280
     0
281
     0
  0
CLASS
  1
ACDBPLACEHOLDER
  2
AcDbPlaceHolder
  3
AutoCAD 2000
 90
        0
280
     0
281
     0
  0
CLASS
  1
LAYOUT
  2
AcDbLayout
  3
AutoCAD 2000
 90
        0
280
     0
281
     0
  0
CLASS
  1
DICTIONARYVAR
  2
AcDbDictionaryVar
  3
AutoCAD 2000
 90
        0
280
     0
281
     0
  0
CLASS
  1
LONG_TRANSACTION
  2
AcDbLongTransaction
  3
AutoCAD 2000
 90
        0
280
     0
281
     0
  0
CLASS
  1
LWPOLYLINE
  2
AcDbPolyline
  3
AutoCAD 2000
 90
        0
280
     0
281
     1
  0
CLASS
  1
HATCH
  2
AcDbHatch
  3
AutoCAD 2000
 90
        0
280
     0
281
     1
  0
CLASS
  1
XRECORD
  2
AcDbXrecord
  3
AutoCAD 2000
 90
        0
280
     0
281
     0
  0
ENDSEC
  0
SECTION
  2
TABLES
  0
TABLE
  2
VPORT
  5
8
330
0
100
AcDbSymbolTable
 70
     2
  0
VPORT
  5
233
330
8
100
AcDbSymbolTableRecord
100
AcDbViewportTableRecord
  2
*ACTIVE
 70
     0
 10
0.0
 20
0.0
 11
1.0
 21
1.0
 12
75.0
 22
127.5
 13
0.0
 23
0.0
 14
1.0
 24
1.0
 15
0.0
 25
0.0
 16
0.0
 26
0.0
 36
1.0
 17
0.0
 27
0.0
 37
0.0
 40
256.8416037289002
 41
2.078104993597951
 42
50.0
 43
0.0
 44
0.0
 50
0.0
 51
0.0
 71
     0
 72
   100
 73
     1
 74
     3
 75
     0
 76
     0
 77
     0
 78
     0
  0
ENDTAB
  0
TABLE
  2
LTYPE
  5
5
330
0
100
AcDbSymbolTable
 70
     1
  0
LTYPE
  5
13
330
5
100
AcDbSymbolTableRecord
100
AcDbLinetypeTableRecord
  2
BYBLOCK
 70
     0
  3

 72
    65
 73
     0
 40
0.0
  0
LTYPE
  5
14
330
5
100
AcDbSymbolTableRecord
100
AcDbLinetypeTableRecord
  2
BYLAYER
 70
     0
  3

 72
    65
 73
     0
 40
0.0
  0
LTYPE
  5
15
330
5
100
AcDbSymbolTableRecord
100
AcDbLinetypeTableRecord
  2
CONTINUOUS
 70
     0
  3
Solid line
 72
    65
 73
     0
 40
0.0
  0
ENDTAB
  0
TABLE
  2
LAYER
  5
2
330
0
100
AcDbSymbolTable
 70
     1
  0
LAYER
  5
10
330
2
100
AcDbSymbolTableRecord
100
AcDbLayerTableRecord
  2
0
 70
     0
 62
     7
  6
CONTINUOUS
  0
ENDTAB
  0
TABLE
  2
STYLE
  5
3
330
0
100
AcDbSymbolTable
 70
     1
  0
STYLE
  5
11
330
3
100
AcDbSymbolTableRecord
100
AcDbTextStyleTableRecord
  2
STANDARD
 70
     0
 40
0.0
 41
1.0
 50
0.0
 71
     0
 42
0.2
  3
txt
  4

  0
ENDTAB
  0
TABLE
  2
VIEW
  5
6
330
0
100
AcDbSymbolTable
 70
     0
  0
ENDTAB
  0
TABLE
  2
UCS
  5
7
330
0
100
AcDbSymbolTable
 70
     0
  0
ENDTAB
  0
TABLE
  2
APPID
  5
9
330
0
100
AcDbSymbolTable
 70
     1
  0
APPID
  5
12
330
9
100
AcDbSymbolTableRecord
100
AcDbRegAppTableRecord
  2
ACAD
 70
     0
  0
ENDTAB
  0
TABLE
  2
DIMSTYLE
  5
A
330
0
100
AcDbSymbolTable
 70
     1
  0
DIMSTYLE
105
22B
330
A
100
AcDbSymbolTableRecord
100
AcDbDimStyleTableRecord
  2
STANDARD
 70
     0
  3

  4

  5

  6

  7

 40
1.0
 41
0.18
 42
0.0625
 43
0.38
 44
0.18
 45
0.0
 46
0.0
 47
0.0
 48
0.0
140
0.18
141
0.09
142
0.0
143
25.4
144
1.0
145
0.0
146
1.0
147
0.09
 71
     0
 72
     0
 73
     1
 74
     1
 75
     0
 76
     0
 77
     0
 78
     0
170
     0
171
     2
172
     0
173
     0
174
     0
175
     0
176
     0
177
     0
178
     0
270
     2
271
     4
272
     4
273
     2
274
     2
340
11
275
     0
280
     0
281
     0
282
     0
283
     1
284
     0
285
     0
286
     0
287
     3
288
     0
  0
ENDTAB
  0
TABLE
  2
BLOCK_RECORD
  5
1
330
0
100
AcDbSymbolTable
 70
     0
  0
BLOCK_RECORD
  5
1E
102
{ACAD_XDICTIONARY
360
256
102
}
330
1
100
AcDbSymbolTableRecord
100
AcDbBlockTableRecord
  2
*MODEL_SPACE
  0
BLOCK_RECORD
  5
1A
102
{ACAD_XDICTIONARY
360
254
102
}
330
1
100
AcDbSymbolTableRecord
100
AcDbBlockTableRecord
  2
*PAPER_SPACE
  0
ENDTAB
  0
ENDSEC
  0
SECTION
  2
BLOCKS
  0
BLOCK
  5
1F
330
1E
100
AcDbEntity
  8
0
100
AcDbBlockBegin
  2
*MODEL_SPACE
 70
     0
 10
0.0
 20
0.0
 30
0.0
  3
*MODEL_SPACE
  1

  0
ENDBLK
  5
20
330
1E
100
AcDbEntity
  8
0
100
AcDbBlockEnd
  0
BLOCK
  5
1B
330
1A
100
AcDbEntity
 67
     1
  8
0
100
AcDbBlockBegin
  2
*PAPER_SPACE
 70
     0
 10
0.0
 20
0.0
 30
0.0
  3
*PAPER_SPACE
  1

  0
ENDBLK
  5
1C
330
1A
100
AcDbEntity
 67
     1
  8
0
100
AcDbBlockEnd
  0
ENDSEC
  0
SECTION
  2
ENTITIES
  0
LINE
  5
22
330
1E
100
AcDbEntity
  8
0
100
AcDbLine
 10
40.12599999999999
 20
205.4449785
 30
0.0
 11
40.874
 21
205.4449785
 31
0.0
  0
LINE
  5
23
330
1E
100
AcDbEntity
  8
0
100
AcDbLine
 10
40.12599999999999
 20
205.4449785
 30
0.0
 11
40.12599999999999
 21
205.9489784999999
 31
0.0
  0
LINE
  5
24
330
1E
100
AcDbEntity
  8
0
100
AcDbLine
 10
40.874
 20
205.4449785
 30
0.0
 11
41.0
 21
205.7809784999999
 31
0.0
  0
LINE
  5
25
330
1E
100
AcDbEntity
  8
0
100
AcDbLine
 10
40.874
 20
205.4449785
 30
0.0
 11
40.874
 21
205.9489784999999
 31
0.0
  0
LINE
  5
26
330
1E
100
AcDbEntity
  8
0
100
AcDbLine
 10
41.5769
 20
205.4449785
 30
0.0
 11
64.0
 21
205.4449785
 31
0.0
  0
LINE
  5
27
330
1E
100
AcDbEntity
  8
0
100
AcDbLine
 10
0.5769229999999991
 20
205.4449785
 30
0.0
 11
39.42309999999999
 21
205.4449785
 31
0.0
  0
LINE
  5
28
330
1E
100
AcDbEntity
  8
0
100
AcDbLine
 10
0.576922999999995
 20
205.4449785
 30
0.0
 11
39.42309999999999
 21
205.4449785
 31
0.0
  0
LINE
  5
29
330
1E
100
AcDbEntity
  8
0
100
AcDbLine
 10
39.42309999999999
 20
205.4449785
 30
0.0
 11
40.0
 21
205.7809784999999
 31
0.0
  0
LINE
  5
2A
330
1E
100
AcDbEntity
  8
0
100
AcDbLine
 10
59.424
 20
203.8689784999999
 30
0.0
 11
64.0
 21
200.4153935943399
 31
0.0
  0
LINE
  5
2B
330
1E
100
AcDbEntity
  8
0
100
AcDbLine
 10
-0.0000000000000048
 20
206.2849785
 30
0.0
 11
-0.0000000000000048
 21
205.7809784999999
 31
0.0
  0
LINE
  5
2C
330
1E
100
AcDbEntity
  8
0
100
AcDbLine
 10
-0.0000000000000048
 20
206.2849785
 30
0.0
 11
-0.0000000000000048
 21
207.6289784999999
 31
0.0
  0
LINE
  5
2D
330
1E
100
AcDbEntity
  8
0
100
AcDbLine
 10
-0.0000000000000048
 20
205.7809784999999
 30
0.0
 11
0.576922999999995
 21
205.4449785
 31
0.0
  0
LINE
  5
2E
330
1E
100
AcDbEntity
  8
0
100
AcDbLine
 10
-0.0000000000000048
 20
205.7809784999999
 30
0.0
 11
-0.0000000000000048
 21
206.2849785
 31
0.0
  0
LINE
  5
2F
330
1E
100
AcDbEntity
  8
0
100
AcDbLine
 10
40.0
 20
205.7809784999999
 30
0.0
 11
40.0
 21
206.2849785
 31
0.0
  0
LINE
  5
30
330
1E
100
AcDbEntity
  8
0
100
AcDbLine
 10
40.0
 20
205.7809784999999
 30
0.0
 11
40.12599999999999
 21
205.4449785
 31
0.0
  0
LINE
  5
31
330
1E
100
AcDbEntity
  8
0
100
AcDbLine
 10
40.12599999999999
 20
205.9489784999999
 30
0.0
 11
40.12599999999999
 21
205.4449785
 31
0.0
  0
LINE
  5
32
330
1E
100
AcDbEntity
  8
0
100
AcDbLine
 10
40.12599999999999
 20
205.9489784999999
 30
0.0
 11
40.12599999999999
 21
207.2929784999999
 31
0.0
  0
LINE
  5
33
330
1E
100
AcDbEntity
  8
0
100
AcDbLine
 10
40.874
 20
205.9489784999999
 30
0.0
 11
40.874
 21
207.2929784999999
 31
0.0
  0
LINE
  5
34
330
1E
100
AcDbEntity
  8
0
100
AcDbLine
 10
40.874
 20
205.9489784999999
 30
0.0
 11
40.874
 21
205.4449785
 31
0.0
  0
LINE
  5
35
330
1E
100
AcDbEntity
  8
0
100
AcDbLine
 10
40.12599999999999
 20
207.2929784999999
 30
0.0
 11
40.12599999999999
 21
205.9489784999999
 31
0.0
  0
LINE
  5
36
330
1E
100
AcDbEntity
  8
0
100
AcDbLine
 10
40.12599999999999
 20
207.2929784999999
 30
0.0
 11
40.12599999999999
 21
209.5329784999999
 31
0.0
  0
LINE
  5
37
330
1E
100
AcDbEntity
  8
0
100
AcDbLine
 10
40.874
 20
207.2929784999999
 30
0.0
 11
40.874
 21
209.5329784999999
 31
0.0
  0
LINE
  5
38
330
1E
100
AcDbEntity
  8
0
100
AcDbLine
 10
40.874
 20
207.2929784999999
 30
0.0
 11
40.874
 21
205.9489784999999
 31
0.0
  0
LINE
  5
39
330
1E
100
AcDbEntity
  8
0
100
AcDbLine
 10
41.0
 20
206.2849785
 30
0.0
 11
41.0
 21
205.7809784999999
 31
0.0
  0
LINE
  5
3A
330
1E
100
AcDbEntity
  8
0
100
AcDbLine
 10
41.0
 20
206.2849785
 30
0.0
 11
41.0
 21
207.6289784999999
 31
0.0
  0
LINE
  5
3B
330
1E
100
AcDbEntity
  8
0
100
AcDbLine
 10
41.0
 20
207.6289784999999
 30
0.0
 11
41.0
 21
206.2849785
 31
0.0
  0
LINE
  5
3C
330
1E
100
AcDbEntity
  8
0
100
AcDbLine
 10
41.0
 20
207.6289784999999
 30
0.0
 11
41.0
 21
209.8129785
 31
0.0
  0
LINE
  5
3D
330
1E
100
AcDbEntity
  8
0
100
AcDbLine
 10
41.0
 20
205.7809784999999
 30
0.0
 11
41.5769
 21
205.4449785
 31
0.0
  0
LINE
  5
3E
330
1E
100
AcDbEntity
  8
0
100
AcDbLine
 10
41.0
 20
205.7809784999999
 30
0.0
 11
41.0
 21
206.2849785
 31
0.0
  0
LINE
  5
3F
330
1E
100
AcDbEntity
  8
0
100
AcDbLine
 10
40.0
 20
206.2849785
 30
0.0
 11
40.0
 21
205.7809784999999
 31
0.0
  0
LINE
  5
40
330
1E
100
AcDbEntity
  8
0
100
AcDbLine
 10
40.0
 20
206.2849785
 30
0.0
 11
40.0
 21
207.6289784999999
 31
0.0
  0
LINE
  5
41
330
1E
100
AcDbEntity
  8
0
100
AcDbLine
 10
40.0
 20
207.6289784999999
 30
0.0
 11
40.0
 21
206.2849785
 31
0.0
  0
LINE
  5
42
330
1E
100
AcDbEntity
  8
0
100
AcDbLine
 10
40.0
 20
207.6289784999999
 30
0.0
 11
40.0
 21
209.8129785
 31
0.0
  0
LINE
  5
43
330
1E
100
AcDbEntity
  8
0
100
AcDbLine
 10
-0.0000000000000048
 20
207.6289784999999
 30
0.0
 11
-0.0000000000000048
 21
206.2849785
 31
0.0
  0
LINE
  5
44
330
1E
100
AcDbEntity
  8
0
100
AcDbLine
 10
-0.0000000000000048
 20
207.6289784999999
 30
0.0
 11
-0.0000000000000048
 21
209.8129785
 31
0.0
  0
LINE
  5
45
330
1E
100
AcDbEntity
  8
0
100
AcDbLine
 10
58.2345660377359
 20
205.4449785
 30
0.0
 11
59.424
 21
203.8689784999999
 31
0.0
  0
LINE
  5
46
330
1E
100
AcDbEntity
  8
0
100
AcDbLine
 10
64.0
 20
14.0057785
 30
0.0
 11
64.0
 21
18.3995785
 31
0.0
  0
LINE
  5
47
330
1E
100
AcDbEntity
  8
0
100
AcDbLine
 10
64.0
 20
14.0057785
 30
0.0
 11
64.0
 21
12.7826785
 31
0.0
  0
LINE
  5
48
330
1E
100
AcDbEntity
  8
0
100
AcDbLine
 10
64.0
 20
18.3995785
 30
0.0
 11
64.0
 21
24.4452785
 31
0.0
  0
LINE
  5
49
330
1E
100
AcDbEntity
  8
0
100
AcDbLine
 10
64.0
 20
18.3995785
 30
0.0
 11
64.0
 21
14.0057785
 31
0.0
  0
LINE
  5
4A
330
1E
100
AcDbEntity
  8
0
100
AcDbLine
 10
64.0
 20
62.6949785
 30
0.0
 11
64.0
 21
74.9545785
 31
0.0
  0
LINE
  5
4B
330
1E
100
AcDbEntity
  8
0
100
AcDbLine
 10
64.0
 20
62.6949785
 30
0.0
 11
64.0
 21
51.3293785
 31
0.0
  0
LINE
  5
4C
330
1E
100
AcDbEntity
  8
0
100
AcDbLine
 10
64.0
 20
74.9545785
 30
0.0
 11
64.0
 21
87.89837850000001
 31
0.0
  0
LINE
  5
4D
330
1E
100
AcDbEntity
  8
0
100
AcDbLine
 10
64.0
 20
74.9545785
 30
0.0
 11
64.0
 21
62.6949785
 31
0.0
  0
LINE
  5
4E
330
1E
100
AcDbEntity
  8
0
100
AcDbLine
 10
64.0
 20
87.89837850000001
 30
0.0
 11
64.0
 21
101.3049784999999
 31
0.0
  0
LINE
  5
4F
330
1E
100
AcDbEntity
  8
0
100
AcDbLine
 10
64.0
 20
87.89837850000001
 30
0.0
 11
64.0
 21
74.9545785
 31
0.0
  0
LINE
  5
50
330
1E
100
AcDbEntity
  8
0
100
AcDbLine
 10
64.0
 20
51.3293785
 30
0.0
 11
64.0
 21
41.0522785
 31
0.0
  0
LINE
  5
51
330
1E
100
AcDbEntity
  8
0
100
AcDbLine
 10
64.0
 20
51.3293785
 30
0.0
 11
64.0
 21
62.6949785
 31
0.0
  0
LINE
  5
52
330
1E
100
AcDbEntity
  8
0
100
AcDbLine
 10
64.0
 20
41.0522785
 30
0.0
 11
64.0
 21
32.0395785
 31
0.0
  0
LINE
  5
53
330
1E
100
AcDbEntity
  8
0
100
AcDbLine
 10
64.0
 20
41.0522785
 30
0.0
 11
64.0
 21
51.3293785
 31
0.0
  0
LINE
  5
54
330
1E
100
AcDbEntity
  8
0
100
AcDbLine
 10
64.0
 20
32.0395785
 30
0.0
 11
64.0
 21
24.4452785
 31
0.0
  0
LINE
  5
55
330
1E
100
AcDbEntity
  8
0
100
AcDbLine
 10
64.0
 20
32.0395785
 30
0.0
 11
64.0
 21
41.0522785
 31
0.0
  0
LINE
  5
56
330
1E
100
AcDbEntity
  8
0
100
AcDbLine
 10
64.0
 20
24.4452785
 30
0.0
 11
64.0
 21
32.0395785
 31
0.0
  0
LINE
  5
57
330
1E
100
AcDbEntity
  8
0
100
AcDbLine
 10
64.0
 20
24.4452785
 30
0.0
 11
64.0
 21
18.3995785
 31
0.0
  0
LINE
  5
58
330
1E
100
AcDbEntity
  8
0
100
AcDbLine
 10
64.0
 20
101.3049784999999
 30
0.0
 11
64.0
 21
114.9449784999999
 31
0.0
  0
LINE
  5
59
330
1E
100
AcDbEntity
  8
0
100
AcDbLine
 10
64.0
 20
101.3049784999999
 30
0.0
 11
64.0
 21
87.89837850000001
 31
0.0
  0
LINE
  5
5A
330
1E
100
AcDbEntity
  8
0
100
AcDbLine
 10
64.0
 20
141.9919784999999
 30
0.0
 11
64.0
 21
154.9349784999999
 31
0.0
  0
LINE
  5
5B
330
1E
100
AcDbEntity
  8
0
100
AcDbLine
 10
64.0
 20
141.9919784999999
 30
0.0
 11
64.0
 21
128.5849785
 31
0.0
  0
LINE
  5
5C
330
1E
100
AcDbEntity
  8
0
100
AcDbLine
 10
64.0
 20
128.5849785
 30
0.0
 11
64.0
 21
114.9449784999999
 31
0.0
  0
LINE
  5
5D
330
1E
100
AcDbEntity
  8
0
100
AcDbLine
 10
64.0
 20
128.5849785
 30
0.0
 11
64.0
 21
141.9919784999999
 31
0.0
  0
LINE
  5
5E
330
1E
100
AcDbEntity
  8
0
100
AcDbLine
 10
64.0
 20
114.9449784999999
 30
0.0
 11
64.0
 21
128.5849785
 31
0.0
  0
LINE
  5
5F
330
1E
100
AcDbEntity
  8
0
100
AcDbLine
 10
64.0
 20
114.9449784999999
 30
0.0
 11
64.0
 21
101.3049784999999
 31
0.0
  0
LINE
  5
60
330
1E
100
AcDbEntity
  8
0
100
AcDbLine
 10
64.0
 20
154.9349784999999
 30
0.0
 11
64.0
 21
167.1949784999999
 31
0.0
  0
LINE
  5
61
330
1E
100
AcDbEntity
  8
0
100
AcDbLine
 10
64.0
 20
154.9349784999999
 30
0.0
 11
64.0
 21
141.9919784999999
 31
0.0
  0
LINE
  5
62
330
1E
100
AcDbEntity
  8
0
100
AcDbLine
 10
64.0
 20
178.5609785
 30
0.0
 11
64.0
 21
167.1949784999999
 31
0.0
  0
LINE
  5
63
330
1E
100
AcDbEntity
  8
0
100
AcDbLine
 10
64.0
 20
178.5609785
 30
0.0
 11
64.0
 21
188.8379784999999
 31
0.0
  0
LINE
  5
64
330
1E
100
AcDbEntity
  8
0
100
AcDbLine
 10
64.0
 20
167.1949784999999
 30
0.0
 11
64.0
 21
178.5609785
 31
0.0
  0
LINE
  5
65
330
1E
100
AcDbEntity
  8
0
100
AcDbLine
 10
64.0
 20
167.1949784999999
 30
0.0
 11
64.0
 21
154.9349784999999
 31
0.0
  0
LINE
  5
66
330
1E
100
AcDbEntity
  8
0
100
AcDbLine
 10
64.0
 20
197.8499784999999
 30
0.0
 11
64.0
 21
188.8379784999999
 31
0.0
  0
LINE
  5
67
330
1E
100
AcDbEntity
  8
0
100
AcDbLine
 10
64.0
 20
197.8499784999999
 30
0.0
 11
64.0
 21
205.4449785
 31
0.0
  0
LINE
  5
68
330
1E
100
AcDbEntity
  8
0
100
AcDbLine
 10
64.0
 20
188.8379784999999
 30
0.0
 11
64.0
 21
197.8499784999999
 31
0.0
  0
LINE
  5
69
330
1E
100
AcDbEntity
  8
0
100
AcDbLine
 10
64.0
 20
188.8379784999999
 30
0.0
 11
64.0
 21
178.5609785
 31
0.0
  0
LINE
  5
6A
330
1E
100
AcDbEntity
  8
0
100
AcDbLine
 10
64.0
 20
205.4449785
 30
0.0
 11
64.0
 21
211.4899784999999
 31
0.0
  0
LINE
  5
6B
330
1E
100
AcDbEntity
  8
0
100
AcDbLine
 10
64.0
 20
205.4449785
 30
0.0
 11
64.0
 21
197.8499784999999
 31
0.0
  0
LINE
  5
6C
330
1E
100
AcDbEntity
  8
0
100
AcDbLine
 10
59.424
 20
203.8689784999999
 30
0.0
 11
64.0
 21
200.4153935943399
 31
0.0
  0
LINE
  5
6D
330
1E
100
AcDbEntity
  8
0
100
AcDbLine
 10
-0.0000000000000048
 20
209.8129785
 30
0.0
 11
-0.0000000000000048
 21
207.6289784999999
 31
0.0
  0
LINE
  5
6E
330
1E
100
AcDbEntity
  8
0
100
AcDbLine
 10
-0.0000000000000048
 20
209.8129785
 30
0.0
 11
-0.0000000000000048
 21
212.6689784999999
 31
0.0
  0
LINE
  5
6F
330
1E
100
AcDbEntity
  8
0
100
AcDbLine
 10
40.12599999999999
 20
209.5329784999999
 30
0.0
 11
40.12599999999999
 21
207.2929784999999
 31
0.0
  0
LINE
  5
70
330
1E
100
AcDbEntity
  8
0
100
AcDbLine
 10
40.12599999999999
 20
209.5329784999999
 30
0.0
 11
40.12599999999999
 21
212.5009785
 31
0.0
  0
LINE
  5
71
330
1E
100
AcDbEntity
  8
0
100
AcDbLine
 10
40.874
 20
209.5329784999999
 30
0.0
 11
40.874
 21
212.5009785
 31
0.0
  0
LINE
  5
72
330
1E
100
AcDbEntity
  8
0
100
AcDbLine
 10
40.874
 20
209.5329784999999
 30
0.0
 11
40.874
 21
207.2929784999999
 31
0.0
  0
LINE
  5
73
330
1E
100
AcDbEntity
  8
0
100
AcDbLine
 10
40.12599999999999
 20
212.5009785
 30
0.0
 11
40.12599999999999
 21
209.5329784999999
 31
0.0
  0
LINE
  5
74
330
1E
100
AcDbEntity
  8
0
100
AcDbLine
 10
40.12599999999999
 20
212.5009785
 30
0.0
 11
40.12599999999999
 21
215.8609785
 31
0.0
  0
LINE
  5
75
330
1E
100
AcDbEntity
  8
0
100
AcDbLine
 10
40.874
 20
212.5009785
 30
0.0
 11
40.874
 21
215.8609785
 31
0.0
  0
LINE
  5
76
330
1E
100
AcDbEntity
  8
0
100
AcDbLine
 10
40.874
 20
212.5009785
 30
0.0
 11
40.874
 21
209.5329784999999
 31
0.0
  0
LINE
  5
77
330
1E
100
AcDbEntity
  8
0
100
AcDbLine
 10
41.0
 20
209.8129785
 30
0.0
 11
41.0
 21
207.6289784999999
 31
0.0
  0
LINE
  5
78
330
1E
100
AcDbEntity
  8
0
100
AcDbLine
 10
41.0
 20
209.8129785
 30
0.0
 11
41.0
 21
212.6689784999999
 31
0.0
  0
LINE
  5
79
330
1E
100
AcDbEntity
  8
0
100
AcDbLine
 10
41.0
 20
212.6689784999999
 30
0.0
 11
41.0
 21
209.8129785
 31
0.0
  0
LINE
  5
7A
330
1E
100
AcDbEntity
  8
0
100
AcDbLine
 10
41.0
 20
212.6689784999999
 30
0.0
 11
41.0
 21
215.9169785
 31
0.0
  0
LINE
  5
7B
330
1E
100
AcDbEntity
  8
0
100
AcDbLine
 10
40.0
 20
209.8129785
 30
0.0
 11
40.0
 21
207.6289784999999
 31
0.0
  0
LINE
  5
7C
330
1E
100
AcDbEntity
  8
0
100
AcDbLine
 10
40.0
 20
209.8129785
 30
0.0
 11
40.0
 21
212.6689784999999
 31
0.0
  0
LINE
  5
7D
330
1E
100
AcDbEntity
  8
0
100
AcDbLine
 10
40.0
 20
212.6689784999999
 30
0.0
 11
40.0
 21
209.8129785
 31
0.0
  0
LINE
  5
7E
330
1E
100
AcDbEntity
  8
0
100
AcDbLine
 10
40.0
 20
212.6689784999999
 30
0.0
 11
40.0
 21
215.9169785
 31
0.0
  0
LINE
  5
7F
330
1E
100
AcDbEntity
  8
0
100
AcDbLine
 10
-0.0000000000000048
 20
212.6689784999999
 30
0.0
 11
-0.0000000000000048
 21
209.8129785
 31
0.0
  0
LINE
  5
80
330
1E
100
AcDbEntity
  8
0
100
AcDbLine
 10
-0.0000000000000048
 20
212.6689784999999
 30
0.0
 11
-0.0000000000000048
 21
215.9169785
 31
0.0
  0
LINE
  5
81
330
1E
100
AcDbEntity
  8
0
100
AcDbLine
 10
-0.0000000000000048
 20
215.9169785
 30
0.0
 11
-0.0000000000000048
 21
212.6689784999999
 31
0.0
  0
LINE
  5
82
330
1E
100
AcDbEntity
  8
0
100
AcDbLine
 10
-0.0000000000000048
 20
215.9169785
 30
0.0
 11
-0.0000000000000048
 21
219.4449785
 31
0.0
  0
LINE
  5
83
330
1E
100
AcDbEntity
  8
0
100
AcDbLine
 10
-0.0000000000000048
 20
219.4449785
 30
0.0
 11
-0.0000000000000048
 21
222.9729784999999
 31
0.0
  0
LINE
  5
84
330
1E
100
AcDbEntity
  8
0
100
AcDbLine
 10
-0.0000000000000048
 20
219.4449785
 30
0.0
 11
-0.0000000000000048
 21
215.9169785
 31
0.0
  0
LINE
  5
85
330
1E
100
AcDbEntity
  8
0
100
AcDbLine
 10
-0.0000000000000048
 20
233.1089785
 30
0.0
 11
-0.0000000000000048
 21
232.6049785
 31
0.0
  0
LINE
  5
86
330
1E
100
AcDbEntity
  8
0
100
AcDbLine
 10
-0.0000000000000048
 20
233.1089785
 30
0.0
 11
0.576922999999995
 21
233.4449785
 31
0.0
  0
LINE
  5
87
330
1E
100
AcDbEntity
  8
0
100
AcDbLine
 10
-0.0000000000000048
 20
232.6049785
 30
0.0
 11
-0.0000000000000048
 21
231.2609785
 31
0.0
  0
LINE
  5
88
330
1E
100
AcDbEntity
  8
0
100
AcDbLine
 10
-0.0000000000000048
 20
232.6049785
 30
0.0
 11
-0.0000000000000048
 21
233.1089785
 31
0.0
  0
LINE
  5
89
330
1E
100
AcDbEntity
  8
0
100
AcDbLine
 10
-0.0000000000000048
 20
231.2609785
 30
0.0
 11
-0.0000000000000048
 21
229.0769785
 31
0.0
  0
LINE
  5
8A
330
1E
100
AcDbEntity
  8
0
100
AcDbLine
 10
-0.0000000000000048
 20
231.2609785
 30
0.0
 11
-0.0000000000000048
 21
232.6049785
 31
0.0
  0
LINE
  5
8B
330
1E
100
AcDbEntity
  8
0
100
AcDbLine
 10
-0.0000000000000048
 20
229.0769785
 30
0.0
 11
-0.0000000000000048
 21
226.2209785
 31
0.0
  0
LINE
  5
8C
330
1E
100
AcDbEntity
  8
0
100
AcDbLine
 10
-0.0000000000000048
 20
229.0769785
 30
0.0
 11
-0.0000000000000048
 21
231.2609785
 31
0.0
  0
LINE
  5
8D
330
1E
100
AcDbEntity
  8
0
100
AcDbLine
 10
-0.0000000000000048
 20
226.2209785
 30
0.0
 11
-0.0000000000000048
 21
222.9729784999999
 31
0.0
  0
LINE
  5
8E
330
1E
100
AcDbEntity
  8
0
100
AcDbLine
 10
-0.0000000000000048
 20
226.2209785
 30
0.0
 11
-0.0000000000000048
 21
229.0769785
 31
0.0
  0
LINE
  5
8F
330
1E
100
AcDbEntity
  8
0
100
AcDbLine
 10
0.576922999999995
 20
233.4449785
 30
0.0
 11
39.42309999999999
 21
233.4449785
 31
0.0
  0
LINE
  5
90
330
1E
100
AcDbEntity
  8
0
100
AcDbLine
 10
-0.0000000000000048
 20
222.9729784999999
 30
0.0
 11
-0.0000000000000048
 21
219.4449785
 31
0.0
  0
LINE
  5
91
330
1E
100
AcDbEntity
  8
0
100
AcDbLine
 10
-0.0000000000000048
 20
222.9729784999999
 30
0.0
 11
-0.0000000000000048
 21
226.2209785
 31
0.0
  0
LINE
  5
92
330
1E
100
AcDbEntity
  8
0
100
AcDbLine
 10
0.5769229999999991
 20
233.4449785
 30
0.0
 11
39.42309999999999
 21
233.4449785
 31
0.0
  0
LINE
  5
93
330
1E
100
AcDbEntity
  8
0
100
AcDbLine
 10
40.0
 20
215.9169785
 30
0.0
 11
40.0
 21
212.6689784999999
 31
0.0
  0
LINE
  5
94
330
1E
100
AcDbEntity
  8
0
100
AcDbLine
 10
40.0
 20
215.9169785
 30
0.0
 11
40.0
 21
219.4449785
 31
0.0
  0
LINE
  5
95
330
1E
100
AcDbEntity
  8
0
100
AcDbLine
 10
40.12599999999999
 20
215.8609785
 30
0.0
 11
40.12599999999999
 21
212.5009785
 31
0.0
  0
LINE
  5
96
330
1E
100
AcDbEntity
  8
0
100
AcDbLine
 10
40.12599999999999
 20
215.8609785
 30
0.0
 11
40.12599999999999
 21
219.4449785
 31
0.0
  0
LINE
  5
97
330
1E
100
AcDbEntity
  8
0
100
AcDbLine
 10
40.874
 20
215.8609785
 30
0.0
 11
40.874
 21
219.4449785
 31
0.0
  0
LINE
  5
98
330
1E
100
AcDbEntity
  8
0
100
AcDbLine
 10
40.874
 20
215.8609785
 30
0.0
 11
40.874
 21
212.5009785
 31
0.0
  0
LINE
  5
99
330
1E
100
AcDbEntity
  8
0
100
AcDbLine
 10
40.12599999999999
 20
219.4449785
 30
0.0
 11
40.12599999999999
 21
223.0289785
 31
0.0
  0
LINE
  5
9A
330
1E
100
AcDbEntity
  8
0
100
AcDbLine
 10
40.12599999999999
 20
219.4449785
 30
0.0
 11
40.12599999999999
 21
215.8609785
 31
0.0
  0
LINE
  5
9B
330
1E
100
AcDbEntity
  8
0
100
AcDbLine
 10
40.874
 20
219.4449785
 30
0.0
 11
40.874
 21
223.0289785
 31
0.0
  0
LINE
  5
9C
330
1E
100
AcDbEntity
  8
0
100
AcDbLine
 10
40.874
 20
219.4449785
 30
0.0
 11
40.874
 21
215.8609785
 31
0.0
  0
LINE
  5
9D
330
1E
100
AcDbEntity
  8
0
100
AcDbLine
 10
41.0
 20
215.9169785
 30
0.0
 11
41.0
 21
212.6689784999999
 31
0.0
  0
LINE
  5
9E
330
1E
100
AcDbEntity
  8
0
100
AcDbLine
 10
41.0
 20
215.9169785
 30
0.0
 11
41.0
 21
219.4449785
 31
0.0
  0
LINE
  5
9F
330
1E
100
AcDbEntity
  8
0
100
AcDbLine
 10
41.0
 20
219.4449785
 30
0.0
 11
41.0
 21
222.9729784999999
 31
0.0
  0
LINE
  5
A0
330
1E
100
AcDbEntity
  8
0
100
AcDbLine
 10
41.0
 20
219.4449785
 30
0.0
 11
41.0
 21
215.9169785
 31
0.0
  0
LINE
  5
A1
330
1E
100
AcDbEntity
  8
0
100
AcDbLine
 10
41.0
 20
222.9729784999999
 30
0.0
 11
41.0
 21
219.4449785
 31
0.0
  0
LINE
  5
A2
330
1E
100
AcDbEntity
  8
0
100
AcDbLine
 10
41.0
 20
222.9729784999999
 30
0.0
 11
41.0
 21
226.2209785
 31
0.0
  0
LINE
  5
A3
330
1E
100
AcDbEntity
  8
0
100
AcDbLine
 10
40.0
 20
219.4449785
 30
0.0
 11
40.0
 21
222.9729784999999
 31
0.0
  0
LINE
  5
A4
330
1E
100
AcDbEntity
  8
0
100
AcDbLine
 10
40.0
 20
219.4449785
 30
0.0
 11
40.0
 21
215.9169785
 31
0.0
  0
LINE
  5
A5
330
1E
100
AcDbEntity
  8
0
100
AcDbLine
 10
40.0
 20
233.1089785
 30
0.0
 11
40.0
 21
232.6049785
 31
0.0
  0
LINE
  5
A6
330
1E
100
AcDbEntity
  8
0
100
AcDbLine
 10
40.0
 20
233.1089785
 30
0.0
 11
40.12599999999999
 21
233.4449785
 31
0.0
  0
LINE
  5
A7
330
1E
100
AcDbEntity
  8
0
100
AcDbLine
 10
40.0
 20
232.6049785
 30
0.0
 11
40.0
 21
231.2609785
 31
0.0
  0
LINE
  5
A8
330
1E
100
AcDbEntity
  8
0
100
AcDbLine
 10
40.0
 20
232.6049785
 30
0.0
 11
40.0
 21
233.1089785
 31
0.0
  0
LINE
  5
A9
330
1E
100
AcDbEntity
  8
0
100
AcDbLine
 10
40.0
 20
231.2609785
 30
0.0
 11
40.0
 21
229.0769785
 31
0.0
  0
LINE
  5
AA
330
1E
100
AcDbEntity
  8
0
100
AcDbLine
 10
40.0
 20
231.2609785
 30
0.0
 11
40.0
 21
232.6049785
 31
0.0
  0
LINE
  5
AB
330
1E
100
AcDbEntity
  8
0
100
AcDbLine
 10
40.0
 20
229.0769785
 30
0.0
 11
40.0
 21
226.2209785
 31
0.0
  0
LINE
  5
AC
330
1E
100
AcDbEntity
  8
0
100
AcDbLine
 10
40.0
 20
229.0769785
 30
0.0
 11
40.0
 21
231.2609785
 31
0.0
  0
LINE
  5
AD
330
1E
100
AcDbEntity
  8
0
100
AcDbLine
 10
40.874
 20
223.0289785
 30
0.0
 11
40.874
 21
226.3889784999999
 31
0.0
  0
LINE
  5
AE
330
1E
100
AcDbEntity
  8
0
100
AcDbLine
 10
40.874
 20
223.0289785
 30
0.0
 11
40.874
 21
219.4449785
 31
0.0
  0
LINE
  5
AF
330
1E
100
AcDbEntity
  8
0
100
AcDbLine
 10
40.12599999999999
 20
223.0289785
 30
0.0
 11
40.12599999999999
 21
219.4449785
 31
0.0
  0
LINE
  5
B0
330
1E
100
AcDbEntity
  8
0
100
AcDbLine
 10
40.12599999999999
 20
223.0289785
 30
0.0
 11
40.12599999999999
 21
226.3889784999999
 31
0.0
  0
LINE
  5
B1
330
1E
100
AcDbEntity
  8
0
100
AcDbLine
 10
40.12599999999999
 20
229.3569785
 30
0.0
 11
40.12599999999999
 21
226.3889784999999
 31
0.0
  0
LINE
  5
B2
330
1E
100
AcDbEntity
  8
0
100
AcDbLine
 10
40.12599999999999
 20
229.3569785
 30
0.0
 11
40.12599999999999
 21
231.5969785
 31
0.0
  0
LINE
  5
B3
330
1E
100
AcDbEntity
  8
0
100
AcDbLine
 10
40.874
 20
229.3569785
 30
0.0
 11
40.874
 21
231.5969785
 31
0.0
  0
LINE
  5
B4
330
1E
100
AcDbEntity
  8
0
100
AcDbLine
 10
40.874
 20
229.3569785
 30
0.0
 11
40.874
 21
226.3889784999999
 31
0.0
  0
LINE
  5
B5
330
1E
100
AcDbEntity
  8
0
100
AcDbLine
 10
40.874
 20
226.3889784999999
 30
0.0
 11
40.874
 21
229.3569785
 31
0.0
  0
LINE
  5
B6
330
1E
100
AcDbEntity
  8
0
100
AcDbLine
 10
40.874
 20
226.3889784999999
 30
0.0
 11
40.874
 21
223.0289785
 31
0.0
  0
LINE
  5
B7
330
1E
100
AcDbEntity
  8
0
100
AcDbLine
 10
40.12599999999999
 20
226.3889784999999
 30
0.0
 11
40.12599999999999
 21
223.0289785
 31
0.0
  0
LINE
  5
B8
330
1E
100
AcDbEntity
  8
0
100
AcDbLine
 10
40.12599999999999
 20
226.3889784999999
 30
0.0
 11
40.12599999999999
 21
229.3569785
 31
0.0
  0
LINE
  5
B9
330
1E
100
AcDbEntity
  8
0
100
AcDbLine
 10
40.12599999999999
 20
232.9409785
 30
0.0
 11
40.12599999999999
 21
231.5969785
 31
0.0
  0
LINE
  5
BA
330
1E
100
AcDbEntity
  8
0
100
AcDbLine
 10
40.12599999999999
 20
232.9409785
 30
0.0
 11
40.12599999999999
 21
233.4449785
 31
0.0
  0
LINE
  5
BB
330
1E
100
AcDbEntity
  8
0
100
AcDbLine
 10
40.12599999999999
 20
231.5969785
 30
0.0
 11
40.12599999999999
 21
229.3569785
 31
0.0
  0
LINE
  5
BC
330
1E
100
AcDbEntity
  8
0
100
AcDbLine
 10
40.12599999999999
 20
231.5969785
 30
0.0
 11
40.12599999999999
 21
232.9409785
 31
0.0
  0
LINE
  5
BD
330
1E
100
AcDbEntity
  8
0
100
AcDbLine
 10
40.874
 20
232.9409785
 30
0.0
 11
40.874
 21
233.4449785
 31
0.0
  0
LINE
  5
BE
330
1E
100
AcDbEntity
  8
0
100
AcDbLine
 10
40.874
 20
232.9409785
 30
0.0
 11
40.874
 21
231.5969785
 31
0.0
  0
LINE
  5
BF
330
1E
100
AcDbEntity
  8
0
100
AcDbLine
 10
40.874
 20
231.5969785
 30
0.0
 11
40.874
 21
232.9409785
 31
0.0
  0
LINE
  5
C0
330
1E
100
AcDbEntity
  8
0
100
AcDbLine
 10
40.874
 20
231.5969785
 30
0.0
 11
40.874
 21
229.3569785
 31
0.0
  0
LINE
  5
C1
330
1E
100
AcDbEntity
  8
0
100
AcDbLine
 10
40.12599999999999
 20
233.4449785
 30
0.0
 11
40.874
 21
233.4449785
 31
0.0
  0
LINE
  5
C2
330
1E
100
AcDbEntity
  8
0
100
AcDbLine
 10
40.12599999999999
 20
233.4449785
 30
0.0
 11
40.12599999999999
 21
232.9409785
 31
0.0
  0
LINE
  5
C3
330
1E
100
AcDbEntity
  8
0
100
AcDbLine
 10
40.874
 20
233.4449785
 30
0.0
 11
41.0
 21
233.1089785
 31
0.0
  0
LINE
  5
C4
330
1E
100
AcDbEntity
  8
0
100
AcDbLine
 10
40.874
 20
233.4449785
 30
0.0
 11
40.874
 21
232.9409785
 31
0.0
  0
LINE
  5
C5
330
1E
100
AcDbEntity
  8
0
100
AcDbLine
 10
41.0
 20
232.6049785
 30
0.0
 11
41.0
 21
231.2609785
 31
0.0
  0
LINE
  5
C6
330
1E
100
AcDbEntity
  8
0
100
AcDbLine
 10
41.0
 20
232.6049785
 30
0.0
 11
41.0
 21
233.1089785
 31
0.0
  0
LINE
  5
C7
330
1E
100
AcDbEntity
  8
0
100
AcDbLine
 10
41.0
 20
231.2609785
 30
0.0
 11
41.0
 21
229.0769785
 31
0.0
  0
LINE
  5
C8
330
1E
100
AcDbEntity
  8
0
100
AcDbLine
 10
41.0
 20
231.2609785
 30
0.0
 11
41.0
 21
232.6049785
 31
0.0
  0
LINE
  5
C9
330
1E
100
AcDbEntity
  8
0
100
AcDbLine
 10
41.0
 20
229.0769785
 30
0.0
 11
41.0
 21
226.2209785
 31
0.0
  0
LINE
  5
CA
330
1E
100
AcDbEntity
  8
0
100
AcDbLine
 10
41.0
 20
229.0769785
 30
0.0
 11
41.0
 21
231.2609785
 31
0.0
  0
LINE
  5
CB
330
1E
100
AcDbEntity
  8
0
100
AcDbLine
 10
41.0
 20
226.2209785
 30
0.0
 11
41.0
 21
222.9729784999999
 31
0.0
  0
LINE
  5
CC
330
1E
100
AcDbEntity
  8
0
100
AcDbLine
 10
41.0
 20
226.2209785
 30
0.0
 11
41.0
 21
229.0769785
 31
0.0
  0
LINE
  5
CD
330
1E
100
AcDbEntity
  8
0
100
AcDbLine
 10
41.0
 20
233.1089785
 30
0.0
 11
41.5769
 21
233.4449785
 31
0.0
  0
LINE
  5
CE
330
1E
100
AcDbEntity
  8
0
100
AcDbLine
 10
41.0
 20
233.1089785
 30
0.0
 11
41.0
 21
232.6049785
 31
0.0
  0
LINE
  5
CF
330
1E
100
AcDbEntity
  8
0
100
AcDbLine
 10
41.5769
 20
233.4449785
 30
0.0
 11
67.4088746552856
 21
233.4449785
 31
0.0
  0
LINE
  5
D0
330
1E
100
AcDbEntity
  8
0
100
AcDbLine
 10
40.0
 20
226.2209785
 30
0.0
 11
40.0
 21
222.9729784999999
 31
0.0
  0
LINE
  5
D1
330
1E
100
AcDbEntity
  8
0
100
AcDbLine
 10
40.0
 20
226.2209785
 30
0.0
 11
40.0
 21
229.0769785
 31
0.0
  0
LINE
  5
D2
330
1E
100
AcDbEntity
  8
0
100
AcDbLine
 10
40.0
 20
222.9729784999999
 30
0.0
 11
40.0
 21
219.4449785
 31
0.0
  0
LINE
  5
D3
330
1E
100
AcDbEntity
  8
0
100
AcDbLine
 10
40.0
 20
222.9729784999999
 30
0.0
 11
40.0
 21
226.2209785
 31
0.0
  0
LINE
  5
D4
330
1E
100
AcDbEntity
  8
0
100
AcDbLine
 10
39.42309999999999
 20
233.4449785
 30
0.0
 11
40.0
 21
233.1089785
 31
0.0
  0
LINE
  5
D5
330
1E
100
AcDbEntity
  8
0
100
AcDbLine
 10
58.2345660377359
 20
233.4449785
 30
0.0
 11
59.424
 21
235.0209785
 31
0.0
  0
LINE
  5
D6
330
1E
100
AcDbEntity
  8
0
100
AcDbLine
 10
59.424
 20
235.0209785
 30
0.0
 11
64.08800000000001
 21
238.5409785
 31
0.0
  0
LINE
  5
D7
330
1E
100
AcDbEntity
  8
0
100
AcDbLine
 10
59.6095
 20
223.5589785
 30
0.0
 11
61.1333
 21
227.3689785
 31
0.0
  0
LINE
  5
D8
330
1E
100
AcDbEntity
  8
0
100
AcDbLine
 10
60.2952
 20
223.3309785
 30
0.0
 11
61.81899999999999
 21
226.9879785
 31
0.0
  0
LINE
  5
D9
330
1E
100
AcDbEntity
  8
0
100
AcDbLine
 10
61.1333
 20
227.3689785
 30
0.0
 11
63.72379999999999
 21
230.7209784999999
 31
0.0
  0
LINE
  5
DA
330
1E
100
AcDbEntity
  8
0
100
AcDbLine
 10
59.76189999999999
 20
219.4449785
 30
0.0
 11
60.2952
 21
215.5589785
 31
0.0
  0
LINE
  5
DB
330
1E
100
AcDbEntity
  8
0
100
AcDbLine
 10
59.76189999999999
 20
219.4449785
 30
0.0
 11
60.2952
 21
223.3309785
 31
0.0
  0
LINE
  5
DC
330
1E
100
AcDbEntity
  8
0
100
AcDbLine
 10
60.2952
 20
215.5589785
 30
0.0
 11
61.81899999999999
 21
211.9019785
 31
0.0
  0
LINE
  5
DD
330
1E
100
AcDbEntity
  8
0
100
AcDbLine
 10
59.0
 20
219.4449785
 30
0.0
 11
59.6095
 21
215.3309785
 31
0.0
  0
LINE
  5
DE
330
1E
100
AcDbEntity
  8
0
100
AcDbLine
 10
59.0
 20
219.4449785
 30
0.0
 11
59.6095
 21
223.5589785
 31
0.0
  0
LINE
  5
DF
330
1E
100
AcDbEntity
  8
0
100
AcDbLine
 10
59.6095
 20
215.3309785
 30
0.0
 11
61.1333
 21
211.5209785
 31
0.0
  0
LINE
  5
E0
330
1E
100
AcDbEntity
  8
0
100
AcDbLine
 10
64.0
 20
211.4899784999999
 30
0.0
 11
64.0
 21
215.8839785
 31
0.0
  0
LINE
  5
E1
330
1E
100
AcDbEntity
  8
0
100
AcDbLine
 10
64.0
 20
211.4899784999999
 30
0.0
 11
64.0
 21
205.4449785
 31
0.0
  0
LINE
  5
E2
330
1E
100
AcDbEntity
  8
0
100
AcDbLine
 10
61.81899999999999
 20
226.9879785
 30
0.0
 11
64.25709999999999
 21
230.1879785
 31
0.0
  0
LINE
  5
E3
330
1E
100
AcDbEntity
  8
0
100
AcDbLine
 10
64.0
 20
215.8839785
 30
0.0
 11
64.0
 21
218.5509785
 31
0.0
  0
LINE
  5
E4
330
1E
100
AcDbEntity
  8
0
100
AcDbLine
 10
64.0
 20
215.8839785
 30
0.0
 11
64.0
 21
211.4899784999999
 31
0.0
  0
LINE
  5
E5
330
1E
100
AcDbEntity
  8
0
100
AcDbLine
 10
64.0
 20
219.4449785
 30
0.0
 11
64.0
 21
218.5509785
 31
0.0
  0
LINE
  5
E6
330
1E
100
AcDbEntity
  8
0
100
AcDbLine
 10
64.0
 20
219.4449785
 30
0.0
 11
64.396
 21
222.2609785
 31
0.0
  0
LINE
  5
E7
330
1E
100
AcDbEntity
  8
0
100
AcDbLine
 10
64.0
 20
218.5509785
 30
0.0
 11
64.0
 21
219.4449785
 31
0.0
  0
LINE
  5
E8
330
1E
100
AcDbEntity
  8
0
100
AcDbLine
 10
64.0
 20
218.5509785
 30
0.0
 11
64.0
 21
215.8839785
 31
0.0
  0
LINE
  5
E9
330
1E
100
AcDbEntity
  8
0
100
AcDbLine
 10
63.72379999999999
 20
230.7209784999999
 30
0.0
 11
67.0762
 21
233.3119785
 31
0.0
  0
LINE
  5
EA
330
1E
100
AcDbEntity
  8
0
100
AcDbLine
 10
61.81899999999999
 20
211.9019785
 30
0.0
 11
64.0
 21
209.039421590931
 31
0.0
  0
LINE
  5
EB
330
1E
100
AcDbEntity
  8
0
100
AcDbLine
 10
61.1333
 20
211.5209785
 30
0.0
 11
63.72379999999999
 21
208.1689785
 31
0.0
  0
LINE
  5
EC
330
1E
100
AcDbEntity
  8
0
100
AcDbLine
 10
63.72379999999999
 20
208.1689785
 30
0.0
 11
64.0
 21
207.955509283916
 31
0.0
  0
LINE
  5
ED
330
1E
100
AcDbEntity
  8
0
100
AcDbLine
 10
64.0
 20
12.7826785
 30
0.0
 11
64.40000000000001
 21
10.0251785
 31
0.0
  0
LINE
  5
EE
330
1E
100
AcDbEntity
  8
0
100
AcDbLine
 10
64.0
 20
12.7826785
 30
0.0
 11
64.0
 21
14.0057785
 31
0.0
  0
LINE
  5
EF
330
1E
100
AcDbEntity
  8
0
100
AcDbLine
 10
64.0
 20
12.71317849999999
 30
0.0
 11
64.0
 21
10.8898785
 31
0.0
  0
LINE
  5
F0
330
1E
100
AcDbEntity
  8
0
100
AcDbLine
 10
64.0
 20
12.71317849999999
 30
0.0
 11
64.40000000000001
 21
9.955778500000009
 31
0.0
  0
LINE
  5
F1
330
1E
100
AcDbEntity
  8
0
100
AcDbLine
 10
65.5
 20
7.366228500000009
 30
0.0
 11
67.2
 21
5.101168500000009
 31
0.0
  0
LINE
  5
F2
330
1E
100
AcDbEntity
  8
0
100
AcDbLine
 10
65.5
 20
7.296768500000009
 30
0.0
 11
67.2
 21
5.031708500000009
 31
0.0
  0
LINE
  5
F3
330
1E
100
AcDbEntity
  8
0
100
AcDbLine
 10
69.5
 20
1.53423850000001
 30
0.0
 11
72.2
 21
0.4509485000000061
 31
0.0
  0
LINE
  5
F4
330
1E
100
AcDbEntity
  8
0
100
AcDbLine
 10
75.0
 20
0.0570215000000065
 30
0.0
 11
77.8
 21
0.4509485000000061
 31
0.0
  0
LINE
  5
F5
330
1E
100
AcDbEntity
  8
0
100
AcDbLine
 10
77.8
 20
0.4509485000000061
 30
0.0
 11
80.5
 21
1.53423850000001
 31
0.0
  0
LINE
  5
F6
330
1E
100
AcDbEntity
  8
0
100
AcDbLine
 10
75.0
 20
0.0570215000000065
 30
0.0
 11
77.8
 21
0.4509485000000061
 31
0.0
  0
LINE
  5
F7
330
1E
100
AcDbEntity
  8
0
100
AcDbLine
 10
77.8
 20
0.4509485000000061
 30
0.0
 11
80.5
 21
1.53423850000001
 31
0.0
  0
LINE
  5
F8
330
1E
100
AcDbEntity
  8
0
100
AcDbLine
 10
72.2
 20
2.343708500000009
 30
0.0
 11
75.0
 21
1.94978850000001
 31
0.0
  0
LINE
  5
F9
330
1E
100
AcDbEntity
  8
0
100
AcDbLine
 10
75.0
 20
1.88032850000001
 30
0.0
 11
77.8
 21
2.274248500000009
 31
0.0
  0
LINE
  5
FA
330
1E
100
AcDbEntity
  8
0
100
AcDbLine
 10
77.8
 20
2.274248500000009
 30
0.0
 11
80.5
 21
3.357538500000009
 31
0.0
  0
LINE
  5
FB
330
1E
100
AcDbEntity
  8
0
100
AcDbLine
 10
80.5
 20
1.53423850000001
 30
0.0
 11
82.79999999999999
 21
3.208408500000009
 31
0.0
  0
LINE
  5
FC
330
1E
100
AcDbEntity
  8
0
100
AcDbLine
 10
75.0
 20
1.94978850000001
 30
0.0
 11
77.8
 21
2.343708500000009
 31
0.0
  0
LINE
  5
FD
330
1E
100
AcDbEntity
  8
0
100
AcDbLine
 10
82.79999999999999
 20
3.208408500000009
 30
0.0
 11
84.50000000000001
 21
5.473468500000009
 31
0.0
  0
LINE
  5
FE
330
1E
100
AcDbEntity
  8
0
100
AcDbLine
 10
77.8
 20
2.343708500000009
 30
0.0
 11
80.5
 21
3.426998500000009
 31
0.0
  0
LINE
  5
FF
330
1E
100
AcDbEntity
  8
0
100
AcDbLine
 10
72.2
 20
2.274248500000009
 30
0.0
 11
75.0
 21
1.88032850000001
 31
0.0
  0
LINE
  5
100
330
1E
100
AcDbEntity
  8
0
100
AcDbLine
 10
72.2
 20
0.4509485000000061
 30
0.0
 11
75.0
 21
0.0570215000000065
 31
0.0
  0
LINE
  5
101
330
1E
100
AcDbEntity
  8
0
100
AcDbLine
 10
72.2
 20
0.4509485000000061
 30
0.0
 11
75.0
 21
0.0570215000000065
 31
0.0
  0
LINE
  5
102
330
1E
100
AcDbEntity
  8
0
100
AcDbLine
 10
69.5
 20
1.53423850000001
 30
0.0
 11
72.2
 21
0.4509485000000061
 31
0.0
  0
LINE
  5
103
330
1E
100
AcDbEntity
  8
0
100
AcDbLine
 10
67.2
 20
5.101168500000009
 30
0.0
 11
69.5
 21
3.426998500000009
 31
0.0
  0
LINE
  5
104
330
1E
100
AcDbEntity
  8
0
100
AcDbLine
 10
80.5
 20
3.357538500000009
 30
0.0
 11
82.79999999999999
 21
5.031708500000009
 31
0.0
  0
LINE
  5
105
330
1E
100
AcDbEntity
  8
0
100
AcDbLine
 10
82.79999999999999
 20
5.031708500000009
 30
0.0
 11
84.50000000000001
 21
7.296768500000009
 31
0.0
  0
LINE
  5
106
330
1E
100
AcDbEntity
  8
0
100
AcDbLine
 10
80.5
 20
3.426998500000009
 30
0.0
 11
82.79999999999999
 21
5.101168500000009
 31
0.0
  0
LINE
  5
107
330
1E
100
AcDbEntity
  8
0
100
AcDbLine
 10
84.50000000000001
 20
7.296768500000009
 30
0.0
 11
85.6
 21
9.955778500000009
 31
0.0
  0
LINE
  5
108
330
1E
100
AcDbEntity
  8
0
100
AcDbLine
 10
84.50000000000001
 20
5.473468500000009
 30
0.0
 11
85.6
 21
8.132448500000009
 31
0.0
  0
LINE
  5
109
330
1E
100
AcDbEntity
  8
0
100
AcDbLine
 10
82.79999999999999
 20
5.101168500000009
 30
0.0
 11
84.50000000000001
 21
7.366228500000009
 31
0.0
  0
LINE
  5
10A
330
1E
100
AcDbEntity
  8
0
100
AcDbLine
 10
85.6
 20
8.132448500000009
 30
0.0
 11
86.0
 21
10.8898785
 31
0.0
  0
LINE
  5
10B
330
1E
100
AcDbEntity
  8
0
100
AcDbLine
 10
84.50000000000001
 20
7.366228500000009
 30
0.0
 11
85.6
 21
10.0251785
 31
0.0
  0
LINE
  5
10C
330
1E
100
AcDbEntity
  8
0
100
AcDbLine
 10
69.5
 20
3.426998500000009
 30
0.0
 11
72.2
 21
2.343708500000009
 31
0.0
  0
LINE
  5
10D
330
1E
100
AcDbEntity
  8
0
100
AcDbLine
 10
69.5
 20
3.357538500000009
 30
0.0
 11
72.2
 21
2.274248500000009
 31
0.0
  0
LINE
  5
10E
330
1E
100
AcDbEntity
  8
0
100
AcDbLine
 10
67.2
 20
5.031708500000009
 30
0.0
 11
69.5
 21
3.357538500000009
 31
0.0
  0
LINE
  5
10F
330
1E
100
AcDbEntity
  8
0
100
AcDbLine
 10
67.2
 20
3.208408500000009
 30
0.0
 11
69.5
 21
1.53423850000001
 31
0.0
  0
LINE
  5
110
330
1E
100
AcDbEntity
  8
0
100
AcDbLine
 10
65.5
 20
5.473468500000009
 30
0.0
 11
67.2
 21
3.208408500000009
 31
0.0
  0
LINE
  5
111
330
1E
100
AcDbEntity
  8
0
100
AcDbLine
 10
64.0
 20
219.4449785
 30
0.0
 11
64.396
 21
222.2609785
 31
0.0
  0
LINE
  5
112
330
1E
100
AcDbEntity
  8
0
100
AcDbLine
 10
64.08800000000001
 20
238.5409785
 30
0.0
 11
69.36799999999999
 21
240.6529785
 31
0.0
  0
LINE
  5
113
330
1E
100
AcDbEntity
  8
0
100
AcDbLine
 10
64.25709999999999
 20
230.1879785
 30
0.0
 11
67.45709999999999
 21
232.6259784999999
 31
0.0
  0
LINE
  5
114
330
1E
100
AcDbEntity
  8
0
100
AcDbLine
 10
64.40000000000001
 20
10.0251785
 30
0.0
 11
65.5
 21
7.366228500000009
 31
0.0
  0
LINE
  5
115
330
1E
100
AcDbEntity
  8
0
100
AcDbLine
 10
85.6
 20
9.955778500000009
 30
0.0
 11
86.0
 21
12.71317849999999
 31
0.0
  0
LINE
  5
116
330
1E
100
AcDbEntity
  8
0
100
AcDbLine
 10
86.0
 20
10.8898785
 30
0.0
 11
86.0
 21
12.71317849999999
 31
0.0
  0
LINE
  5
117
330
1E
100
AcDbEntity
  8
0
100
AcDbLine
 10
86.0
 20
24.4452785
 30
0.0
 11
86.0
 21
32.0395785
 31
0.0
  0
LINE
  5
118
330
1E
100
AcDbEntity
  8
0
100
AcDbLine
 10
86.0
 20
24.4452785
 30
0.0
 11
86.0
 21
18.3995785
 31
0.0
  0
LINE
  5
119
330
1E
100
AcDbEntity
  8
0
100
AcDbLine
 10
86.0
 20
18.3995785
 30
0.0
 11
86.0
 21
14.0057785
 31
0.0
  0
LINE
  5
11A
330
1E
100
AcDbEntity
  8
0
100
AcDbLine
 10
86.0
 20
18.3995785
 30
0.0
 11
86.0
 21
24.4452785
 31
0.0
  0
LINE
  5
11B
330
1E
100
AcDbEntity
  8
0
100
AcDbLine
 10
86.0
 20
32.0395785
 30
0.0
 11
86.0
 21
41.0522785
 31
0.0
  0
LINE
  5
11C
330
1E
100
AcDbEntity
  8
0
100
AcDbLine
 10
86.0
 20
32.0395785
 30
0.0
 11
86.0
 21
24.4452785
 31
0.0
  0
LINE
  5
11D
330
1E
100
AcDbEntity
  8
0
100
AcDbLine
 10
86.0
 20
41.0522785
 30
0.0
 11
86.0
 21
32.0395785
 31
0.0
  0
LINE
  5
11E
330
1E
100
AcDbEntity
  8
0
100
AcDbLine
 10
86.0
 20
41.0522785
 30
0.0
 11
86.0
 21
51.3293785
 31
0.0
  0
LINE
  5
11F
330
1E
100
AcDbEntity
  8
0
100
AcDbLine
 10
86.0
 20
12.71317849999999
 30
0.0
 11
86.0
 21
10.8898785
 31
0.0
  0
LINE
  5
120
330
1E
100
AcDbEntity
  8
0
100
AcDbLine
 10
86.0
 20
12.7826785
 30
0.0
 11
86.0
 21
14.0057785
 31
0.0
  0
LINE
  5
121
330
1E
100
AcDbEntity
  8
0
100
AcDbLine
 10
85.6
 20
10.0251785
 30
0.0
 11
86.0
 21
12.7826785
 31
0.0
  0
LINE
  5
122
330
1E
100
AcDbEntity
  8
0
100
AcDbLine
 10
86.0
 20
14.0057785
 30
0.0
 11
86.0
 21
12.7826785
 31
0.0
  0
LINE
  5
123
330
1E
100
AcDbEntity
  8
0
100
AcDbLine
 10
86.0
 20
14.0057785
 30
0.0
 11
86.0
 21
18.3995785
 31
0.0
  0
LINE
  5
124
330
1E
100
AcDbEntity
  8
0
100
AcDbLine
 10
86.0
 20
74.9545785
 30
0.0
 11
86.0
 21
87.89837850000001
 31
0.0
  0
LINE
  5
125
330
1E
100
AcDbEntity
  8
0
100
AcDbLine
 10
86.0
 20
74.9545785
 30
0.0
 11
86.0
 21
62.6949785
 31
0.0
  0
LINE
  5
126
330
1E
100
AcDbEntity
  8
0
100
AcDbLine
 10
86.0
 20
87.89837850000001
 30
0.0
 11
86.0
 21
101.3049784999999
 31
0.0
  0
LINE
  5
127
330
1E
100
AcDbEntity
  8
0
100
AcDbLine
 10
86.0
 20
87.89837850000001
 30
0.0
 11
86.0
 21
74.9545785
 31
0.0
  0
LINE
  5
128
330
1E
100
AcDbEntity
  8
0
100
AcDbLine
 10
86.0
 20
101.3049784999999
 30
0.0
 11
86.0
 21
114.9449784999999
 31
0.0
  0
LINE
  5
129
330
1E
100
AcDbEntity
  8
0
100
AcDbLine
 10
86.0
 20
101.3049784999999
 30
0.0
 11
86.0
 21
87.89837850000001
 31
0.0
  0
LINE
  5
12A
330
1E
100
AcDbEntity
  8
0
100
AcDbLine
 10
86.0
 20
51.3293785
 30
0.0
 11
86.0
 21
62.6949785
 31
0.0
  0
LINE
  5
12B
330
1E
100
AcDbEntity
  8
0
100
AcDbLine
 10
86.0
 20
51.3293785
 30
0.0
 11
86.0
 21
41.0522785
 31
0.0
  0
LINE
  5
12C
330
1E
100
AcDbEntity
  8
0
100
AcDbLine
 10
86.0
 20
62.6949785
 30
0.0
 11
86.0
 21
51.3293785
 31
0.0
  0
LINE
  5
12D
330
1E
100
AcDbEntity
  8
0
100
AcDbLine
 10
86.0
 20
62.6949785
 30
0.0
 11
86.0
 21
74.9545785
 31
0.0
  0
LINE
  5
12E
330
1E
100
AcDbEntity
  8
0
100
AcDbLine
 10
86.0
 20
141.9919784999999
 30
0.0
 11
86.0
 21
154.9349784999999
 31
0.0
  0
LINE
  5
12F
330
1E
100
AcDbEntity
  8
0
100
AcDbLine
 10
86.0
 20
141.9919784999999
 30
0.0
 11
86.0
 21
128.5849785
 31
0.0
  0
LINE
  5
130
330
1E
100
AcDbEntity
  8
0
100
AcDbLine
 10
86.0
 20
154.9349784999999
 30
0.0
 11
86.0
 21
167.1949784999999
 31
0.0
  0
LINE
  5
131
330
1E
100
AcDbEntity
  8
0
100
AcDbLine
 10
86.0
 20
154.9349784999999
 30
0.0
 11
86.0
 21
141.9919784999999
 31
0.0
  0
LINE
  5
132
330
1E
100
AcDbEntity
  8
0
100
AcDbLine
 10
86.0
 20
197.8499784999999
 30
0.0
 11
86.0
 21
188.8379784999999
 31
0.0
  0
LINE
  5
133
330
1E
100
AcDbEntity
  8
0
100
AcDbLine
 10
86.0
 20
197.8499784999999
 30
0.0
 11
86.0
 21
205.4449785
 31
0.0
  0
LINE
  5
134
330
1E
100
AcDbEntity
  8
0
100
AcDbLine
 10
86.0
 20
188.8379784999999
 30
0.0
 11
86.0
 21
178.5609785
 31
0.0
  0
LINE
  5
135
330
1E
100
AcDbEntity
  8
0
100
AcDbLine
 10
86.0
 20
188.8379784999999
 30
0.0
 11
86.0
 21
197.8499784999999
 31
0.0
  0
LINE
  5
136
330
1E
100
AcDbEntity
  8
0
100
AcDbLine
 10
86.0
 20
167.1949784999999
 30
0.0
 11
86.0
 21
178.5609785
 31
0.0
  0
LINE
  5
137
330
1E
100
AcDbEntity
  8
0
100
AcDbLine
 10
86.0
 20
167.1949784999999
 30
0.0
 11
86.0
 21
154.9349784999999
 31
0.0
  0
LINE
  5
138
330
1E
100
AcDbEntity
  8
0
100
AcDbLine
 10
86.0
 20
178.5609785
 30
0.0
 11
86.0
 21
167.1949784999999
 31
0.0
  0
LINE
  5
139
330
1E
100
AcDbEntity
  8
0
100
AcDbLine
 10
86.0
 20
178.5609785
 30
0.0
 11
86.0
 21
188.8379784999999
 31
0.0
  0
LINE
  5
13A
330
1E
100
AcDbEntity
  8
0
100
AcDbLine
 10
86.0
 20
114.9449784999999
 30
0.0
 11
86.0
 21
128.5849785
 31
0.0
  0
LINE
  5
13B
330
1E
100
AcDbEntity
  8
0
100
AcDbLine
 10
86.0
 20
114.9449784999999
 30
0.0
 11
86.0
 21
101.3049784999999
 31
0.0
  0
LINE
  5
13C
330
1E
100
AcDbEntity
  8
0
100
AcDbLine
 10
86.0
 20
128.5849785
 30
0.0
 11
86.0
 21
114.9449784999999
 31
0.0
  0
LINE
  5
13D
330
1E
100
AcDbEntity
  8
0
100
AcDbLine
 10
86.0
 20
128.5849785
 30
0.0
 11
86.0
 21
141.9919784999999
 31
0.0
  0
LINE
  5
13E
330
1E
100
AcDbEntity
  8
0
100
AcDbLine
 10
86.0
 20
205.4449785
 30
0.0
 11
108.4229999999999
 21
205.4449785
 31
0.0
  0
LINE
  5
13F
330
1E
100
AcDbEntity
  8
0
100
AcDbLine
 10
86.0
 20
205.4449785
 30
0.0
 11
86.0
 21
211.4899784999999
 31
0.0
  0
LINE
  5
140
330
1E
100
AcDbEntity
  8
0
100
AcDbLine
 10
86.0
 20
205.4449785
 30
0.0
 11
86.0
 21
197.8499784999999
 31
0.0
  0
LINE
  5
141
330
1E
100
AcDbEntity
  8
0
100
AcDbLine
 10
109.874
 20
205.4449785
 30
0.0
 11
110.0
 21
205.7809784999999
 31
0.0
  0
LINE
  5
142
330
1E
100
AcDbEntity
  8
0
100
AcDbLine
 10
109.874
 20
205.4449785
 30
0.0
 11
109.874
 21
205.9489784999999
 31
0.0
  0
LINE
  5
143
330
1E
100
AcDbEntity
  8
0
100
AcDbLine
 10
109.126
 20
205.4449785
 30
0.0
 11
109.874
 21
205.4449785
 31
0.0
  0
LINE
  5
144
330
1E
100
AcDbEntity
  8
0
100
AcDbLine
 10
109.126
 20
205.4449785
 30
0.0
 11
109.126
 21
205.9489784999999
 31
0.0
  0
LINE
  5
145
330
1E
100
AcDbEntity
  8
0
100
AcDbLine
 10
109.0
 20
205.7809784999999
 30
0.0
 11
109.0
 21
206.2849785
 31
0.0
  0
LINE
  5
146
330
1E
100
AcDbEntity
  8
0
100
AcDbLine
 10
109.0
 20
205.7809784999999
 30
0.0
 11
109.126
 21
205.4449785
 31
0.0
  0
LINE
  5
147
330
1E
100
AcDbEntity
  8
0
100
AcDbLine
 10
109.0
 20
206.2849785
 30
0.0
 11
109.0
 21
205.7809784999999
 31
0.0
  0
LINE
  5
148
330
1E
100
AcDbEntity
  8
0
100
AcDbLine
 10
109.0
 20
206.2849785
 30
0.0
 11
109.0
 21
207.6289784999999
 31
0.0
  0
LINE
  5
149
330
1E
100
AcDbEntity
  8
0
100
AcDbLine
 10
109.126
 20
205.9489784999999
 30
0.0
 11
109.126
 21
205.4449785
 31
0.0
  0
LINE
  5
14A
330
1E
100
AcDbEntity
  8
0
100
AcDbLine
 10
109.126
 20
205.9489784999999
 30
0.0
 11
109.126
 21
207.2929784999999
 31
0.0
  0
LINE
  5
14B
330
1E
100
AcDbEntity
  8
0
100
AcDbLine
 10
109.874
 20
205.9489784999999
 30
0.0
 11
109.874
 21
207.2929784999999
 31
0.0
  0
LINE
  5
14C
330
1E
100
AcDbEntity
  8
0
100
AcDbLine
 10
109.874
 20
205.9489784999999
 30
0.0
 11
109.874
 21
205.4449785
 31
0.0
  0
LINE
  5
14D
330
1E
100
AcDbEntity
  8
0
100
AcDbLine
 10
109.126
 20
207.2929784999999
 30
0.0
 11
109.126
 21
205.9489784999999
 31
0.0
  0
LINE
  5
14E
330
1E
100
AcDbEntity
  8
0
100
AcDbLine
 10
109.126
 20
207.2929784999999
 30
0.0
 11
109.126
 21
209.5329784999999
 31
0.0
  0
LINE
  5
14F
330
1E
100
AcDbEntity
  8
0
100
AcDbLine
 10
109.874
 20
207.2929784999999
 30
0.0
 11
109.874
 21
209.5329784999999
 31
0.0
  0
LINE
  5
150
330
1E
100
AcDbEntity
  8
0
100
AcDbLine
 10
109.874
 20
207.2929784999999
 30
0.0
 11
109.874
 21
205.9489784999999
 31
0.0
  0
LINE
  5
151
330
1E
100
AcDbEntity
  8
0
100
AcDbLine
 10
109.0
 20
207.6289784999999
 30
0.0
 11
109.0
 21
206.2849785
 31
0.0
  0
LINE
  5
152
330
1E
100
AcDbEntity
  8
0
100
AcDbLine
 10
109.0
 20
207.6289784999999
 30
0.0
 11
109.0
 21
209.8129785
 31
0.0
  0
LINE
  5
153
330
1E
100
AcDbEntity
  8
0
100
AcDbLine
 10
108.4229999999999
 20
205.4449785
 30
0.0
 11
109.0
 21
205.7809784999999
 31
0.0
  0
LINE
  5
154
330
1E
100
AcDbEntity
  8
0
100
AcDbLine
 10
110.0
 20
206.2849785
 30
0.0
 11
110.0
 21
205.7809784999999
 31
0.0
  0
LINE
  5
155
330
1E
100
AcDbEntity
  8
0
100
AcDbLine
 10
110.0
 20
206.2849785
 30
0.0
 11
110.0
 21
207.6289784999999
 31
0.0
  0
LINE
  5
156
330
1E
100
AcDbEntity
  8
0
100
AcDbLine
 10
110.0
 20
207.6289784999999
 30
0.0
 11
110.0
 21
206.2849785
 31
0.0
  0
LINE
  5
157
330
1E
100
AcDbEntity
  8
0
100
AcDbLine
 10
110.0
 20
207.6289784999999
 30
0.0
 11
110.0
 21
209.8129785
 31
0.0
  0
LINE
  5
158
330
1E
100
AcDbEntity
  8
0
100
AcDbLine
 10
149.4229999999999
 20
205.4449785
 30
0.0
 11
150.0
 21
205.7809784999999
 31
0.0
  0
LINE
  5
159
330
1E
100
AcDbEntity
  8
0
100
AcDbLine
 10
150.0
 20
205.7809784999999
 30
0.0
 11
150.0
 21
206.2849785
 31
0.0
  0
LINE
  5
15A
330
1E
100
AcDbEntity
  8
0
100
AcDbLine
 10
150.0
 20
206.2849785
 30
0.0
 11
150.0
 21
207.6289784999999
 31
0.0
  0
LINE
  5
15B
330
1E
100
AcDbEntity
  8
0
100
AcDbLine
 10
150.0
 20
206.2849785
 30
0.0
 11
150.0
 21
205.7809784999999
 31
0.0
  0
LINE
  5
15C
330
1E
100
AcDbEntity
  8
0
100
AcDbLine
 10
150.0
 20
207.6289784999999
 30
0.0
 11
150.0
 21
209.8129785
 31
0.0
  0
LINE
  5
15D
330
1E
100
AcDbEntity
  8
0
100
AcDbLine
 10
150.0
 20
207.6289784999999
 30
0.0
 11
150.0
 21
206.2849785
 31
0.0
  0
LINE
  5
15E
330
1E
100
AcDbEntity
  8
0
100
AcDbLine
 10
110.577
 20
205.4449785
 30
0.0
 11
149.4229999999999
 21
205.4449785
 31
0.0
  0
LINE
  5
15F
330
1E
100
AcDbEntity
  8
0
100
AcDbLine
 10
110.0
 20
205.7809784999999
 30
0.0
 11
110.577
 21
205.4449785
 31
0.0
  0
LINE
  5
160
330
1E
100
AcDbEntity
  8
0
100
AcDbLine
 10
110.0
 20
205.7809784999999
 30
0.0
 11
110.0
 21
206.2849785
 31
0.0
  0
LINE
  5
161
330
1E
100
AcDbEntity
  8
0
100
AcDbLine
 10
90.576
 20
203.8689784999999
 30
0.0
 11
91.7654339622641
 21
205.4449785
 31
0.0
  0
LINE
  5
162
330
1E
100
AcDbEntity
  8
0
100
AcDbLine
 10
86.0
 20
200.4153935943399
 30
0.0
 11
90.576
 21
203.8689784999999
 31
0.0
  0
LINE
  5
163
330
1E
100
AcDbEntity
  8
0
100
AcDbLine
 10
86.0
 20
200.4153935943399
 30
0.0
 11
90.576
 21
203.8689784999999
 31
0.0
  0
LINE
  5
164
330
1E
100
AcDbEntity
  8
0
100
AcDbLine
 10
67.212
 20
227.2329785
 30
0.0
 11
69.54399999999999
 21
228.9929785
 31
0.0
  0
LINE
  5
165
330
1E
100
AcDbEntity
  8
0
100
AcDbLine
 10
65.452
 20
224.9009785
 30
0.0
 11
67.212
 21
227.2329785
 31
0.0
  0
LINE
  5
166
330
1E
100
AcDbEntity
  8
0
100
AcDbLine
 10
69.54399999999999
 20
228.9929785
 30
0.0
 11
72.18399999999999
 21
230.0489784999999
 31
0.0
  0
LINE
  5
167
330
1E
100
AcDbEntity
  8
0
100
AcDbLine
 10
67.45709999999999
 20
232.6259784999999
 30
0.0
 11
71.1143
 21
234.1499784999999
 31
0.0
  0
LINE
  5
168
330
1E
100
AcDbEntity
  8
0
100
AcDbLine
 10
69.36799999999999
 20
240.6529785
 30
0.0
 11
72.50397257978001
 21
241.0939746440319
 31
0.0
  0
LINE
  5
169
330
1E
100
AcDbEntity
  8
0
100
AcDbLine
 10
67.0762
 20
233.3119785
 30
0.0
 11
70.8857
 21
234.8349784999999
 31
0.0
  0
LINE
  5
16A
330
1E
100
AcDbEntity
  8
0
100
AcDbLine
 10
77.48552185783291
 20
230.0954519887419
 30
0.0
 11
77.816
 21
230.0489784999999
 31
0.0
  0
LINE
  5
16B
330
1E
100
AcDbEntity
  8
0
100
AcDbLine
 10
75.0
 20
230.4449785
 30
0.0
 11
77.816
 21
230.0489784999999
 31
0.0
  0
LINE
  5
16C
330
1E
100
AcDbEntity
  8
0
100
AcDbLine
 10
72.18399999999999
 20
230.0489784999999
 30
0.0
 11
75.0
 21
230.4449785
 31
0.0
  0
LINE
  5
16D
330
1E
100
AcDbEntity
  8
0
100
AcDbLine
 10
72.18399999999999
 20
230.0489784999999
 30
0.0
 11
72.56447189216228
 21
230.102482359835
 31
0.0
  0
LINE
  5
16E
330
1E
100
AcDbEntity
  8
0
100
AcDbLine
 10
74.04049999999999
 20
240.7769785
 30
0.0
 11
74.997
 21
240.6109785
 31
0.0
  0
LINE
  5
16F
330
1E
100
AcDbEntity
  8
0
100
AcDbLine
 10
74.997
 20
240.6109785
 30
0.0
 11
75.95399999999999
 21
240.7749785
 31
0.0
  0
LINE
  5
170
330
1E
100
AcDbEntity
  8
0
100
AcDbLine
 10
75.95399999999999
 20
240.7749785
 30
0.0
 11
76.7658
 21
241.2439785
 31
0.0
  0
LINE
  5
171
330
1E
100
AcDbEntity
  8
0
100
AcDbLine
 10
75.9539
 20
240.7569785
 30
0.0
 11
76.7658
 21
241.2259785
 31
0.0
  0
LINE
  5
172
330
1E
100
AcDbEntity
  8
0
100
AcDbLine
 10
74.9969
 20
240.5929785
 30
0.0
 11
75.9539
 21
240.7569785
 31
0.0
  0
LINE
  5
173
330
1E
100
AcDbEntity
  8
0
100
AcDbLine
 10
74.04049999999999
 20
240.7589785
 30
0.0
 11
74.9969
 21
240.5929785
 31
0.0
  0
LINE
  5
174
330
1E
100
AcDbEntity
  8
0
100
AcDbLine
 10
71.1143
 20
234.1499784999999
 30
0.0
 11
72.5172269039783
 21
234.342417453038
 31
0.0
  0
LINE
  5
175
330
1E
100
AcDbEntity
  8
0
100
AcDbLine
 10
70.8857
 20
234.8349784999999
 30
0.0
 11
72.5157854742837
 21
235.076660472465
 31
0.0
  0
LINE
  5
176
330
1E
100
AcDbEntity
  8
0
100
AcDbLine
 10
73.2303
 20
241.2469785
 30
0.0
 11
74.04049999999999
 21
240.7769785
 31
0.0
  0
LINE
  5
177
330
1E
100
AcDbEntity
  8
0
100
AcDbLine
 10
76.7658
 20
241.2439785
 30
0.0
 11
77.309
 21
241.9459785
 31
0.0
  0
LINE
  5
178
330
1E
100
AcDbEntity
  8
0
100
AcDbLine
 10
77.30889999999999
 20
241.9279785
 30
0.0
 11
77.5007
 21
242.7569785
 31
0.0
  0
LINE
  5
179
330
1E
100
AcDbEntity
  8
0
100
AcDbLine
 10
76.7658
 20
241.2259785
 30
0.0
 11
77.30889999999999
 21
241.9279785
 31
0.0
  0
LINE
  5
17A
330
1E
100
AcDbEntity
  8
0
100
AcDbLine
 10
73.2303
 20
241.2289785
 30
0.0
 11
74.04049999999999
 21
240.7589785
 31
0.0
  0
LINE
  5
17B
330
1E
100
AcDbEntity
  8
0
100
AcDbLine
 10
77.309
 20
241.9459785
 30
0.0
 11
77.5007
 21
242.7739785
 31
0.0
  0
LINE
  5
17C
330
1E
100
AcDbEntity
  8
0
100
AcDbLine
 10
72.6895
 20
241.9489785
 30
0.0
 11
73.2303
 21
241.2469785
 31
0.0
  0
LINE
  5
17D
330
1E
100
AcDbEntity
  8
0
100
AcDbLine
 10
72.6895
 20
241.9319785
 30
0.0
 11
73.2303
 21
241.2289785
 31
0.0
  0
LINE
  5
17E
330
1E
100
AcDbEntity
  8
0
100
AcDbLine
 10
72.5007
 20
242.7609785
 30
0.0
 11
72.5251
 21
230.3319785
 31
0.0
  0
LINE
  5
17F
330
1E
100
AcDbEntity
  8
0
100
AcDbLine
 10
72.5007
 20
242.7609785
 30
0.0
 11
72.6895
 21
241.9319785
 31
0.0
  0
LINE
  5
180
330
1E
100
AcDbEntity
  8
0
100
AcDbLine
 10
72.5
 20
243.9699785
 30
0.0
 11
72.5
 21
243.5319785
 31
0.0
  0
LINE
  5
181
330
1E
100
AcDbEntity
  8
0
100
AcDbLine
 10
72.5
 20
243.9699785
 30
0.0
 11
72.5001
 21
244.4459785
 31
0.0
  0
LINE
  5
182
330
1E
100
AcDbEntity
  8
0
100
AcDbLine
 10
72.5004
 20
244.9429784999999
 30
0.0
 11
72.5124
 21
254.9429785
 31
0.0
  0
LINE
  5
183
330
1E
100
AcDbEntity
  8
0
100
AcDbLine
 10
72.5001
 20
244.4459785
 30
0.0
 11
72.5004
 21
244.9429784999999
 31
0.0
  0
LINE
  5
184
330
1E
100
AcDbEntity
  8
0
100
AcDbLine
 10
72.5
 20
243.5319785
 30
0.0
 11
72.50020000000001
 21
243.1499785
 31
0.0
  0
LINE
  5
185
330
1E
100
AcDbEntity
  8
0
100
AcDbLine
 10
72.5
 20
243.5319785
 30
0.0
 11
72.5
 21
243.9699785
 31
0.0
  0
LINE
  5
186
330
1E
100
AcDbEntity
  8
0
100
AcDbLine
 10
72.50020000000001
 20
243.1499785
 30
0.0
 11
72.5007
 21
242.7779785
 31
0.0
  0
LINE
  5
187
330
1E
100
AcDbEntity
  8
0
100
AcDbLine
 10
72.5124
 20
254.9429785
 30
0.0
 11
72.70109999999999
 21
254.9429785
 31
0.0
  0
LINE
  5
188
330
1E
100
AcDbEntity
  8
0
100
AcDbLine
 10
73.2474
 20
254.9429785
 30
0.0
 11
74.05929999999999
 21
254.9419784999999
 31
0.0
  0
LINE
  5
189
330
1E
100
AcDbEntity
  8
0
100
AcDbLine
 10
72.70109999999999
 20
254.9429785
 30
0.0
 11
73.2418
 21
254.9429785
 31
0.0
  0
LINE
  5
18A
330
1E
100
AcDbEntity
  8
0
100
AcDbLine
 10
73.2418
 20
254.9429785
 30
0.0
 11
74.05190000000001
 21
254.9419784999999
 31
0.0
  0
LINE
  5
18B
330
1E
100
AcDbEntity
  8
0
100
AcDbLine
 10
75.0084
 20
254.9409785
 30
0.0
 11
75.9654
 21
254.9399785
 31
0.0
  0
LINE
  5
18C
330
1E
100
AcDbEntity
  8
0
100
AcDbLine
 10
75.9654
 20
254.9399785
 30
0.0
 11
76.7773
 21
254.9399785
 31
0.0
  0
LINE
  5
18D
330
1E
100
AcDbEntity
  8
0
100
AcDbLine
 10
77.3206
 20
254.9389785
 30
0.0
 11
77.5124
 21
254.9389785
 31
0.0
  0
LINE
  5
18E
330
1E
100
AcDbEntity
  8
0
100
AcDbLine
 10
76.7829
 20
254.9399785
 30
0.0
 11
77.32359999999999
 21
254.9389785
 31
0.0
  0
LINE
  5
18F
330
1E
100
AcDbEntity
  8
0
100
AcDbLine
 10
76.7773
 20
254.9399785
 30
0.0
 11
77.3206
 21
254.9389785
 31
0.0
  0
LINE
  5
190
330
1E
100
AcDbEntity
  8
0
100
AcDbLine
 10
75.0163
 20
254.9409785
 30
0.0
 11
75.97280000000001
 21
254.9399785
 31
0.0
  0
LINE
  5
191
330
1E
100
AcDbEntity
  8
0
100
AcDbLine
 10
74.05929999999999
 20
254.9419784999999
 30
0.0
 11
75.0163
 21
254.9409785
 31
0.0
  0
LINE
  5
192
330
1E
100
AcDbEntity
  8
0
100
AcDbLine
 10
74.05190000000001
 20
254.9419784999999
 30
0.0
 11
75.0084
 21
254.9409785
 31
0.0
  0
LINE
  5
193
330
1E
100
AcDbEntity
  8
0
100
AcDbLine
 10
74.05190000000001
 20
254.9419784999999
 30
0.0
 11
76.7773
 21
254.9399785
 31
0.0
  0
LINE
  5
194
330
1E
100
AcDbEntity
  8
0
100
AcDbLine
 10
77.5
 20
243.9659784999999
 30
0.0
 11
77.5
 21
243.5279785
 31
0.0
  0
LINE
  5
195
330
1E
100
AcDbEntity
  8
0
100
AcDbLine
 10
77.5
 20
243.9659784999999
 30
0.0
 11
77.5001
 21
244.4419785
 31
0.0
  0
LINE
  5
196
330
1E
100
AcDbEntity
  8
0
100
AcDbLine
 10
77.5004
 20
244.9389785
 30
0.0
 11
77.5124
 21
254.9389785
 31
0.0
  0
LINE
  5
197
330
1E
100
AcDbEntity
  8
0
100
AcDbLine
 10
77.5001
 20
244.4419785
 30
0.0
 11
77.5004
 21
244.9389785
 31
0.0
  0
LINE
  5
198
330
1E
100
AcDbEntity
  8
0
100
AcDbLine
 10
77.5
 20
243.5279785
 30
0.0
 11
77.50020000000001
 21
243.1459785
 31
0.0
  0
LINE
  5
199
330
1E
100
AcDbEntity
  8
0
100
AcDbLine
 10
77.5
 20
243.5279785
 30
0.0
 11
77.5
 21
243.9659784999999
 31
0.0
  0
LINE
  5
19A
330
1E
100
AcDbEntity
  8
0
100
AcDbLine
 10
77.50020000000001
 20
243.1459785
 30
0.0
 11
77.5007
 21
242.7739785
 31
0.0
  0
LINE
  5
19B
330
1E
100
AcDbEntity
  8
0
100
AcDbLine
 10
72.5007
 20
242.7779785
 30
0.0
 11
72.6895
 21
241.9489785
 31
0.0
  0
LINE
  5
19C
330
1E
100
AcDbEntity
  8
0
100
AcDbLine
 10
77.5007
 20
242.7569785
 30
0.0
 11
77.5251
 21
230.3239785
 31
0.0
  0
LINE
  5
19D
330
1E
100
AcDbEntity
  8
0
100
AcDbLine
 10
77.5039658676814
 20
241.092858299857
 30
0.0
 11
80.632
 21
240.6529785
 31
0.0
  0
LINE
  5
19E
330
1E
100
AcDbEntity
  8
0
100
AcDbLine
 10
77.816
 20
230.0489784999999
 30
0.0
 11
80.456
 21
228.9929785
 31
0.0
  0
LINE
  5
19F
330
1E
100
AcDbEntity
  8
0
100
AcDbLine
 10
80.456
 20
228.9929785
 30
0.0
 11
82.788
 21
227.2329785
 31
0.0
  0
LINE
  5
1A0
330
1E
100
AcDbEntity
  8
0
100
AcDbLine
 10
82.788
 20
227.2329785
 30
0.0
 11
84.54799999999998
 21
224.9009785
 31
0.0
  0
LINE
  5
1A1
330
1E
100
AcDbEntity
  8
0
100
AcDbLine
 10
82.788
 20
227.2329785
 30
0.0
 11
84.54799999999998
 21
224.9009785
 31
0.0
  0
LINE
  5
1A2
330
1E
100
AcDbEntity
  8
0
100
AcDbLine
 10
82.59112534471439
 20
233.4449785
 30
0.0
 11
108.4229999999999
 21
233.4449785
 31
0.0
  0
LINE
  5
1A3
330
1E
100
AcDbEntity
  8
0
100
AcDbLine
 10
82.54290000000001
 20
232.6259784999999
 30
0.0
 11
85.74290000000001
 21
230.1879785
 31
0.0
  0
LINE
  5
1A4
330
1E
100
AcDbEntity
  8
0
100
AcDbLine
 10
78.8857
 20
234.1499784999999
 30
0.0
 11
82.54290000000001
 21
232.6259784999999
 31
0.0
  0
LINE
  5
1A5
330
1E
100
AcDbEntity
  8
0
100
AcDbLine
 10
77.5172230106411
 20
234.3376919712739
 30
0.0
 11
78.8857
 21
234.1499784999999
 31
0.0
  0
LINE
  5
1A6
330
1E
100
AcDbEntity
  8
0
100
AcDbLine
 10
85.60399999999999
 20
222.2609785
 30
0.0
 11
86.0
 21
219.4449785
 31
0.0
  0
LINE
  5
1A7
330
1E
100
AcDbEntity
  8
0
100
AcDbLine
 10
86.0
 20
211.4899784999999
 30
0.0
 11
86.0
 21
215.8839785
 31
0.0
  0
LINE
  5
1A8
330
1E
100
AcDbEntity
  8
0
100
AcDbLine
 10
86.0
 20
211.4899784999999
 30
0.0
 11
86.0
 21
205.4449785
 31
0.0
  0
LINE
  5
1A9
330
1E
100
AcDbEntity
  8
0
100
AcDbLine
 10
86.0
 20
215.8839785
 30
0.0
 11
86.0
 21
218.5509785
 31
0.0
  0
LINE
  5
1AA
330
1E
100
AcDbEntity
  8
0
100
AcDbLine
 10
86.0
 20
215.8839785
 30
0.0
 11
86.0
 21
211.4899784999999
 31
0.0
  0
LINE
  5
1AB
330
1E
100
AcDbEntity
  8
0
100
AcDbLine
 10
86.0
 20
219.4449785
 30
0.0
 11
86.0
 21
218.5509785
 31
0.0
  0
LINE
  5
1AC
330
1E
100
AcDbEntity
  8
0
100
AcDbLine
 10
86.0
 20
218.5509785
 30
0.0
 11
86.0
 21
215.8839785
 31
0.0
  0
LINE
  5
1AD
330
1E
100
AcDbEntity
  8
0
100
AcDbLine
 10
86.0
 20
218.5509785
 30
0.0
 11
86.0
 21
219.4449785
 31
0.0
  0
LINE
  5
1AE
330
1E
100
AcDbEntity
  8
0
100
AcDbLine
 10
85.74290000000001
 20
230.1879785
 30
0.0
 11
88.18089999999999
 21
226.9879785
 31
0.0
  0
LINE
  5
1AF
330
1E
100
AcDbEntity
  8
0
100
AcDbLine
 10
86.2762
 20
230.7209784999999
 30
0.0
 11
88.8667
 21
227.3689785
 31
0.0
  0
LINE
  5
1B0
330
1E
100
AcDbEntity
  8
0
100
AcDbLine
 10
82.92379999999999
 20
233.3119785
 30
0.0
 11
86.2762
 21
230.7209784999999
 31
0.0
  0
LINE
  5
1B1
330
1E
100
AcDbEntity
  8
0
100
AcDbLine
 10
80.632
 20
240.6529785
 30
0.0
 11
85.912
 21
238.5409785
 31
0.0
  0
LINE
  5
1B2
330
1E
100
AcDbEntity
  8
0
100
AcDbLine
 10
85.912
 20
238.5409785
 30
0.0
 11
90.576
 21
235.0209785
 31
0.0
  0
LINE
  5
1B3
330
1E
100
AcDbEntity
  8
0
100
AcDbLine
 10
79.1143
 20
234.8349784999999
 30
0.0
 11
82.92379999999999
 21
233.3119785
 31
0.0
  0
LINE
  5
1B4
330
1E
100
AcDbEntity
  8
0
100
AcDbLine
 10
77.5157819560073
 20
235.071980178739
 30
0.0
 11
79.1143
 21
234.8349784999999
 31
0.0
  0
LINE
  5
1B5
330
1E
100
AcDbEntity
  8
0
100
AcDbLine
 10
86.0
 20
209.039435431911
 30
0.0
 11
88.18089999999999
 21
211.9019785
 31
0.0
  0
LINE
  5
1B6
330
1E
100
AcDbEntity
  8
0
100
AcDbLine
 10
109.126
 20
209.5329784999999
 30
0.0
 11
109.126
 21
207.2929784999999
 31
0.0
  0
LINE
  5
1B7
330
1E
100
AcDbEntity
  8
0
100
AcDbLine
 10
109.126
 20
209.5329784999999
 30
0.0
 11
109.126
 21
212.5009785
 31
0.0
  0
LINE
  5
1B8
330
1E
100
AcDbEntity
  8
0
100
AcDbLine
 10
109.874
 20
209.5329784999999
 30
0.0
 11
109.874
 21
212.5009785
 31
0.0
  0
LINE
  5
1B9
330
1E
100
AcDbEntity
  8
0
100
AcDbLine
 10
109.874
 20
209.5329784999999
 30
0.0
 11
109.874
 21
207.2929784999999
 31
0.0
  0
LINE
  5
1BA
330
1E
100
AcDbEntity
  8
0
100
AcDbLine
 10
109.0
 20
209.8129785
 30
0.0
 11
109.0
 21
207.6289784999999
 31
0.0
  0
LINE
  5
1BB
330
1E
100
AcDbEntity
  8
0
100
AcDbLine
 10
109.0
 20
209.8129785
 30
0.0
 11
109.0
 21
212.6689784999999
 31
0.0
  0
LINE
  5
1BC
330
1E
100
AcDbEntity
  8
0
100
AcDbLine
 10
110.0
 20
209.8129785
 30
0.0
 11
110.0
 21
207.6289784999999
 31
0.0
  0
LINE
  5
1BD
330
1E
100
AcDbEntity
  8
0
100
AcDbLine
 10
110.0
 20
209.8129785
 30
0.0
 11
110.0
 21
212.6689784999999
 31
0.0
  0
LINE
  5
1BE
330
1E
100
AcDbEntity
  8
0
100
AcDbLine
 10
150.0
 20
209.8129785
 30
0.0
 11
150.0
 21
212.6689784999999
 31
0.0
  0
LINE
  5
1BF
330
1E
100
AcDbEntity
  8
0
100
AcDbLine
 10
150.0
 20
209.8129785
 30
0.0
 11
150.0
 21
207.6289784999999
 31
0.0
  0
LINE
  5
1C0
330
1E
100
AcDbEntity
  8
0
100
AcDbLine
 10
89.7048
 20
223.3309785
 30
0.0
 11
90.2381
 21
219.4449785
 31
0.0
  0
LINE
  5
1C1
330
1E
100
AcDbEntity
  8
0
100
AcDbLine
 10
88.18089999999999
 20
226.9879785
 30
0.0
 11
89.7048
 21
223.3309785
 31
0.0
  0
LINE
  5
1C2
330
1E
100
AcDbEntity
  8
0
100
AcDbLine
 10
88.8667
 20
227.3689785
 30
0.0
 11
90.39050000000001
 21
223.5589785
 31
0.0
  0
LINE
  5
1C3
330
1E
100
AcDbEntity
  8
0
100
AcDbLine
 10
90.39050000000001
 20
223.5589785
 30
0.0
 11
91.0
 21
219.4449785
 31
0.0
  0
LINE
  5
1C4
330
1E
100
AcDbEntity
  8
0
100
AcDbLine
 10
89.7048
 20
215.5589785
 30
0.0
 11
90.2381
 21
219.4449785
 31
0.0
  0
LINE
  5
1C5
330
1E
100
AcDbEntity
  8
0
100
AcDbLine
 10
88.18089999999999
 20
211.9019785
 30
0.0
 11
89.7048
 21
215.5589785
 31
0.0
  0
LINE
  5
1C6
330
1E
100
AcDbEntity
  8
0
100
AcDbLine
 10
109.126
 20
212.5009785
 30
0.0
 11
109.126
 21
209.5329784999999
 31
0.0
  0
LINE
  5
1C7
330
1E
100
AcDbEntity
  8
0
100
AcDbLine
 10
109.126
 20
212.5009785
 30
0.0
 11
109.126
 21
215.8609785
 31
0.0
  0
LINE
  5
1C8
330
1E
100
AcDbEntity
  8
0
100
AcDbLine
 10
109.874
 20
212.5009785
 30
0.0
 11
109.874
 21
215.8609785
 31
0.0
  0
LINE
  5
1C9
330
1E
100
AcDbEntity
  8
0
100
AcDbLine
 10
109.874
 20
212.5009785
 30
0.0
 11
109.874
 21
209.5329784999999
 31
0.0
  0
LINE
  5
1CA
330
1E
100
AcDbEntity
  8
0
100
AcDbLine
 10
109.126
 20
215.8609785
 30
0.0
 11
109.126
 21
212.5009785
 31
0.0
  0
LINE
  5
1CB
330
1E
100
AcDbEntity
  8
0
100
AcDbLine
 10
109.126
 20
215.8609785
 30
0.0
 11
109.126
 21
219.4449785
 31
0.0
  0
LINE
  5
1CC
330
1E
100
AcDbEntity
  8
0
100
AcDbLine
 10
109.874
 20
215.8609785
 30
0.0
 11
109.874
 21
219.4449785
 31
0.0
  0
LINE
  5
1CD
330
1E
100
AcDbEntity
  8
0
100
AcDbLine
 10
109.874
 20
215.8609785
 30
0.0
 11
109.874
 21
212.5009785
 31
0.0
  0
LINE
  5
1CE
330
1E
100
AcDbEntity
  8
0
100
AcDbLine
 10
109.0
 20
212.6689784999999
 30
0.0
 11
109.0
 21
209.8129785
 31
0.0
  0
LINE
  5
1CF
330
1E
100
AcDbEntity
  8
0
100
AcDbLine
 10
109.0
 20
212.6689784999999
 30
0.0
 11
109.0
 21
215.9169785
 31
0.0
  0
LINE
  5
1D0
330
1E
100
AcDbEntity
  8
0
100
AcDbLine
 10
109.0
 20
215.9169785
 30
0.0
 11
109.0
 21
212.6689784999999
 31
0.0
  0
LINE
  5
1D1
330
1E
100
AcDbEntity
  8
0
100
AcDbLine
 10
109.0
 20
215.9169785
 30
0.0
 11
109.0
 21
219.4449785
 31
0.0
  0
LINE
  5
1D2
330
1E
100
AcDbEntity
  8
0
100
AcDbLine
 10
110.0
 20
212.6689784999999
 30
0.0
 11
110.0
 21
209.8129785
 31
0.0
  0
LINE
  5
1D3
330
1E
100
AcDbEntity
  8
0
100
AcDbLine
 10
110.0
 20
212.6689784999999
 30
0.0
 11
110.0
 21
215.9169785
 31
0.0
  0
LINE
  5
1D4
330
1E
100
AcDbEntity
  8
0
100
AcDbLine
 10
109.0
 20
219.4449785
 30
0.0
 11
109.0
 21
222.9729784999999
 31
0.0
  0
LINE
  5
1D5
330
1E
100
AcDbEntity
  8
0
100
AcDbLine
 10
109.0
 20
219.4449785
 30
0.0
 11
109.0
 21
215.9169785
 31
0.0
  0
LINE
  5
1D6
330
1E
100
AcDbEntity
  8
0
100
AcDbLine
 10
109.126
 20
219.4449785
 30
0.0
 11
109.126
 21
215.8609785
 31
0.0
  0
LINE
  5
1D7
330
1E
100
AcDbEntity
  8
0
100
AcDbLine
 10
109.126
 20
219.4449785
 30
0.0
 11
109.126
 21
223.0289785
 31
0.0
  0
LINE
  5
1D8
330
1E
100
AcDbEntity
  8
0
100
AcDbLine
 10
109.874
 20
219.4449785
 30
0.0
 11
109.874
 21
223.0289785
 31
0.0
  0
LINE
  5
1D9
330
1E
100
AcDbEntity
  8
0
100
AcDbLine
 10
109.874
 20
219.4449785
 30
0.0
 11
109.874
 21
215.8609785
 31
0.0
  0
LINE
  5
1DA
330
1E
100
AcDbEntity
  8
0
100
AcDbLine
 10
109.0
 20
222.9729784999999
 30
0.0
 11
109.0
 21
219.4449785
 31
0.0
  0
LINE
  5
1DB
330
1E
100
AcDbEntity
  8
0
100
AcDbLine
 10
109.0
 20
222.9729784999999
 30
0.0
 11
109.0
 21
226.2209785
 31
0.0
  0
LINE
  5
1DC
330
1E
100
AcDbEntity
  8
0
100
AcDbLine
 10
110.0
 20
215.9169785
 30
0.0
 11
110.0
 21
212.6689784999999
 31
0.0
  0
LINE
  5
1DD
330
1E
100
AcDbEntity
  8
0
100
AcDbLine
 10
110.0
 20
215.9169785
 30
0.0
 11
110.0
 21
219.4449785
 31
0.0
  0
LINE
  5
1DE
330
1E
100
AcDbEntity
  8
0
100
AcDbLine
 10
110.0
 20
219.4449785
 30
0.0
 11
110.0
 21
222.9729784999999
 31
0.0
  0
LINE
  5
1DF
330
1E
100
AcDbEntity
  8
0
100
AcDbLine
 10
110.0
 20
219.4449785
 30
0.0
 11
110.0
 21
215.9169785
 31
0.0
  0
LINE
  5
1E0
330
1E
100
AcDbEntity
  8
0
100
AcDbLine
 10
109.0
 20
229.0769785
 30
0.0
 11
109.0
 21
226.2209785
 31
0.0
  0
LINE
  5
1E1
330
1E
100
AcDbEntity
  8
0
100
AcDbLine
 10
109.0
 20
229.0769785
 30
0.0
 11
109.0
 21
231.2609785
 31
0.0
  0
LINE
  5
1E2
330
1E
100
AcDbEntity
  8
0
100
AcDbLine
 10
109.874
 20
223.0289785
 30
0.0
 11
109.874
 21
226.3889784999999
 31
0.0
  0
LINE
  5
1E3
330
1E
100
AcDbEntity
  8
0
100
AcDbLine
 10
109.874
 20
223.0289785
 30
0.0
 11
109.874
 21
219.4449785
 31
0.0
  0
LINE
  5
1E4
330
1E
100
AcDbEntity
  8
0
100
AcDbLine
 10
109.874
 20
226.3889784999999
 30
0.0
 11
109.874
 21
229.3569785
 31
0.0
  0
LINE
  5
1E5
330
1E
100
AcDbEntity
  8
0
100
AcDbLine
 10
109.874
 20
226.3889784999999
 30
0.0
 11
109.874
 21
223.0289785
 31
0.0
  0
LINE
  5
1E6
330
1E
100
AcDbEntity
  8
0
100
AcDbLine
 10
109.126
 20
226.3889784999999
 30
0.0
 11
109.126
 21
223.0289785
 31
0.0
  0
LINE
  5
1E7
330
1E
100
AcDbEntity
  8
0
100
AcDbLine
 10
109.126
 20
226.3889784999999
 30
0.0
 11
109.126
 21
229.3569785
 31
0.0
  0
LINE
  5
1E8
330
1E
100
AcDbEntity
  8
0
100
AcDbLine
 10
109.126
 20
223.0289785
 30
0.0
 11
109.126
 21
219.4449785
 31
0.0
  0
LINE
  5
1E9
330
1E
100
AcDbEntity
  8
0
100
AcDbLine
 10
109.126
 20
223.0289785
 30
0.0
 11
109.126
 21
226.3889784999999
 31
0.0
  0
LINE
  5
1EA
330
1E
100
AcDbEntity
  8
0
100
AcDbLine
 10
109.0
 20
226.2209785
 30
0.0
 11
109.0
 21
222.9729784999999
 31
0.0
  0
LINE
  5
1EB
330
1E
100
AcDbEntity
  8
0
100
AcDbLine
 10
109.0
 20
226.2209785
 30
0.0
 11
109.0
 21
229.0769785
 31
0.0
  0
LINE
  5
1EC
330
1E
100
AcDbEntity
  8
0
100
AcDbLine
 10
109.0
 20
232.6049785
 30
0.0
 11
109.0
 21
231.2609785
 31
0.0
  0
LINE
  5
1ED
330
1E
100
AcDbEntity
  8
0
100
AcDbLine
 10
109.0
 20
232.6049785
 30
0.0
 11
109.0
 21
233.1089785
 31
0.0
  0
LINE
  5
1EE
330
1E
100
AcDbEntity
  8
0
100
AcDbLine
 10
109.874
 20
229.3569785
 30
0.0
 11
109.874
 21
231.5969785
 31
0.0
  0
LINE
  5
1EF
330
1E
100
AcDbEntity
  8
0
100
AcDbLine
 10
109.874
 20
229.3569785
 30
0.0
 11
109.874
 21
226.3889784999999
 31
0.0
  0
LINE
  5
1F0
330
1E
100
AcDbEntity
  8
0
100
AcDbLine
 10
109.874
 20
231.5969785
 30
0.0
 11
109.874
 21
232.9409785
 31
0.0
  0
LINE
  5
1F1
330
1E
100
AcDbEntity
  8
0
100
AcDbLine
 10
109.874
 20
231.5969785
 30
0.0
 11
109.874
 21
229.3569785
 31
0.0
  0
LINE
  5
1F2
330
1E
100
AcDbEntity
  8
0
100
AcDbLine
 10
109.126
 20
231.5969785
 30
0.0
 11
109.126
 21
229.3569785
 31
0.0
  0
LINE
  5
1F3
330
1E
100
AcDbEntity
  8
0
100
AcDbLine
 10
109.126
 20
231.5969785
 30
0.0
 11
109.126
 21
232.9409785
 31
0.0
  0
LINE
  5
1F4
330
1E
100
AcDbEntity
  8
0
100
AcDbLine
 10
109.126
 20
229.3569785
 30
0.0
 11
109.126
 21
226.3889784999999
 31
0.0
  0
LINE
  5
1F5
330
1E
100
AcDbEntity
  8
0
100
AcDbLine
 10
109.126
 20
229.3569785
 30
0.0
 11
109.126
 21
231.5969785
 31
0.0
  0
LINE
  5
1F6
330
1E
100
AcDbEntity
  8
0
100
AcDbLine
 10
109.0
 20
231.2609785
 30
0.0
 11
109.0
 21
229.0769785
 31
0.0
  0
LINE
  5
1F7
330
1E
100
AcDbEntity
  8
0
100
AcDbLine
 10
109.0
 20
231.2609785
 30
0.0
 11
109.0
 21
232.6049785
 31
0.0
  0
LINE
  5
1F8
330
1E
100
AcDbEntity
  8
0
100
AcDbLine
 10
109.874
 20
232.9409785
 30
0.0
 11
109.874
 21
233.4449785
 31
0.0
  0
LINE
  5
1F9
330
1E
100
AcDbEntity
  8
0
100
AcDbLine
 10
109.874
 20
232.9409785
 30
0.0
 11
109.874
 21
231.5969785
 31
0.0
  0
LINE
  5
1FA
330
1E
100
AcDbEntity
  8
0
100
AcDbLine
 10
109.126
 20
232.9409785
 30
0.0
 11
109.126
 21
231.5969785
 31
0.0
  0
LINE
  5
1FB
330
1E
100
AcDbEntity
  8
0
100
AcDbLine
 10
109.126
 20
232.9409785
 30
0.0
 11
109.126
 21
233.4449785
 31
0.0
  0
LINE
  5
1FC
330
1E
100
AcDbEntity
  8
0
100
AcDbLine
 10
109.874
 20
233.4449785
 30
0.0
 11
110.0
 21
233.1089785
 31
0.0
  0
LINE
  5
1FD
330
1E
100
AcDbEntity
  8
0
100
AcDbLine
 10
109.874
 20
233.4449785
 30
0.0
 11
109.874
 21
232.9409785
 31
0.0
  0
LINE
  5
1FE
330
1E
100
AcDbEntity
  8
0
100
AcDbLine
 10
109.126
 20
233.4449785
 30
0.0
 11
109.874
 21
233.4449785
 31
0.0
  0
LINE
  5
1FF
330
1E
100
AcDbEntity
  8
0
100
AcDbLine
 10
109.126
 20
233.4449785
 30
0.0
 11
109.126
 21
232.9409785
 31
0.0
  0
LINE
  5
200
330
1E
100
AcDbEntity
  8
0
100
AcDbLine
 10
109.0
 20
233.1089785
 30
0.0
 11
109.0
 21
232.6049785
 31
0.0
  0
LINE
  5
201
330
1E
100
AcDbEntity
  8
0
100
AcDbLine
 10
109.0
 20
233.1089785
 30
0.0
 11
109.126
 21
233.4449785
 31
0.0
  0
LINE
  5
202
330
1E
100
AcDbEntity
  8
0
100
AcDbLine
 10
108.4229999999999
 20
233.4449785
 30
0.0
 11
109.0
 21
233.1089785
 31
0.0
  0
LINE
  5
203
330
1E
100
AcDbEntity
  8
0
100
AcDbLine
 10
110.0
 20
232.6049785
 30
0.0
 11
110.0
 21
231.2609785
 31
0.0
  0
LINE
  5
204
330
1E
100
AcDbEntity
  8
0
100
AcDbLine
 10
110.0
 20
232.6049785
 30
0.0
 11
110.0
 21
233.1089785
 31
0.0
  0
LINE
  5
205
330
1E
100
AcDbEntity
  8
0
100
AcDbLine
 10
110.0
 20
231.2609785
 30
0.0
 11
110.0
 21
229.0769785
 31
0.0
  0
LINE
  5
206
330
1E
100
AcDbEntity
  8
0
100
AcDbLine
 10
110.0
 20
231.2609785
 30
0.0
 11
110.0
 21
232.6049785
 31
0.0
  0
LINE
  5
207
330
1E
100
AcDbEntity
  8
0
100
AcDbLine
 10
110.0
 20
229.0769785
 30
0.0
 11
110.0
 21
226.2209785
 31
0.0
  0
LINE
  5
208
330
1E
100
AcDbEntity
  8
0
100
AcDbLine
 10
110.0
 20
229.0769785
 30
0.0
 11
110.0
 21
231.2609785
 31
0.0
  0
LINE
  5
209
330
1E
100
AcDbEntity
  8
0
100
AcDbLine
 10
110.0
 20
226.2209785
 30
0.0
 11
110.0
 21
222.9729784999999
 31
0.0
  0
LINE
  5
20A
330
1E
100
AcDbEntity
  8
0
100
AcDbLine
 10
110.0
 20
226.2209785
 30
0.0
 11
110.0
 21
229.0769785
 31
0.0
  0
LINE
  5
20B
330
1E
100
AcDbEntity
  8
0
100
AcDbLine
 10
110.0
 20
222.9729784999999
 30
0.0
 11
110.0
 21
219.4449785
 31
0.0
  0
LINE
  5
20C
330
1E
100
AcDbEntity
  8
0
100
AcDbLine
 10
110.0
 20
222.9729784999999
 30
0.0
 11
110.0
 21
226.2209785
 31
0.0
  0
LINE
  5
20D
330
1E
100
AcDbEntity
  8
0
100
AcDbLine
 10
150.0
 20
212.6689784999999
 30
0.0
 11
150.0
 21
215.9169785
 31
0.0
  0
LINE
  5
20E
330
1E
100
AcDbEntity
  8
0
100
AcDbLine
 10
150.0
 20
212.6689784999999
 30
0.0
 11
150.0
 21
209.8129785
 31
0.0
  0
LINE
  5
20F
330
1E
100
AcDbEntity
  8
0
100
AcDbLine
 10
150.0
 20
215.9169785
 30
0.0
 11
150.0
 21
219.4449785
 31
0.0
  0
LINE
  5
210
330
1E
100
AcDbEntity
  8
0
100
AcDbLine
 10
150.0
 20
215.9169785
 30
0.0
 11
150.0
 21
212.6689784999999
 31
0.0
  0
LINE
  5
211
330
1E
100
AcDbEntity
  8
0
100
AcDbLine
 10
150.0
 20
233.1089785
 30
0.0
 11
150.0
 21
232.6049785
 31
0.0
  0
LINE
  5
212
330
1E
100
AcDbEntity
  8
0
100
AcDbLine
 10
150.0
 20
232.6049785
 30
0.0
 11
150.0
 21
233.1089785
 31
0.0
  0
LINE
  5
213
330
1E
100
AcDbEntity
  8
0
100
AcDbLine
 10
150.0
 20
232.6049785
 30
0.0
 11
150.0
 21
231.2609785
 31
0.0
  0
LINE
  5
214
330
1E
100
AcDbEntity
  8
0
100
AcDbLine
 10
150.0
 20
231.2609785
 30
0.0
 11
150.0
 21
232.6049785
 31
0.0
  0
LINE
  5
215
330
1E
100
AcDbEntity
  8
0
100
AcDbLine
 10
150.0
 20
231.2609785
 30
0.0
 11
150.0
 21
229.0769785
 31
0.0
  0
LINE
  5
216
330
1E
100
AcDbEntity
  8
0
100
AcDbLine
 10
150.0
 20
229.0769785
 30
0.0
 11
150.0
 21
231.2609785
 31
0.0
  0
LINE
  5
217
330
1E
100
AcDbEntity
  8
0
100
AcDbLine
 10
150.0
 20
229.0769785
 30
0.0
 11
150.0
 21
226.2209785
 31
0.0
  0
LINE
  5
218
330
1E
100
AcDbEntity
  8
0
100
AcDbLine
 10
150.0
 20
226.2209785
 30
0.0
 11
150.0
 21
229.0769785
 31
0.0
  0
LINE
  5
219
330
1E
100
AcDbEntity
  8
0
100
AcDbLine
 10
150.0
 20
226.2209785
 30
0.0
 11
150.0
 21
222.9729784999999
 31
0.0
  0
LINE
  5
21A
330
1E
100
AcDbEntity
  8
0
100
AcDbLine
 10
150.0
 20
222.9729784999999
 30
0.0
 11
150.0
 21
226.2209785
 31
0.0
  0
LINE
  5
21B
330
1E
100
AcDbEntity
  8
0
100
AcDbLine
 10
150.0
 20
222.9729784999999
 30
0.0
 11
150.0
 21
219.4449785
 31
0.0
  0
LINE
  5
21C
330
1E
100
AcDbEntity
  8
0
100
AcDbLine
 10
150.0
 20
219.4449785
 30
0.0
 11
150.0
 21
222.9729784999999
 31
0.0
  0
LINE
  5
21D
330
1E
100
AcDbEntity
  8
0
100
AcDbLine
 10
150.0
 20
219.4449785
 30
0.0
 11
150.0
 21
215.9169785
 31
0.0
  0
LINE
  5
21E
330
1E
100
AcDbEntity
  8
0
100
AcDbLine
 10
149.4229999999999
 20
233.4449785
 30
0.0
 11
150.0
 21
233.1089785
 31
0.0
  0
LINE
  5
21F
330
1E
100
AcDbEntity
  8
0
100
AcDbLine
 10
110.577
 20
233.4449785
 30
0.0
 11
149.4229999999999
 21
233.4449785
 31
0.0
  0
LINE
  5
220
330
1E
100
AcDbEntity
  8
0
100
AcDbLine
 10
110.0
 20
233.1089785
 30
0.0
 11
110.577
 21
233.4449785
 31
0.0
  0
LINE
  5
221
330
1E
100
AcDbEntity
  8
0
100
AcDbLine
 10
110.0
 20
233.1089785
 30
0.0
 11
110.0
 21
232.6049785
 31
0.0
  0
LINE
  5
222
330
1E
100
AcDbEntity
  8
0
100
AcDbLine
 10
90.576
 20
235.0209785
 30
0.0
 11
91.7654339622641
 21
233.4449785
 31
0.0
  0
LINE
  5
223
330
1E
100
AcDbEntity
  8
0
100
AcDbLine
 10
90.39050000000001
 20
215.3309785
 30
0.0
 11
91.0
 21
219.4449785
 31
0.0
  0
LINE
  5
224
330
1E
100
AcDbEntity
  8
0
100
AcDbLine
 10
88.8667
 20
211.5209785
 30
0.0
 11
90.39050000000001
 21
215.3309785
 31
0.0
  0
LINE
  5
225
330
1E
100
AcDbEntity
  8
0
100
AcDbLine
 10
86.2762
 20
208.1689785
 30
0.0
 11
88.8667
 21
211.5209785
 31
0.0
  0
LINE
  5
226
330
1E
100
AcDbEntity
  8
0
100
AcDbLine
 10
86.0
 20
207.955509283916
 30
0.0
 11
86.2762
 21
208.1689785
 31
0.0
  0
LINE
  5
227
330
1E
100
AcDbEntity
  8
0
100
AcDbLine
 10
64.40000000000001
 20
9.955778500000009
 30
0.0
 11
65.5
 21
7.296768500000009
 31
0.0
  0
LINE
  5
228
330
1E
100
AcDbEntity
  8
0
100
AcDbLine
 10
64.40000000000001
 20
8.132448500000009
 30
0.0
 11
65.5
 21
5.473468500000009
 31
0.0
  0
LINE
  5
229
330
1E
100
AcDbEntity
  8
0
100
AcDbLine
 10
64.0
 20
10.8898785
 30
0.0
 11
64.40000000000001
 21
8.132448500000009
 31
0.0
  0
LINE
  5
22A
330
1E
100
AcDbEntity
  8
0
100
AcDbLine
 10
64.0
 20
10.8898785
 30
0.0
 11
64.0
 21
12.71317849999999
 31
0.0
  0
LINE
  5
22F
330
1E
100
AcDbEntity
  8
0
100
AcDbLine
 10
84.54799999999998
 20
224.9009785
 30
0.0
 11
85.60399999999999
 21
222.2609785
 31
0.0
  0
LINE
  5
230
330
1E
100
AcDbEntity
  8
0
100
AcDbLine
 10
65.452
 20
224.9009785
 30
0.0
 11
64.396
 21
222.2609785
 31
0.0
  0
ENDSEC
  0
SECTION
  2
OBJECTS
  0
DICTIONARY
  5
C
330
0
100
AcDbDictionary
  3
ACAD_GROUP
350
D
  3
ACAD_LAYOUT
350
19
  3
ACAD_MLINESTYLE
350
16
  3
ACAD_PLOTSETTINGS
350
18
  3
ACAD_PLOTSTYLENAME
350
E
  3
ACDBHEADERROUNDTRIPXREC
350
234
  3
ACDBVARIABLEDICTIONARY
350
231
  0
DICTIONARY
  5
256
330
1E
100
AcDbDictionary
280
     1
  3
ACAD_LAYOUTSELFREF
360
257
  0
DICTIONARY
  5
254
330
1A
100
AcDbDictionary
280
     1
  3
ACAD_LAYOUTSELFREF
360
255
  0
DICTIONARY
  5
D
102
{ACAD_REACTORS
330
C
102
}
330
C
100
AcDbDictionary
  0
DICTIONARY
  5
19
102
{ACAD_REACTORS
330
C
102
}
330
C
100
AcDbDictionary
  0
DICTIONARY
  5
16
102
{ACAD_REACTORS
330
C
102
}
330
C
100
AcDbDictionary
  3
STANDARD
350
17
  0
DICTIONARY
  5
18
102
{ACAD_REACTORS
330
C
102
}
330
C
100
AcDbDictionary
  0
ACDBDICTIONARYWDFLT
  5
E
102
{ACAD_REACTORS
330
C
102
}
330
C
100
AcDbDictionary
281
     1
  3
Normal
350
F
100
AcDbDictionaryWithDefault
340
F
  0
DICTIONARY
  5
234
102
{ACAD_REACTORS
330
C
102
}
330
C
100
AcDbDictionary
  3
CEPSNTYPE
350
23E
  3
FINGERPRINTGUID
350
23F
  3
HYPERLINKBASE
350
237
  3
INSUNITS
350
23D
  3
LAYOUTDICT
350
239
  3
LWETCUNION
350
23C
  3
PLOTSETDICT
350
23A
  3
PLOTSTYLNAMDICT
350
23B
  3
PSVPSCALE
350
241
  3
PUCSBASE
350
244
  3
PUCSORGBACK
350
24A
  3
PUCSORGBOTTOM
350
246
  3
PUCSORGFRONT
350
249
  3
PUCSORGLEFT
350
247
  3
PUCSORGRIGHT
350
248
  3
PUCSORGTOP
350
245
  3
PUCSORTHOREF
350
242
  3
PUCSORTHOVIEW
350
243
  3
STYLESHEET
350
238
  3
TSTACKALIGN
350
235
  3
TSTACKSIZE
350
236
  3
UCSBASE
350
24D
  3
UCSORGBACK
350
253
  3
UCSORGBOTTOM
350
24F
  3
UCSORGFRONT
350
252
  3
UCSORGLEFT
350
250
  3
UCSORGRIGHT
350
251
  3
UCSORGTOP
350
24E
  3
UCSORTHOREF
350
24B
  3
UCSORTHOVIEW
350
24C
  3
VERSIONGUID
350
240
  0
DICTIONARY
  5
231
102
{ACAD_REACTORS
330
C
102
}
330
C
100
AcDbDictionary
  3
DIMASSOC
350
232
  0
XRECORD
  5
257
102
{ACAD_REACTORS
330
256
102
}
330
256
100
AcDbXrecord
340
1E
  0
XRECORD
  5
255
102
{ACAD_REACTORS
330
254
102
}
330
254
100
AcDbXrecord
340
1A
  0
MLINESTYLE
  5
17
102
{ACAD_REACTORS
330
16
102
}
330
16
100
AcDbMlineStyle
  2
STANDARD
 70
     0
  3

 62
   256
 51
90.0
 52
90.0
 71
     2
 49
0.5
 62
   256
  6
BYLAYER
 49
-0.5
 62
   256
  6
BYLAYER
  0
ACDBPLACEHOLDER
  5
F
102
{ACAD_REACTORS
330
E
102
}
330
E
100
AcDbPlaceHolder
280
     0
  0
XRECORD
  5
23E
102
{ACAD_REACTORS
330
234
102
}
330
234
100
AcDbXrecord
 90
        0
  0
XRECORD
  5
23F
102
{ACAD_REACTORS
330
234
102
}
330
234
100
AcDbXrecord
  1
{6E9BADD1-37E6-49CD-A791-B753757B9F25}
  0
XRECORD
  5
237
102
{ACAD_REACTORS
330
234
102
}
330
234
100
AcDbXrecord
  1

  0
XRECORD
  5
23D
102
{ACAD_REACTORS
330
234
102
}
330
234
100
AcDbXrecord
 90
        0
  0
XRECORD
  5
239
102
{ACAD_REACTORS
330
234
102
}
330
234
100
AcDbXrecord
340
19
  0
XRECORD
  5
23C
102
{ACAD_REACTORS
330
234
102
}
330
234
100
AcDbXrecord
 90
    10781
  0
XRECORD
  5
23A
102
{ACAD_REACTORS
330
234
102
}
330
234
100
AcDbXrecord
340
18
  0
XRECORD
  5
23B
102
{ACAD_REACTORS
330
234
102
}
330
234
100
AcDbXrecord
340
E
  0
XRECORD
  5
241
102
{ACAD_REACTORS
330
234
102
}
330
234
100
AcDbXrecord
 40
0.0
  0
XRECORD
  5
244
102
{ACAD_REACTORS
330
234
102
}
330
234
100
AcDbXrecord
340
0
  0
XRECORD
  5
24A
102
{ACAD_REACTORS
330
234
102
}
330
234
100
AcDbXrecord
 10
0.0
 20
0.0
 30
0.0
  0
XRECORD
  5
246
102
{ACAD_REACTORS
330
234
102
}
330
234
100
AcDbXrecord
 10
0.0
 20
0.0
 30
0.0
  0
XRECORD
  5
249
102
{ACAD_REACTORS
330
234
102
}
330
234
100
AcDbXrecord
 10
0.0
 20
0.0
 30
0.0
  0
XRECORD
  5
247
102
{ACAD_REACTORS
330
234
102
}
330
234
100
AcDbXrecord
 10
0.0
 20
0.0
 30
0.0
  0
XRECORD
  5
248
102
{ACAD_REACTORS
330
234
102
}
330
234
100
AcDbXrecord
 10
0.0
 20
0.0
 30
0.0
  0
XRECORD
  5
245
102
{ACAD_REACTORS
330
234
102
}
330
234
100
AcDbXrecord
 10
0.0
 20
0.0
 30
0.0
  0
XRECORD
  5
242
102
{ACAD_REACTORS
330
234
102
}
330
234
100
AcDbXrecord
340
0
  0
XRECORD
  5
243
102
{ACAD_REACTORS
330
234
102
}
330
234
100
AcDbXrecord
 70
     0
  0
XRECORD
  5
238
102
{ACAD_REACTORS
330
234
102
}
330
234
100
AcDbXrecord
  1

  0
XRECORD
  5
235
102
{ACAD_REACTORS
330
234
102
}
330
234
100
AcDbXrecord
 90
        1
  0
XRECORD
  5
236
102
{ACAD_REACTORS
330
234
102
}
330
234
100
AcDbXrecord
 90
       70
  0
XRECORD
  5
24D
102
{ACAD_REACTORS
330
234
102
}
330
234
100
AcDbXrecord
340
0
  0
XRECORD
  5
253
102
{ACAD_REACTORS
330
234
102
}
330
234
100
AcDbXrecord
 10
0.0
 20
0.0
 30
0.0
  0
XRECORD
  5
24F
102
{ACAD_REACTORS
330
234
102
}
330
234
100
AcDbXrecord
 10
0.0
 20
0.0
 30
0.0
  0
XRECORD
  5
252
102
{ACAD_REACTORS
330
234
102
}
330
234
100
AcDbXrecord
 10
0.0
 20
0.0
 30
0.0
  0
XRECORD
  5
250
102
{ACAD_REACTORS
330
234
102
}
330
234
100
AcDbXrecord
 10
0.0
 20
0.0
 30
0.0
  0
XRECORD
  5
251
102
{ACAD_REACTORS
330
234
102
}
330
234
100
AcDbXrecord
 10
0.0
 20
0.0
 30
0.0
  0
XRECORD
  5
24E
102
{ACAD_REACTORS
330
234
102
}
330
234
100
AcDbXrecord
 10
0.0
 20
0.0
 30
0.0
  0
XRECORD
  5
24B
102
{ACAD_REACTORS
330
234
102
}
330
234
100
AcDbXrecord
340
0
  0
XRECORD
  5
24C
102
{ACAD_REACTORS
330
234
102
}
330
234
100
AcDbXrecord
 70
     1
  0
XRECORD
  5
240
102
{ACAD_REACTORS
330
234
102
}
330
234
100
AcDbXrecord
  1
{AEB43EB6-E4C4-4F9B-9695-B713D9039B33}
  0
DICTIONARYVAR
  5
232
102
{ACAD_REACTORS
330
231
102
}
330
231
100
DictionaryVariables
280
     0
  1
1
  0
ENDSEC
  0
EOF
