  0
SECTION
  2
HEADER
  9
$ACADVER
  1
AC1014
  9
$ACADMAINTVER
 70
     9
  9
$DWGCODEPAGE
  3
ANSI_1252
  9
$INSBASE
 10
0.0
 20
0.0
 30
0.0
  9
$EXTMIN
 10
0.0570215000000065
 20
-0.0000000000000149
 30
0.0
  9
$EXTMAX
 10
254.9429785
 20
330.0
 30
0.0
  9
$LIMMIN
 10
0.0
 20
0.0
  9
$LIMMAX
 10
12.0
 20
9.0
  9
$ORTHOMODE
 70
     0
  9
$REGENMODE
 70
     1
  9
$FILLMODE
 70
     1
  9
$QTEXTMODE
 70
     0
  9
$MIRRTEXT
 70
     1
  9
$DRAGMODE
 70
     2
  9
$LTSCALE
 40
1.0
  9
$OSMODE
 70
    37
  9
$ATTMODE
 70
     1
  9
$TEXTSIZE
 40
0.2
  9
$TRACEWID
 40
0.05
  9
$TEXTSTYLE
  7
STANDARD
  9
$CLAYER
  8
0
  9
$CELTYPE
  6
CONTINUOUS
  9
$CECOLOR
 62
   256
  9
$CELTSCALE
 40
1.0
  9
$DELOBJ
 70
     1
  9
$DISPSILH
 70
     0
  9
$DIMSCALE
 40
1.0
  9
$DIMASZ
 40
0.18
  9
$DIMEXO
 40
0.0625
  9
$DIMDLI
 40
0.38
  9
$DIMRND
 40
0.0
  9
$DIMDLE
 40
0.0
  9
$DIMEXE
 40
0.18
  9
$DIMTP
 40
0.0
  9
$DIMTM
 40
0.0
  9
$DIMTXT
 40
0.18
  9
$DIMCEN
 40
0.09
  9
$DIMTSZ
 40
0.0
  9
$DIMTOL
 70
     0
  9
$DIMLIM
 70
     0
  9
$DIMTIH
 70
     1
  9
$DIMTOH
 70
     1
  9
$DIMSE1
 70
     0
  9
$DIMSE2
 70
     0
  9
$DIMTAD
 70
     0
  9
$DIMZIN
 70
     0
  9
$DIMBLK
  1

  9
$DIMASO
 70
     1
  9
$DIMSHO
 70
     1
  9
$DIMPOST
  1

  9
$DIMAPOST
  1

  9
$DIMALT
 70
     0
  9
$DIMALTD
 70
     2
  9
$DIMALTF
 40
25.4
  9
$DIMLFAC
 40
1.0
  9
$DIMTOFL
 70
     0
  9
$DIMTVP
 40
0.0
  9
$DIMTIX
 70
     0
  9
$DIMSOXD
 70
     0
  9
$DIMSAH
 70
     0
  9
$DIMBLK1
  1

  9
$DIMBLK2
  1

  9
$DIMSTYLE
  2
STANDARD
  9
$DIMCLRD
 70
     0
  9
$DIMCLRE
 70
     0
  9
$DIMCLRT
 70
     0
  9
$DIMTFAC
 40
1.0
  9
$DIMGAP
 40
0.09
  9
$DIMJUST
 70
     0
  9
$DIMSD1
 70
     0
  9
$DIMSD2
 70
     0
  9
$DIMTOLJ
 70
     1
  9
$DIMTZIN
 70
     0
  9
$DIMALTZ
 70
     0
  9
$DIMALTTZ
 70
     0
  9
$DIMFIT
 70
     3
  9
$DIMUPT
 70
     0
  9
$DIMUNIT
 70
     2
  9
$DIMDEC
 70
     4
  9
$DIMTDEC
 70
     4
  9
$DIMALTU
 70
     2
  9
$DIMALTTD
 70
     2
  9
$DIMTXSTY
  7
STANDARD
  9
$DIMAUNIT
 70
     0
  9
$LUNITS
 70
     2
  9
$LUPREC
 70
     4
  9
$SKETCHINC
 40
0.1
  9
$FILLETRAD
 40
0.0
  9
$AUNITS
 70
     0
  9
$AUPREC
 70
     0
  9
$MENU
  1
.
  9
$ELEVATION
 40
0.0
  9
$PELEVATION
 40
0.0
  9
$THICKNESS
 40
0.0
  9
$LIMCHECK
 70
     0
  9
$BLIPMODE
 70
     0
  9
$CHAMFERA
 40
0.0
  9
$CHAMFERB
 40
0.0
  9
$CHAMFERC
 40
0.0
  9
$CHAMFERD
 40
0.0
  9
$SKPOLY
 70
     0
  9
$TDCREATE
 40
2454691.844884977
  9
$TDUPDATE
 40
2454691.846438981
  9
$TDINDWG
 40
0.0015541782
  9
$TDUSRTIMER
 40
0.0015541782
  9
$USRTIMER
 70
     1
  9
$ANGBASE
 50
0.0
  9
$ANGDIR
 70
     0
  9
$PDMODE
 70
     0
  9
$PDSIZE
 40
0.0
  9
$PLINEWID
 40
0.0
  9
$COORDS
 70
     1
  9
$SPLFRAME
 70
     0
  9
$SPLINETYPE
 70
     6
  9
$SPLINESEGS
 70
     8
  9
$ATTDIA
 70
     0
  9
$ATTREQ
 70
     1
  9
$HANDLING
 70
 22529
  9
$HANDSEED
  5
16B
  9
$SURFTAB1
 70
     6
  9
$SURFTAB2
 70
     6
  9
$SURFTYPE
 70
     6
  9
$SURFU
 70
     6
  9
$SURFV
 70
     6
  9
$UCSNAME
  2

  9
$UCSORG
 10
0.0
 20
0.0
 30
0.0
  9
$UCSXDIR
 10
1.0
 20
0.0
 30
0.0
  9
$UCSYDIR
 10
0.0
 20
1.0
 30
0.0
  9
$PUCSNAME
  2

  9
$PUCSORG
 10
0.0
 20
0.0
 30
0.0
  9
$PUCSXDIR
 10
1.0
 20
0.0
 30
0.0
  9
$PUCSYDIR
 10
0.0
 20
1.0
 30
0.0
  9
$USERI1
 70
     0
  9
$USERI2
 70
     0
  9
$USERI3
 70
     0
  9
$USERI4
 70
     0
  9
$USERI5
 70
     0
  9
$USERR1
 40
0.0
  9
$USERR2
 40
0.0
  9
$USERR3
 40
0.0
  9
$USERR4
 40
0.0
  9
$USERR5
 40
0.0
  9
$WORLDVIEW
 70
     1
  9
$SHADEDGE
 70
     3
  9
$SHADEDIF
 70
    70
  9
$TILEMODE
 70
     1
  9
$MAXACTVP
 70
    64
  9
$PINSBASE
 10
0.0
 20
0.0
 30
0.0
  9
$PLIMCHECK
 70
     0
  9
$PEXTMIN
 10
1.000000000000000E+20
 20
1.000000000000000E+20
 30
1.000000000000000E+20
  9
$PEXTMAX
 10
-1.000000000000000E+20
 20
-1.000000000000000E+20
 30
-1.000000000000000E+20
  9
$PLIMMIN
 10
0.0
 20
0.0
  9
$PLIMMAX
 10
12.0
 20
9.0
  9
$UNITMODE
 70
     0
  9
$VISRETAIN
 70
     1
  9
$PLINEGEN
 70
     0
  9
$PSLTSCALE
 70
     1
  9
$TREEDEPTH
 70
  3020
  9
$PICKSTYLE
 70
     1
  9
$CMLSTYLE
  2
STANDARD
  9
$CMLJUST
 70
     0
  9
$CMLSCALE
 40
1.0
  9
$PROXYGRAPHICS
 70
     1
  9
$MEASUREMENT
 70
     0
  0
ENDSEC
  0
SECTION
  2
CLASSES
  0
CLASS
  1
ACDBDICTIONARYWDFLT
  2
AcDbDictionaryWithDefault
  3
AutoCAD 2000
 90
        0
280
     0
281
     0
  0
CLASS
  1
ACDBPLACEHOLDER
  2
AcDbPlaceHolder
  3
AutoCAD 2000
 90
        0
280
     0
281
     0
  0
CLASS
  1
LAYOUT
  2
AcDbLayout
  3
AutoCAD 2000
 90
        0
280
     0
281
     0
  0
CLASS
  1
DICTIONARYVAR
  2
AcDbDictionaryVar
  3
AutoCAD 2000
 90
        0
280
     0
281
     0
  0
CLASS
  1
LONG_TRANSACTION
  2
AcDbLongTransaction
  3
AutoCAD 2000
 90
        0
280
     0
281
     0
  0
CLASS
  1
LWPOLYLINE
  2
AcDbPolyline
  3
AutoCAD 2000
 90
        0
280
     0
281
     1
  0
CLASS
  1
HATCH
  2
AcDbHatch
  3
AutoCAD 2000
 90
        0
280
     0
281
     1
  0
CLASS
  1
XRECORD
  2
AcDbXrecord
  3
AutoCAD 2000
 90
        0
280
     0
281
     0
  0
ENDSEC
  0
SECTION
  2
TABLES
  0
TABLE
  2
VPORT
  5
8
330
0
100
AcDbSymbolTable
 70
     2
  0
VPORT
  5
146
330
8
100
AcDbSymbolTableRecord
100
AcDbViewportTableRecord
  2
*ACTIVE
 70
     0
 10
0.0
 20
0.0
 11
1.0
 21
1.0
 12
127.5
 22
164.9999999999999
 13
0.0
 23
0.0
 14
1.0
 24
1.0
 15
0.0
 25
0.0
 16
0.0
 26
0.0
 36
1.0
 17
0.0
 27
0.0
 37
0.0
 40
332.5319693094629
 41
2.078104993597951
 42
50.0
 43
0.0
 44
0.0
 50
0.0
 51
0.0
 71
     0
 72
   100
 73
     1
 74
     3
 75
     0
 76
     0
 77
     0
 78
     0
  0
ENDTAB
  0
TABLE
  2
LTYPE
  5
5
330
0
100
AcDbSymbolTable
 70
     1
  0
LTYPE
  5
13
330
5
100
AcDbSymbolTableRecord
100
AcDbLinetypeTableRecord
  2
BYBLOCK
 70
     0
  3

 72
    65
 73
     0
 40
0.0
  0
LTYPE
  5
14
330
5
100
AcDbSymbolTableRecord
100
AcDbLinetypeTableRecord
  2
BYLAYER
 70
     0
  3

 72
    65
 73
     0
 40
0.0
  0
LTYPE
  5
15
330
5
100
AcDbSymbolTableRecord
100
AcDbLinetypeTableRecord
  2
CONTINUOUS
 70
     0
  3
Solid line
 72
    65
 73
     0
 40
0.0
  0
ENDTAB
  0
TABLE
  2
LAYER
  5
2
330
0
100
AcDbSymbolTable
 70
     1
  0
LAYER
  5
10
330
2
100
AcDbSymbolTableRecord
100
AcDbLayerTableRecord
  2
0
 70
     0
 62
     7
  6
CONTINUOUS
  0
ENDTAB
  0
TABLE
  2
STYLE
  5
3
330
0
100
AcDbSymbolTable
 70
     1
  0
STYLE
  5
11
330
3
100
AcDbSymbolTableRecord
100
AcDbTextStyleTableRecord
  2
STANDARD
 70
     0
 40
0.0
 41
1.0
 50
0.0
 71
     0
 42
0.2
  3
txt
  4

  0
ENDTAB
  0
TABLE
  2
VIEW
  5
6
330
0
100
AcDbSymbolTable
 70
     0
  0
ENDTAB
  0
TABLE
  2
UCS
  5
7
330
0
100
AcDbSymbolTable
 70
     0
  0
ENDTAB
  0
TABLE
  2
APPID
  5
9
330
0
100
AcDbSymbolTable
 70
     1
  0
APPID
  5
12
330
9
100
AcDbSymbolTableRecord
100
AcDbRegAppTableRecord
  2
ACAD
 70
     0
  0
ENDTAB
  0
TABLE
  2
DIMSTYLE
  5
A
330
0
100
AcDbSymbolTable
 70
     1
  0
DIMSTYLE
105
13A
330
A
100
AcDbSymbolTableRecord
100
AcDbDimStyleTableRecord
  2
STANDARD
 70
     0
  3

  4

  5

  6

  7

 40
1.0
 41
0.18
 42
0.0625
 43
0.38
 44
0.18
 45
0.0
 46
0.0
 47
0.0
 48
0.0
140
0.18
141
0.09
142
0.0
143
25.4
144
1.0
145
0.0
146
1.0
147
0.09
 71
     0
 72
     0
 73
     1
 74
     1
 75
     0
 76
     0
 77
     0
 78
     0
170
     0
171
     2
172
     0
173
     0
174
     0
175
     0
176
     0
177
     0
178
     0
270
     2
271
     4
272
     4
273
     2
274
     2
340
11
275
     0
280
     0
281
     0
282
     0
283
     1
284
     0
285
     0
286
     0
287
     3
288
     0
  0
ENDTAB
  0
TABLE
  2
BLOCK_RECORD
  5
1
330
0
100
AcDbSymbolTable
 70
     0
  0
BLOCK_RECORD
  5
1E
102
{ACAD_XDICTIONARY
360
169
102
}
330
1
100
AcDbSymbolTableRecord
100
AcDbBlockTableRecord
  2
*MODEL_SPACE
  0
BLOCK_RECORD
  5
1A
102
{ACAD_XDICTIONARY
360
167
102
}
330
1
100
AcDbSymbolTableRecord
100
AcDbBlockTableRecord
  2
*PAPER_SPACE
  0
ENDTAB
  0
ENDSEC
  0
SECTION
  2
BLOCKS
  0
BLOCK
  5
1F
330
1E
100
AcDbEntity
  8
0
100
AcDbBlockBegin
  2
*MODEL_SPACE
 70
     0
 10
0.0
 20
0.0
 30
0.0
  3
*MODEL_SPACE
  1

  0
ENDBLK
  5
20
330
1E
100
AcDbEntity
  8
0
100
AcDbBlockEnd
  0
BLOCK
  5
1B
330
1A
100
AcDbEntity
 67
     1
  8
0
100
AcDbBlockBegin
  2
*PAPER_SPACE
 70
     0
 10
0.0
 20
0.0
 30
0.0
  3
*PAPER_SPACE
  1

  0
ENDBLK
  5
1C
330
1A
100
AcDbEntity
 67
     1
  8
0
100
AcDbBlockEnd
  0
ENDSEC
  0
SECTION
  2
ENTITIES
  0
LINE
  5
22
330
1E
100
AcDbEntity
  8
0
100
AcDbLine
 10
0.0570215000000066
 20
227.4379999999999
 30
0.0
 11
1.88032850000001
 21
237.779
 31
0.0
  0
LINE
  5
23
330
1E
100
AcDbEntity
  8
0
100
AcDbLine
 10
0.4509485000000061
 20
227.369
 30
0.0
 11
1.53423850000001
 21
227.178
 31
0.0
  0
LINE
  5
24
330
1E
100
AcDbEntity
  8
0
100
AcDbLine
 10
0.4509485000000061
 20
227.369
 30
0.0
 11
1.53423850000001
 21
227.178
 31
0.0
  0
LINE
  5
25
330
1E
100
AcDbEntity
  8
0
100
AcDbLine
 10
0.0570215000000065
 20
227.4379999999999
 30
0.0
 11
1.88032850000001
 21
237.779
 31
0.0
  0
LINE
  5
26
330
1E
100
AcDbEntity
  8
0
100
AcDbLine
 10
0.0570215000000065
 20
227.4379999999999
 30
0.0
 11
0.4625985000000061
 21
226.859
 31
0.0
  0
LINE
  5
27
330
1E
100
AcDbEntity
  8
0
100
AcDbLine
 10
0.0570215000000065
 20
227.4379999999999
 30
0.0
 11
0.4509485000000061
 21
227.369
 31
0.0
  0
LINE
  5
28
330
1E
100
AcDbEntity
  8
0
100
AcDbLine
 10
0.0570215000000065
 20
227.4379999999999
 30
0.0
 11
0.4625985000000061
 21
226.859
 31
0.0
  0
LINE
  5
29
330
1E
100
AcDbEntity
  8
0
100
AcDbLine
 10
0.0570215000000065
 20
227.4379999999999
 30
0.0
 11
0.4509485000000061
 21
227.369
 31
0.0
  0
LINE
  5
2A
330
1E
100
AcDbEntity
  8
0
100
AcDbLine
 10
0.4625985000000061
 20
226.859
 30
0.0
 11
0.8565285000000059
 21
226.789
 31
0.0
  0
LINE
  5
2B
330
1E
100
AcDbEntity
  8
0
100
AcDbLine
 10
2.274248500000009
 20
237.7089999999999
 30
0.0
 11
3.357538500000009
 21
237.5179999999999
 31
0.0
  0
LINE
  5
2C
330
1E
100
AcDbEntity
  8
0
100
AcDbLine
 10
1.53423850000001
 20
227.178
 30
0.0
 11
3.208408500000009
 21
226.882
 31
0.0
  0
LINE
  5
2D
330
1E
100
AcDbEntity
  8
0
100
AcDbLine
 10
3.786188500000009
 20
237.6459999999999
 30
0.0
 11
5.460368500000009
 21
237.3499999999999
 31
0.0
  0
LINE
  5
2E
330
1E
100
AcDbEntity
  8
0
100
AcDbLine
 10
3.357538500000009
 20
237.5179999999999
 30
0.0
 11
5.031708500000009
 21
237.223
 31
0.0
  0
LINE
  5
2F
330
1E
100
AcDbEntity
  8
0
100
AcDbLine
 10
5.031708500000009
 20
237.223
 30
0.0
 11
7.296768500000009
 21
236.824
 31
0.0
  0
LINE
  5
30
330
1E
100
AcDbEntity
  8
0
100
AcDbLine
 10
3.208408500000009
 20
226.882
 30
0.0
 11
5.473468500000009
 21
226.4829999999999
 31
0.0
  0
LINE
  5
31
330
1E
100
AcDbEntity
  8
0
100
AcDbLine
 10
1.84132850000001
 20
226.6159999999999
 30
0.0
 11
3.515508500000009
 21
226.3209999999999
 31
0.0
  0
LINE
  5
32
330
1E
100
AcDbEntity
  8
0
100
AcDbLine
 10
5.460368500000009
 20
237.3499999999999
 30
0.0
 11
7.626938500000009
 21
236.9679999999999
 31
0.0
  0
LINE
  5
33
330
1E
100
AcDbEntity
  8
0
100
AcDbLine
 10
5.473468500000009
 20
226.4829999999999
 30
0.0
 11
8.132448500000009
 21
226.014
 31
0.0
  0
LINE
  5
34
330
1E
100
AcDbEntity
  8
0
100
AcDbLine
 10
5.101168500000009
 20
237.617
 30
0.0
 11
7.366228500000009
 21
237.217
 31
0.0
  0
LINE
  5
35
330
1E
100
AcDbEntity
  8
0
100
AcDbLine
 10
2.407458500000009
 20
237.889
 30
0.0
 11
2.801388500000009
 21
237.819
 31
0.0
  0
LINE
  5
36
330
1E
100
AcDbEntity
  8
0
100
AcDbLine
 10
2.801388500000009
 20
237.819
 30
0.0
 11
3.786188500000009
 21
237.6459999999999
 31
0.0
  0
LINE
  5
37
330
1E
100
AcDbEntity
  8
0
100
AcDbLine
 10
3.380548500000009
 20
244.394
 30
0.0
 11
8.236888500000009
 21
258.6999999999999
 31
0.0
  0
LINE
  5
38
330
1E
100
AcDbEntity
  8
0
100
AcDbLine
 10
2.343708500000009
 20
238.1029999999999
 30
0.0
 11
3.426998500000009
 21
237.9119999999999
 31
0.0
  0
LINE
  5
39
330
1E
100
AcDbEntity
  8
0
100
AcDbLine
 10
3.426998500000009
 20
237.9119999999999
 30
0.0
 11
5.101168500000009
 21
237.617
 31
0.0
  0
LINE
  5
3A
330
1E
100
AcDbEntity
  8
0
100
AcDbLine
 10
3.380548500000009
 20
244.394
 30
0.0
 11
8.236888500000009
 21
258.6999999999999
 31
0.0
  0
LINE
  5
3B
330
1E
100
AcDbEntity
  8
0
100
AcDbLine
 10
1.94978850000001
 20
238.173
 30
0.0
 11
2.407458500000009
 21
237.889
 31
0.0
  0
LINE
  5
3C
330
1E
100
AcDbEntity
  8
0
100
AcDbLine
 10
1.94978850000001
 20
238.173
 30
0.0
 11
3.380548500000009
 21
244.394
 31
0.0
  0
LINE
  5
3D
330
1E
100
AcDbEntity
  8
0
100
AcDbLine
 10
1.94978850000001
 20
238.173
 30
0.0
 11
2.343708500000009
 21
238.1029999999999
 31
0.0
  0
LINE
  5
3E
330
1E
100
AcDbEntity
  8
0
100
AcDbLine
 10
1.88032850000001
 20
237.779
 30
0.0
 11
2.407458500000009
 21
237.889
 31
0.0
  0
LINE
  5
3F
330
1E
100
AcDbEntity
  8
0
100
AcDbLine
 10
1.88032850000001
 20
237.779
 30
0.0
 11
2.274248500000009
 21
237.7089999999999
 31
0.0
  0
LINE
  5
40
330
1E
100
AcDbEntity
  8
0
100
AcDbLine
 10
0.8565285000000059
 20
226.789
 30
0.0
 11
1.84132850000001
 21
226.6159999999999
 31
0.0
  0
LINE
  5
41
330
1E
100
AcDbEntity
  8
0
100
AcDbLine
 10
3.515508500000009
 20
226.3209999999999
 30
0.0
 11
5.682078500000009
 21
225.939
 31
0.0
  0
LINE
  5
42
330
1E
100
AcDbEntity
  8
0
100
AcDbLine
 10
20.7496785
 20
223.282
 30
0.0
 11
21.1435785
 21
223.212
 31
0.0
  0
LINE
  5
43
330
1E
100
AcDbEntity
  8
0
100
AcDbLine
 10
19.7648785
 20
223.455
 30
0.0
 11
20.7496785
 21
223.282
 31
0.0
  0
LINE
  5
44
330
1E
100
AcDbEntity
  8
0
100
AcDbLine
 10
20.2455785
 20
223.8779999999999
 30
0.0
 11
21.3288785
 21
223.687
 31
0.0
  0
LINE
  5
45
330
1E
100
AcDbEntity
  8
0
100
AcDbLine
 10
18.5713785
 20
224.174
 30
0.0
 11
20.2455785
 21
223.8779999999999
 31
0.0
  0
LINE
  5
46
330
1E
100
AcDbEntity
  8
0
100
AcDbLine
 10
18.09067849999999
 20
223.7509999999999
 30
0.0
 11
19.7648785
 21
223.455
 31
0.0
  0
LINE
  5
47
330
1E
100
AcDbEntity
  8
0
100
AcDbLine
 10
15.9240785
 20
224.133
 30
0.0
 11
18.09067849999999
 21
223.7509999999999
 31
0.0
  0
LINE
  5
48
330
1E
100
AcDbEntity
  8
0
100
AcDbLine
 10
16.3063785
 20
224.573
 30
0.0
 11
18.5713785
 21
224.174
 31
0.0
  0
LINE
  5
49
330
1E
100
AcDbEntity
  8
0
100
AcDbLine
 10
13.4620785
 20
224.567
 30
0.0
 11
15.9240785
 21
224.133
 31
0.0
  0
LINE
  5
4A
330
1E
100
AcDbEntity
  8
0
100
AcDbLine
 10
197.4449785
 20
3.99999999999999
 30
0.0
 11
197.4449785
 21
-0.000000000000012
 31
0.0
  0
LINE
  5
4B
330
1E
100
AcDbEntity
  8
0
100
AcDbLine
 10
197.4449785
 20
3.99999999999999
 30
0.0
 11
198.2369784999999
 21
3.99999999999999
 31
0.0
  0
LINE
  5
4C
330
1E
100
AcDbEntity
  8
0
100
AcDbLine
 10
198.2369784999999
 20
3.99999999999999
 30
0.0
 11
200.3489784999999
 21
3.99999999999999
 31
0.0
  0
LINE
  5
4D
330
1E
100
AcDbEntity
  8
0
100
AcDbLine
 10
200.3489784999999
 20
3.99999999999999
 30
0.0
 11
203.8689784999999
 21
3.99999999999999
 31
0.0
  0
LINE
  5
4E
330
1E
100
AcDbEntity
  8
0
100
AcDbLine
 10
197.4449785
 20
-0.000000000000012
 30
0.0
 11
198.2369784999999
 21
-0.000000000000012
 31
0.0
  0
LINE
  5
4F
330
1E
100
AcDbEntity
  8
0
100
AcDbLine
 10
197.4449785
 20
-0.000000000000012
 30
0.0
 11
197.4449785
 21
3.99999999999999
 31
0.0
  0
LINE
  5
50
330
1E
100
AcDbEntity
  8
0
100
AcDbLine
 10
198.2369784999999
 20
-0.000000000000012
 30
0.0
 11
200.3489784999999
 21
-0.0000000000000122
 31
0.0
  0
LINE
  5
51
330
1E
100
AcDbEntity
  8
0
100
AcDbLine
 10
200.3489784999999
 20
-0.0000000000000122
 30
0.0
 11
203.8689784999999
 21
-0.0000000000000124
 31
0.0
  0
LINE
  5
52
330
1E
100
AcDbEntity
  8
0
100
AcDbLine
 10
203.4449785
 20
109.3329999999999
 30
0.0
 11
204.2069784999999
 21
110.0
 31
0.0
  0
LINE
  5
53
330
1E
100
AcDbEntity
  8
0
100
AcDbLine
 10
203.4449785
 20
109.3329999999999
 30
0.0
 11
203.4449785
 21
3.99999999999999
 31
0.0
  0
LINE
  5
54
330
1E
100
AcDbEntity
  8
0
100
AcDbLine
 10
203.4449785
 20
109.3329999999999
 30
0.0
 11
204.0549785
 21
109.3329999999999
 31
0.0
  0
LINE
  5
55
330
1E
100
AcDbEntity
  8
0
100
AcDbLine
 10
203.8689784999999
 20
3.99999999999999
 30
0.0
 11
208.5329784999999
 21
3.99999999999999
 31
0.0
  0
LINE
  5
56
330
1E
100
AcDbEntity
  8
0
100
AcDbLine
 10
203.8689784999999
 20
-0.0000000000000124
 30
0.0
 11
208.5329784999999
 21
-0.0000000000000127
 31
0.0
  0
LINE
  5
57
330
1E
100
AcDbEntity
  8
0
100
AcDbLine
 10
208.5329784999999
 20
-0.0000000000000127
 30
0.0
 11
213.8129785
 21
-0.000000000000013
 31
0.0
  0
LINE
  5
58
330
1E
100
AcDbEntity
  8
0
100
AcDbLine
 10
241.4449785
 20
-0.0000000000000147
 30
0.0
 11
241.4449785
 21
3.999999999999979
 31
0.0
  0
LINE
  5
59
330
1E
100
AcDbEntity
  8
0
100
AcDbLine
 10
240.6529785
 20
-0.0000000000000146
 30
0.0
 11
241.4449785
 21
-0.0000000000000147
 31
0.0
  0
LINE
  5
5A
330
1E
100
AcDbEntity
  8
0
100
AcDbLine
 10
238.5409785
 20
-0.0000000000000145
 30
0.0
 11
240.6529785
 21
-0.0000000000000146
 31
0.0
  0
LINE
  5
5B
330
1E
100
AcDbEntity
  8
0
100
AcDbLine
 10
235.0209785
 20
-0.0000000000000143
 30
0.0
 11
238.5409785
 21
-0.0000000000000145
 31
0.0
  0
LINE
  5
5C
330
1E
100
AcDbEntity
  8
0
100
AcDbLine
 10
230.3569785
 20
-0.000000000000014
 30
0.0
 11
235.0209785
 21
-0.0000000000000143
 31
0.0
  0
LINE
  5
5D
330
1E
100
AcDbEntity
  8
0
100
AcDbLine
 10
225.0769785
 20
-0.0000000000000137
 30
0.0
 11
230.3569785
 21
-0.000000000000014
 31
0.0
  0
LINE
  5
5E
330
1E
100
AcDbEntity
  8
0
100
AcDbLine
 10
219.4449785
 20
-0.0000000000000133
 30
0.0
 11
225.0769785
 21
-0.0000000000000137
 31
0.0
  0
LINE
  5
5F
330
1E
100
AcDbEntity
  8
0
100
AcDbLine
 10
240.6529785
 20
3.999999999999979
 30
0.0
 11
241.4449785
 21
3.999999999999979
 31
0.0
  0
LINE
  5
60
330
1E
100
AcDbEntity
  8
0
100
AcDbLine
 10
241.4449785
 20
3.999999999999979
 30
0.0
 11
241.4449785
 21
-0.0000000000000149
 31
0.0
  0
LINE
  5
61
330
1E
100
AcDbEntity
  8
0
100
AcDbLine
 10
238.5409785
 20
3.99999999999999
 30
0.0
 11
240.6529785
 21
3.999999999999979
 31
0.0
  0
LINE
  5
62
330
1E
100
AcDbEntity
  8
0
100
AcDbLine
 10
235.0209785
 20
3.99999999999999
 30
0.0
 11
238.5409785
 21
3.99999999999999
 31
0.0
  0
LINE
  5
63
330
1E
100
AcDbEntity
  8
0
100
AcDbLine
 10
223.5589785
 20
3.99999999999999
 30
0.0
 11
225.0769785
 21
3.99999999999999
 31
0.0
  0
LINE
  5
64
330
1E
100
AcDbEntity
  8
0
100
AcDbLine
 10
225.0769785
 20
3.99999999999999
 30
0.0
 11
230.3569785
 21
3.99999999999999
 31
0.0
  0
LINE
  5
65
330
1E
100
AcDbEntity
  8
0
100
AcDbLine
 10
219.4449785
 20
3.99999999999999
 30
0.0
 11
223.5589785
 21
3.99999999999999
 31
0.0
  0
LINE
  5
66
330
1E
100
AcDbEntity
  8
0
100
AcDbLine
 10
219.4449785
 20
3.99999999999999
 30
0.0
 11
225.0769785
 21
3.99999999999999
 31
0.0
  0
LINE
  5
67
330
1E
100
AcDbEntity
  8
0
100
AcDbLine
 10
230.3569785
 20
3.99999999999999
 30
0.0
 11
230.7209784999999
 21
3.99999999999999
 31
0.0
  0
LINE
  5
68
330
1E
100
AcDbEntity
  8
0
100
AcDbLine
 10
230.3569785
 20
3.99999999999999
 30
0.0
 11
235.0209785
 21
3.99999999999999
 31
0.0
  0
LINE
  5
69
330
1E
100
AcDbEntity
  8
0
100
AcDbLine
 10
235.4449785
 20
3.99999999999999
 30
0.0
 11
235.4449785
 21
109.3329999999999
 31
0.0
  0
LINE
  5
6A
330
1E
100
AcDbEntity
  8
0
100
AcDbLine
 10
213.8129785
 20
3.99999999999999
 30
0.0
 11
219.4449785
 21
3.99999999999999
 31
0.0
  0
LINE
  5
6B
330
1E
100
AcDbEntity
  8
0
100
AcDbLine
 10
213.8129785
 20
-0.000000000000013
 30
0.0
 11
219.4449785
 21
-0.0000000000000133
 31
0.0
  0
LINE
  5
6C
330
1E
100
AcDbEntity
  8
0
100
AcDbLine
 10
211.5209785
 20
3.99999999999999
 30
0.0
 11
213.8129785
 21
3.99999999999999
 31
0.0
  0
LINE
  5
6D
330
1E
100
AcDbEntity
  8
0
100
AcDbLine
 10
205.7809784999999
 20
76.0
 30
0.0
 11
206.2849785
 21
72.47199999999999
 31
0.0
  0
LINE
  5
6E
330
1E
100
AcDbEntity
  8
0
100
AcDbLine
 10
205.7809784999999
 20
76.0
 30
0.0
 11
206.2849785
 21
79.528
 31
0.0
  0
LINE
  5
6F
330
1E
100
AcDbEntity
  8
0
100
AcDbLine
 10
205.9489784999999
 20
79.58400000000001
 30
0.0
 11
207.2929784999999
 21
82.94400000000001
 31
0.0
  0
LINE
  5
70
330
1E
100
AcDbEntity
  8
0
100
AcDbLine
 10
205.4449785
 20
76.0
 30
0.0
 11
205.9489784999999
 21
72.416
 31
0.0
  0
LINE
  5
71
330
1E
100
AcDbEntity
  8
0
100
AcDbLine
 10
205.4449785
 20
76.0
 30
0.0
 11
205.9489784999999
 21
79.58400000000001
 31
0.0
  0
LINE
  5
72
330
1E
100
AcDbEntity
  8
0
100
AcDbLine
 10
206.2849785
 20
79.528
 30
0.0
 11
207.6289784999999
 21
82.77600000000001
 31
0.0
  0
LINE
  5
73
330
1E
100
AcDbEntity
  8
0
100
AcDbLine
 10
207.6289784999999
 20
82.77600000000001
 30
0.0
 11
209.8129785
 21
85.632
 31
0.0
  0
LINE
  5
74
330
1E
100
AcDbEntity
  8
0
100
AcDbLine
 10
207.2929784999999
 20
82.94400000000001
 30
0.0
 11
209.5329784999999
 21
85.912
 31
0.0
  0
LINE
  5
75
330
1E
100
AcDbEntity
  8
0
100
AcDbLine
 10
206.2849785
 20
72.47199999999999
 30
0.0
 11
207.6289784999999
 21
69.22399999999999
 31
0.0
  0
LINE
  5
76
330
1E
100
AcDbEntity
  8
0
100
AcDbLine
 10
207.6289784999999
 20
69.22399999999999
 30
0.0
 11
209.8129785
 21
66.368
 31
0.0
  0
LINE
  5
77
330
1E
100
AcDbEntity
  8
0
100
AcDbLine
 10
205.9489784999999
 20
72.416
 30
0.0
 11
207.2929784999999
 21
69.05599999999999
 31
0.0
  0
LINE
  5
78
330
1E
100
AcDbEntity
  8
0
100
AcDbLine
 10
207.2929784999999
 20
69.05599999999999
 30
0.0
 11
209.5329784999999
 21
66.08800000000001
 31
0.0
  0
LINE
  5
79
330
1E
100
AcDbEntity
  8
0
100
AcDbLine
 10
209.5329784999999
 20
85.912
 30
0.0
 11
212.5009785
 21
88.152
 31
0.0
  0
LINE
  5
7A
330
1E
100
AcDbEntity
  8
0
100
AcDbLine
 10
209.8129785
 20
85.632
 30
0.0
 11
212.6689784999999
 21
87.816
 31
0.0
  0
LINE
  5
7B
330
1E
100
AcDbEntity
  8
0
100
AcDbLine
 10
212.6689784999999
 20
87.816
 30
0.0
 11
215.9169785
 21
89.16
 31
0.0
  0
LINE
  5
7C
330
1E
100
AcDbEntity
  8
0
100
AcDbLine
 10
212.5009785
 20
88.152
 30
0.0
 11
215.8609785
 21
89.49600000000001
 31
0.0
  0
LINE
  5
7D
330
1E
100
AcDbEntity
  8
0
100
AcDbLine
 10
209.8129785
 20
66.368
 30
0.0
 11
212.6689784999999
 21
64.184
 31
0.0
  0
LINE
  5
7E
330
1E
100
AcDbEntity
  8
0
100
AcDbLine
 10
212.6689784999999
 20
64.184
 30
0.0
 11
215.9169785
 21
62.84
 31
0.0
  0
LINE
  5
7F
330
1E
100
AcDbEntity
  8
0
100
AcDbLine
 10
212.5009785
 20
63.848
 30
0.0
 11
215.8609785
 21
62.50399999999999
 31
0.0
  0
LINE
  5
80
330
1E
100
AcDbEntity
  8
0
100
AcDbLine
 10
215.9169785
 20
89.16
 30
0.0
 11
219.4449785
 21
89.664
 31
0.0
  0
LINE
  5
81
330
1E
100
AcDbEntity
  8
0
100
AcDbLine
 10
215.8609785
 20
89.49600000000001
 30
0.0
 11
219.4449785
 21
90.0
 31
0.0
  0
LINE
  5
82
330
1E
100
AcDbEntity
  8
0
100
AcDbLine
 10
219.4449785
 20
89.664
 30
0.0
 11
222.9729784999999
 21
89.16
 31
0.0
  0
LINE
  5
83
330
1E
100
AcDbEntity
  8
0
100
AcDbLine
 10
219.4449785
 20
90.0
 30
0.0
 11
223.0289785
 21
89.49600000000001
 31
0.0
  0
LINE
  5
84
330
1E
100
AcDbEntity
  8
0
100
AcDbLine
 10
215.9169785
 20
62.84
 30
0.0
 11
219.4449785
 21
62.336
 31
0.0
  0
LINE
  5
85
330
1E
100
AcDbEntity
  8
0
100
AcDbLine
 10
215.8609785
 20
62.50399999999999
 30
0.0
 11
219.4449785
 21
62.0
 31
0.0
  0
LINE
  5
86
330
1E
100
AcDbEntity
  8
0
100
AcDbLine
 10
219.4449785
 20
62.336
 30
0.0
 11
222.9729784999999
 21
62.84
 31
0.0
  0
LINE
  5
87
330
1E
100
AcDbEntity
  8
0
100
AcDbLine
 10
222.9729784999999
 20
62.84
 30
0.0
 11
226.2209785
 21
64.184
 31
0.0
  0
LINE
  5
88
330
1E
100
AcDbEntity
  8
0
100
AcDbLine
 10
223.0289785
 20
62.50399999999999
 30
0.0
 11
226.3889784999999
 21
63.848
 31
0.0
  0
LINE
  5
89
330
1E
100
AcDbEntity
  8
0
100
AcDbLine
 10
226.2209785
 20
87.816
 30
0.0
 11
229.0769785
 21
85.632
 31
0.0
  0
LINE
  5
8A
330
1E
100
AcDbEntity
  8
0
100
AcDbLine
 10
222.9729784999999
 20
89.16
 30
0.0
 11
226.2209785
 21
87.816
 31
0.0
  0
LINE
  5
8B
330
1E
100
AcDbEntity
  8
0
100
AcDbLine
 10
223.0289785
 20
89.49600000000001
 30
0.0
 11
226.3889784999999
 21
88.152
 31
0.0
  0
LINE
  5
8C
330
1E
100
AcDbEntity
  8
0
100
AcDbLine
 10
226.3889784999999
 20
88.152
 30
0.0
 11
229.3569785
 21
85.912
 31
0.0
  0
LINE
  5
8D
330
1E
100
AcDbEntity
  8
0
100
AcDbLine
 10
226.2209785
 20
64.184
 30
0.0
 11
229.0769785
 21
66.368
 31
0.0
  0
LINE
  5
8E
330
1E
100
AcDbEntity
  8
0
100
AcDbLine
 10
226.3889784999999
 20
63.848
 30
0.0
 11
229.3569785
 21
66.08800000000001
 31
0.0
  0
LINE
  5
8F
330
1E
100
AcDbEntity
  8
0
100
AcDbLine
 10
219.4449785
 20
109.3329999999999
 30
0.0
 11
223.5589785
 21
109.3329999999999
 31
0.0
  0
LINE
  5
90
330
1E
100
AcDbEntity
  8
0
100
AcDbLine
 10
223.5589785
 20
109.3329999999999
 30
0.0
 11
227.3689785
 21
109.3329999999999
 31
0.0
  0
LINE
  5
91
330
1E
100
AcDbEntity
  8
0
100
AcDbLine
 10
231.2609785
 20
82.77600000000001
 30
0.0
 11
232.6049785
 21
79.528
 31
0.0
  0
LINE
  5
92
330
1E
100
AcDbEntity
  8
0
100
AcDbLine
 10
229.0769785
 20
85.632
 30
0.0
 11
231.2609785
 21
82.77600000000001
 31
0.0
  0
LINE
  5
93
330
1E
100
AcDbEntity
  8
0
100
AcDbLine
 10
229.3569785
 20
85.912
 30
0.0
 11
231.5969785
 21
82.94400000000001
 31
0.0
  0
LINE
  5
94
330
1E
100
AcDbEntity
  8
0
100
AcDbLine
 10
232.6049785
 20
79.528
 30
0.0
 11
233.1089785
 21
76.0
 31
0.0
  0
LINE
  5
95
330
1E
100
AcDbEntity
  8
0
100
AcDbLine
 10
231.5969785
 20
82.94400000000001
 30
0.0
 11
232.9409785
 21
79.58400000000001
 31
0.0
  0
LINE
  5
96
330
1E
100
AcDbEntity
  8
0
100
AcDbLine
 10
232.6049785
 20
72.47199999999999
 30
0.0
 11
233.1089785
 21
76.0
 31
0.0
  0
LINE
  5
97
330
1E
100
AcDbEntity
  8
0
100
AcDbLine
 10
231.2609785
 20
69.22399999999999
 30
0.0
 11
232.6049785
 21
72.47199999999999
 31
0.0
  0
LINE
  5
98
330
1E
100
AcDbEntity
  8
0
100
AcDbLine
 10
229.0769785
 20
66.368
 30
0.0
 11
231.2609785
 21
69.22399999999999
 31
0.0
  0
LINE
  5
99
330
1E
100
AcDbEntity
  8
0
100
AcDbLine
 10
227.3689785
 20
109.3329999999999
 30
0.0
 11
230.7209784999999
 21
109.3329999999999
 31
0.0
  0
LINE
  5
9A
330
1E
100
AcDbEntity
  8
0
100
AcDbLine
 10
230.7209784999999
 20
109.3329999999999
 30
0.0
 11
233.3119785
 21
109.3329999999999
 31
0.0
  0
LINE
  5
9B
330
1E
100
AcDbEntity
  8
0
100
AcDbLine
 10
235.4449785
 20
109.3329999999999
 30
0.0
 11
235.4449785
 21
3.99999999999999
 31
0.0
  0
LINE
  5
9C
330
1E
100
AcDbEntity
  8
0
100
AcDbLine
 10
233.3119785
 20
109.3329999999999
 30
0.0
 11
234.8349784999999
 21
109.3329999999999
 31
0.0
  0
LINE
  5
9D
330
1E
100
AcDbEntity
  8
0
100
AcDbLine
 10
234.8349784999999
 20
109.3329999999999
 30
0.0
 11
235.4449785
 21
109.3329999999999
 31
0.0
  0
LINE
  5
9E
330
1E
100
AcDbEntity
  8
0
100
AcDbLine
 10
215.3309785
 20
109.3329999999999
 30
0.0
 11
219.4449785
 21
109.3329999999999
 31
0.0
  0
LINE
  5
9F
330
1E
100
AcDbEntity
  8
0
100
AcDbLine
 10
211.5209785
 20
109.3329999999999
 30
0.0
 11
215.3309785
 21
109.3329999999999
 31
0.0
  0
LINE
  5
A0
330
1E
100
AcDbEntity
  8
0
100
AcDbLine
 10
208.1689785
 20
109.3329999999999
 30
0.0
 11
211.5209785
 21
109.3329999999999
 31
0.0
  0
LINE
  5
A1
330
1E
100
AcDbEntity
  8
0
100
AcDbLine
 10
208.4449784999999
 20
110.0
 30
0.0
 11
208.4449784999999
 21
214.5
 31
0.0
  0
LINE
  5
A2
330
1E
100
AcDbEntity
  8
0
100
AcDbLine
 10
219.4449785
 20
110.0
 30
0.0
 11
223.3309785
 21
110.0
 31
0.0
  0
LINE
  5
A3
330
1E
100
AcDbEntity
  8
0
100
AcDbLine
 10
223.3309785
 20
110.0
 30
0.0
 11
226.9879785
 21
110.0
 31
0.0
  0
LINE
  5
A4
330
1E
100
AcDbEntity
  8
0
100
AcDbLine
 10
226.9879785
 20
110.0
 30
0.0
 11
230.1879785
 21
110.0
 31
0.0
  0
LINE
  5
A5
330
1E
100
AcDbEntity
  8
0
100
AcDbLine
 10
233.435277845505
 20
110.0
 30
0.0
 11
244.9409785
 21
129.925
 31
0.0
  0
LINE
  5
A6
330
1E
100
AcDbEntity
  8
0
100
AcDbLine
 10
230.1879785
 20
110.0
 30
0.0
 11
232.6259784999999
 21
110.0
 31
0.0
  0
LINE
  5
A7
330
1E
100
AcDbEntity
  8
0
100
AcDbLine
 10
232.6259784999999
 20
110.0
 30
0.0
 11
234.1499784999999
 21
110.0
 31
0.0
  0
LINE
  5
A8
330
1E
100
AcDbEntity
  8
0
100
AcDbLine
 10
234.6829785
 20
110.0
 30
0.0
 11
235.4449785
 21
109.3329999999999
 31
0.0
  0
LINE
  5
A9
330
1E
100
AcDbEntity
  8
0
100
AcDbLine
 10
234.1499784999999
 20
110.0
 30
0.0
 11
234.6829785
 21
110.0
 31
0.0
  0
LINE
  5
AA
330
1E
100
AcDbEntity
  8
0
100
AcDbLine
 10
215.5589785
 20
110.0
 30
0.0
 11
219.4449785
 21
110.0
 31
0.0
  0
LINE
  5
AB
330
1E
100
AcDbEntity
  8
0
100
AcDbLine
 10
211.9019785
 20
110.0
 30
0.0
 11
215.5589785
 21
110.0
 31
0.0
  0
LINE
  5
AC
330
1E
100
AcDbEntity
  8
0
100
AcDbLine
 10
208.7019784999999
 20
110.0
 30
0.0
 11
211.9019785
 21
110.0
 31
0.0
  0
LINE
  5
AD
330
1E
100
AcDbEntity
  8
0
100
AcDbLine
 10
206.2639785
 20
110.0
 30
0.0
 11
208.7019784999999
 21
110.0
 31
0.0
  0
LINE
  5
AE
330
1E
100
AcDbEntity
  8
0
100
AcDbLine
 10
230.4449785
 20
114.8248695057029
 30
0.0
 11
240.6109785
 21
132.425
 31
0.0
  0
LINE
  5
AF
330
1E
100
AcDbEntity
  8
0
100
AcDbLine
 10
230.4449785
 20
110.0
 30
0.0
 11
230.4449785
 21
214.5
 31
0.0
  0
LINE
  5
B0
330
1E
100
AcDbEntity
  8
0
100
AcDbLine
 10
208.4449784999999
 20
214.5
 30
0.0
 11
208.4449784999999
 21
110.0
 31
0.0
  0
LINE
  5
B4
330
1E
100
AcDbEntity
  8
0
100
AcDbLine
 10
244.9409785
 20
129.925
 30
0.0
 11
254.9409785
 21
129.925
 31
0.0
  0
LINE
  5
B5
330
1E
100
AcDbEntity
  8
0
100
AcDbLine
 10
254.9409785
 20
129.925
 30
0.0
 11
254.9419784999999
 21
130.1139999999999
 31
0.0
  0
LINE
  5
B6
330
1E
100
AcDbEntity
  8
0
100
AcDbLine
 10
254.9399785
 20
130.117
 30
0.0
 11
254.9409785
 21
129.925
 31
0.0
  0
LINE
  5
B7
330
1E
100
AcDbEntity
  8
0
100
AcDbLine
 10
254.9399785
 20
130.117
 30
0.0
 11
254.9399785
 21
130.6599999999999
 31
0.0
  0
LINE
  5
B8
330
1E
100
AcDbEntity
  8
0
100
AcDbLine
 10
254.9419784999999
 20
130.1139999999999
 30
0.0
 11
254.9429785
 21
130.655
 31
0.0
  0
LINE
  5
BA
330
1E
100
AcDbEntity
  8
0
100
AcDbLine
 10
254.9399785
 20
130.6599999999999
 30
0.0
 11
254.9399785
 21
130.117
 31
0.0
  0
LINE
  5
BB
330
1E
100
AcDbEntity
  8
0
100
AcDbLine
 10
254.9429785
 20
130.655
 30
0.0
 11
254.9429785
 21
131.465
 31
0.0
  0
LINE
  5
C2
330
1E
100
AcDbEntity
  8
0
100
AcDbLine
 10
254.9389785
 20
131.472
 30
0.0
 11
254.9399785
 21
130.6599999999999
 31
0.0
  0
LINE
  5
C3
330
1E
100
AcDbEntity
  8
0
100
AcDbLine
 10
254.9389785
 20
131.472
 30
0.0
 11
254.9389785
 21
132.4289999999999
 31
0.0
  0
LINE
  5
C4
330
1E
100
AcDbEntity
  8
0
100
AcDbLine
 10
254.9429785
 20
131.465
 30
0.0
 11
254.9429785
 21
132.4209999999999
 31
0.0
  0
LINE
  5
C5
330
1E
100
AcDbEntity
  8
0
100
AcDbLine
 10
254.9429785
 20
131.465
 30
0.0
 11
254.9429785
 21
130.655
 31
0.0
  0
LINE
  5
CA
330
1E
100
AcDbEntity
  8
0
100
AcDbLine
 10
254.9389785
 20
133.386
 30
0.0
 11
254.9389785
 21
132.4289999999999
 31
0.0
  0
LINE
  5
CB
330
1E
100
AcDbEntity
  8
0
100
AcDbLine
 10
254.9389785
 20
133.386
 30
0.0
 11
254.9399785
 21
134.196
 31
0.0
  0
LINE
  5
CC
330
1E
100
AcDbEntity
  8
0
100
AcDbLine
 10
254.9389785
 20
132.4289999999999
 30
0.0
 11
254.9389785
 21
131.472
 31
0.0
  0
LINE
  5
CD
330
1E
100
AcDbEntity
  8
0
100
AcDbLine
 10
254.9389785
 20
132.4289999999999
 30
0.0
 11
254.9389785
 21
133.386
 31
0.0
  0
LINE
  5
CE
330
1E
100
AcDbEntity
  8
0
100
AcDbLine
 10
254.9429785
 20
132.4209999999999
 30
0.0
 11
254.9429785
 21
133.3779999999999
 31
0.0
  0
LINE
  5
CF
330
1E
100
AcDbEntity
  8
0
100
AcDbLine
 10
254.9429785
 20
132.4209999999999
 30
0.0
 11
254.9429785
 21
131.465
 31
0.0
  0
LINE
  5
D0
330
1E
100
AcDbEntity
  8
0
100
AcDbLine
 10
254.9429785
 20
133.3779999999999
 30
0.0
 11
254.9429785
 21
134.19
 31
0.0
  0
LINE
  5
D1
330
1E
100
AcDbEntity
  8
0
100
AcDbLine
 10
254.9429785
 20
133.3779999999999
 30
0.0
 11
254.9429785
 21
132.4209999999999
 31
0.0
  0
LINE
  5
D2
330
1E
100
AcDbEntity
  8
0
100
AcDbLine
 10
254.9399785
 20
134.196
 30
0.0
 11
254.9399785
 21
134.7359999999999
 31
0.0
  0
LINE
  5
D3
330
1E
100
AcDbEntity
  8
0
100
AcDbLine
 10
254.9429785
 20
134.19
 30
0.0
 11
254.9429785
 21
133.3779999999999
 31
0.0
  0
LINE
  5
D4
330
1E
100
AcDbEntity
  8
0
100
AcDbLine
 10
254.9399785
 20
134.7359999999999
 30
0.0
 11
254.9399785
 21
134.196
 31
0.0
  0
LINE
  5
D5
330
1E
100
AcDbEntity
  8
0
100
AcDbLine
 10
254.9399785
 20
134.7359999999999
 30
0.0
 11
254.9409785
 21
134.925
 31
0.0
  0
LINE
  5
D6
330
1E
100
AcDbEntity
  8
0
100
AcDbLine
 10
254.9419784999999
 20
134.733
 30
0.0
 11
254.9429785
 21
134.19
 31
0.0
  0
LINE
  5
D7
330
1E
100
AcDbEntity
  8
0
100
AcDbLine
 10
254.9409785
 20
134.925
 30
0.0
 11
254.9419784999999
 21
134.733
 31
0.0
  0
LINE
  5
D8
330
1E
100
AcDbEntity
  8
0
100
AcDbLine
 10
244.9409785
 20
134.925
 30
0.0
 11
254.9409785
 21
134.925
 31
0.0
  0
LINE
  5
D9
330
1E
100
AcDbEntity
  8
0
100
AcDbLine
 10
243.9479785
 20
134.826
 30
0.0
 11
244.9409785
 21
134.925
 31
0.0
  0
LINE
  5
DA
330
1E
100
AcDbEntity
  8
0
100
AcDbLine
 10
242.9939785
 20
134.531
 30
0.0
 11
243.9479785
 21
134.826
 31
0.0
  0
LINE
  5
DB
330
1E
100
AcDbEntity
  8
0
100
AcDbLine
 10
242.1179785
 20
134.052
 30
0.0
 11
242.9939785
 21
134.531
 31
0.0
  0
LINE
  5
DC
330
1E
100
AcDbEntity
  8
0
100
AcDbLine
 10
241.3539785
 20
133.4089999999999
 30
0.0
 11
242.1179785
 21
134.052
 31
0.0
  0
LINE
  5
DD
330
1E
100
AcDbEntity
  8
0
100
AcDbLine
 10
240.6109785
 20
132.425
 30
0.0
 11
241.3539785
 21
133.4089999999999
 31
0.0
  0
LINE
  5
E3
330
1E
100
AcDbEntity
  8
0
100
AcDbLine
 10
230.4449785
 20
214.5
 30
0.0
 11
230.4449785
 21
110.0
 31
0.0
  0
LINE
  5
E4
330
1E
100
AcDbEntity
  8
0
100
AcDbLine
 10
204.7399784999999
 20
110.0
 30
0.0
 11
206.2639785
 21
110.0
 31
0.0
  0
LINE
  5
E5
330
1E
100
AcDbEntity
  8
0
100
AcDbLine
 10
204.2069784999999
 20
110.0
 30
0.0
 11
204.7399784999999
 21
110.0
 31
0.0
  0
LINE
  5
E6
330
1E
100
AcDbEntity
  8
0
100
AcDbLine
 10
205.5779784999999
 20
109.3329999999999
 30
0.0
 11
208.1689785
 21
109.3329999999999
 31
0.0
  0
LINE
  5
E7
330
1E
100
AcDbEntity
  8
0
100
AcDbLine
 10
204.0549785
 20
109.3329999999999
 30
0.0
 11
205.5779784999999
 21
109.3329999999999
 31
0.0
  0
LINE
  5
E8
330
1E
100
AcDbEntity
  8
0
100
AcDbLine
 10
208.5329784999999
 20
3.99999999999999
 30
0.0
 11
211.5209785
 21
3.99999999999999
 31
0.0
  0
LINE
  5
E9
330
1E
100
AcDbEntity
  8
0
100
AcDbLine
 10
208.5329784999999
 20
3.99999999999999
 30
0.0
 11
213.8129785
 21
3.99999999999999
 31
0.0
  0
LINE
  5
EA
330
1E
100
AcDbEntity
  8
0
100
AcDbLine
 10
203.4449785
 20
3.99999999999999
 30
0.0
 11
203.4449785
 21
109.3329999999999
 31
0.0
  0
LINE
  5
EB
330
1E
100
AcDbEntity
  8
0
100
AcDbLine
 10
21.3288785
 20
223.687
 30
0.0
 11
21.72277849999999
 21
223.618
 31
0.0
  0
LINE
  5
EC
330
1E
100
AcDbEntity
  8
0
100
AcDbLine
 10
21.72277849999999
 20
223.618
 30
0.0
 11
23.5460785
 21
233.958
 31
0.0
  0
LINE
  5
ED
330
1E
100
AcDbEntity
  8
0
100
AcDbLine
 10
21.1435785
 20
223.212
 30
0.0
 11
21.72277849999999
 21
223.618
 31
0.0
  0
LINE
  5
EE
330
1E
100
AcDbEntity
  8
0
100
AcDbLine
 10
7.626938500000009
 20
236.9679999999999
 30
0.0
 11
10.0889785
 21
236.534
 31
0.0
  0
LINE
  5
EF
330
1E
100
AcDbEntity
  8
0
100
AcDbLine
 10
7.296768500000009
 20
236.824
 30
0.0
 11
9.955778500000009
 21
236.355
 31
0.0
  0
LINE
  5
F0
330
1E
100
AcDbEntity
  8
0
100
AcDbLine
 10
8.132448500000009
 20
226.014
 30
0.0
 11
10.8898785
 21
225.5279999999999
 31
0.0
  0
LINE
  5
F1
330
1E
100
AcDbEntity
  8
0
100
AcDbLine
 10
8.1440985
 20
225.504
 30
0.0
 11
10.8030785
 21
225.0359999999999
 31
0.0
  0
LINE
  5
F2
330
1E
100
AcDbEntity
  8
0
100
AcDbLine
 10
7.366228500000009
 20
237.217
 30
0.0
 11
10.0251785
 21
236.749
 31
0.0
  0
LINE
  5
F3
330
1E
100
AcDbEntity
  8
0
100
AcDbLine
 10
13.6473785
 20
225.042
 30
0.0
 11
16.3063785
 21
224.573
 31
0.0
  0
LINE
  5
F4
330
1E
100
AcDbEntity
  8
0
100
AcDbLine
 10
15.4068785
 20
235.597
 30
0.0
 11
17.8689785
 21
235.1629999999999
 31
0.0
  0
LINE
  5
F5
330
1E
100
AcDbEntity
  8
0
100
AcDbLine
 10
12.7479785
 20
236.065
 30
0.0
 11
15.4068785
 21
235.597
 31
0.0
  0
LINE
  5
F6
330
1E
100
AcDbEntity
  8
0
100
AcDbLine
 10
15.4706785
 20
235.382
 30
0.0
 11
18.1296785
 21
234.9129999999999
 31
0.0
  0
LINE
  5
F7
330
1E
100
AcDbEntity
  8
0
100
AcDbLine
 10
12.71317849999999
 20
235.869
 30
0.0
 11
15.4706785
 21
235.382
 31
0.0
  0
LINE
  5
F8
330
1E
100
AcDbEntity
  8
0
100
AcDbLine
 10
10.8898785
 20
225.5279999999999
 30
0.0
 11
13.6473785
 21
225.042
 31
0.0
  0
LINE
  5
F9
330
1E
100
AcDbEntity
  8
0
100
AcDbLine
 10
20.03547849999999
 20
234.7799999999999
 30
0.0
 11
21.70967849999999
 21
234.485
 31
0.0
  0
LINE
  5
FA
330
1E
100
AcDbEntity
  8
0
100
AcDbLine
 10
20.3946785
 20
234.514
 30
0.0
 11
22.0688785
 21
234.219
 31
0.0
  0
LINE
  5
FB
330
1E
100
AcDbEntity
  8
0
100
AcDbLine
 10
17.8689785
 20
235.1629999999999
 30
0.0
 11
20.03547849999999
 21
234.7799999999999
 31
0.0
  0
LINE
  5
FC
330
1E
100
AcDbEntity
  8
0
100
AcDbLine
 10
18.1296785
 20
234.9129999999999
 30
0.0
 11
20.3946785
 21
234.514
 31
0.0
  0
LINE
  5
FD
330
1E
100
AcDbEntity
  8
0
100
AcDbLine
 10
21.70967849999999
 20
234.485
 30
0.0
 11
22.6944785
 21
234.312
 31
0.0
  0
LINE
  5
FE
330
1E
100
AcDbEntity
  8
0
100
AcDbLine
 10
22.6944785
 20
234.312
 30
0.0
 11
23.0883785
 21
234.242
 31
0.0
  0
LINE
  5
FF
330
1E
100
AcDbEntity
  8
0
100
AcDbLine
 10
22.0688785
 20
234.219
 30
0.0
 11
23.1521785
 21
234.0279999999999
 31
0.0
  0
LINE
  5
100
330
1E
100
AcDbEntity
  8
0
100
AcDbLine
 10
22.1383785
 20
234.613
 30
0.0
 11
23.2216785
 21
234.4219999999999
 31
0.0
  0
LINE
  5
101
330
1E
100
AcDbEntity
  8
0
100
AcDbLine
 10
20.4641785
 20
234.9079999999999
 30
0.0
 11
22.1383785
 21
234.613
 31
0.0
  0
LINE
  5
102
330
1E
100
AcDbEntity
  8
0
100
AcDbLine
 10
18.19907849999999
 20
235.307
 30
0.0
 11
20.4641785
 21
234.9079999999999
 31
0.0
  0
LINE
  5
103
330
1E
100
AcDbEntity
  8
0
100
AcDbLine
 10
15.5401785
 20
235.7759999999999
 30
0.0
 11
18.19907849999999
 21
235.307
 31
0.0
  0
LINE
  5
104
330
1E
100
AcDbEntity
  8
0
100
AcDbLine
 10
9.955778500000009
 20
236.355
 30
0.0
 11
12.71317849999999
 21
235.869
 31
0.0
  0
LINE
  5
105
330
1E
100
AcDbEntity
  8
0
100
AcDbLine
 10
10.0889785
 20
236.534
 30
0.0
 11
12.7479785
 21
236.065
 31
0.0
  0
LINE
  5
106
330
1E
100
AcDbEntity
  8
0
100
AcDbLine
 10
10.0251785
 20
236.749
 30
0.0
 11
12.7826785
 21
236.262
 31
0.0
  0
LINE
  5
107
330
1E
100
AcDbEntity
  8
0
100
AcDbLine
 10
12.7826785
 20
236.262
 30
0.0
 11
15.5401785
 21
235.7759999999999
 31
0.0
  0
LINE
  5
108
330
1E
100
AcDbEntity
  8
0
100
AcDbLine
 10
8.236888500000009
 20
258.6999999999999
 30
0.0
 11
14.9190785
 21
272.25
 31
0.0
  0
LINE
  5
109
330
1E
100
AcDbEntity
  8
0
100
AcDbLine
 10
14.9190785
 20
272.25
 30
0.0
 11
23.3126785
 21
284.812
 31
0.0
  0
LINE
  5
10A
330
1E
100
AcDbEntity
  8
0
100
AcDbLine
 10
23.1521785
 20
234.0279999999999
 30
0.0
 11
23.5460785
 21
233.958
 31
0.0
  0
LINE
  5
10B
330
1E
100
AcDbEntity
  8
0
100
AcDbLine
 10
23.2216785
 20
234.4219999999999
 30
0.0
 11
23.6155785
 21
234.352
 31
0.0
  0
LINE
  5
10C
330
1E
100
AcDbEntity
  8
0
100
AcDbLine
 10
23.6155785
 20
234.352
 30
0.0
 11
24.6308785
 21
238.7
 31
0.0
  0
LINE
  5
10D
330
1E
100
AcDbEntity
  8
0
100
AcDbLine
 10
24.6308785
 20
238.7
 30
0.0
 11
28.56227849999999
 21
250.2809999999999
 31
0.0
  0
LINE
  5
10E
330
1E
100
AcDbEntity
  8
0
100
AcDbLine
 10
28.56227849999999
 20
250.2809999999999
 30
0.0
 11
33.9715785
 21
261.25
 31
0.0
  0
LINE
  5
10F
330
1E
100
AcDbEntity
  8
0
100
AcDbLine
 10
33.9715785
 20
261.25
 30
0.0
 11
40.76647849999999
 21
271.419
 31
0.0
  0
LINE
  5
110
330
1E
100
AcDbEntity
  8
0
100
AcDbLine
 10
48.8304785
 20
280.614
 30
0.0
 11
58.0257785
 21
288.679
 31
0.0
  0
LINE
  5
111
330
1E
100
AcDbEntity
  8
0
100
AcDbLine
 10
40.76647849999999
 20
271.419
 30
0.0
 11
48.8304785
 21
280.614
 31
0.0
  0
LINE
  5
112
330
1E
100
AcDbEntity
  8
0
100
AcDbLine
 10
189.1239784999999
 20
271.419
 30
0.0
 11
195.9179785
 21
261.25
 31
0.0
  0
LINE
  5
113
330
1E
100
AcDbEntity
  8
0
100
AcDbLine
 10
58.0257785
 20
288.679
 30
0.0
 11
68.19497850000001
 21
295.4729999999999
 31
0.0
  0
LINE
  5
114
330
1E
100
AcDbEntity
  8
0
100
AcDbLine
 10
68.19497850000001
 20
295.4729999999999
 30
0.0
 11
79.1640785
 21
300.8829999999999
 31
0.0
  0
LINE
  5
115
330
1E
100
AcDbEntity
  8
0
100
AcDbLine
 10
23.3126785
 20
284.812
 30
0.0
 11
33.27417849999999
 21
296.171
 31
0.0
  0
LINE
  5
116
330
1E
100
AcDbEntity
  8
0
100
AcDbLine
 10
171.8639785
 20
288.679
 30
0.0
 11
181.0589784999999
 21
280.614
 31
0.0
  0
LINE
  5
117
330
1E
100
AcDbEntity
  8
0
100
AcDbLine
 10
79.1640785
 20
300.8829999999999
 30
0.0
 11
90.7453785
 21
304.814
 31
0.0
  0
LINE
  5
118
330
1E
100
AcDbEntity
  8
0
100
AcDbLine
 10
33.27417849999999
 20
296.171
 30
0.0
 11
44.63307849999999
 21
306.132
 31
0.0
  0
LINE
  5
119
330
1E
100
AcDbEntity
  8
0
100
AcDbLine
 10
44.63307849999999
 20
306.132
 30
0.0
 11
57.1949785
 21
314.526
 31
0.0
  0
LINE
  5
11A
330
1E
100
AcDbEntity
  8
0
100
AcDbLine
 10
90.7453785
 20
304.814
 30
0.0
 11
102.7409784999999
 21
307.2
 31
0.0
  0
LINE
  5
11B
330
1E
100
AcDbEntity
  8
0
100
AcDbLine
 10
102.7409784999999
 20
307.2
 30
0.0
 11
114.9449784999999
 21
308.0
 31
0.0
  0
LINE
  5
11C
330
1E
100
AcDbEntity
  8
0
100
AcDbLine
 10
127.1489784999999
 20
307.2
 30
0.0
 11
139.1449784999999
 21
304.814
 31
0.0
  0
LINE
  5
11D
330
1E
100
AcDbEntity
  8
0
100
AcDbLine
 10
139.1449784999999
 20
304.814
 30
0.0
 11
150.7259785
 21
300.8829999999999
 31
0.0
  0
LINE
  5
11E
330
1E
100
AcDbEntity
  8
0
100
AcDbLine
 10
57.1949785
 20
314.526
 30
0.0
 11
70.7450785
 21
321.2079999999999
 31
0.0
  0
LINE
  5
11F
330
1E
100
AcDbEntity
  8
0
100
AcDbLine
 10
70.7450785
 20
321.2079999999999
 30
0.0
 11
85.0513785
 21
326.064
 31
0.0
  0
LINE
  5
120
330
1E
100
AcDbEntity
  8
0
100
AcDbLine
 10
85.0513785
 20
326.064
 30
0.0
 11
99.8689785
 21
329.0119999999999
 31
0.0
  0
LINE
  5
121
330
1E
100
AcDbEntity
  8
0
100
AcDbLine
 10
99.8689785
 20
329.0119999999999
 30
0.0
 11
114.9449784999999
 21
330.0
 31
0.0
  0
LINE
  5
122
330
1E
100
AcDbEntity
  8
0
100
AcDbLine
 10
130.0209784999999
 20
329.0119999999999
 30
0.0
 11
144.8389784999999
 21
326.064
 31
0.0
  0
LINE
  5
123
330
1E
100
AcDbEntity
  8
0
100
AcDbLine
 10
144.8389784999999
 20
326.064
 30
0.0
 11
159.1449784999999
 21
321.2079999999999
 31
0.0
  0
LINE
  5
124
330
1E
100
AcDbEntity
  8
0
100
AcDbLine
 10
114.9449784999999
 20
330.0
 30
0.0
 11
130.0209784999999
 21
329.0119999999999
 31
0.0
  0
LINE
  5
125
330
1E
100
AcDbEntity
  8
0
100
AcDbLine
 10
114.9449784999999
 20
308.0
 30
0.0
 11
127.1489784999999
 21
307.2
 31
0.0
  0
LINE
  5
126
330
1E
100
AcDbEntity
  8
0
100
AcDbLine
 10
159.1449784999999
 20
321.2079999999999
 30
0.0
 11
172.6949784999999
 21
314.526
 31
0.0
  0
LINE
  5
127
330
1E
100
AcDbEntity
  8
0
100
AcDbLine
 10
150.7259785
 20
300.8829999999999
 30
0.0
 11
161.6949784999999
 21
295.4729999999999
 31
0.0
  0
LINE
  5
128
330
1E
100
AcDbEntity
  8
0
100
AcDbLine
 10
185.2569785
 20
306.132
 30
0.0
 11
196.6159784999999
 21
296.171
 31
0.0
  0
LINE
  5
129
330
1E
100
AcDbEntity
  8
0
100
AcDbLine
 10
172.6949784999999
 20
314.526
 30
0.0
 11
185.2569785
 21
306.132
 31
0.0
  0
LINE
  5
12A
330
1E
100
AcDbEntity
  8
0
100
AcDbLine
 10
161.6949784999999
 20
295.4729999999999
 30
0.0
 11
171.8639785
 21
288.679
 31
0.0
  0
LINE
  5
12B
330
1E
100
AcDbEntity
  8
0
100
AcDbLine
 10
206.5769785
 20
284.812
 30
0.0
 11
214.9709785
 21
272.25
 31
0.0
  0
LINE
  5
12C
330
1E
100
AcDbEntity
  8
0
100
AcDbLine
 10
196.6159784999999
 20
296.171
 30
0.0
 11
206.5769785
 21
284.812
 31
0.0
  0
LINE
  5
12D
330
1E
100
AcDbEntity
  8
0
100
AcDbLine
 10
181.0589784999999
 20
280.614
 30
0.0
 11
189.1239784999999
 21
271.419
 31
0.0
  0
LINE
  5
12E
330
1E
100
AcDbEntity
  8
0
100
AcDbLine
 10
214.9709785
 20
272.25
 30
0.0
 11
221.6529785
 21
258.6999999999999
 31
0.0
  0
LINE
  5
12F
330
1E
100
AcDbEntity
  8
0
100
AcDbLine
 10
195.9179785
 20
261.25
 30
0.0
 11
201.3279784999999
 21
250.2809999999999
 31
0.0
  0
LINE
  5
130
330
1E
100
AcDbEntity
  8
0
100
AcDbLine
 10
221.6529785
 20
258.6999999999999
 30
0.0
 11
226.5089785
 21
244.394
 31
0.0
  0
LINE
  5
131
330
1E
100
AcDbEntity
  8
0
100
AcDbLine
 10
201.3279784999999
 20
250.2809999999999
 30
0.0
 11
205.2589784999999
 21
238.7
 31
0.0
  0
LINE
  5
132
330
1E
100
AcDbEntity
  8
0
100
AcDbLine
 10
226.5089785
 20
244.394
 30
0.0
 11
229.4569785
 21
229.576
 31
0.0
  0
LINE
  5
133
330
1E
100
AcDbEntity
  8
0
100
AcDbLine
 10
205.2589784999999
 20
238.7
 30
0.0
 11
207.6449784999999
 21
226.704
 31
0.0
  0
LINE
  5
134
330
1E
100
AcDbEntity
  8
0
100
AcDbLine
 10
229.4569785
 20
229.576
 30
0.0
 11
230.4449785
 21
214.5
 31
0.0
  0
LINE
  5
135
330
1E
100
AcDbEntity
  8
0
100
AcDbLine
 10
207.6449784999999
 20
226.704
 30
0.0
 11
208.4449784999999
 21
214.5
 31
0.0
  0
LINE
  5
136
330
1E
100
AcDbEntity
  8
0
100
AcDbLine
 10
23.0883785
 20
234.242
 30
0.0
 11
23.5460785
 21
233.958
 31
0.0
  0
LINE
  5
137
330
1E
100
AcDbEntity
  8
0
100
AcDbLine
 10
23.0883785
 20
234.242
 30
0.0
 11
23.6155785
 21
234.352
 31
0.0
  0
LINE
  5
138
330
1E
100
AcDbEntity
  8
0
100
AcDbLine
 10
10.8030785
 20
225.0359999999999
 30
0.0
 11
13.4620785
 21
224.567
 31
0.0
  0
LINE
  5
139
330
1E
100
AcDbEntity
  8
0
100
AcDbLine
 10
5.682078500000009
 20
225.939
 30
0.0
 11
8.1440985
 21
225.504
 31
0.0
  0
LINE
  5
13E
330
1E
100
AcDbEntity
  8
0
100
AcDbLine
 10
232.9409785
 20
79.58400000000001
 30
0.0
 11
233.4026614748231
 21
75.97339208698838
 31
0.0
  0
LINE
  5
13F
330
1E
100
AcDbEntity
  8
0
100
AcDbLine
 10
233.4026614748231
 20
75.97339208698838
 30
0.0
 11
232.8145874794163
 21
72.32974767756582
 31
0.0
  0
LINE
  5
140
330
1E
100
AcDbEntity
  8
0
100
AcDbLine
 10
232.8145874794163
 20
72.32974767756582
 30
0.0
 11
231.4620155201416
 21
69.09748290024004
 31
0.0
  0
LINE
  5
141
330
1E
100
AcDbEntity
  8
0
100
AcDbLine
 10
231.4620155201416
 20
69.09748290024004
 30
0.0
 11
229.3569785
 21
66.08800000000001
 31
0.0
  0
LINE
  5
142
330
1E
100
AcDbEntity
  8
0
100
AcDbLine
 10
219.4449785
 20
62.0
 30
0.0
 11
223.0289785
 21
62.50399999999999
 31
0.0
  0
LINE
  5
143
330
1E
100
AcDbEntity
  8
0
100
AcDbLine
 10
212.5009785
 20
63.848
 30
0.0
 11
209.5329784999999
 21
66.08800000000001
 31
0.0
  0
ENDSEC
  0
SECTION
  2
OBJECTS
  0
DICTIONARY
  5
C
330
0
100
AcDbDictionary
  3
ACAD_GROUP
350
D
  3
ACAD_LAYOUT
350
19
  3
ACAD_MLINESTYLE
350
16
  3
ACAD_PLOTSETTINGS
350
18
  3
ACAD_PLOTSTYLENAME
350
E
  3
ACDBHEADERROUNDTRIPXREC
350
147
  3
ACDBVARIABLEDICTIONARY
350
144
  0
DICTIONARY
  5
169
330
1E
100
AcDbDictionary
280
     1
  3
ACAD_LAYOUTSELFREF
360
16A
  0
DICTIONARY
  5
167
330
1A
100
AcDbDictionary
280
     1
  3
ACAD_LAYOUTSELFREF
360
168
  0
DICTIONARY
  5
D
102
{ACAD_REACTORS
330
C
102
}
330
C
100
AcDbDictionary
  0
DICTIONARY
  5
19
102
{ACAD_REACTORS
330
C
102
}
330
C
100
AcDbDictionary
  0
DICTIONARY
  5
16
102
{ACAD_REACTORS
330
C
102
}
330
C
100
AcDbDictionary
  3
STANDARD
350
17
  0
DICTIONARY
  5
18
102
{ACAD_REACTORS
330
C
102
}
330
C
100
AcDbDictionary
  0
ACDBDICTIONARYWDFLT
  5
E
102
{ACAD_REACTORS
330
C
102
}
330
C
100
AcDbDictionary
281
     1
  3
Normal
350
F
100
AcDbDictionaryWithDefault
340
F
  0
DICTIONARY
  5
147
102
{ACAD_REACTORS
330
C
102
}
330
C
100
AcDbDictionary
  3
CEPSNTYPE
350
151
  3
FINGERPRINTGUID
350
152
  3
HYPERLINKBASE
350
14A
  3
INSUNITS
350
150
  3
LAYOUTDICT
350
14C
  3
LWETCUNION
350
14F
  3
PLOTSETDICT
350
14D
  3
PLOTSTYLNAMDICT
350
14E
  3
PSVPSCALE
350
154
  3
PUCSBASE
350
157
  3
PUCSORGBACK
350
15D
  3
PUCSORGBOTTOM
350
159
  3
PUCSORGFRONT
350
15C
  3
PUCSORGLEFT
350
15A
  3
PUCSORGRIGHT
350
15B
  3
PUCSORGTOP
350
158
  3
PUCSORTHOREF
350
155
  3
PUCSORTHOVIEW
350
156
  3
STYLESHEET
350
14B
  3
TSTACKALIGN
350
148
  3
TSTACKSIZE
350
149
  3
UCSBASE
350
160
  3
UCSORGBACK
350
166
  3
UCSORGBOTTOM
350
162
  3
UCSORGFRONT
350
165
  3
UCSORGLEFT
350
163
  3
UCSORGRIGHT
350
164
  3
UCSORGTOP
350
161
  3
UCSORTHOREF
350
15E
  3
UCSORTHOVIEW
350
15F
  3
VERSIONGUID
350
153
  0
DICTIONARY
  5
144
102
{ACAD_REACTORS
330
C
102
}
330
C
100
AcDbDictionary
  3
DIMASSOC
350
145
  0
XRECORD
  5
16A
102
{ACAD_REACTORS
330
169
102
}
330
169
100
AcDbXrecord
340
1E
  0
XRECORD
  5
168
102
{ACAD_REACTORS
330
167
102
}
330
167
100
AcDbXrecord
340
1A
  0
MLINESTYLE
  5
17
102
{ACAD_REACTORS
330
16
102
}
330
16
100
AcDbMlineStyle
  2
STANDARD
 70
     0
  3

 62
   256
 51
90.0
 52
90.0
 71
     2
 49
0.5
 62
   256
  6
BYLAYER
 49
-0.5
 62
   256
  6
BYLAYER
  0
ACDBPLACEHOLDER
  5
F
102
{ACAD_REACTORS
330
E
102
}
330
E
100
AcDbPlaceHolder
280
     0
  0
XRECORD
  5
151
102
{ACAD_REACTORS
330
147
102
}
330
147
100
AcDbXrecord
 90
        0
  0
XRECORD
  5
152
102
{ACAD_REACTORS
330
147
102
}
330
147
100
AcDbXrecord
  1
{9649ED1A-EAAB-43A9-81D9-41AC47057D68}
  0
XRECORD
  5
14A
102
{ACAD_REACTORS
330
147
102
}
330
147
100
AcDbXrecord
  1

  0
XRECORD
  5
150
102
{ACAD_REACTORS
330
147
102
}
330
147
100
AcDbXrecord
 90
        0
  0
XRECORD
  5
14C
102
{ACAD_REACTORS
330
147
102
}
330
147
100
AcDbXrecord
340
19
  0
XRECORD
  5
14F
102
{ACAD_REACTORS
330
147
102
}
330
147
100
AcDbXrecord
 90
    10781
  0
XRECORD
  5
14D
102
{ACAD_REACTORS
330
147
102
}
330
147
100
AcDbXrecord
340
18
  0
XRECORD
  5
14E
102
{ACAD_REACTORS
330
147
102
}
330
147
100
AcDbXrecord
340
E
  0
XRECORD
  5
154
102
{ACAD_REACTORS
330
147
102
}
330
147
100
AcDbXrecord
 40
0.0
  0
XRECORD
  5
157
102
{ACAD_REACTORS
330
147
102
}
330
147
100
AcDbXrecord
340
0
  0
XRECORD
  5
15D
102
{ACAD_REACTORS
330
147
102
}
330
147
100
AcDbXrecord
 10
0.0
 20
0.0
 30
0.0
  0
XRECORD
  5
159
102
{ACAD_REACTORS
330
147
102
}
330
147
100
AcDbXrecord
 10
0.0
 20
0.0
 30
0.0
  0
XRECORD
  5
15C
102
{ACAD_REACTORS
330
147
102
}
330
147
100
AcDbXrecord
 10
0.0
 20
0.0
 30
0.0
  0
XRECORD
  5
15A
102
{ACAD_REACTORS
330
147
102
}
330
147
100
AcDbXrecord
 10
0.0
 20
0.0
 30
0.0
  0
XRECORD
  5
15B
102
{ACAD_REACTORS
330
147
102
}
330
147
100
AcDbXrecord
 10
0.0
 20
0.0
 30
0.0
  0
XRECORD
  5
158
102
{ACAD_REACTORS
330
147
102
}
330
147
100
AcDbXrecord
 10
0.0
 20
0.0
 30
0.0
  0
XRECORD
  5
155
102
{ACAD_REACTORS
330
147
102
}
330
147
100
AcDbXrecord
340
0
  0
XRECORD
  5
156
102
{ACAD_REACTORS
330
147
102
}
330
147
100
AcDbXrecord
 70
     0
  0
XRECORD
  5
14B
102
{ACAD_REACTORS
330
147
102
}
330
147
100
AcDbXrecord
  1

  0
XRECORD
  5
148
102
{ACAD_REACTORS
330
147
102
}
330
147
100
AcDbXrecord
 90
        1
  0
XRECORD
  5
149
102
{ACAD_REACTORS
330
147
102
}
330
147
100
AcDbXrecord
 90
       70
  0
XRECORD
  5
160
102
{ACAD_REACTORS
330
147
102
}
330
147
100
AcDbXrecord
340
0
  0
XRECORD
  5
166
102
{ACAD_REACTORS
330
147
102
}
330
147
100
AcDbXrecord
 10
0.0
 20
0.0
 30
0.0
  0
XRECORD
  5
162
102
{ACAD_REACTORS
330
147
102
}
330
147
100
AcDbXrecord
 10
0.0
 20
0.0
 30
0.0
  0
XRECORD
  5
165
102
{ACAD_REACTORS
330
147
102
}
330
147
100
AcDbXrecord
 10
0.0
 20
0.0
 30
0.0
  0
XRECORD
  5
163
102
{ACAD_REACTORS
330
147
102
}
330
147
100
AcDbXrecord
 10
0.0
 20
0.0
 30
0.0
  0
XRECORD
  5
164
102
{ACAD_REACTORS
330
147
102
}
330
147
100
AcDbXrecord
 10
0.0
 20
0.0
 30
0.0
  0
XRECORD
  5
161
102
{ACAD_REACTORS
330
147
102
}
330
147
100
AcDbXrecord
 10
0.0
 20
0.0
 30
0.0
  0
XRECORD
  5
15E
102
{ACAD_REACTORS
330
147
102
}
330
147
100
AcDbXrecord
340
0
  0
XRECORD
  5
15F
102
{ACAD_REACTORS
330
147
102
}
330
147
100
AcDbXrecord
 70
     1
  0
XRECORD
  5
153
102
{ACAD_REACTORS
330
147
102
}
330
147
100
AcDbXrecord
  1
{A01D0805-E159-4E9F-AA33-1876ADB60C3C}
  0
DICTIONARYVAR
  5
145
102
{ACAD_REACTORS
330
144
102
}
330
144
100
DictionaryVariables
280
     0
  1
1
  0
ENDSEC
  0
EOF
