  0
SECTION
  2
HEADER
  9
$ACADVER
  1
AC1015
  9
$ACADMAINTVER
 70
    13
  9
$DWGCODEPAGE
  3
ANSI_1252
  9
$INSBASE
 10
0.0
 20
0.0
 30
0.0
  9
$EXTMIN
 10
0.250000000000003
 20
-0.0014549999999167
 30
0.0
  9
$EXTMAX
 10
285.7499999999999
 20
406.0014549999999
 30
0.0
  9
$LIMMIN
 10
0.0
 20
0.0
  9
$LIMMAX
 10
12.0
 20
9.0
  9
$ORTHOMODE
 70
     0
  9
$REGENMODE
 70
     1
  9
$FILLMODE
 70
     1
  9
$QTEXTMODE
 70
     0
  9
$MIRRTEXT
 70
     1
  9
$LTSCALE
 40
1.0
  9
$ATTMODE
 70
     1
  9
$TEXTSIZE
 40
0.2
  9
$TRACEWID
 40
0.05
  9
$TEXTSTYLE
  7
Standard
  9
$CLAYER
  8
0
  9
$CELTYPE
  6
Continuous
  9
$CECOLOR
 62
   256
  9
$CELTSCALE
 40
1.0
  9
$DISPSILH
 70
     0
  9
$DIMSCALE
 40
1.0
  9
$DIMASZ
 40
0.18
  9
$DIMEXO
 40
0.0625
  9
$DIMDLI
 40
0.38
  9
$DIMRND
 40
0.0
  9
$DIMDLE
 40
0.0
  9
$DIMEXE
 40
0.18
  9
$DIMTP
 40
0.0
  9
$DIMTM
 40
0.0
  9
$DIMTXT
 40
0.18
  9
$DIMCEN
 40
0.09
  9
$DIMTSZ
 40
0.0
  9
$DIMTOL
 70
     0
  9
$DIMLIM
 70
     0
  9
$DIMTIH
 70
     1
  9
$DIMTOH
 70
     1
  9
$DIMSE1
 70
     0
  9
$DIMSE2
 70
     0
  9
$DIMTAD
 70
     0
  9
$DIMZIN
 70
     0
  9
$DIMBLK
  1

  9
$DIMASO
 70
     1
  9
$DIMSHO
 70
     1
  9
$DIMPOST
  1

  9
$DIMAPOST
  1

  9
$DIMALT
 70
     0
  9
$DIMALTD
 70
     2
  9
$DIMALTF
 40
25.4
  9
$DIMLFAC
 40
1.0
  9
$DIMTOFL
 70
     0
  9
$DIMTVP
 40
0.0
  9
$DIMTIX
 70
     0
  9
$DIMSOXD
 70
     0
  9
$DIMSAH
 70
     0
  9
$DIMBLK1
  1

  9
$DIMBLK2
  1

  9
$DIMSTYLE
  2
Standard
  9
$DIMCLRD
 70
     0
  9
$DIMCLRE
 70
     0
  9
$DIMCLRT
 70
     0
  9
$DIMTFAC
 40
1.0
  9
$DIMGAP
 40
0.09
  9
$DIMJUST
 70
     0
  9
$DIMSD1
 70
     0
  9
$DIMSD2
 70
     0
  9
$DIMTOLJ
 70
     1
  9
$DIMTZIN
 70
     0
  9
$DIMALTZ
 70
     0
  9
$DIMALTTZ
 70
     0
  9
$DIMUPT
 70
     0
  9
$DIMDEC
 70
     4
  9
$DIMTDEC
 70
     4
  9
$DIMALTU
 70
     2
  9
$DIMALTTD
 70
     2
  9
$DIMTXSTY
  7
Standard
  9
$DIMAUNIT
 70
     0
  9
$DIMADEC
 70
     0
  9
$DIMALTRND
 40
0.0
  9
$DIMAZIN
 70
     0
  9
$DIMDSEP
 70
    46
  9
$DIMATFIT
 70
     3
  9
$DIMFRAC
 70
     0
  9
$DIMLDRBLK
  1

  9
$DIMLUNIT
 70
     2
  9
$DIMLWD
 70
    -2
  9
$DIMLWE
 70
    -2
  9
$DIMTMOVE
 70
     0
  9
$LUNITS
 70
     2
  9
$LUPREC
 70
     4
  9
$SKETCHINC
 40
0.1
  9
$FILLETRAD
 40
0.0
  9
$AUNITS
 70
     0
  9
$AUPREC
 70
     0
  9
$MENU
  1
.
  9
$ELEVATION
 40
0.0
  9
$PELEVATION
 40
0.0
  9
$THICKNESS
 40
0.0
  9
$LIMCHECK
 70
     0
  9
$CHAMFERA
 40
0.0
  9
$CHAMFERB
 40
0.0
  9
$CHAMFERC
 40
0.0
  9
$CHAMFERD
 40
0.0
  9
$SKPOLY
 70
     0
  9
$TDCREATE
 40
2455321.426544051
  9
$TDUCREATE
 40
2455321.343210717
  9
$TDUPDATE
 40
2455321.440445058
  9
$TDUUPDATE
 40
2455321.357111724
  9
$TDINDWG
 40
0.0139010069
  9
$TDUSRTIMER
 40
0.0139010069
  9
$USRTIMER
 70
     1
  9
$ANGBASE
 50
0.0
  9
$ANGDIR
 70
     0
  9
$PDMODE
 70
     0
  9
$PDSIZE
 40
0.0
  9
$PLINEWID
 40
0.0
  9
$SPLFRAME
 70
     0
  9
$SPLINETYPE
 70
     6
  9
$SPLINESEGS
 70
     8
  9
$HANDSEED
  5
645
  9
$SURFTAB1
 70
     6
  9
$SURFTAB2
 70
     6
  9
$SURFTYPE
 70
     6
  9
$SURFU
 70
     6
  9
$SURFV
 70
     6
  9
$UCSBASE
  2

  9
$UCSNAME
  2

  9
$UCSORG
 10
0.0
 20
0.0
 30
0.0
  9
$UCSXDIR
 10
1.0
 20
0.0
 30
0.0
  9
$UCSYDIR
 10
0.0
 20
1.0
 30
0.0
  9
$UCSORTHOREF
  2

  9
$UCSORTHOVIEW
 70
     1
  9
$UCSORGTOP
 10
0.0
 20
0.0
 30
0.0
  9
$UCSORGBOTTOM
 10
0.0
 20
0.0
 30
0.0
  9
$UCSORGLEFT
 10
0.0
 20
0.0
 30
0.0
  9
$UCSORGRIGHT
 10
0.0
 20
0.0
 30
0.0
  9
$UCSORGFRONT
 10
0.0
 20
0.0
 30
0.0
  9
$UCSORGBACK
 10
0.0
 20
0.0
 30
0.0
  9
$PUCSBASE
  2

  9
$PUCSNAME
  2

  9
$PUCSORG
 10
0.0
 20
0.0
 30
0.0
  9
$PUCSXDIR
 10
1.0
 20
0.0
 30
0.0
  9
$PUCSYDIR
 10
0.0
 20
1.0
 30
0.0
  9
$PUCSORTHOREF
  2

  9
$PUCSORTHOVIEW
 70
     0
  9
$PUCSORGTOP
 10
0.0
 20
0.0
 30
0.0
  9
$PUCSORGBOTTOM
 10
0.0
 20
0.0
 30
0.0
  9
$PUCSORGLEFT
 10
0.0
 20
0.0
 30
0.0
  9
$PUCSORGRIGHT
 10
0.0
 20
0.0
 30
0.0
  9
$PUCSORGFRONT
 10
0.0
 20
0.0
 30
0.0
  9
$PUCSORGBACK
 10
0.0
 20
0.0
 30
0.0
  9
$USERI1
 70
     0
  9
$USERI2
 70
     0
  9
$USERI3
 70
     0
  9
$USERI4
 70
     0
  9
$USERI5
 70
     0
  9
$USERR1
 40
0.0
  9
$USERR2
 40
0.0
  9
$USERR3
 40
0.0
  9
$USERR4
 40
0.0
  9
$USERR5
 40
0.0
  9
$WORLDVIEW
 70
     1
  9
$SHADEDGE
 70
     3
  9
$SHADEDIF
 70
    70
  9
$TILEMODE
 70
     1
  9
$MAXACTVP
 70
    64
  9
$PINSBASE
 10
0.0
 20
0.0
 30
0.0
  9
$PLIMCHECK
 70
     0
  9
$PEXTMIN
 10
1.000000000000000E+20
 20
1.000000000000000E+20
 30
1.000000000000000E+20
  9
$PEXTMAX
 10
-1.000000000000000E+20
 20
-1.000000000000000E+20
 30
-1.000000000000000E+20
  9
$PLIMMIN
 10
0.0
 20
0.0
  9
$PLIMMAX
 10
12.0
 20
9.0
  9
$UNITMODE
 70
     0
  9
$VISRETAIN
 70
     1
  9
$PLINEGEN
 70
     0
  9
$PSLTSCALE
 70
     1
  9
$TREEDEPTH
 70
  3020
  9
$CMLSTYLE
  2
Standard
  9
$CMLJUST
 70
     0
  9
$CMLSCALE
 40
1.0
  9
$PROXYGRAPHICS
 70
     1
  9
$MEASUREMENT
 70
     0
  9
$CELWEIGHT
370
    -1
  9
$ENDCAPS
280
     0
  9
$JOINSTYLE
280
     0
  9
$LWDISPLAY
290
     0
  9
$INSUNITS
 70
     0
  9
$HYPERLINKBASE
  1

  9
$STYLESHEET
  1

  9
$XEDIT
290
     1
  9
$CEPSNTYPE
380
     0
  9
$PSTYLEMODE
290
     1
  9
$FINGERPRINTGUID
  2
{576CD9FD-F222-44CD-AB01-9B5849305264}
  9
$VERSIONGUID
  2
{FE00FF63-59D4-4E9D-B269-FA7CA8DA20D8}
  9
$EXTNAMES
290
     1
  9
$PSVPSCALE
 40
0.0
  9
$OLESTARTUP
290
     0
  0
ENDSEC
  0
SECTION
  2
CLASSES
  0
CLASS
  1
ACDBDICTIONARYWDFLT
  2
AcDbDictionaryWithDefault
  3
AutoCAD 2000
 90
        0
280
     0
281
     0
  0
CLASS
  1
ACDBPLACEHOLDER
  2
AcDbPlaceHolder
  3
AutoCAD 2000
 90
        0
280
     0
281
     0
  0
CLASS
  1
LAYOUT
  2
AcDbLayout
  3
AutoCAD 2000
 90
        0
280
     0
281
     0
  0
CLASS
  1
DICTIONARYVAR
  2
AcDbDictionaryVar
  3
AutoCAD 2000
 90
        0
280
     0
281
     0
  0
ENDSEC
  0
SECTION
  2
TABLES
  0
TABLE
  2
VPORT
  5
8
330
0
100
AcDbSymbolTable
 70
     3
  0
VPORT
  5
644
330
8
100
AcDbSymbolTableRecord
100
AcDbViewportTableRecord
  2
*Active
 70
     0
 10
0.0
 20
0.0
 11
1.0
 21
1.0
 12
143.0
 22
203.0
 13
0.0
 23
0.0
 14
1.0
 24
1.0
 15
0.0
 25
0.0
 16
0.0
 26
0.0
 36
1.0
 17
0.0
 27
0.0
 37
0.0
 40
408.6681369803062
 41
2.041621029572836
 42
50.0
 43
0.0
 44
0.0
 50
0.0
 51
0.0
 71
     0
 72
   100
 73
     1
 74
     3
 75
     0
 76
     0
 77
     0
 78
     0
281
     0
 65
     1
110
0.0
120
0.0
130
0.0
111
1.0
121
0.0
131
0.0
112
0.0
122
1.0
132
0.0
 79
     1
146
0.0
  0
ENDTAB
  0
TABLE
  2
LTYPE
  5
5
330
0
100
AcDbSymbolTable
 70
     1
  0
LTYPE
  5
13
330
5
100
AcDbSymbolTableRecord
100
AcDbLinetypeTableRecord
  2
ByBlock
 70
     0
  3

 72
    65
 73
     0
 40
0.0
  0
LTYPE
  5
14
330
5
100
AcDbSymbolTableRecord
100
AcDbLinetypeTableRecord
  2
ByLayer
 70
     0
  3

 72
    65
 73
     0
 40
0.0
  0
LTYPE
  5
15
330
5
100
AcDbSymbolTableRecord
100
AcDbLinetypeTableRecord
  2
Continuous
 70
     0
  3
Solid line
 72
    65
 73
     0
 40
0.0
  0
ENDTAB
  0
TABLE
  2
LAYER
  5
2
330
0
100
AcDbSymbolTable
 70
     1
  0
LAYER
  5
10
330
2
100
AcDbSymbolTableRecord
100
AcDbLayerTableRecord
  2
0
 70
     0
 62
     7
  6
Continuous
370
    -3
390
F
  0
ENDTAB
  0
TABLE
  2
STYLE
  5
3
330
0
100
AcDbSymbolTable
 70
     1
  0
STYLE
  5
11
330
3
100
AcDbSymbolTableRecord
100
AcDbTextStyleTableRecord
  2
Standard
 70
     0
 40
0.0
 41
1.0
 50
0.0
 71
     0
 42
0.2
  3
txt
  4

  0
ENDTAB
  0
TABLE
  2
VIEW
  5
6
330
0
100
AcDbSymbolTable
 70
     0
  0
ENDTAB
  0
TABLE
  2
UCS
  5
7
330
0
100
AcDbSymbolTable
 70
     0
  0
ENDTAB
  0
TABLE
  2
APPID
  5
9
330
0
100
AcDbSymbolTable
 70
     1
  0
APPID
  5
12
330
9
100
AcDbSymbolTableRecord
100
AcDbRegAppTableRecord
  2
ACAD
 70
     0
  0
ENDTAB
  0
TABLE
  2
DIMSTYLE
  5
A
330
0
100
AcDbSymbolTable
 70
     1
100
AcDbDimStyleTable
 71
     0
  0
DIMSTYLE
105
630
330
A
100
AcDbSymbolTableRecord
100
AcDbDimStyleTableRecord
  2
Standard
 70
     0
340
11
  0
ENDTAB
  0
TABLE
  2
BLOCK_RECORD
  5
1
330
0
100
AcDbSymbolTable
 70
     0
  0
BLOCK_RECORD
  5
1E
330
1
100
AcDbSymbolTableRecord
100
AcDbBlockTableRecord
  2
*Model_Space
340
21
  0
BLOCK_RECORD
  5
1A
330
1
100
AcDbSymbolTableRecord
100
AcDbBlockTableRecord
  2
*Paper_Space
340
1D
  0
ENDTAB
  0
ENDSEC
  0
SECTION
  2
BLOCKS
  0
BLOCK
  5
1F
330
1E
100
AcDbEntity
  8
0
100
AcDbBlockBegin
  2
*Model_Space
 70
     0
 10
0.0
 20
0.0
 30
0.0
  3
*Model_Space
  1

  0
ENDBLK
  5
20
330
1E
100
AcDbEntity
  8
0
100
AcDbBlockEnd
  0
BLOCK
  5
1B
330
1A
100
AcDbEntity
 67
     1
  8
0
100
AcDbBlockBegin
  2
*Paper_Space
 70
     0
 10
0.0
 20
0.0
 30
0.0
  3
*Paper_Space
  1

  0
ENDBLK
  5
1C
330
1A
100
AcDbEntity
 67
     1
  8
0
100
AcDbBlockEnd
  0
ENDSEC
  0
SECTION
  2
ENTITIES
  0
LINE
  5
22
330
1E
100
AcDbEntity
  8
0
100
AcDbLine
 10
34.25
 20
13.22485500000009
 30
0.0
 11
34.42928
 21
11.8740550000001
 31
0.0
  0
LINE
  5
23
330
1E
100
AcDbEntity
  8
0
100
AcDbLine
 10
36.83964
 20
3.080055000000079
 30
0.0
 11
38.23406
 21
2.37841500000008
 31
0.0
  0
LINE
  5
24
330
1E
100
AcDbEntity
  8
0
100
AcDbLine
 10
38.23406
 20
2.37841500000008
 30
0.0
 11
39.68824
 21
1.92232500000008
 31
0.0
  0
LINE
  5
25
330
1E
100
AcDbEntity
  8
0
100
AcDbLine
 10
39.68824
 20
1.92232500000008
 30
0.0
 11
41.22209
 21
1.76444500000008
 31
0.0
  0
LINE
  5
26
330
1E
100
AcDbEntity
  8
0
100
AcDbLine
 10
41.22209
 20
1.76444500000008
 30
0.0
 11
159.25
 21
-0.0014549999999167
 31
0.0
  0
LINE
  5
27
330
1E
100
AcDbEntity
  8
0
100
AcDbLine
 10
35.74402
 20
4.04485500000008
 30
0.0
 11
36.83964
 21
3.080055000000079
 31
0.0
  0
LINE
  5
28
330
1E
100
AcDbEntity
  8
0
100
AcDbLine
 10
34.94721
 20
5.272855000000079
 30
0.0
 11
35.74402
 21
4.04485500000008
 31
0.0
  0
LINE
  5
29
330
1E
100
AcDbEntity
  8
0
100
AcDbLine
 10
36.83964
 20
8.40075500000008
 30
0.0
 11
38.23406
 21
7.699055000000079
 31
0.0
  0
LINE
  5
2A
330
1E
100
AcDbEntity
  8
0
100
AcDbLine
 10
38.23406
 20
7.699055000000079
 30
0.0
 11
39.68824
 21
7.24295500000008
 31
0.0
  0
LINE
  5
2B
330
1E
100
AcDbEntity
  8
0
100
AcDbLine
 10
39.68824
 20
7.24295500000008
 30
0.0
 11
41.22209
 21
7.08515500000008
 31
0.0
  0
LINE
  5
2C
330
1E
100
AcDbEntity
  8
0
100
AcDbLine
 10
41.22209
 20
7.08515500000008
 30
0.0
 11
159.25
 21
5.31925500000008
 31
0.0
  0
LINE
  5
2D
330
1E
100
AcDbEntity
  8
0
100
AcDbLine
 10
35.74402
 20
9.36555500000008
 30
0.0
 11
36.83964
 21
8.40075500000008
 31
0.0
  0
LINE
  5
2E
330
1E
100
AcDbEntity
  8
0
100
AcDbLine
 10
34.94721
 20
10.5935550000001
 30
0.0
 11
35.74402
 21
9.36555500000008
 31
0.0
  0
LINE
  5
2F
330
1E
100
AcDbEntity
  8
0
100
AcDbLine
 10
34.42928
 20
11.8740550000001
 30
0.0
 11
34.94721
 21
10.5935550000001
 31
0.0
  0
LINE
  5
30
330
1E
100
AcDbEntity
  8
0
100
AcDbLine
 10
34.42928
 20
6.553455000000079
 30
0.0
 11
34.94721
 21
5.272855000000079
 31
0.0
  0
LINE
  5
31
330
1E
100
AcDbEntity
  8
0
100
AcDbLine
 10
34.25
 20
7.90415500000008
 30
0.0
 11
34.42928
 21
6.553455000000079
 31
0.0
  0
LINE
  5
34
330
1E
100
AcDbEntity
  8
0
100
AcDbLine
 10
4.674999999999999
 20
242.4094549999999
 30
0.0
 11
6.099999999999999
 21
241.1614549999999
 31
0.0
  0
LINE
  5
37
330
1E
100
AcDbEntity
  8
0
100
AcDbLine
 10
6.099999999999999
 20
241.1614549999999
 30
0.0
 11
7.75
 21
240.060455
 31
0.0
  0
LINE
  5
38
330
1E
100
AcDbEntity
  8
0
100
AcDbLine
 10
7.75
 20
240.060455
 30
0.0
 11
9.55
 21
239.2524549999999
 31
0.0
  0
LINE
  5
3C
330
1E
100
AcDbEntity
  8
0
100
AcDbLine
 10
9.55
 20
239.2524549999999
 30
0.0
 11
11.35
 21
238.5924549999999
 31
0.0
  0
LINE
  5
3D
330
1E
100
AcDbEntity
  8
0
100
AcDbLine
 10
11.35
 20
238.5924549999999
 30
0.0
 11
13.3
 21
238.2254549999999
 31
0.0
  0
LINE
  5
3E
330
1E
100
AcDbEntity
  8
0
100
AcDbLine
 10
15.25
 20
238.0784549999999
 30
0.0
 11
63.75
 21
238.0784549999999
 31
0.0
  0
LINE
  5
42
330
1E
100
AcDbEntity
  8
0
100
AcDbLine
 10
13.3
 20
238.2254549999999
 30
0.0
 11
15.25
 21
238.0784549999999
 31
0.0
  0
LINE
  5
45
330
1E
100
AcDbEntity
  8
0
100
AcDbLine
 10
3.399999999999999
 20
243.8044549999999
 30
0.0
 11
4.674999999999999
 21
242.4094549999999
 31
0.0
  0
LINE
  5
46
330
1E
100
AcDbEntity
  8
0
100
AcDbLine
 10
2.274999999999999
 20
245.4184549999999
 30
0.0
 11
3.399999999999999
 21
243.8044549999999
 31
0.0
  0
LINE
  5
49
330
1E
100
AcDbEntity
  8
0
100
AcDbLine
 10
0.7750000000000059
 20
248.9424549999999
 30
0.0
 11
1.45
 21
247.1804549999999
 31
0.0
  0
LINE
  5
4A
330
1E
100
AcDbEntity
  8
0
100
AcDbLine
 10
0.400000000000009
 20
250.850455
 30
0.0
 11
0.7750000000000059
 21
248.9424549999999
 31
0.0
  0
LINE
  5
4B
330
1E
100
AcDbEntity
  8
0
100
AcDbLine
 10
32.75
 20
67.9855550000001
 30
0.0
 11
34.25
 21
7.90415500000008
 31
0.0
  0
LINE
  5
4C
330
1E
100
AcDbEntity
  8
0
100
AcDbLine
 10
36.83964
 20
138.211455
 30
0.0
 11
38.23406
 21
138.913455
 31
0.0
  0
LINE
  5
4D
330
1E
100
AcDbEntity
  8
0
100
AcDbLine
 10
38.23406
 20
138.913455
 30
0.0
 11
39.68824
 21
139.369455
 31
0.0
  0
LINE
  5
4E
330
1E
100
AcDbEntity
  8
0
100
AcDbLine
 10
39.68824
 20
139.369455
 30
0.0
 11
41.22209
 21
139.527455
 31
0.0
  0
LINE
  5
4F
330
1E
100
AcDbEntity
  8
0
100
AcDbLine
 10
63.75
 20
238.0784549999999
 30
0.0
 11
114.2
 21
238.2254549999999
 31
0.0
  0
LINE
  5
50
330
1E
100
AcDbEntity
  8
0
100
AcDbLine
 10
114.2
 20
238.2254549999999
 30
0.0
 11
116.1499999999999
 21
238.5924549999999
 31
0.0
  0
LINE
  5
56
330
1E
100
AcDbEntity
  8
0
100
AcDbLine
 10
124.0999999999999
 20
243.8044549999999
 30
0.0
 11
125.2249999999999
 21
245.4184549999999
 31
0.0
  0
LINE
  5
61
330
1E
100
AcDbEntity
  8
0
100
AcDbLine
 10
41.22209
 20
139.527455
 30
0.0
 11
136.25
 21
140.949316058626
 31
0.0
  0
LINE
  5
62
330
1E
100
AcDbEntity
  8
0
100
AcDbLine
 10
35.74402
 20
137.2464549999999
 30
0.0
 11
36.83964
 21
138.211455
 31
0.0
  0
LINE
  5
63
330
1E
100
AcDbEntity
  8
0
100
AcDbLine
 10
34.94721
 20
136.018455
 30
0.0
 11
35.74402
 21
137.2464549999999
 31
0.0
  0
LINE
  5
64
330
1E
100
AcDbEntity
  8
0
100
AcDbLine
 10
34.42928
 20
134.738455
 30
0.0
 11
34.94721
 21
136.018455
 31
0.0
  0
LINE
  5
65
330
1E
100
AcDbEntity
  8
0
100
AcDbLine
 10
34.25
 20
133.387455
 30
0.0
 11
34.42928
 21
134.738455
 31
0.0
  0
LINE
  5
66
330
1E
100
AcDbEntity
  8
0
100
AcDbLine
 10
32.75
 20
73.30615500000009
 30
0.0
 11
34.25
 21
13.22485500000009
 31
0.0
  0
LINE
  5
67
330
1E
100
AcDbEntity
  8
0
100
AcDbLine
 10
32.75
 20
73.30615500000009
 30
0.0
 11
34.25
 21
13.22485500000009
 31
0.0
  0
LINE
  5
68
330
1E
100
AcDbEntity
  8
0
100
AcDbLine
 10
32.75
 20
73.30615500000009
 30
0.0
 11
34.25
 21
133.387455
 31
0.0
  0
LINE
  5
69
330
1E
100
AcDbEntity
  8
0
100
AcDbLine
 10
32.75
 20
73.30615500000009
 30
0.0
 11
32.75
 21
67.9855550000001
 31
0.0
  0
LINE
  5
6A
330
1E
100
AcDbEntity
  8
0
100
AcDbLine
 10
32.75
 20
67.9855550000001
 30
0.0
 11
34.25
 21
7.90415500000008
 31
0.0
  0
LINE
  5
6B
330
1E
100
AcDbEntity
  8
0
100
AcDbLine
 10
32.75
 20
67.9855550000001
 30
0.0
 11
32.75
 21
73.30615500000009
 31
0.0
  0
LINE
  5
6C
330
1E
100
AcDbEntity
  8
0
100
AcDbLine
 10
136.25
 20
97.1894550000001
 30
0.0
 11
136.26
 21
95.19745500000009
 31
0.0
  0
LINE
  5
6D
330
1E
100
AcDbEntity
  8
0
100
AcDbLine
 10
136.25
 20
97.1894550000001
 30
0.0
 11
136.25
 21
97.68945500000009
 31
0.0
  0
LINE
  5
6E
330
1E
100
AcDbEntity
  8
0
100
AcDbLine
 10
136.25
 20
233.4594549999999
 30
0.0
 11
136.25
 21
233.882455
 31
0.0
  0
LINE
  5
6F
330
1E
100
AcDbEntity
  8
0
100
AcDbLine
 10
136.25
 20
233.882455
 30
0.0
 11
136.25
 21
238.709455
 31
0.0
  0
LINE
  5
70
330
1E
100
AcDbEntity
  8
0
100
AcDbLine
 10
136.25
 20
233.882455
 30
0.0
 11
136.25
 21
97.68945500000009
 31
0.0
  0
LINE
  5
71
330
1E
100
AcDbEntity
  8
0
100
AcDbLine
 10
136.25
 20
247.6454549999999
 30
0.0
 11
136.25
 21
251.0104549999999
 31
0.0
  0
LINE
  5
72
330
1E
100
AcDbEntity
  8
0
100
AcDbLine
 10
136.25
 20
243.5924549999999
 30
0.0
 11
136.25
 21
247.6454549999999
 31
0.0
  0
LINE
  5
73
330
1E
100
AcDbEntity
  8
0
100
AcDbLine
 10
136.25
 20
240.9674549999999
 30
0.0
 11
136.25
 21
243.5924549999999
 31
0.0
  0
LINE
  5
74
330
1E
100
AcDbEntity
  8
0
100
AcDbLine
 10
136.25
 20
238.709455
 30
0.0
 11
136.25
 21
240.9674549999999
 31
0.0
  0
LINE
  5
75
330
1E
100
AcDbEntity
  8
0
100
AcDbLine
 10
136.25
 20
97.68945500000009
 30
0.0
 11
136.25
 21
233.882455
 31
0.0
  0
LINE
  5
76
330
1E
100
AcDbEntity
  8
0
100
AcDbLine
 10
136.25
 20
97.68945500000009
 30
0.0
 11
136.25
 21
97.1894550000001
 31
0.0
  0
LINE
  5
77
330
1E
100
AcDbEntity
  8
0
100
AcDbLine
 10
136.26
 20
95.19745500000009
 30
0.0
 11
136.3
 21
92.5124550000001
 31
0.0
  0
LINE
  5
78
330
1E
100
AcDbEntity
  8
0
100
AcDbLine
 10
136.3
 20
92.5124550000001
 30
0.0
 11
136.4
 21
89.39475500000009
 31
0.0
  0
LINE
  5
79
330
1E
100
AcDbEntity
  8
0
100
AcDbLine
 10
136.4
 20
89.39475500000009
 30
0.0
 11
136.5999999999999
 21
86.79675500000008
 31
0.0
  0
LINE
  5
7A
330
1E
100
AcDbEntity
  8
0
100
AcDbLine
 10
147.9219999999999
 20
72.4469550000001
 30
0.0
 11
151.3139999999999
 21
70.1868550000001
 31
0.0
  0
LINE
  5
7B
330
1E
100
AcDbEntity
  8
0
100
AcDbLine
 10
145.3619999999999
 20
75.4417550000001
 30
0.0
 11
147.9219999999999
 21
72.4469550000001
 31
0.0
  0
LINE
  5
7C
330
1E
100
AcDbEntity
  8
0
100
AcDbLine
 10
145.3619999999999
 20
75.84495500000009
 30
0.0
 11
147.9219999999999
 21
72.8491550000001
 31
0.0
  0
LINE
  5
7D
330
1E
100
AcDbEntity
  8
0
100
AcDbLine
 10
147.9219999999999
 20
72.8491550000001
 30
0.0
 11
151.3139999999999
 21
70.58895500000009
 31
0.0
  0
LINE
  5
7F
330
1E
100
AcDbEntity
  8
0
100
AcDbLine
 10
148.702300898945
 20
76.1527151144473
 30
0.0
 11
151.3139999999999
 21
74.41245500000009
 31
0.0
  0
LINE
  5
80
330
1E
100
AcDbEntity
  8
0
100
AcDbLine
 10
146.028
 20
76.55115500000009
 30
0.0
 11
148.2029999999999
 21
76.2003550000001
 31
0.0
  0
LINE
  5
81
330
1E
100
AcDbEntity
  8
0
100
AcDbLine
 10
148.2029999999999
 20
76.2003550000001
 30
0.0
 11
150.9499999999999
 21
75.9382550000001
 31
0.0
  0
LINE
  5
82
330
1E
100
AcDbEntity
  8
0
100
AcDbLine
 10
151.3139999999999
 20
70.1868550000001
 30
0.0
 11
155.1539999999999
 21
68.83075500000011
 31
0.0
  0
LINE
  5
83
330
1E
100
AcDbEntity
  8
0
100
AcDbLine
 10
151.3139999999999
 20
70.58895500000009
 30
0.0
 11
155.1539999999999
 21
69.2328550000001
 31
0.0
  0
LINE
  5
85
330
1E
100
AcDbEntity
  8
0
100
AcDbLine
 10
151.3139999999999
 20
74.41245500000009
 30
0.0
 11
155.1539999999999
 21
73.05535500000009
 31
0.0
  0
LINE
  5
86
330
1E
100
AcDbEntity
  8
0
100
AcDbLine
 10
150.9499999999999
 20
75.9382550000001
 30
0.0
 11
154.2229999999999
 21
75.71585500000009
 31
0.0
  0
LINE
  5
87
330
1E
100
AcDbEntity
  8
0
100
AcDbLine
 10
144.750983118426
 20
76.7908054885947
 30
0.0
 11
145.3619999999999
 21
75.4417550000001
 31
0.0
  0
LINE
  5
88
330
1E
100
AcDbEntity
  8
0
100
AcDbLine
 10
144.9504201033289
 20
76.7533782849567
 30
0.0
 11
145.3619999999999
 21
75.84495500000009
 31
0.0
  0
LINE
  5
8A
330
1E
100
AcDbEntity
  8
0
100
AcDbLine
 10
155.1539999999999
 20
68.83075500000011
 30
0.0
 11
159.25
 21
68.3221550000001
 31
0.0
  0
LINE
  5
8B
330
1E
100
AcDbEntity
  8
0
100
AcDbLine
 10
159.25
 20
68.3221550000001
 30
0.0
 11
163.346
 21
68.83075500000011
 31
0.0
  0
LINE
  5
8C
330
1E
100
AcDbEntity
  8
0
100
AcDbLine
 10
155.1539999999999
 20
69.2328550000001
 30
0.0
 11
159.25
 21
68.7243550000001
 31
0.0
  0
LINE
  5
8D
330
1E
100
AcDbEntity
  8
0
100
AcDbLine
 10
159.25
 20
68.7243550000001
 30
0.0
 11
163.346
 21
69.2328550000001
 31
0.0
  0
LINE
  5
8F
330
1E
100
AcDbEntity
  8
0
100
AcDbLine
 10
155.1539999999999
 20
73.05535500000009
 30
0.0
 11
159.25
 21
72.54685500000009
 31
0.0
  0
LINE
  5
91
330
1E
100
AcDbEntity
  8
0
100
AcDbLine
 10
159.25
 20
72.54685500000009
 30
0.0
 11
163.346
 21
73.05535500000009
 31
0.0
  0
LINE
  5
94
330
1E
100
AcDbEntity
  8
0
100
AcDbLine
 10
159.25
 20
75.4832550000001
 30
0.0
 11
161.301
 21
75.56175500000009
 31
0.0
  0
LINE
  5
95
330
1E
100
AcDbEntity
  8
0
100
AcDbLine
 10
154.2229999999999
 20
75.71585500000009
 30
0.0
 11
157.1989999999999
 21
75.56175500000009
 31
0.0
  0
LINE
  5
96
330
1E
100
AcDbEntity
  8
0
100
AcDbLine
 10
157.1989999999999
 20
75.56175500000009
 30
0.0
 11
159.25
 21
75.4832550000001
 31
0.0
  0
LINE
  5
99
330
1E
100
AcDbEntity
  8
0
100
AcDbLine
 10
138.4139999999999
 20
80.0467550000001
 30
0.0
 11
139.6299999999999
 21
78.6775550000001
 31
0.0
  0
LINE
  5
9A
330
1E
100
AcDbEntity
  8
0
100
AcDbLine
 10
137.501
 20
81.6142550000001
 30
0.0
 11
138.4139999999999
 21
80.0467550000001
 31
0.0
  0
LINE
  5
9B
330
1E
100
AcDbEntity
  8
0
100
AcDbLine
 10
140.372
 20
78.15985500000009
 30
0.0
 11
142.251
 21
77.44965500000009
 31
0.0
  0
LINE
  5
9C
330
1E
100
AcDbEntity
  8
0
100
AcDbLine
 10
142.251
 20
77.44965500000009
 30
0.0
 11
144.05
 21
76.92235500000009
 31
0.0
  0
LINE
  5
9D
330
1E
100
AcDbEntity
  8
0
100
AcDbLine
 10
139.6299999999999
 20
78.6775550000001
 30
0.0
 11
140.372
 21
78.15985500000009
 31
0.0
  0
LINE
  5
9E
330
1E
100
AcDbEntity
  8
0
100
AcDbLine
 10
143.25
 20
77.0619550000001
 30
0.0
 11
143.25
 21
77.1568408254587
 31
0.0
  0
LINE
  5
9F
330
1E
100
AcDbEntity
  8
0
100
AcDbLine
 10
143.25
 20
77.1568408254587
 30
0.0
 11
143.25
 21
77.0619550000001
 31
0.0
  0
LINE
  5
A0
330
1E
100
AcDbEntity
  8
0
100
AcDbLine
 10
144.05
 20
76.92235500000009
 30
0.0
 11
146.028
 21
76.55115500000009
 31
0.0
  0
LINE
  5
AA
330
1E
100
AcDbEntity
  8
0
100
AcDbLine
 10
137.0979999999999
 20
83.4028550000001
 30
0.0
 11
137.501
 21
81.6142550000001
 31
0.0
  0
LINE
  5
AB
330
1E
100
AcDbEntity
  8
0
100
AcDbLine
 10
136.85
 20
84.80485500000009
 30
0.0
 11
137.0979999999999
 21
83.4028550000001
 31
0.0
  0
LINE
  5
B2
330
1E
100
AcDbEntity
  8
0
100
AcDbLine
 10
136.5999999999999
 20
86.79675500000008
 30
0.0
 11
136.85
 21
84.80485500000009
 31
0.0
  0
LINE
  5
BF
330
1E
100
AcDbEntity
  8
0
100
AcDbLine
 10
136.25
 20
241.8494549999999
 30
0.0
 11
136.25
 21
233.4594549999999
 31
0.0
  0
LINE
  5
C0
330
1E
100
AcDbEntity
  8
0
100
AcDbLine
 10
136.25
 20
251.0104549999999
 30
0.0
 11
136.25
 21
254.4274549999999
 31
0.0
  0
LINE
  5
C5
330
1E
100
AcDbEntity
  8
0
100
AcDbLine
 10
136.25
 20
247.7304549999999
 30
0.0
 11
136.25
 21
241.8494549999999
 31
0.0
  0
LINE
  5
C6
330
1E
100
AcDbEntity
  8
0
100
AcDbLine
 10
161.301
 20
75.56175500000009
 30
0.0
 11
164.277
 21
75.71585500000009
 31
0.0
  0
LINE
  5
C7
330
1E
100
AcDbEntity
  8
0
100
AcDbLine
 10
163.346
 20
68.83075500000011
 30
0.0
 11
167.1859999999999
 21
70.1868550000001
 31
0.0
  0
LINE
  5
C8
330
1E
100
AcDbEntity
  8
0
100
AcDbLine
 10
167.1859999999999
 20
70.1868550000001
 30
0.0
 11
170.578
 21
72.4469550000001
 31
0.0
  0
LINE
  5
C9
330
1E
100
AcDbEntity
  8
0
100
AcDbLine
 10
167.1859999999999
 20
70.58895500000009
 30
0.0
 11
170.578
 21
72.8491550000001
 31
0.0
  0
LINE
  5
CA
330
1E
100
AcDbEntity
  8
0
100
AcDbLine
 10
163.346
 20
69.2328550000001
 30
0.0
 11
167.1859999999999
 21
70.58895500000009
 31
0.0
  0
LINE
  5
CB
330
1E
100
AcDbEntity
  8
0
100
AcDbLine
 10
167.1859999999999
 20
74.41245500000009
 30
0.0
 11
169.7976991010549
 21
76.1527151144473
 31
0.0
  0
LINE
  5
CD
330
1E
100
AcDbEntity
  8
0
100
AcDbLine
 10
163.346
 20
73.05535500000009
 30
0.0
 11
167.1859999999999
 21
74.41245500000009
 31
0.0
  0
LINE
  5
CF
330
1E
100
AcDbEntity
  8
0
100
AcDbLine
 10
164.277
 20
75.71585500000009
 30
0.0
 11
167.55
 21
75.9382550000001
 31
0.0
  0
LINE
  5
D0
330
1E
100
AcDbEntity
  8
0
100
AcDbLine
 10
170.578
 20
72.4469550000001
 30
0.0
 11
173.138
 21
75.4417550000001
 31
0.0
  0
LINE
  5
D1
330
1E
100
AcDbEntity
  8
0
100
AcDbLine
 10
173.138
 20
75.4417550000001
 30
0.0
 11
173.749016881574
 21
76.7908054885947
 31
0.0
  0
LINE
  5
D2
330
1E
100
AcDbEntity
  8
0
100
AcDbLine
 10
173.138
 20
75.84495500000009
 30
0.0
 11
173.5495798966709
 21
76.7533782849567
 31
0.0
  0
LINE
  5
D3
330
1E
100
AcDbEntity
  8
0
100
AcDbLine
 10
170.578
 20
72.8491550000001
 30
0.0
 11
173.138
 21
75.84495500000009
 31
0.0
  0
LINE
  5
D4
330
1E
100
AcDbEntity
  8
0
100
AcDbLine
 10
167.55
 20
75.9382550000001
 30
0.0
 11
170.297
 21
76.2003550000001
 31
0.0
  0
LINE
  5
D5
330
1E
100
AcDbEntity
  8
0
100
AcDbLine
 10
170.297
 20
76.2003550000001
 30
0.0
 11
172.472
 21
76.55115500000009
 31
0.0
  0
LINE
  5
DD
330
1E
100
AcDbEntity
  8
0
100
AcDbLine
 10
175.2499999999999
 20
77.1568408254587
 30
0.0
 11
175.2499999999999
 21
77.0619550000001
 31
0.0
  0
LINE
  5
DE
330
1E
100
AcDbEntity
  8
0
100
AcDbLine
 10
175.2499999999999
 20
77.0619550000001
 30
0.0
 11
175.2499999999999
 21
77.1568408254587
 31
0.0
  0
LINE
  5
DF
330
1E
100
AcDbEntity
  8
0
100
AcDbLine
 10
174.4499999999999
 20
76.92235500000009
 30
0.0
 11
176.249
 21
77.44965500000009
 31
0.0
  0
LINE
  5
E0
330
1E
100
AcDbEntity
  8
0
100
AcDbLine
 10
172.472
 20
76.55115500000009
 30
0.0
 11
174.4499999999999
 21
76.92235500000009
 31
0.0
  0
LINE
  5
E1
330
1E
100
AcDbEntity
  8
0
100
AcDbLine
 10
176.249
 20
77.44965500000009
 30
0.0
 11
178.1279999999999
 21
78.15985500000009
 31
0.0
  0
LINE
  5
E6
330
1E
100
AcDbEntity
  8
0
100
AcDbLine
 10
178.1279999999999
 20
78.15985500000009
 30
0.0
 11
178.87
 21
78.6775550000001
 31
0.0
  0
LINE
  5
E7
330
1E
100
AcDbEntity
  8
0
100
AcDbLine
 10
181.402
 20
83.4028550000001
 30
0.0
 11
181.6499999999999
 21
84.80485500000009
 31
0.0
  0
LINE
  5
E8
330
1E
100
AcDbEntity
  8
0
100
AcDbLine
 10
180.999
 20
81.6142550000001
 30
0.0
 11
181.402
 21
83.4028550000001
 31
0.0
  0
LINE
  5
E9
330
1E
100
AcDbEntity
  8
0
100
AcDbLine
 10
181.9
 20
86.79675500000008
 30
0.0
 11
182.0999999999999
 21
89.39475500000009
 31
0.0
  0
LINE
  5
EA
330
1E
100
AcDbEntity
  8
0
100
AcDbLine
 10
181.6499999999999
 20
84.80485500000009
 30
0.0
 11
181.9
 21
86.79675500000008
 31
0.0
  0
LINE
  5
F3
330
1E
100
AcDbEntity
  8
0
100
AcDbLine
 10
182.24
 20
95.19745500000009
 30
0.0
 11
182.2499999999999
 21
97.1894550000001
 31
0.0
  0
LINE
  5
F4
330
1E
100
AcDbEntity
  8
0
100
AcDbLine
 10
182.1999999999999
 20
92.5124550000001
 30
0.0
 11
182.24
 21
95.19745500000009
 31
0.0
  0
LINE
  5
F5
330
1E
100
AcDbEntity
  8
0
100
AcDbLine
 10
182.0999999999999
 20
89.39475500000009
 30
0.0
 11
182.1999999999999
 21
92.5124550000001
 31
0.0
  0
LINE
  5
F6
330
1E
100
AcDbEntity
  8
0
100
AcDbLine
 10
180.0859999999999
 20
80.0467550000001
 30
0.0
 11
180.999
 21
81.6142550000001
 31
0.0
  0
LINE
  5
F7
330
1E
100
AcDbEntity
  8
0
100
AcDbLine
 10
178.87
 20
78.6775550000001
 30
0.0
 11
180.0859999999999
 21
80.0467550000001
 31
0.0
  0
LINE
  5
F9
330
1E
100
AcDbEntity
  8
0
100
AcDbLine
 10
182.2499999999999
 20
97.68945500000009
 30
0.0
 11
182.2499999999999
 21
97.1894550000001
 31
0.0
  0
LINE
  5
FA
330
1E
100
AcDbEntity
  8
0
100
AcDbLine
 10
182.2499999999999
 20
97.1894550000001
 30
0.0
 11
182.2499999999999
 21
97.68945500000009
 31
0.0
  0
LINE
  5
105
330
1E
100
AcDbEntity
  8
0
100
AcDbLine
 10
182.2499999999999
 20
208.690570646258
 30
0.0
 11
183.115
 21
206.101455
 31
0.0
  0
LINE
  5
107
330
1E
100
AcDbEntity
  8
0
100
AcDbLine
 10
182.2499999999999
 20
240.9674549999999
 30
0.0
 11
182.2499999999999
 21
238.709455
 31
0.0
  0
LINE
  5
108
330
1E
100
AcDbEntity
  8
0
100
AcDbLine
 10
182.2499999999999
 20
251.0104549999999
 30
0.0
 11
182.2499999999999
 21
247.6454549999999
 31
0.0
  0
LINE
  5
109
330
1E
100
AcDbEntity
  8
0
100
AcDbLine
 10
182.2499999999999
 20
243.5924549999999
 30
0.0
 11
182.2499999999999
 21
240.9674549999999
 31
0.0
  0
LINE
  5
10A
330
1E
100
AcDbEntity
  8
0
100
AcDbLine
 10
182.2499999999999
 20
247.6454549999999
 30
0.0
 11
182.2499999999999
 21
243.5924549999999
 31
0.0
  0
LINE
  5
10B
330
1E
100
AcDbEntity
  8
0
100
AcDbLine
 10
182.2499999999999
 20
238.709455
 30
0.0
 11
182.2499999999999
 21
97.68945500000009
 31
0.0
  0
LINE
  5
10E
330
1E
100
AcDbEntity
  8
0
100
AcDbLine
 10
182.2499999999999
 20
140.9493163210429
 30
0.0
 11
277.278
 21
139.527455
 31
0.0
  0
LINE
  5
10F
330
1E
100
AcDbEntity
  8
0
100
AcDbLine
 10
159.25
 20
5.31925500000008
 30
0.0
 11
277.278
 21
7.08515500000008
 31
0.0
  0
LINE
  5
110
330
1E
100
AcDbEntity
  8
0
100
AcDbLine
 10
159.25
 20
-0.0014549999999167
 30
0.0
 11
277.278
 21
1.76444500000008
 31
0.0
  0
LINE
  5
111
330
1E
100
AcDbEntity
  8
0
100
AcDbLine
 10
127.157202723939
 20
251.5784549999999
 30
0.0
 11
132.0729999999999
 21
251.5784549999999
 31
0.0
  0
LINE
  5
112
330
1E
100
AcDbEntity
  8
0
100
AcDbLine
 10
132.0729999999999
 20
251.5784549999999
 30
0.0
 11
136.25
 21
251.5784549999999
 31
0.0
  0
LINE
  5
113
330
1E
100
AcDbEntity
  8
0
100
AcDbLine
 10
183.115
 20
206.101455
 30
0.0
 11
185.1459999999999
 21
197.901455
 31
0.0
  0
LINE
  5
114
330
1E
100
AcDbEntity
  8
0
100
AcDbLine
 10
185.1459999999999
 20
197.901455
 30
0.0
 11
186.898
 21
188.601455
 31
0.0
  0
LINE
  5
115
330
1E
100
AcDbEntity
  8
0
100
AcDbLine
 10
186.898
 20
188.601455
 30
0.0
 11
187.339
 21
186.101455
 31
0.0
  0
LINE
  5
116
330
1E
100
AcDbEntity
  8
0
100
AcDbLine
 10
187.339
 20
186.101455
 30
0.0
 11
189.2649999999999
 21
173.4014549999999
 31
0.0
  0
LINE
  5
119
330
1E
100
AcDbEntity
  8
0
100
AcDbLine
 10
182.2499999999999
 20
251.840022442554
 30
0.0
 11
182.357
 21
251.8434549999999
 31
0.0
  0
LINE
  5
11C
330
1E
100
AcDbEntity
  8
0
100
AcDbLine
 10
127.2499999999999
 20
252.7594549999999
 30
0.0
 11
127.2499999999999
 21
315.397455
 31
0.0
  0
LINE
  5
11E
330
1E
100
AcDbEntity
  8
0
100
AcDbLine
 10
0.250000000000003
 20
252.7594549999999
 30
0.0
 11
0.400000000000009
 21
250.850455
 31
0.0
  0
LINE
  5
11F
330
1E
100
AcDbEntity
  8
0
100
AcDbLine
 10
0.250000000000003
 20
252.7594549999999
 30
0.0
 11
0.250000000000003
 21
315.397455
 31
0.0
  0
LINE
  5
122
330
1E
100
AcDbEntity
  8
0
100
AcDbLine
 10
182.357
 20
251.8434549999999
 30
0.0
 11
187.439
 21
252.1344549999999
 31
0.0
  0
LINE
  5
123
330
1E
100
AcDbEntity
  8
0
100
AcDbLine
 10
190.6267518796989
 20
164.6512421183979
 30
0.0
 11
190.675
 21
164.9014549999999
 31
0.0
  0
LINE
  5
124
330
1E
100
AcDbEntity
  8
0
100
AcDbLine
 10
190.6119999999999
 20
164.746033313253
 30
0.0
 11
191.959
 21
173.4014549999999
 31
0.0
  0
LINE
  5
125
330
1E
100
AcDbEntity
  8
0
100
AcDbLine
 10
190.6119999999999
 20
164.746033313253
 30
0.0
 11
191.959
 21
173.4014549999999
 31
0.0
  0
LINE
  5
128
330
1E
100
AcDbEntity
  8
0
100
AcDbLine
 10
190.746416539051
 20
163.8823125803969
 30
0.0
 11
192.4579999999999
 21
155.001455
 31
0.0
  0
LINE
  5
129
330
1E
100
AcDbEntity
  8
0
100
AcDbLine
 10
191.959
 20
173.4014549999999
 30
0.0
 11
193.354
 21
188.301455
 31
0.0
  0
LINE
  5
12A
330
1E
100
AcDbEntity
  8
0
100
AcDbLine
 10
193.354
 20
188.301455
 30
0.0
 11
194.7829999999999
 21
207.3014549999999
 31
0.0
  0
LINE
  5
12B
330
1E
100
AcDbEntity
  8
0
100
AcDbLine
 10
194.7829999999999
 20
207.3014549999999
 30
0.0
 11
195.6109999999999
 21
226.001455
 31
0.0
  0
LINE
  5
12C
330
1E
100
AcDbEntity
  8
0
100
AcDbLine
 10
189.2649999999999
 20
173.4014549999999
 30
0.0
 11
191.0079999999999
 21
162.201455
 31
0.0
  0
LINE
  5
130
330
1E
100
AcDbEntity
  8
0
100
AcDbLine
 10
187.439
 20
252.1344549999999
 30
0.0
 11
193.724
 21
252.911455
 31
0.0
  0
LINE
  5
135
330
1E
100
AcDbEntity
  8
0
100
AcDbLine
 10
136.25
 20
254.4274549999999
 30
0.0
 11
136.25
 21
259.012455
 31
0.0
  0
LINE
  5
138
330
1E
100
AcDbEntity
  8
0
100
AcDbLine
 10
182.2499999999999
 20
254.4274549999999
 30
0.0
 11
182.2499999999999
 21
251.0104549999999
 31
0.0
  0
LINE
  5
13B
330
1E
100
AcDbEntity
  8
0
100
AcDbLine
 10
193.724
 20
252.911455
 30
0.0
 11
198.638
 21
253.6644549999999
 31
0.0
  0
LINE
  5
13C
330
1E
100
AcDbEntity
  8
0
100
AcDbLine
 10
195.6109999999999
 20
226.001455
 30
0.0
 11
196.178
 21
247.4014549999999
 31
0.0
  0
LINE
  5
13D
330
1E
100
AcDbEntity
  8
0
100
AcDbLine
 10
196.178
 20
247.4014549999999
 30
0.0
 11
196.212058842956
 21
253.292714322089
 31
0.0
  0
LINE
  5
13E
330
1E
100
AcDbEntity
  8
0
100
AcDbLine
 10
200.5086380475329
 20
140.676120513336
 30
0.0
 11
201.688
 21
143.0014549999999
 31
0.0
  0
LINE
  5
13F
330
1E
100
AcDbEntity
  8
0
100
AcDbLine
 10
201.688
 20
143.0014549999999
 30
0.0
 11
203.6929999999999
 21
149.301455
 31
0.0
  0
LINE
  5
140
330
1E
100
AcDbEntity
  8
0
100
AcDbLine
 10
203.6929999999999
 20
149.301455
 30
0.0
 11
205.688
 21
159.601455
 31
0.0
  0
LINE
  5
141
330
1E
100
AcDbEntity
  8
0
100
AcDbLine
 10
206.1549999999999
 20
162.201455
 30
0.0
 11
207.899
 21
173.4014549999999
 31
0.0
  0
LINE
  5
142
330
1E
100
AcDbEntity
  8
0
100
AcDbLine
 10
205.688
 20
159.601455
 30
0.0
 11
206.1549999999999
 21
162.201455
 31
0.0
  0
LINE
  5
143
330
1E
100
AcDbEntity
  8
0
100
AcDbLine
 10
207.899
 20
173.4014549999999
 30
0.0
 11
209.2929999999999
 21
188.301455
 31
0.0
  0
LINE
  5
144
330
1E
100
AcDbEntity
  8
0
100
AcDbLine
 10
209.2929999999999
 20
188.301455
 30
0.0
 11
210.722
 21
207.3014549999999
 31
0.0
  0
LINE
  5
145
330
1E
100
AcDbEntity
  8
0
100
AcDbLine
 10
210.722
 20
207.3014549999999
 30
0.0
 11
211.5499999999999
 21
226.001455
 31
0.0
  0
LINE
  5
146
330
1E
100
AcDbEntity
  8
0
100
AcDbLine
 10
211.5499999999999
 20
226.001455
 30
0.0
 11
212.117
 21
247.4014549999999
 31
0.0
  0
LINE
  5
147
330
1E
100
AcDbEntity
  8
0
100
AcDbLine
 10
212.117
 20
247.4014549999999
 30
0.0
 11
212.16427328125
 21
255.5784549999999
 31
0.0
  0
LINE
  5
148
330
1E
100
AcDbEntity
  8
0
100
AcDbLine
 10
198.638
 20
253.6644549999999
 30
0.0
 11
207.4679999999999
 21
255.337455
 31
0.0
  0
LINE
  5
149
330
1E
100
AcDbEntity
  8
0
100
AcDbLine
 10
207.4679999999999
 20
255.337455
 30
0.0
 11
209.235
 21
255.5784549999999
 31
0.0
  0
LINE
  5
14A
330
1E
100
AcDbEntity
  8
0
100
AcDbLine
 10
195.572
 20
255.5784549999999
 30
0.0
 11
203.724
 21
255.5784549999999
 31
0.0
  0
LINE
  5
14B
330
1E
100
AcDbEntity
  8
0
100
AcDbLine
 10
203.724
 20
255.5784549999999
 30
0.0
 11
218.985
 21
255.5784549999999
 31
0.0
  0
LINE
  5
14C
330
1E
100
AcDbEntity
  8
0
100
AcDbLine
 10
223.843
 20
255.5784549999999
 30
0.0
 11
224.072
 21
255.5784549999999
 31
0.0
  0
LINE
  5
14D
330
1E
100
AcDbEntity
  8
0
100
AcDbLine
 10
223.747
 20
255.5784549999999
 30
0.0
 11
223.963
 21
255.5784549999999
 31
0.0
  0
LINE
  5
14E
330
1E
100
AcDbEntity
  8
0
100
AcDbLine
 10
223.747
 20
255.5784549999999
 30
0.0
 11
223.843
 21
255.5784549999999
 31
0.0
  0
LINE
  5
14F
330
1E
100
AcDbEntity
  8
0
100
AcDbLine
 10
224.072
 20
255.5784549999999
 30
0.0
 11
229.054
 21
255.5784549999999
 31
0.0
  0
LINE
  5
150
330
1E
100
AcDbEntity
  8
0
100
AcDbLine
 10
223.963
 20
255.5784549999999
 30
0.0
 11
224.314
 21
255.5784549999999
 31
0.0
  0
LINE
  5
151
330
1E
100
AcDbEntity
  8
0
100
AcDbLine
 10
224.314
 20
255.5784549999999
 30
0.0
 11
224.889
 21
255.5784549999999
 31
0.0
  0
LINE
  5
152
330
1E
100
AcDbEntity
  8
0
100
AcDbLine
 10
224.889
 20
255.5784549999999
 30
0.0
 11
225.598
 21
255.5784549999999
 31
0.0
  0
LINE
  5
153
330
1E
100
AcDbEntity
  8
0
100
AcDbLine
 10
225.598
 20
255.5784549999999
 30
0.0
 11
250.937
 21
255.5784549999999
 31
0.0
  0
LINE
  5
154
330
1E
100
AcDbEntity
  8
0
100
AcDbLine
 10
218.985
 20
255.5784549999999
 30
0.0
 11
263.843
 21
255.5784549999999
 31
0.0
  0
LINE
  5
155
330
1E
100
AcDbEntity
  8
0
100
AcDbLine
 10
229.054
 20
255.5784549999999
 30
0.0
 11
234.0349999999999
 21
255.5784549999999
 31
0.0
  0
LINE
  5
156
330
1E
100
AcDbEntity
  8
0
100
AcDbLine
 10
236.1
 20
255.5784549999999
 30
0.0
 11
236.994
 21
255.5784549999999
 31
0.0
  0
LINE
  5
157
330
1E
100
AcDbEntity
  8
0
100
AcDbLine
 10
252.674
 20
255.5784549999999
 30
0.0
 11
253.5679999999999
 21
255.5784549999999
 31
0.0
  0
LINE
  5
158
330
1E
100
AcDbEntity
  8
0
100
AcDbLine
 10
251.827
 20
255.5784549999999
 30
0.0
 11
252.674
 21
255.5784549999999
 31
0.0
  0
LINE
  5
159
330
1E
100
AcDbEntity
  8
0
100
AcDbLine
 10
250.937
 20
255.5784549999999
 30
0.0
 11
251.827
 21
255.5784549999999
 31
0.0
  0
LINE
  5
15A
330
1E
100
AcDbEntity
  8
0
100
AcDbLine
 10
253.5679999999999
 20
255.5784549999999
 30
0.0
 11
254.418
 21
255.5784549999999
 31
0.0
  0
LINE
  5
15B
330
1E
100
AcDbEntity
  8
0
100
AcDbLine
 10
254.418
 20
255.5784549999999
 30
0.0
 11
255.047
 21
255.5784549999999
 31
0.0
  0
LINE
  5
15C
330
1E
100
AcDbEntity
  8
0
100
AcDbLine
 10
255.047
 20
255.5784549999999
 30
0.0
 11
255.6329999999999
 21
255.5784549999999
 31
0.0
  0
LINE
  5
15D
330
1E
100
AcDbEntity
  8
0
100
AcDbLine
 10
255.6329999999999
 20
255.5784549999999
 30
0.0
 11
260.1609999999999
 21
255.5784549999999
 31
0.0
  0
LINE
  5
15E
330
1E
100
AcDbEntity
  8
0
100
AcDbLine
 10
238.7309999999999
 20
255.5784549999999
 30
0.0
 11
263.1639999999999
 21
255.5784549999999
 31
0.0
  0
LINE
  5
15F
330
1E
100
AcDbEntity
  8
0
100
AcDbLine
 10
236.994
 20
255.5784549999999
 30
0.0
 11
237.8409999999999
 21
255.5784549999999
 31
0.0
  0
LINE
  5
160
330
1E
100
AcDbEntity
  8
0
100
AcDbLine
 10
237.8409999999999
 20
255.5784549999999
 30
0.0
 11
238.7309999999999
 21
255.5784549999999
 31
0.0
  0
LINE
  5
161
330
1E
100
AcDbEntity
  8
0
100
AcDbLine
 10
235.25
 20
255.5784549999999
 30
0.0
 11
236.1
 21
255.5784549999999
 31
0.0
  0
LINE
  5
162
330
1E
100
AcDbEntity
  8
0
100
AcDbLine
 10
234.6209999999999
 20
255.5784549999999
 30
0.0
 11
235.25
 21
255.5784549999999
 31
0.0
  0
LINE
  5
163
330
1E
100
AcDbEntity
  8
0
100
AcDbLine
 10
234.0349999999999
 20
255.5784549999999
 30
0.0
 11
234.6209999999999
 21
255.5784549999999
 31
0.0
  0
LINE
  5
16C
330
1E
100
AcDbEntity
  8
0
100
AcDbLine
 10
194.6329999999999
 20
255.8784549999999
 30
0.0
 11
195.572
 21
255.5784549999999
 31
0.0
  0
LINE
  5
16D
330
1E
100
AcDbEntity
  8
0
100
AcDbLine
 10
194.2309999999999
 20
256.5784549999999
 30
0.0
 11
194.6329999999999
 21
255.8784549999999
 31
0.0
  0
LINE
  5
16E
330
1E
100
AcDbEntity
  8
0
100
AcDbLine
 10
194.2309999999999
 20
256.5784549999999
 30
0.0
 11
194.2309999999999
 21
292.5784549999999
 31
0.0
  0
LINE
  5
170
330
1E
100
AcDbEntity
  8
0
100
AcDbLine
 10
260.1609999999999
 20
255.5784549999999
 30
0.0
 11
264.69
 21
255.5784549999999
 31
0.0
  0
LINE
  5
171
330
1E
100
AcDbEntity
  8
0
100
AcDbLine
 10
263.843
 20
255.5784549999999
 30
0.0
 11
264.819
 21
255.5784549999999
 31
0.0
  0
LINE
  5
172
330
1E
100
AcDbEntity
  8
0
100
AcDbLine
 10
264.819
 20
255.5784549999999
 30
0.0
 11
265.659
 21
255.5784549999999
 31
0.0
  0
LINE
  5
173
330
1E
100
AcDbEntity
  8
0
100
AcDbLine
 10
264.799
 20
255.5784549999999
 30
0.0
 11
265.015
 21
255.5784549999999
 31
0.0
  0
LINE
  5
174
330
1E
100
AcDbEntity
  8
0
100
AcDbLine
 10
265.659
 20
255.5784549999999
 30
0.0
 11
266.2749999999999
 21
255.5784549999999
 31
0.0
  0
LINE
  5
175
330
1E
100
AcDbEntity
  8
0
100
AcDbLine
 10
266.488
 20
255.5784549999999
 30
0.0
 11
267.2019999999999
 21
255.8784549999999
 31
0.0
  0
LINE
  5
176
330
1E
100
AcDbEntity
  8
0
100
AcDbLine
 10
266.2749999999999
 20
255.5784549999999
 30
0.0
 11
266.488
 21
255.5784549999999
 31
0.0
  0
LINE
  5
177
330
1E
100
AcDbEntity
  8
0
100
AcDbLine
 10
264.919
 20
255.5784549999999
 30
0.0
 11
265.015
 21
255.5784549999999
 31
0.0
  0
LINE
  5
178
330
1E
100
AcDbEntity
  8
0
100
AcDbLine
 10
264.69
 20
255.5784549999999
 30
0.0
 11
264.919
 21
255.5784549999999
 31
0.0
  0
LINE
  5
179
330
1E
100
AcDbEntity
  8
0
100
AcDbLine
 10
264.4479999999999
 20
255.5784549999999
 30
0.0
 11
264.799
 21
255.5784549999999
 31
0.0
  0
LINE
  5
17A
330
1E
100
AcDbEntity
  8
0
100
AcDbLine
 10
267.1009999999999
 20
255.8784549999999
 30
0.0
 11
267.2019999999999
 21
255.8784549999999
 31
0.0
  0
LINE
  5
17B
330
1E
100
AcDbEntity
  8
0
100
AcDbLine
 10
267.2019999999999
 20
255.8784549999999
 30
0.0
 11
267.425
 21
256.5784549999999
 31
0.0
  0
LINE
  5
17D
330
1E
100
AcDbEntity
  8
0
100
AcDbLine
 10
263.8729999999999
 20
255.5784549999999
 30
0.0
 11
264.4479999999999
 21
255.5784549999999
 31
0.0
  0
LINE
  5
17E
330
1E
100
AcDbEntity
  8
0
100
AcDbLine
 10
263.1639999999999
 20
255.5784549999999
 30
0.0
 11
263.8729999999999
 21
255.5784549999999
 31
0.0
  0
LINE
  5
17F
330
1E
100
AcDbEntity
  8
0
100
AcDbLine
 10
136.25
 20
259.012455
 30
0.0
 11
136.25
 21
262.5784549999999
 31
0.0
  0
LINE
  5
180
330
1E
100
AcDbEntity
  8
0
100
AcDbLine
 10
43.75
 20
263.0784549999999
 30
0.0
 11
44.00999999999999
 21
263.1184549999999
 31
0.0
  0
LINE
  5
181
330
1E
100
AcDbEntity
  8
0
100
AcDbLine
 10
53.75
 20
263.0784549999999
 30
0.0
 11
54.00999999999999
 21
263.1184549999999
 31
0.0
  0
LINE
  5
182
330
1E
100
AcDbEntity
  8
0
100
AcDbLine
 10
63.75
 20
263.0784549999999
 30
0.0
 11
64.01
 21
263.1184549999999
 31
0.0
  0
LINE
  5
183
330
1E
100
AcDbEntity
  8
0
100
AcDbLine
 10
63.49
 20
263.1184549999999
 30
0.0
 11
63.75
 21
263.0784549999999
 31
0.0
  0
LINE
  5
184
330
1E
100
AcDbEntity
  8
0
100
AcDbLine
 10
63.25
 20
263.2084549999999
 30
0.0
 11
63.49
 21
263.1184549999999
 31
0.0
  0
LINE
  5
185
330
1E
100
AcDbEntity
  8
0
100
AcDbLine
 10
64.01
 20
263.1184549999999
 30
0.0
 11
64.25
 21
263.2084549999999
 31
0.0
  0
LINE
  5
186
330
1E
100
AcDbEntity
  8
0
100
AcDbLine
 10
64.25
 20
263.2084549999999
 30
0.0
 11
64.45999999999999
 21
263.3684549999999
 31
0.0
  0
LINE
  5
187
330
1E
100
AcDbEntity
  8
0
100
AcDbLine
 10
73.49
 20
263.1184549999999
 30
0.0
 11
73.75
 21
263.0784549999999
 31
0.0
  0
LINE
  5
188
330
1E
100
AcDbEntity
  8
0
100
AcDbLine
 10
73.25
 20
263.2084549999999
 30
0.0
 11
73.49
 21
263.1184549999999
 31
0.0
  0
LINE
  5
189
330
1E
100
AcDbEntity
  8
0
100
AcDbLine
 10
73.75
 20
263.0784549999999
 30
0.0
 11
74.01
 21
263.1184549999999
 31
0.0
  0
LINE
  5
18A
330
1E
100
AcDbEntity
  8
0
100
AcDbLine
 10
83.49
 20
263.1184549999999
 30
0.0
 11
83.75
 21
263.0784549999999
 31
0.0
  0
LINE
  5
18B
330
1E
100
AcDbEntity
  8
0
100
AcDbLine
 10
83.25000000000001
 20
263.2084549999999
 30
0.0
 11
83.49
 21
263.1184549999999
 31
0.0
  0
LINE
  5
18C
330
1E
100
AcDbEntity
  8
0
100
AcDbLine
 10
83.75
 20
263.0784549999999
 30
0.0
 11
84.01000000000001
 21
263.1184549999999
 31
0.0
  0
LINE
  5
18D
330
1E
100
AcDbEntity
  8
0
100
AcDbLine
 10
84.01000000000001
 20
263.1184549999999
 30
0.0
 11
84.25
 21
263.2084549999999
 31
0.0
  0
LINE
  5
18E
330
1E
100
AcDbEntity
  8
0
100
AcDbLine
 10
84.25
 20
263.2084549999999
 30
0.0
 11
84.45999999999999
 21
263.3684549999999
 31
0.0
  0
LINE
  5
18F
330
1E
100
AcDbEntity
  8
0
100
AcDbLine
 10
74.01
 20
263.1184549999999
 30
0.0
 11
74.25
 21
263.2084549999999
 31
0.0
  0
LINE
  5
190
330
1E
100
AcDbEntity
  8
0
100
AcDbLine
 10
74.25
 20
263.2084549999999
 30
0.0
 11
74.45999999999999
 21
263.3684549999999
 31
0.0
  0
LINE
  5
191
330
1E
100
AcDbEntity
  8
0
100
AcDbLine
 10
54.00999999999999
 20
263.1184549999999
 30
0.0
 11
54.25
 21
263.2084549999999
 31
0.0
  0
LINE
  5
192
330
1E
100
AcDbEntity
  8
0
100
AcDbLine
 10
54.25
 20
263.2084549999999
 30
0.0
 11
54.46
 21
263.3684549999999
 31
0.0
  0
LINE
  5
193
330
1E
100
AcDbEntity
  8
0
100
AcDbLine
 10
53.49
 20
263.1184549999999
 30
0.0
 11
53.75
 21
263.0784549999999
 31
0.0
  0
LINE
  5
194
330
1E
100
AcDbEntity
  8
0
100
AcDbLine
 10
53.25
 20
263.2084549999999
 30
0.0
 11
53.49
 21
263.1184549999999
 31
0.0
  0
LINE
  5
195
330
1E
100
AcDbEntity
  8
0
100
AcDbLine
 10
44.00999999999999
 20
263.1184549999999
 30
0.0
 11
44.24999999999999
 21
263.2084549999999
 31
0.0
  0
LINE
  5
196
330
1E
100
AcDbEntity
  8
0
100
AcDbLine
 10
44.24999999999999
 20
263.2084549999999
 30
0.0
 11
44.46
 21
263.3684549999999
 31
0.0
  0
LINE
  5
197
330
1E
100
AcDbEntity
  8
0
100
AcDbLine
 10
43.49
 20
263.1184549999999
 30
0.0
 11
43.75
 21
263.0784549999999
 31
0.0
  0
LINE
  5
198
330
1E
100
AcDbEntity
  8
0
100
AcDbLine
 10
44.46
 20
263.3684549999999
 30
0.0
 11
44.61999999999999
 21
263.5784549999999
 31
0.0
  0
LINE
  5
199
330
1E
100
AcDbEntity
  8
0
100
AcDbLine
 10
63.04
 20
263.3684549999999
 30
0.0
 11
63.25
 21
263.2084549999999
 31
0.0
  0
LINE
  5
19A
330
1E
100
AcDbEntity
  8
0
100
AcDbLine
 10
62.88
 20
263.5784549999999
 30
0.0
 11
63.04
 21
263.3684549999999
 31
0.0
  0
LINE
  5
19B
330
1E
100
AcDbEntity
  8
0
100
AcDbLine
 10
64.45999999999999
 20
263.3684549999999
 30
0.0
 11
64.62
 21
263.5784549999999
 31
0.0
  0
LINE
  5
19C
330
1E
100
AcDbEntity
  8
0
100
AcDbLine
 10
64.62
 20
263.5784549999999
 30
0.0
 11
64.71
 21
263.8184549999999
 31
0.0
  0
LINE
  5
19D
330
1E
100
AcDbEntity
  8
0
100
AcDbLine
 10
73.04000000000001
 20
263.3684549999999
 30
0.0
 11
73.25
 21
263.2084549999999
 31
0.0
  0
LINE
  5
19E
330
1E
100
AcDbEntity
  8
0
100
AcDbLine
 10
72.88
 20
263.5784549999999
 30
0.0
 11
73.04000000000001
 21
263.3684549999999
 31
0.0
  0
LINE
  5
19F
330
1E
100
AcDbEntity
  8
0
100
AcDbLine
 10
83.04
 20
263.3684549999999
 30
0.0
 11
83.25000000000001
 21
263.2084549999999
 31
0.0
  0
LINE
  5
1A0
330
1E
100
AcDbEntity
  8
0
100
AcDbLine
 10
82.88
 20
263.5784549999999
 30
0.0
 11
83.04
 21
263.3684549999999
 31
0.0
  0
LINE
  5
1A1
330
1E
100
AcDbEntity
  8
0
100
AcDbLine
 10
84.45999999999999
 20
263.3684549999999
 30
0.0
 11
84.62000000000001
 21
263.5784549999999
 31
0.0
  0
LINE
  5
1A2
330
1E
100
AcDbEntity
  8
0
100
AcDbLine
 10
84.62000000000001
 20
263.5784549999999
 30
0.0
 11
84.71
 21
263.8184549999999
 31
0.0
  0
LINE
  5
1A3
330
1E
100
AcDbEntity
  8
0
100
AcDbLine
 10
74.45999999999999
 20
263.3684549999999
 30
0.0
 11
74.62
 21
263.5784549999999
 31
0.0
  0
LINE
  5
1A4
330
1E
100
AcDbEntity
  8
0
100
AcDbLine
 10
74.62
 20
263.5784549999999
 30
0.0
 11
74.71
 21
263.8184549999999
 31
0.0
  0
LINE
  5
1A5
330
1E
100
AcDbEntity
  8
0
100
AcDbLine
 10
54.46
 20
263.3684549999999
 30
0.0
 11
54.61999999999999
 21
263.5784549999999
 31
0.0
  0
LINE
  5
1A6
330
1E
100
AcDbEntity
  8
0
100
AcDbLine
 10
54.61999999999999
 20
263.5784549999999
 30
0.0
 11
54.71
 21
263.8184549999999
 31
0.0
  0
LINE
  5
1A7
330
1E
100
AcDbEntity
  8
0
100
AcDbLine
 10
53.04
 20
263.3684549999999
 30
0.0
 11
53.25
 21
263.2084549999999
 31
0.0
  0
LINE
  5
1A8
330
1E
100
AcDbEntity
  8
0
100
AcDbLine
 10
52.88
 20
263.5784549999999
 30
0.0
 11
53.04
 21
263.3684549999999
 31
0.0
  0
LINE
  5
1A9
330
1E
100
AcDbEntity
  8
0
100
AcDbLine
 10
44.61999999999999
 20
263.5784549999999
 30
0.0
 11
44.71
 21
263.8184549999999
 31
0.0
  0
LINE
  5
1AA
330
1E
100
AcDbEntity
  8
0
100
AcDbLine
 10
43.25
 20
263.2084549999999
 30
0.0
 11
43.49
 21
263.1184549999999
 31
0.0
  0
LINE
  5
1AB
330
1E
100
AcDbEntity
  8
0
100
AcDbLine
 10
43.04
 20
263.3684549999999
 30
0.0
 11
43.25
 21
263.2084549999999
 31
0.0
  0
LINE
  5
1AC
330
1E
100
AcDbEntity
  8
0
100
AcDbLine
 10
62.78999999999999
 20
263.8184549999999
 30
0.0
 11
62.88
 21
263.5784549999999
 31
0.0
  0
LINE
  5
1AD
330
1E
100
AcDbEntity
  8
0
100
AcDbLine
 10
64.71
 20
263.8184549999999
 30
0.0
 11
64.75
 21
264.0784549999999
 31
0.0
  0
LINE
  5
1AE
330
1E
100
AcDbEntity
  8
0
100
AcDbLine
 10
72.79
 20
263.8184549999999
 30
0.0
 11
72.88
 21
263.5784549999999
 31
0.0
  0
LINE
  5
1AF
330
1E
100
AcDbEntity
  8
0
100
AcDbLine
 10
82.79000000000001
 20
263.8184549999999
 30
0.0
 11
82.88
 21
263.5784549999999
 31
0.0
  0
LINE
  5
1B0
330
1E
100
AcDbEntity
  8
0
100
AcDbLine
 10
84.71
 20
263.8184549999999
 30
0.0
 11
84.74999999999999
 21
264.0784549999999
 31
0.0
  0
LINE
  5
1B1
330
1E
100
AcDbEntity
  8
0
100
AcDbLine
 10
74.71
 20
263.8184549999999
 30
0.0
 11
74.75
 21
264.0784549999999
 31
0.0
  0
LINE
  5
1B2
330
1E
100
AcDbEntity
  8
0
100
AcDbLine
 10
62.75
 20
264.0784549999999
 30
0.0
 11
62.78999999999999
 21
264.3384549999999
 31
0.0
  0
LINE
  5
1B3
330
1E
100
AcDbEntity
  8
0
100
AcDbLine
 10
62.75
 20
264.0784549999999
 30
0.0
 11
62.78999999999999
 21
263.8184549999999
 31
0.0
  0
LINE
  5
1B4
330
1E
100
AcDbEntity
  8
0
100
AcDbLine
 10
82.75
 20
264.0784549999999
 30
0.0
 11
82.79000000000001
 21
264.3384549999999
 31
0.0
  0
LINE
  5
1B5
330
1E
100
AcDbEntity
  8
0
100
AcDbLine
 10
82.75
 20
264.0784549999999
 30
0.0
 11
82.79000000000001
 21
263.8184549999999
 31
0.0
  0
LINE
  5
1B6
330
1E
100
AcDbEntity
  8
0
100
AcDbLine
 10
72.75
 20
264.0784549999999
 30
0.0
 11
72.79
 21
264.3384549999999
 31
0.0
  0
LINE
  5
1B7
330
1E
100
AcDbEntity
  8
0
100
AcDbLine
 10
72.75
 20
264.0784549999999
 30
0.0
 11
72.79
 21
263.8184549999999
 31
0.0
  0
LINE
  5
1B8
330
1E
100
AcDbEntity
  8
0
100
AcDbLine
 10
54.71
 20
263.8184549999999
 30
0.0
 11
54.75
 21
264.0784549999999
 31
0.0
  0
LINE
  5
1B9
330
1E
100
AcDbEntity
  8
0
100
AcDbLine
 10
52.78999999999999
 20
263.8184549999999
 30
0.0
 11
52.88
 21
263.5784549999999
 31
0.0
  0
LINE
  5
1BA
330
1E
100
AcDbEntity
  8
0
100
AcDbLine
 10
52.75
 20
264.0784549999999
 30
0.0
 11
52.78999999999999
 21
264.3384549999999
 31
0.0
  0
LINE
  5
1BB
330
1E
100
AcDbEntity
  8
0
100
AcDbLine
 10
52.75
 20
264.0784549999999
 30
0.0
 11
52.78999999999999
 21
263.8184549999999
 31
0.0
  0
LINE
  5
1BC
330
1E
100
AcDbEntity
  8
0
100
AcDbLine
 10
44.71
 20
263.8184549999999
 30
0.0
 11
44.75
 21
264.0784549999999
 31
0.0
  0
LINE
  5
1BD
330
1E
100
AcDbEntity
  8
0
100
AcDbLine
 10
42.88
 20
263.5784549999999
 30
0.0
 11
43.04
 21
263.3684549999999
 31
0.0
  0
LINE
  5
1BE
330
1E
100
AcDbEntity
  8
0
100
AcDbLine
 10
42.78999999999999
 20
263.8184549999999
 30
0.0
 11
42.88
 21
263.5784549999999
 31
0.0
  0
LINE
  5
1BF
330
1E
100
AcDbEntity
  8
0
100
AcDbLine
 10
42.75
 20
264.0784549999999
 30
0.0
 11
42.78999999999999
 21
264.3384549999999
 31
0.0
  0
LINE
  5
1C0
330
1E
100
AcDbEntity
  8
0
100
AcDbLine
 10
42.75
 20
264.0784549999999
 30
0.0
 11
42.78999999999999
 21
263.8184549999999
 31
0.0
  0
LINE
  5
1C1
330
1E
100
AcDbEntity
  8
0
100
AcDbLine
 10
42.88
 20
264.5784549999999
 30
0.0
 11
43.04
 21
264.788455
 31
0.0
  0
LINE
  5
1C2
330
1E
100
AcDbEntity
  8
0
100
AcDbLine
 10
42.78999999999999
 20
264.3384549999999
 30
0.0
 11
42.88
 21
264.5784549999999
 31
0.0
  0
LINE
  5
1C3
330
1E
100
AcDbEntity
  8
0
100
AcDbLine
 10
43.04
 20
264.788455
 30
0.0
 11
43.25
 21
264.9484549999999
 31
0.0
  0
LINE
  5
1C4
330
1E
100
AcDbEntity
  8
0
100
AcDbLine
 10
44.46
 20
264.788455
 30
0.0
 11
44.61999999999999
 21
264.5784549999999
 31
0.0
  0
LINE
  5
1C5
330
1E
100
AcDbEntity
  8
0
100
AcDbLine
 10
44.61999999999999
 20
264.5784549999999
 30
0.0
 11
44.71
 21
264.3384549999999
 31
0.0
  0
LINE
  5
1C6
330
1E
100
AcDbEntity
  8
0
100
AcDbLine
 10
64.71
 20
264.3384549999999
 30
0.0
 11
64.75
 21
264.0784549999999
 31
0.0
  0
LINE
  5
1C7
330
1E
100
AcDbEntity
  8
0
100
AcDbLine
 10
62.78999999999999
 20
264.3384549999999
 30
0.0
 11
62.88
 21
264.5784549999999
 31
0.0
  0
LINE
  5
1C8
330
1E
100
AcDbEntity
  8
0
100
AcDbLine
 10
84.71
 20
264.3384549999999
 30
0.0
 11
84.74999999999999
 21
264.0784549999999
 31
0.0
  0
LINE
  5
1C9
330
1E
100
AcDbEntity
  8
0
100
AcDbLine
 10
82.79000000000001
 20
264.3384549999999
 30
0.0
 11
82.88
 21
264.5784549999999
 31
0.0
  0
LINE
  5
1CA
330
1E
100
AcDbEntity
  8
0
100
AcDbLine
 10
74.71
 20
264.3384549999999
 30
0.0
 11
74.75
 21
264.0784549999999
 31
0.0
  0
LINE
  5
1CB
330
1E
100
AcDbEntity
  8
0
100
AcDbLine
 10
72.79
 20
264.3384549999999
 30
0.0
 11
72.88
 21
264.5784549999999
 31
0.0
  0
LINE
  5
1CC
330
1E
100
AcDbEntity
  8
0
100
AcDbLine
 10
52.78999999999999
 20
264.3384549999999
 30
0.0
 11
52.88
 21
264.5784549999999
 31
0.0
  0
LINE
  5
1CD
330
1E
100
AcDbEntity
  8
0
100
AcDbLine
 10
53.04
 20
264.788455
 30
0.0
 11
53.25
 21
264.9484549999999
 31
0.0
  0
LINE
  5
1CE
330
1E
100
AcDbEntity
  8
0
100
AcDbLine
 10
52.88
 20
264.5784549999999
 30
0.0
 11
53.04
 21
264.788455
 31
0.0
  0
LINE
  5
1CF
330
1E
100
AcDbEntity
  8
0
100
AcDbLine
 10
54.46
 20
264.788455
 30
0.0
 11
54.61999999999999
 21
264.5784549999999
 31
0.0
  0
LINE
  5
1D0
330
1E
100
AcDbEntity
  8
0
100
AcDbLine
 10
64.62
 20
264.5784549999999
 30
0.0
 11
64.71
 21
264.3384549999999
 31
0.0
  0
LINE
  5
1D1
330
1E
100
AcDbEntity
  8
0
100
AcDbLine
 10
62.88
 20
264.5784549999999
 30
0.0
 11
63.04
 21
264.788455
 31
0.0
  0
LINE
  5
1D2
330
1E
100
AcDbEntity
  8
0
100
AcDbLine
 10
84.62000000000001
 20
264.5784549999999
 30
0.0
 11
84.71
 21
264.3384549999999
 31
0.0
  0
LINE
  5
1D3
330
1E
100
AcDbEntity
  8
0
100
AcDbLine
 10
82.88
 20
264.5784549999999
 30
0.0
 11
83.04
 21
264.788455
 31
0.0
  0
LINE
  5
1D4
330
1E
100
AcDbEntity
  8
0
100
AcDbLine
 10
74.62
 20
264.5784549999999
 30
0.0
 11
74.71
 21
264.3384549999999
 31
0.0
  0
LINE
  5
1D5
330
1E
100
AcDbEntity
  8
0
100
AcDbLine
 10
64.45999999999999
 20
264.788455
 30
0.0
 11
64.62
 21
264.5784549999999
 31
0.0
  0
LINE
  5
1D6
330
1E
100
AcDbEntity
  8
0
100
AcDbLine
 10
63.04
 20
264.788455
 30
0.0
 11
63.25
 21
264.9484549999999
 31
0.0
  0
LINE
  5
1D7
330
1E
100
AcDbEntity
  8
0
100
AcDbLine
 10
84.45999999999999
 20
264.788455
 30
0.0
 11
84.62000000000001
 21
264.5784549999999
 31
0.0
  0
LINE
  5
1D8
330
1E
100
AcDbEntity
  8
0
100
AcDbLine
 10
83.04
 20
264.788455
 30
0.0
 11
83.25000000000001
 21
264.9484549999999
 31
0.0
  0
LINE
  5
1D9
330
1E
100
AcDbEntity
  8
0
100
AcDbLine
 10
74.45999999999999
 20
264.788455
 30
0.0
 11
74.62
 21
264.5784549999999
 31
0.0
  0
LINE
  5
1DA
330
1E
100
AcDbEntity
  8
0
100
AcDbLine
 10
73.04000000000001
 20
264.788455
 30
0.0
 11
73.25
 21
264.9484549999999
 31
0.0
  0
LINE
  5
1DB
330
1E
100
AcDbEntity
  8
0
100
AcDbLine
 10
72.88
 20
264.5784549999999
 30
0.0
 11
73.04000000000001
 21
264.788455
 31
0.0
  0
LINE
  5
1DC
330
1E
100
AcDbEntity
  8
0
100
AcDbLine
 10
54.61999999999999
 20
264.5784549999999
 30
0.0
 11
54.71
 21
264.3384549999999
 31
0.0
  0
LINE
  5
1DD
330
1E
100
AcDbEntity
  8
0
100
AcDbLine
 10
54.71
 20
264.3384549999999
 30
0.0
 11
54.75
 21
264.0784549999999
 31
0.0
  0
LINE
  5
1DE
330
1E
100
AcDbEntity
  8
0
100
AcDbLine
 10
44.71
 20
264.3384549999999
 30
0.0
 11
44.75
 21
264.0784549999999
 31
0.0
  0
LINE
  5
1DF
330
1E
100
AcDbEntity
  8
0
100
AcDbLine
 10
136.25
 20
262.5784549999999
 30
0.0
 11
136.25
 21
259.2974549999999
 31
0.0
  0
LINE
  5
1E0
330
1E
100
AcDbEntity
  8
0
100
AcDbLine
 10
136.25
 20
262.5784549999999
 30
0.0
 11
136.25
 21
276.8784549999999
 31
0.0
  0
LINE
  5
1E1
330
1E
100
AcDbEntity
  8
0
100
AcDbLine
 10
182.2499999999999
 20
259.012455
 30
0.0
 11
182.2499999999999
 21
254.4274549999999
 31
0.0
  0
LINE
  5
1E4
330
1E
100
AcDbEntity
  8
0
100
AcDbLine
 10
182.2499999999999
 20
264.924426563981
 30
0.0
 11
182.2499999999999
 21
259.012455
 31
0.0
  0
LINE
  5
1EB
330
1E
100
AcDbEntity
  8
0
100
AcDbLine
 10
136.25
 20
259.2974549999999
 30
0.0
 11
136.25
 21
247.7304549999999
 31
0.0
  0
LINE
  5
1EC
330
1E
100
AcDbEntity
  8
0
100
AcDbLine
 10
136.25
 20
259.2974549999999
 30
0.0
 11
136.25
 21
268.2814549999999
 31
0.0
  0
LINE
  5
1EF
330
1E
100
AcDbEntity
  8
0
100
AcDbLine
 10
43.49
 20
265.038455
 30
0.0
 11
43.75
 21
265.0784549999999
 31
0.0
  0
LINE
  5
1F0
330
1E
100
AcDbEntity
  8
0
100
AcDbLine
 10
43.25
 20
264.9484549999999
 30
0.0
 11
43.49
 21
265.038455
 31
0.0
  0
LINE
  5
1F1
330
1E
100
AcDbEntity
  8
0
100
AcDbLine
 10
43.75
 20
265.0784549999999
 30
0.0
 11
44.00999999999999
 21
265.038455
 31
0.0
  0
LINE
  5
1F2
330
1E
100
AcDbEntity
  8
0
100
AcDbLine
 10
44.00999999999999
 20
265.038455
 30
0.0
 11
44.24999999999999
 21
264.9484549999999
 31
0.0
  0
LINE
  5
1F3
330
1E
100
AcDbEntity
  8
0
100
AcDbLine
 10
64.25
 20
264.9484549999999
 30
0.0
 11
64.45999999999999
 21
264.788455
 31
0.0
  0
LINE
  5
1F4
330
1E
100
AcDbEntity
  8
0
100
AcDbLine
 10
63.25
 20
264.9484549999999
 30
0.0
 11
63.49
 21
265.038455
 31
0.0
  0
LINE
  5
1F5
330
1E
100
AcDbEntity
  8
0
100
AcDbLine
 10
84.25
 20
264.9484549999999
 30
0.0
 11
84.45999999999999
 21
264.788455
 31
0.0
  0
LINE
  5
1F6
330
1E
100
AcDbEntity
  8
0
100
AcDbLine
 10
83.25000000000001
 20
264.9484549999999
 30
0.0
 11
83.49
 21
265.038455
 31
0.0
  0
LINE
  5
1F7
330
1E
100
AcDbEntity
  8
0
100
AcDbLine
 10
74.25
 20
264.9484549999999
 30
0.0
 11
74.45999999999999
 21
264.788455
 31
0.0
  0
LINE
  5
1F8
330
1E
100
AcDbEntity
  8
0
100
AcDbLine
 10
73.25
 20
264.9484549999999
 30
0.0
 11
73.49
 21
265.038455
 31
0.0
  0
LINE
  5
1F9
330
1E
100
AcDbEntity
  8
0
100
AcDbLine
 10
53.25
 20
264.9484549999999
 30
0.0
 11
53.49
 21
265.038455
 31
0.0
  0
LINE
  5
1FA
330
1E
100
AcDbEntity
  8
0
100
AcDbLine
 10
53.49
 20
265.038455
 30
0.0
 11
53.75
 21
265.0784549999999
 31
0.0
  0
LINE
  5
1FB
330
1E
100
AcDbEntity
  8
0
100
AcDbLine
 10
53.75
 20
265.0784549999999
 30
0.0
 11
54.00999999999999
 21
265.038455
 31
0.0
  0
LINE
  5
1FC
330
1E
100
AcDbEntity
  8
0
100
AcDbLine
 10
64.01
 20
265.038455
 30
0.0
 11
64.25
 21
264.9484549999999
 31
0.0
  0
LINE
  5
1FD
330
1E
100
AcDbEntity
  8
0
100
AcDbLine
 10
63.49
 20
265.038455
 30
0.0
 11
63.75
 21
265.0784549999999
 31
0.0
  0
LINE
  5
1FE
330
1E
100
AcDbEntity
  8
0
100
AcDbLine
 10
84.01000000000001
 20
265.038455
 30
0.0
 11
84.25
 21
264.9484549999999
 31
0.0
  0
LINE
  5
1FF
330
1E
100
AcDbEntity
  8
0
100
AcDbLine
 10
83.49
 20
265.038455
 30
0.0
 11
83.75
 21
265.0784549999999
 31
0.0
  0
LINE
  5
200
330
1E
100
AcDbEntity
  8
0
100
AcDbLine
 10
74.01
 20
265.038455
 30
0.0
 11
74.25
 21
264.9484549999999
 31
0.0
  0
LINE
  5
201
330
1E
100
AcDbEntity
  8
0
100
AcDbLine
 10
63.75
 20
265.0784549999999
 30
0.0
 11
64.01
 21
265.038455
 31
0.0
  0
LINE
  5
202
330
1E
100
AcDbEntity
  8
0
100
AcDbLine
 10
83.75
 20
265.0784549999999
 30
0.0
 11
84.01000000000001
 21
265.038455
 31
0.0
  0
LINE
  5
203
330
1E
100
AcDbEntity
  8
0
100
AcDbLine
 10
73.75
 20
265.0784549999999
 30
0.0
 11
74.01
 21
265.038455
 31
0.0
  0
LINE
  5
204
330
1E
100
AcDbEntity
  8
0
100
AcDbLine
 10
73.49
 20
265.038455
 30
0.0
 11
73.75
 21
265.0784549999999
 31
0.0
  0
LINE
  5
205
330
1E
100
AcDbEntity
  8
0
100
AcDbLine
 10
54.00999999999999
 20
265.038455
 30
0.0
 11
54.25
 21
264.9484549999999
 31
0.0
  0
LINE
  5
206
330
1E
100
AcDbEntity
  8
0
100
AcDbLine
 10
54.25
 20
264.9484549999999
 30
0.0
 11
54.46
 21
264.788455
 31
0.0
  0
LINE
  5
207
330
1E
100
AcDbEntity
  8
0
100
AcDbLine
 10
44.24999999999999
 20
264.9484549999999
 30
0.0
 11
44.46
 21
264.788455
 31
0.0
  0
LINE
  5
208
330
1E
100
AcDbEntity
  8
0
100
AcDbLine
 10
28.75
 20
273.0784549999999
 30
0.0
 11
29.01
 21
273.118455
 31
0.0
  0
LINE
  5
209
330
1E
100
AcDbEntity
  8
0
100
AcDbLine
 10
29.01
 20
273.118455
 30
0.0
 11
29.25
 21
273.2084549999999
 31
0.0
  0
LINE
  5
20A
330
1E
100
AcDbEntity
  8
0
100
AcDbLine
 10
29.25
 20
273.2084549999999
 30
0.0
 11
29.46
 21
273.3684549999999
 31
0.0
  0
LINE
  5
20B
330
1E
100
AcDbEntity
  8
0
100
AcDbLine
 10
29.46
 20
273.3684549999999
 30
0.0
 11
29.62
 21
273.5784549999999
 31
0.0
  0
LINE
  5
20C
330
1E
100
AcDbEntity
  8
0
100
AcDbLine
 10
28.49
 20
273.118455
 30
0.0
 11
28.75
 21
273.0784549999999
 31
0.0
  0
LINE
  5
20D
330
1E
100
AcDbEntity
  8
0
100
AcDbLine
 10
28.25
 20
273.2084549999999
 30
0.0
 11
28.49
 21
273.118455
 31
0.0
  0
LINE
  5
20E
330
1E
100
AcDbEntity
  8
0
100
AcDbLine
 10
28.04
 20
273.3684549999999
 30
0.0
 11
28.25
 21
273.2084549999999
 31
0.0
  0
LINE
  5
20F
330
1E
100
AcDbEntity
  8
0
100
AcDbLine
 10
38.75
 20
273.0784549999999
 30
0.0
 11
39.00999999999999
 21
273.118455
 31
0.0
  0
LINE
  5
210
330
1E
100
AcDbEntity
  8
0
100
AcDbLine
 10
39.00999999999999
 20
273.118455
 30
0.0
 11
39.25
 21
273.2084549999999
 31
0.0
  0
LINE
  5
211
330
1E
100
AcDbEntity
  8
0
100
AcDbLine
 10
39.25
 20
273.2084549999999
 30
0.0
 11
39.46
 21
273.3684549999999
 31
0.0
  0
LINE
  5
212
330
1E
100
AcDbEntity
  8
0
100
AcDbLine
 10
39.46
 20
273.3684549999999
 30
0.0
 11
39.61999999999999
 21
273.5784549999999
 31
0.0
  0
LINE
  5
213
330
1E
100
AcDbEntity
  8
0
100
AcDbLine
 10
38.49
 20
273.118455
 30
0.0
 11
38.75
 21
273.0784549999999
 31
0.0
  0
LINE
  5
214
330
1E
100
AcDbEntity
  8
0
100
AcDbLine
 10
38.25
 20
273.2084549999999
 30
0.0
 11
38.49
 21
273.118455
 31
0.0
  0
LINE
  5
215
330
1E
100
AcDbEntity
  8
0
100
AcDbLine
 10
38.04
 20
273.3684549999999
 30
0.0
 11
38.25
 21
273.2084549999999
 31
0.0
  0
LINE
  5
216
330
1E
100
AcDbEntity
  8
0
100
AcDbLine
 10
29.62
 20
273.5784549999999
 30
0.0
 11
29.71
 21
273.8184549999999
 31
0.0
  0
LINE
  5
217
330
1E
100
AcDbEntity
  8
0
100
AcDbLine
 10
29.71
 20
273.8184549999999
 30
0.0
 11
29.75
 21
274.0784549999999
 31
0.0
  0
LINE
  5
218
330
1E
100
AcDbEntity
  8
0
100
AcDbLine
 10
27.88
 20
273.5784549999999
 30
0.0
 11
28.04
 21
273.3684549999999
 31
0.0
  0
LINE
  5
219
330
1E
100
AcDbEntity
  8
0
100
AcDbLine
 10
27.78999999999999
 20
273.8184549999999
 30
0.0
 11
27.88
 21
273.5784549999999
 31
0.0
  0
LINE
  5
21A
330
1E
100
AcDbEntity
  8
0
100
AcDbLine
 10
27.78999999999999
 20
274.3384549999999
 30
0.0
 11
27.88
 21
274.5784549999999
 31
0.0
  0
LINE
  5
21B
330
1E
100
AcDbEntity
  8
0
100
AcDbLine
 10
27.75
 20
274.0784549999999
 30
0.0
 11
27.78999999999999
 21
274.3384549999999
 31
0.0
  0
LINE
  5
21C
330
1E
100
AcDbEntity
  8
0
100
AcDbLine
 10
27.75
 20
274.0784549999999
 30
0.0
 11
27.78999999999999
 21
273.8184549999999
 31
0.0
  0
LINE
  5
21D
330
1E
100
AcDbEntity
  8
0
100
AcDbLine
 10
27.88
 20
274.5784549999999
 30
0.0
 11
28.04
 21
274.788455
 31
0.0
  0
LINE
  5
21E
330
1E
100
AcDbEntity
  8
0
100
AcDbLine
 10
29.62
 20
274.5784549999999
 30
0.0
 11
29.71
 21
274.3384549999999
 31
0.0
  0
LINE
  5
21F
330
1E
100
AcDbEntity
  8
0
100
AcDbLine
 10
29.71
 20
274.3384549999999
 30
0.0
 11
29.75
 21
274.0784549999999
 31
0.0
  0
LINE
  5
220
330
1E
100
AcDbEntity
  8
0
100
AcDbLine
 10
39.61999999999999
 20
273.5784549999999
 30
0.0
 11
39.71
 21
273.8184549999999
 31
0.0
  0
LINE
  5
221
330
1E
100
AcDbEntity
  8
0
100
AcDbLine
 10
39.71
 20
273.8184549999999
 30
0.0
 11
39.75
 21
274.0784549999999
 31
0.0
  0
LINE
  5
222
330
1E
100
AcDbEntity
  8
0
100
AcDbLine
 10
37.88
 20
273.5784549999999
 30
0.0
 11
38.04
 21
273.3684549999999
 31
0.0
  0
LINE
  5
223
330
1E
100
AcDbEntity
  8
0
100
AcDbLine
 10
37.78999999999999
 20
273.8184549999999
 30
0.0
 11
37.88
 21
273.5784549999999
 31
0.0
  0
LINE
  5
224
330
1E
100
AcDbEntity
  8
0
100
AcDbLine
 10
37.88
 20
274.5784549999999
 30
0.0
 11
38.04
 21
274.788455
 31
0.0
  0
LINE
  5
225
330
1E
100
AcDbEntity
  8
0
100
AcDbLine
 10
37.78999999999999
 20
274.3384549999999
 30
0.0
 11
37.88
 21
274.5784549999999
 31
0.0
  0
LINE
  5
226
330
1E
100
AcDbEntity
  8
0
100
AcDbLine
 10
37.75
 20
274.0784549999999
 30
0.0
 11
37.78999999999999
 21
274.3384549999999
 31
0.0
  0
LINE
  5
227
330
1E
100
AcDbEntity
  8
0
100
AcDbLine
 10
37.75
 20
274.0784549999999
 30
0.0
 11
37.78999999999999
 21
273.8184549999999
 31
0.0
  0
LINE
  5
228
330
1E
100
AcDbEntity
  8
0
100
AcDbLine
 10
39.61999999999999
 20
274.5784549999999
 30
0.0
 11
39.71
 21
274.3384549999999
 31
0.0
  0
LINE
  5
229
330
1E
100
AcDbEntity
  8
0
100
AcDbLine
 10
39.71
 20
274.3384549999999
 30
0.0
 11
39.75
 21
274.0784549999999
 31
0.0
  0
LINE
  5
22A
330
1E
100
AcDbEntity
  8
0
100
AcDbLine
 10
48.75
 20
273.0784549999999
 30
0.0
 11
49.00999999999999
 21
273.118455
 31
0.0
  0
LINE
  5
22B
330
1E
100
AcDbEntity
  8
0
100
AcDbLine
 10
49.00999999999999
 20
273.118455
 30
0.0
 11
49.25
 21
273.2084549999999
 31
0.0
  0
LINE
  5
22C
330
1E
100
AcDbEntity
  8
0
100
AcDbLine
 10
49.25
 20
273.2084549999999
 30
0.0
 11
49.46
 21
273.3684549999999
 31
0.0
  0
LINE
  5
22D
330
1E
100
AcDbEntity
  8
0
100
AcDbLine
 10
48.49
 20
273.118455
 30
0.0
 11
48.75
 21
273.0784549999999
 31
0.0
  0
LINE
  5
22E
330
1E
100
AcDbEntity
  8
0
100
AcDbLine
 10
49.46
 20
273.3684549999999
 30
0.0
 11
49.61999999999999
 21
273.5784549999999
 31
0.0
  0
LINE
  5
22F
330
1E
100
AcDbEntity
  8
0
100
AcDbLine
 10
49.61999999999999
 20
273.5784549999999
 30
0.0
 11
49.71
 21
273.8184549999999
 31
0.0
  0
LINE
  5
230
330
1E
100
AcDbEntity
  8
0
100
AcDbLine
 10
48.25
 20
273.2084549999999
 30
0.0
 11
48.49
 21
273.118455
 31
0.0
  0
LINE
  5
231
330
1E
100
AcDbEntity
  8
0
100
AcDbLine
 10
48.04
 20
273.3684549999999
 30
0.0
 11
48.25
 21
273.2084549999999
 31
0.0
  0
LINE
  5
232
330
1E
100
AcDbEntity
  8
0
100
AcDbLine
 10
49.71
 20
273.8184549999999
 30
0.0
 11
49.75
 21
274.0784549999999
 31
0.0
  0
LINE
  5
233
330
1E
100
AcDbEntity
  8
0
100
AcDbLine
 10
47.88
 20
273.5784549999999
 30
0.0
 11
48.04
 21
273.3684549999999
 31
0.0
  0
LINE
  5
234
330
1E
100
AcDbEntity
  8
0
100
AcDbLine
 10
47.78999999999999
 20
273.8184549999999
 30
0.0
 11
47.88
 21
273.5784549999999
 31
0.0
  0
LINE
  5
235
330
1E
100
AcDbEntity
  8
0
100
AcDbLine
 10
47.88
 20
274.5784549999999
 30
0.0
 11
48.04
 21
274.788455
 31
0.0
  0
LINE
  5
236
330
1E
100
AcDbEntity
  8
0
100
AcDbLine
 10
47.78999999999999
 20
274.3384549999999
 30
0.0
 11
47.88
 21
274.5784549999999
 31
0.0
  0
LINE
  5
237
330
1E
100
AcDbEntity
  8
0
100
AcDbLine
 10
47.75
 20
274.0784549999999
 30
0.0
 11
47.78999999999999
 21
274.3384549999999
 31
0.0
  0
LINE
  5
238
330
1E
100
AcDbEntity
  8
0
100
AcDbLine
 10
47.75
 20
274.0784549999999
 30
0.0
 11
47.78999999999999
 21
273.8184549999999
 31
0.0
  0
LINE
  5
239
330
1E
100
AcDbEntity
  8
0
100
AcDbLine
 10
49.61999999999999
 20
274.5784549999999
 30
0.0
 11
49.71
 21
274.3384549999999
 31
0.0
  0
LINE
  5
23A
330
1E
100
AcDbEntity
  8
0
100
AcDbLine
 10
58.75
 20
273.0784549999999
 30
0.0
 11
59.00999999999999
 21
273.118455
 31
0.0
  0
LINE
  5
23B
330
1E
100
AcDbEntity
  8
0
100
AcDbLine
 10
78.75
 20
273.0784549999999
 30
0.0
 11
79.01
 21
273.118455
 31
0.0
  0
LINE
  5
23C
330
1E
100
AcDbEntity
  8
0
100
AcDbLine
 10
68.75
 20
273.0784549999999
 30
0.0
 11
69.01
 21
273.118455
 31
0.0
  0
LINE
  5
23D
330
1E
100
AcDbEntity
  8
0
100
AcDbLine
 10
88.75
 20
273.0784549999999
 30
0.0
 11
89.01000000000001
 21
273.118455
 31
0.0
  0
LINE
  5
23E
330
1E
100
AcDbEntity
  8
0
100
AcDbLine
 10
68.49
 20
273.118455
 30
0.0
 11
68.75
 21
273.0784549999999
 31
0.0
  0
LINE
  5
23F
330
1E
100
AcDbEntity
  8
0
100
AcDbLine
 10
68.25
 20
273.2084549999999
 30
0.0
 11
68.49
 21
273.118455
 31
0.0
  0
LINE
  5
240
330
1E
100
AcDbEntity
  8
0
100
AcDbLine
 10
78.49
 20
273.118455
 30
0.0
 11
78.75
 21
273.0784549999999
 31
0.0
  0
LINE
  5
241
330
1E
100
AcDbEntity
  8
0
100
AcDbLine
 10
78.25
 20
273.2084549999999
 30
0.0
 11
78.49
 21
273.118455
 31
0.0
  0
LINE
  5
242
330
1E
100
AcDbEntity
  8
0
100
AcDbLine
 10
79.01
 20
273.118455
 30
0.0
 11
79.25
 21
273.2084549999999
 31
0.0
  0
LINE
  5
243
330
1E
100
AcDbEntity
  8
0
100
AcDbLine
 10
79.25
 20
273.2084549999999
 30
0.0
 11
79.45999999999999
 21
273.3684549999999
 31
0.0
  0
LINE
  5
244
330
1E
100
AcDbEntity
  8
0
100
AcDbLine
 10
69.01
 20
273.118455
 30
0.0
 11
69.25
 21
273.2084549999999
 31
0.0
  0
LINE
  5
245
330
1E
100
AcDbEntity
  8
0
100
AcDbLine
 10
69.25
 20
273.2084549999999
 30
0.0
 11
69.45999999999999
 21
273.3684549999999
 31
0.0
  0
LINE
  5
246
330
1E
100
AcDbEntity
  8
0
100
AcDbLine
 10
88.49
 20
273.118455
 30
0.0
 11
88.75
 21
273.0784549999999
 31
0.0
  0
LINE
  5
247
330
1E
100
AcDbEntity
  8
0
100
AcDbLine
 10
88.25000000000001
 20
273.2084549999999
 30
0.0
 11
88.49
 21
273.118455
 31
0.0
  0
LINE
  5
248
330
1E
100
AcDbEntity
  8
0
100
AcDbLine
 10
89.01000000000001
 20
273.118455
 30
0.0
 11
89.25
 21
273.2084549999999
 31
0.0
  0
LINE
  5
249
330
1E
100
AcDbEntity
  8
0
100
AcDbLine
 10
89.25
 20
273.2084549999999
 30
0.0
 11
89.45999999999999
 21
273.3684549999999
 31
0.0
  0
LINE
  5
24A
330
1E
100
AcDbEntity
  8
0
100
AcDbLine
 10
98.49
 20
273.118455
 30
0.0
 11
98.75
 21
273.0784549999999
 31
0.0
  0
LINE
  5
24B
330
1E
100
AcDbEntity
  8
0
100
AcDbLine
 10
98.25000000000001
 20
273.2084549999999
 30
0.0
 11
98.49
 21
273.118455
 31
0.0
  0
LINE
  5
24C
330
1E
100
AcDbEntity
  8
0
100
AcDbLine
 10
98.75
 20
273.0784549999999
 30
0.0
 11
99.01000000000001
 21
273.118455
 31
0.0
  0
LINE
  5
24D
330
1E
100
AcDbEntity
  8
0
100
AcDbLine
 10
99.01000000000001
 20
273.118455
 30
0.0
 11
99.25
 21
273.2084549999999
 31
0.0
  0
LINE
  5
24E
330
1E
100
AcDbEntity
  8
0
100
AcDbLine
 10
99.25
 20
273.2084549999999
 30
0.0
 11
99.45999999999999
 21
273.3684549999999
 31
0.0
  0
LINE
  5
24F
330
1E
100
AcDbEntity
  8
0
100
AcDbLine
 10
59.00999999999999
 20
273.118455
 30
0.0
 11
59.25
 21
273.2084549999999
 31
0.0
  0
LINE
  5
250
330
1E
100
AcDbEntity
  8
0
100
AcDbLine
 10
59.25
 20
273.2084549999999
 30
0.0
 11
59.46
 21
273.3684549999999
 31
0.0
  0
LINE
  5
251
330
1E
100
AcDbEntity
  8
0
100
AcDbLine
 10
58.49
 20
273.118455
 30
0.0
 11
58.75
 21
273.0784549999999
 31
0.0
  0
LINE
  5
252
330
1E
100
AcDbEntity
  8
0
100
AcDbLine
 10
59.46
 20
273.3684549999999
 30
0.0
 11
59.61999999999999
 21
273.5784549999999
 31
0.0
  0
LINE
  5
253
330
1E
100
AcDbEntity
  8
0
100
AcDbLine
 10
68.04000000000001
 20
273.3684549999999
 30
0.0
 11
68.25
 21
273.2084549999999
 31
0.0
  0
LINE
  5
254
330
1E
100
AcDbEntity
  8
0
100
AcDbLine
 10
67.88
 20
273.5784549999999
 30
0.0
 11
68.04000000000001
 21
273.3684549999999
 31
0.0
  0
LINE
  5
255
330
1E
100
AcDbEntity
  8
0
100
AcDbLine
 10
78.04000000000001
 20
273.3684549999999
 30
0.0
 11
78.25
 21
273.2084549999999
 31
0.0
  0
LINE
  5
256
330
1E
100
AcDbEntity
  8
0
100
AcDbLine
 10
77.88
 20
273.5784549999999
 30
0.0
 11
78.04000000000001
 21
273.3684549999999
 31
0.0
  0
LINE
  5
257
330
1E
100
AcDbEntity
  8
0
100
AcDbLine
 10
79.45999999999999
 20
273.3684549999999
 30
0.0
 11
79.62
 21
273.5784549999999
 31
0.0
  0
LINE
  5
258
330
1E
100
AcDbEntity
  8
0
100
AcDbLine
 10
79.62
 20
273.5784549999999
 30
0.0
 11
79.71
 21
273.8184549999999
 31
0.0
  0
LINE
  5
259
330
1E
100
AcDbEntity
  8
0
100
AcDbLine
 10
69.45999999999999
 20
273.3684549999999
 30
0.0
 11
69.62
 21
273.5784549999999
 31
0.0
  0
LINE
  5
25A
330
1E
100
AcDbEntity
  8
0
100
AcDbLine
 10
69.62
 20
273.5784549999999
 30
0.0
 11
69.71
 21
273.8184549999999
 31
0.0
  0
LINE
  5
25B
330
1E
100
AcDbEntity
  8
0
100
AcDbLine
 10
88.04
 20
273.3684549999999
 30
0.0
 11
88.25000000000001
 21
273.2084549999999
 31
0.0
  0
LINE
  5
25C
330
1E
100
AcDbEntity
  8
0
100
AcDbLine
 10
87.88
 20
273.5784549999999
 30
0.0
 11
88.04
 21
273.3684549999999
 31
0.0
  0
LINE
  5
25D
330
1E
100
AcDbEntity
  8
0
100
AcDbLine
 10
89.45999999999999
 20
273.3684549999999
 30
0.0
 11
89.62000000000001
 21
273.5784549999999
 31
0.0
  0
LINE
  5
25E
330
1E
100
AcDbEntity
  8
0
100
AcDbLine
 10
89.62000000000001
 20
273.5784549999999
 30
0.0
 11
89.71
 21
273.8184549999999
 31
0.0
  0
LINE
  5
25F
330
1E
100
AcDbEntity
  8
0
100
AcDbLine
 10
98.04000000000002
 20
273.3684549999999
 30
0.0
 11
98.25000000000001
 21
273.2084549999999
 31
0.0
  0
LINE
  5
260
330
1E
100
AcDbEntity
  8
0
100
AcDbLine
 10
97.88
 20
273.5784549999999
 30
0.0
 11
98.04000000000002
 21
273.3684549999999
 31
0.0
  0
LINE
  5
261
330
1E
100
AcDbEntity
  8
0
100
AcDbLine
 10
99.45999999999999
 20
273.3684549999999
 30
0.0
 11
99.62000000000001
 21
273.5784549999999
 31
0.0
  0
LINE
  5
262
330
1E
100
AcDbEntity
  8
0
100
AcDbLine
 10
99.62000000000001
 20
273.5784549999999
 30
0.0
 11
99.71
 21
273.8184549999999
 31
0.0
  0
LINE
  5
263
330
1E
100
AcDbEntity
  8
0
100
AcDbLine
 10
59.61999999999999
 20
273.5784549999999
 30
0.0
 11
59.71
 21
273.8184549999999
 31
0.0
  0
LINE
  5
264
330
1E
100
AcDbEntity
  8
0
100
AcDbLine
 10
58.25
 20
273.2084549999999
 30
0.0
 11
58.49
 21
273.118455
 31
0.0
  0
LINE
  5
265
330
1E
100
AcDbEntity
  8
0
100
AcDbLine
 10
58.04
 20
273.3684549999999
 30
0.0
 11
58.25
 21
273.2084549999999
 31
0.0
  0
LINE
  5
266
330
1E
100
AcDbEntity
  8
0
100
AcDbLine
 10
67.79
 20
273.8184549999999
 30
0.0
 11
67.88
 21
273.5784549999999
 31
0.0
  0
LINE
  5
267
330
1E
100
AcDbEntity
  8
0
100
AcDbLine
 10
77.79
 20
273.8184549999999
 30
0.0
 11
77.88
 21
273.5784549999999
 31
0.0
  0
LINE
  5
268
330
1E
100
AcDbEntity
  8
0
100
AcDbLine
 10
79.71
 20
273.8184549999999
 30
0.0
 11
79.75
 21
274.0784549999999
 31
0.0
  0
LINE
  5
269
330
1E
100
AcDbEntity
  8
0
100
AcDbLine
 10
69.71
 20
273.8184549999999
 30
0.0
 11
69.75
 21
274.0784549999999
 31
0.0
  0
LINE
  5
26A
330
1E
100
AcDbEntity
  8
0
100
AcDbLine
 10
87.79000000000001
 20
273.8184549999999
 30
0.0
 11
87.88
 21
273.5784549999999
 31
0.0
  0
LINE
  5
26B
330
1E
100
AcDbEntity
  8
0
100
AcDbLine
 10
89.71
 20
273.8184549999999
 30
0.0
 11
89.74999999999999
 21
274.0784549999999
 31
0.0
  0
LINE
  5
26C
330
1E
100
AcDbEntity
  8
0
100
AcDbLine
 10
77.75
 20
274.0784549999999
 30
0.0
 11
77.79
 21
274.3384549999999
 31
0.0
  0
LINE
  5
26D
330
1E
100
AcDbEntity
  8
0
100
AcDbLine
 10
77.75
 20
274.0784549999999
 30
0.0
 11
77.79
 21
273.8184549999999
 31
0.0
  0
LINE
  5
26E
330
1E
100
AcDbEntity
  8
0
100
AcDbLine
 10
67.75
 20
274.0784549999999
 30
0.0
 11
67.79
 21
274.3384549999999
 31
0.0
  0
LINE
  5
26F
330
1E
100
AcDbEntity
  8
0
100
AcDbLine
 10
67.75
 20
274.0784549999999
 30
0.0
 11
67.79
 21
273.8184549999999
 31
0.0
  0
LINE
  5
270
330
1E
100
AcDbEntity
  8
0
100
AcDbLine
 10
87.75
 20
274.0784549999999
 30
0.0
 11
87.79000000000001
 21
274.3384549999999
 31
0.0
  0
LINE
  5
271
330
1E
100
AcDbEntity
  8
0
100
AcDbLine
 10
87.75
 20
274.0784549999999
 30
0.0
 11
87.79000000000001
 21
273.8184549999999
 31
0.0
  0
LINE
  5
272
330
1E
100
AcDbEntity
  8
0
100
AcDbLine
 10
97.79000000000001
 20
273.8184549999999
 30
0.0
 11
97.88
 21
273.5784549999999
 31
0.0
  0
LINE
  5
273
330
1E
100
AcDbEntity
  8
0
100
AcDbLine
 10
99.71
 20
273.8184549999999
 30
0.0
 11
99.75000000000001
 21
274.0784549999999
 31
0.0
  0
LINE
  5
274
330
1E
100
AcDbEntity
  8
0
100
AcDbLine
 10
79.71
 20
274.3384549999999
 30
0.0
 11
79.75
 21
274.0784549999999
 31
0.0
  0
LINE
  5
275
330
1E
100
AcDbEntity
  8
0
100
AcDbLine
 10
77.79
 20
274.3384549999999
 30
0.0
 11
77.88
 21
274.5784549999999
 31
0.0
  0
LINE
  5
276
330
1E
100
AcDbEntity
  8
0
100
AcDbLine
 10
69.71
 20
274.3384549999999
 30
0.0
 11
69.75
 21
274.0784549999999
 31
0.0
  0
LINE
  5
277
330
1E
100
AcDbEntity
  8
0
100
AcDbLine
 10
67.79
 20
274.3384549999999
 30
0.0
 11
67.88
 21
274.5784549999999
 31
0.0
  0
LINE
  5
278
330
1E
100
AcDbEntity
  8
0
100
AcDbLine
 10
89.71
 20
274.3384549999999
 30
0.0
 11
89.74999999999999
 21
274.0784549999999
 31
0.0
  0
LINE
  5
279
330
1E
100
AcDbEntity
  8
0
100
AcDbLine
 10
87.79000000000001
 20
274.3384549999999
 30
0.0
 11
87.88
 21
274.5784549999999
 31
0.0
  0
LINE
  5
27A
330
1E
100
AcDbEntity
  8
0
100
AcDbLine
 10
99.71
 20
274.3384549999999
 30
0.0
 11
99.75000000000001
 21
274.0784549999999
 31
0.0
  0
LINE
  5
27B
330
1E
100
AcDbEntity
  8
0
100
AcDbLine
 10
97.79000000000001
 20
274.3384549999999
 30
0.0
 11
97.88
 21
274.5784549999999
 31
0.0
  0
LINE
  5
27C
330
1E
100
AcDbEntity
  8
0
100
AcDbLine
 10
97.75
 20
274.0784549999999
 30
0.0
 11
97.79000000000001
 21
274.3384549999999
 31
0.0
  0
LINE
  5
27D
330
1E
100
AcDbEntity
  8
0
100
AcDbLine
 10
97.75
 20
274.0784549999999
 30
0.0
 11
97.79000000000001
 21
273.8184549999999
 31
0.0
  0
LINE
  5
27E
330
1E
100
AcDbEntity
  8
0
100
AcDbLine
 10
59.71
 20
273.8184549999999
 30
0.0
 11
59.75
 21
274.0784549999999
 31
0.0
  0
LINE
  5
27F
330
1E
100
AcDbEntity
  8
0
100
AcDbLine
 10
57.88
 20
273.5784549999999
 30
0.0
 11
58.04
 21
273.3684549999999
 31
0.0
  0
LINE
  5
280
330
1E
100
AcDbEntity
  8
0
100
AcDbLine
 10
57.78999999999999
 20
273.8184549999999
 30
0.0
 11
57.88
 21
273.5784549999999
 31
0.0
  0
LINE
  5
281
330
1E
100
AcDbEntity
  8
0
100
AcDbLine
 10
57.78999999999999
 20
274.3384549999999
 30
0.0
 11
57.88
 21
274.5784549999999
 31
0.0
  0
LINE
  5
282
330
1E
100
AcDbEntity
  8
0
100
AcDbLine
 10
57.75
 20
274.0784549999999
 30
0.0
 11
57.78999999999999
 21
274.3384549999999
 31
0.0
  0
LINE
  5
283
330
1E
100
AcDbEntity
  8
0
100
AcDbLine
 10
57.75
 20
274.0784549999999
 30
0.0
 11
57.78999999999999
 21
273.8184549999999
 31
0.0
  0
LINE
  5
284
330
1E
100
AcDbEntity
  8
0
100
AcDbLine
 10
57.88
 20
274.5784549999999
 30
0.0
 11
58.04
 21
274.788455
 31
0.0
  0
LINE
  5
285
330
1E
100
AcDbEntity
  8
0
100
AcDbLine
 10
79.62
 20
274.5784549999999
 30
0.0
 11
79.71
 21
274.3384549999999
 31
0.0
  0
LINE
  5
286
330
1E
100
AcDbEntity
  8
0
100
AcDbLine
 10
77.88
 20
274.5784549999999
 30
0.0
 11
78.04000000000001
 21
274.788455
 31
0.0
  0
LINE
  5
287
330
1E
100
AcDbEntity
  8
0
100
AcDbLine
 10
69.62
 20
274.5784549999999
 30
0.0
 11
69.71
 21
274.3384549999999
 31
0.0
  0
LINE
  5
288
330
1E
100
AcDbEntity
  8
0
100
AcDbLine
 10
67.88
 20
274.5784549999999
 30
0.0
 11
68.04000000000001
 21
274.788455
 31
0.0
  0
LINE
  5
289
330
1E
100
AcDbEntity
  8
0
100
AcDbLine
 10
89.62000000000001
 20
274.5784549999999
 30
0.0
 11
89.71
 21
274.3384549999999
 31
0.0
  0
LINE
  5
28A
330
1E
100
AcDbEntity
  8
0
100
AcDbLine
 10
87.88
 20
274.5784549999999
 30
0.0
 11
88.04
 21
274.788455
 31
0.0
  0
LINE
  5
28B
330
1E
100
AcDbEntity
  8
0
100
AcDbLine
 10
99.62000000000001
 20
274.5784549999999
 30
0.0
 11
99.71
 21
274.3384549999999
 31
0.0
  0
LINE
  5
28C
330
1E
100
AcDbEntity
  8
0
100
AcDbLine
 10
97.88
 20
274.5784549999999
 30
0.0
 11
98.04000000000002
 21
274.788455
 31
0.0
  0
LINE
  5
28D
330
1E
100
AcDbEntity
  8
0
100
AcDbLine
 10
59.61999999999999
 20
274.5784549999999
 30
0.0
 11
59.71
 21
274.3384549999999
 31
0.0
  0
LINE
  5
28E
330
1E
100
AcDbEntity
  8
0
100
AcDbLine
 10
59.71
 20
274.3384549999999
 30
0.0
 11
59.75
 21
274.0784549999999
 31
0.0
  0
LINE
  5
28F
330
1E
100
AcDbEntity
  8
0
100
AcDbLine
 10
49.71
 20
274.3384549999999
 30
0.0
 11
49.75
 21
274.0784549999999
 31
0.0
  0
LINE
  5
290
330
1E
100
AcDbEntity
  8
0
100
AcDbLine
 10
28.04
 20
274.788455
 30
0.0
 11
28.25
 21
274.9484549999999
 31
0.0
  0
LINE
  5
291
330
1E
100
AcDbEntity
  8
0
100
AcDbLine
 10
29.46
 20
274.788455
 30
0.0
 11
29.62
 21
274.5784549999999
 31
0.0
  0
LINE
  5
292
330
1E
100
AcDbEntity
  8
0
100
AcDbLine
 10
38.04
 20
274.788455
 30
0.0
 11
38.25
 21
274.9484549999999
 31
0.0
  0
LINE
  5
293
330
1E
100
AcDbEntity
  8
0
100
AcDbLine
 10
39.46
 20
274.788455
 30
0.0
 11
39.61999999999999
 21
274.5784549999999
 31
0.0
  0
LINE
  5
294
330
1E
100
AcDbEntity
  8
0
100
AcDbLine
 10
28.25
 20
274.9484549999999
 30
0.0
 11
28.49
 21
275.038455
 31
0.0
  0
LINE
  5
295
330
1E
100
AcDbEntity
  8
0
100
AcDbLine
 10
29.25
 20
274.9484549999999
 30
0.0
 11
29.46
 21
274.788455
 31
0.0
  0
LINE
  5
296
330
1E
100
AcDbEntity
  8
0
100
AcDbLine
 10
38.25
 20
274.9484549999999
 30
0.0
 11
38.49
 21
275.038455
 31
0.0
  0
LINE
  5
297
330
1E
100
AcDbEntity
  8
0
100
AcDbLine
 10
39.25
 20
274.9484549999999
 30
0.0
 11
39.46
 21
274.788455
 31
0.0
  0
LINE
  5
298
330
1E
100
AcDbEntity
  8
0
100
AcDbLine
 10
48.25
 20
274.9484549999999
 30
0.0
 11
48.49
 21
275.038455
 31
0.0
  0
LINE
  5
299
330
1E
100
AcDbEntity
  8
0
100
AcDbLine
 10
48.04
 20
274.788455
 30
0.0
 11
48.25
 21
274.9484549999999
 31
0.0
  0
LINE
  5
29A
330
1E
100
AcDbEntity
  8
0
100
AcDbLine
 10
28.49
 20
275.038455
 30
0.0
 11
28.75
 21
275.0784549999999
 31
0.0
  0
LINE
  5
29B
330
1E
100
AcDbEntity
  8
0
100
AcDbLine
 10
29.01
 20
275.038455
 30
0.0
 11
29.25
 21
274.9484549999999
 31
0.0
  0
LINE
  5
29C
330
1E
100
AcDbEntity
  8
0
100
AcDbLine
 10
38.49
 20
275.038455
 30
0.0
 11
38.75
 21
275.0784549999999
 31
0.0
  0
LINE
  5
29D
330
1E
100
AcDbEntity
  8
0
100
AcDbLine
 10
28.75
 20
275.0784549999999
 30
0.0
 11
29.01
 21
275.038455
 31
0.0
  0
LINE
  5
29E
330
1E
100
AcDbEntity
  8
0
100
AcDbLine
 10
38.75
 20
275.0784549999999
 30
0.0
 11
39.00999999999999
 21
275.038455
 31
0.0
  0
LINE
  5
29F
330
1E
100
AcDbEntity
  8
0
100
AcDbLine
 10
39.00999999999999
 20
275.038455
 30
0.0
 11
39.25
 21
274.9484549999999
 31
0.0
  0
LINE
  5
2A0
330
1E
100
AcDbEntity
  8
0
100
AcDbLine
 10
48.49
 20
275.038455
 30
0.0
 11
48.75
 21
275.0784549999999
 31
0.0
  0
LINE
  5
2A1
330
1E
100
AcDbEntity
  8
0
100
AcDbLine
 10
48.75
 20
275.0784549999999
 30
0.0
 11
49.00999999999999
 21
275.038455
 31
0.0
  0
LINE
  5
2A2
330
1E
100
AcDbEntity
  8
0
100
AcDbLine
 10
49.00999999999999
 20
275.038455
 30
0.0
 11
49.25
 21
274.9484549999999
 31
0.0
  0
LINE
  5
2A3
330
1E
100
AcDbEntity
  8
0
100
AcDbLine
 10
49.25
 20
274.9484549999999
 30
0.0
 11
49.46
 21
274.788455
 31
0.0
  0
LINE
  5
2A4
330
1E
100
AcDbEntity
  8
0
100
AcDbLine
 10
58.25
 20
274.9484549999999
 30
0.0
 11
58.49
 21
275.038455
 31
0.0
  0
LINE
  5
2A5
330
1E
100
AcDbEntity
  8
0
100
AcDbLine
 10
58.04
 20
274.788455
 30
0.0
 11
58.25
 21
274.9484549999999
 31
0.0
  0
LINE
  5
2A6
330
1E
100
AcDbEntity
  8
0
100
AcDbLine
 10
58.49
 20
275.038455
 30
0.0
 11
58.75
 21
275.0784549999999
 31
0.0
  0
LINE
  5
2A7
330
1E
100
AcDbEntity
  8
0
100
AcDbLine
 10
58.75
 20
275.0784549999999
 30
0.0
 11
59.00999999999999
 21
275.038455
 31
0.0
  0
LINE
  5
2A8
330
1E
100
AcDbEntity
  8
0
100
AcDbLine
 10
59.00999999999999
 20
275.038455
 30
0.0
 11
59.25
 21
274.9484549999999
 31
0.0
  0
LINE
  5
2A9
330
1E
100
AcDbEntity
  8
0
100
AcDbLine
 10
59.25
 20
274.9484549999999
 30
0.0
 11
59.46
 21
274.788455
 31
0.0
  0
LINE
  5
2AA
330
1E
100
AcDbEntity
  8
0
100
AcDbLine
 10
79.45999999999999
 20
274.788455
 30
0.0
 11
79.62
 21
274.5784549999999
 31
0.0
  0
LINE
  5
2AB
330
1E
100
AcDbEntity
  8
0
100
AcDbLine
 10
78.04000000000001
 20
274.788455
 30
0.0
 11
78.25
 21
274.9484549999999
 31
0.0
  0
LINE
  5
2AC
330
1E
100
AcDbEntity
  8
0
100
AcDbLine
 10
69.45999999999999
 20
274.788455
 30
0.0
 11
69.62
 21
274.5784549999999
 31
0.0
  0
LINE
  5
2AD
330
1E
100
AcDbEntity
  8
0
100
AcDbLine
 10
68.04000000000001
 20
274.788455
 30
0.0
 11
68.25
 21
274.9484549999999
 31
0.0
  0
LINE
  5
2AE
330
1E
100
AcDbEntity
  8
0
100
AcDbLine
 10
89.45999999999999
 20
274.788455
 30
0.0
 11
89.62000000000001
 21
274.5784549999999
 31
0.0
  0
LINE
  5
2AF
330
1E
100
AcDbEntity
  8
0
100
AcDbLine
 10
88.04
 20
274.788455
 30
0.0
 11
88.25000000000001
 21
274.9484549999999
 31
0.0
  0
LINE
  5
2B0
330
1E
100
AcDbEntity
  8
0
100
AcDbLine
 10
99.45999999999999
 20
274.788455
 30
0.0
 11
99.62000000000001
 21
274.5784549999999
 31
0.0
  0
LINE
  5
2B1
330
1E
100
AcDbEntity
  8
0
100
AcDbLine
 10
79.25
 20
274.9484549999999
 30
0.0
 11
79.45999999999999
 21
274.788455
 31
0.0
  0
LINE
  5
2B2
330
1E
100
AcDbEntity
  8
0
100
AcDbLine
 10
78.25
 20
274.9484549999999
 30
0.0
 11
78.49
 21
275.038455
 31
0.0
  0
LINE
  5
2B3
330
1E
100
AcDbEntity
  8
0
100
AcDbLine
 10
69.25
 20
274.9484549999999
 30
0.0
 11
69.45999999999999
 21
274.788455
 31
0.0
  0
LINE
  5
2B4
330
1E
100
AcDbEntity
  8
0
100
AcDbLine
 10
68.25
 20
274.9484549999999
 30
0.0
 11
68.49
 21
275.038455
 31
0.0
  0
LINE
  5
2B5
330
1E
100
AcDbEntity
  8
0
100
AcDbLine
 10
89.25
 20
274.9484549999999
 30
0.0
 11
89.45999999999999
 21
274.788455
 31
0.0
  0
LINE
  5
2B6
330
1E
100
AcDbEntity
  8
0
100
AcDbLine
 10
79.01
 20
275.038455
 30
0.0
 11
79.25
 21
274.9484549999999
 31
0.0
  0
LINE
  5
2B7
330
1E
100
AcDbEntity
  8
0
100
AcDbLine
 10
78.49
 20
275.038455
 30
0.0
 11
78.75
 21
275.0784549999999
 31
0.0
  0
LINE
  5
2B8
330
1E
100
AcDbEntity
  8
0
100
AcDbLine
 10
69.01
 20
275.038455
 30
0.0
 11
69.25
 21
274.9484549999999
 31
0.0
  0
LINE
  5
2B9
330
1E
100
AcDbEntity
  8
0
100
AcDbLine
 10
78.75
 20
275.0784549999999
 30
0.0
 11
79.01
 21
275.038455
 31
0.0
  0
LINE
  5
2BA
330
1E
100
AcDbEntity
  8
0
100
AcDbLine
 10
68.75
 20
275.0784549999999
 30
0.0
 11
69.01
 21
275.038455
 31
0.0
  0
LINE
  5
2BB
330
1E
100
AcDbEntity
  8
0
100
AcDbLine
 10
68.49
 20
275.038455
 30
0.0
 11
68.75
 21
275.0784549999999
 31
0.0
  0
LINE
  5
2BC
330
1E
100
AcDbEntity
  8
0
100
AcDbLine
 10
88.75
 20
275.0784549999999
 30
0.0
 11
89.01000000000001
 21
275.038455
 31
0.0
  0
LINE
  5
2BD
330
1E
100
AcDbEntity
  8
0
100
AcDbLine
 10
89.01000000000001
 20
275.038455
 30
0.0
 11
89.25
 21
274.9484549999999
 31
0.0
  0
LINE
  5
2BE
330
1E
100
AcDbEntity
  8
0
100
AcDbLine
 10
88.49
 20
275.038455
 30
0.0
 11
88.75
 21
275.0784549999999
 31
0.0
  0
LINE
  5
2BF
330
1E
100
AcDbEntity
  8
0
100
AcDbLine
 10
88.25000000000001
 20
274.9484549999999
 30
0.0
 11
88.49
 21
275.038455
 31
0.0
  0
LINE
  5
2C0
330
1E
100
AcDbEntity
  8
0
100
AcDbLine
 10
99.01000000000001
 20
275.038455
 30
0.0
 11
99.25
 21
274.9484549999999
 31
0.0
  0
LINE
  5
2C1
330
1E
100
AcDbEntity
  8
0
100
AcDbLine
 10
99.25
 20
274.9484549999999
 30
0.0
 11
99.45999999999999
 21
274.788455
 31
0.0
  0
LINE
  5
2C2
330
1E
100
AcDbEntity
  8
0
100
AcDbLine
 10
98.75
 20
275.0784549999999
 30
0.0
 11
99.01000000000001
 21
275.038455
 31
0.0
  0
LINE
  5
2C3
330
1E
100
AcDbEntity
  8
0
100
AcDbLine
 10
98.49
 20
275.038455
 30
0.0
 11
98.75
 21
275.0784549999999
 31
0.0
  0
LINE
  5
2C4
330
1E
100
AcDbEntity
  8
0
100
AcDbLine
 10
98.25000000000001
 20
274.9484549999999
 30
0.0
 11
98.49
 21
275.038455
 31
0.0
  0
LINE
  5
2C5
330
1E
100
AcDbEntity
  8
0
100
AcDbLine
 10
98.04000000000002
 20
274.788455
 30
0.0
 11
98.25000000000001
 21
274.9484549999999
 31
0.0
  0
LINE
  5
2C6
330
1E
100
AcDbEntity
  8
0
100
AcDbLine
 10
59.46
 20
274.788455
 30
0.0
 11
59.61999999999999
 21
274.5784549999999
 31
0.0
  0
LINE
  5
2C7
330
1E
100
AcDbEntity
  8
0
100
AcDbLine
 10
49.46
 20
274.788455
 30
0.0
 11
49.61999999999999
 21
274.5784549999999
 31
0.0
  0
LINE
  5
2C8
330
1E
100
AcDbEntity
  8
0
100
AcDbLine
 10
23.48999999999999
 20
283.1184549999999
 30
0.0
 11
23.75
 21
283.0784549999999
 31
0.0
  0
LINE
  5
2C9
330
1E
100
AcDbEntity
  8
0
100
AcDbLine
 10
23.25
 20
283.2084549999999
 30
0.0
 11
23.48999999999999
 21
283.1184549999999
 31
0.0
  0
LINE
  5
2CA
330
1E
100
AcDbEntity
  8
0
100
AcDbLine
 10
23.75
 20
283.0784549999999
 30
0.0
 11
24.01
 21
283.1184549999999
 31
0.0
  0
LINE
  5
2CB
330
1E
100
AcDbEntity
  8
0
100
AcDbLine
 10
33.75
 20
283.0784549999999
 30
0.0
 11
34.00999999999999
 21
283.1184549999999
 31
0.0
  0
LINE
  5
2CC
330
1E
100
AcDbEntity
  8
0
100
AcDbLine
 10
43.75
 20
283.0784549999999
 30
0.0
 11
44.00999999999999
 21
283.1184549999999
 31
0.0
  0
LINE
  5
2CD
330
1E
100
AcDbEntity
  8
0
100
AcDbLine
 10
33.49
 20
283.1184549999999
 30
0.0
 11
33.75
 21
283.0784549999999
 31
0.0
  0
LINE
  5
2CE
330
1E
100
AcDbEntity
  8
0
100
AcDbLine
 10
33.25
 20
283.2084549999999
 30
0.0
 11
33.49
 21
283.1184549999999
 31
0.0
  0
LINE
  5
2CF
330
1E
100
AcDbEntity
  8
0
100
AcDbLine
 10
34.00999999999999
 20
283.1184549999999
 30
0.0
 11
34.25
 21
283.2084549999999
 31
0.0
  0
LINE
  5
2D0
330
1E
100
AcDbEntity
  8
0
100
AcDbLine
 10
34.25
 20
283.2084549999999
 30
0.0
 11
34.46
 21
283.368455
 31
0.0
  0
LINE
  5
2D1
330
1E
100
AcDbEntity
  8
0
100
AcDbLine
 10
43.49
 20
283.1184549999999
 30
0.0
 11
43.75
 21
283.0784549999999
 31
0.0
  0
LINE
  5
2D2
330
1E
100
AcDbEntity
  8
0
100
AcDbLine
 10
43.25
 20
283.2084549999999
 30
0.0
 11
43.49
 21
283.1184549999999
 31
0.0
  0
LINE
  5
2D3
330
1E
100
AcDbEntity
  8
0
100
AcDbLine
 10
44.00999999999999
 20
283.1184549999999
 30
0.0
 11
44.24999999999999
 21
283.2084549999999
 31
0.0
  0
LINE
  5
2D4
330
1E
100
AcDbEntity
  8
0
100
AcDbLine
 10
44.24999999999999
 20
283.2084549999999
 30
0.0
 11
44.46
 21
283.368455
 31
0.0
  0
LINE
  5
2D5
330
1E
100
AcDbEntity
  8
0
100
AcDbLine
 10
53.49
 20
283.1184549999999
 30
0.0
 11
53.75
 21
283.0784549999999
 31
0.0
  0
LINE
  5
2D6
330
1E
100
AcDbEntity
  8
0
100
AcDbLine
 10
53.25
 20
283.2084549999999
 30
0.0
 11
53.49
 21
283.1184549999999
 31
0.0
  0
LINE
  5
2D7
330
1E
100
AcDbEntity
  8
0
100
AcDbLine
 10
53.75
 20
283.0784549999999
 30
0.0
 11
54.00999999999999
 21
283.1184549999999
 31
0.0
  0
LINE
  5
2D8
330
1E
100
AcDbEntity
  8
0
100
AcDbLine
 10
54.00999999999999
 20
283.1184549999999
 30
0.0
 11
54.25
 21
283.2084549999999
 31
0.0
  0
LINE
  5
2D9
330
1E
100
AcDbEntity
  8
0
100
AcDbLine
 10
54.25
 20
283.2084549999999
 30
0.0
 11
54.46
 21
283.368455
 31
0.0
  0
LINE
  5
2DA
330
1E
100
AcDbEntity
  8
0
100
AcDbLine
 10
24.01
 20
283.1184549999999
 30
0.0
 11
24.25
 21
283.2084549999999
 31
0.0
  0
LINE
  5
2DB
330
1E
100
AcDbEntity
  8
0
100
AcDbLine
 10
24.25
 20
283.2084549999999
 30
0.0
 11
24.46
 21
283.368455
 31
0.0
  0
LINE
  5
2DC
330
1E
100
AcDbEntity
  8
0
100
AcDbLine
 10
23.03999999999999
 20
283.368455
 30
0.0
 11
23.25
 21
283.2084549999999
 31
0.0
  0
LINE
  5
2DD
330
1E
100
AcDbEntity
  8
0
100
AcDbLine
 10
22.87999999999999
 20
283.5784549999999
 30
0.0
 11
23.03999999999999
 21
283.368455
 31
0.0
  0
LINE
  5
2DE
330
1E
100
AcDbEntity
  8
0
100
AcDbLine
 10
22.78999999999999
 20
283.8184549999999
 30
0.0
 11
22.87999999999999
 21
283.5784549999999
 31
0.0
  0
LINE
  5
2DF
330
1E
100
AcDbEntity
  8
0
100
AcDbLine
 10
24.46
 20
283.368455
 30
0.0
 11
24.62
 21
283.5784549999999
 31
0.0
  0
LINE
  5
2E0
330
1E
100
AcDbEntity
  8
0
100
AcDbLine
 10
33.04
 20
283.368455
 30
0.0
 11
33.25
 21
283.2084549999999
 31
0.0
  0
LINE
  5
2E1
330
1E
100
AcDbEntity
  8
0
100
AcDbLine
 10
34.46
 20
283.368455
 30
0.0
 11
34.61999999999999
 21
283.5784549999999
 31
0.0
  0
LINE
  5
2E2
330
1E
100
AcDbEntity
  8
0
100
AcDbLine
 10
43.04
 20
283.368455
 30
0.0
 11
43.25
 21
283.2084549999999
 31
0.0
  0
LINE
  5
2E3
330
1E
100
AcDbEntity
  8
0
100
AcDbLine
 10
44.46
 20
283.368455
 30
0.0
 11
44.61999999999999
 21
283.5784549999999
 31
0.0
  0
LINE
  5
2E4
330
1E
100
AcDbEntity
  8
0
100
AcDbLine
 10
53.04
 20
283.368455
 30
0.0
 11
53.25
 21
283.2084549999999
 31
0.0
  0
LINE
  5
2E5
330
1E
100
AcDbEntity
  8
0
100
AcDbLine
 10
32.88
 20
283.5784549999999
 30
0.0
 11
33.04
 21
283.368455
 31
0.0
  0
LINE
  5
2E6
330
1E
100
AcDbEntity
  8
0
100
AcDbLine
 10
32.78999999999999
 20
283.8184549999999
 30
0.0
 11
32.88
 21
283.5784549999999
 31
0.0
  0
LINE
  5
2E7
330
1E
100
AcDbEntity
  8
0
100
AcDbLine
 10
34.61999999999999
 20
283.5784549999999
 30
0.0
 11
34.71
 21
283.8184549999999
 31
0.0
  0
LINE
  5
2E8
330
1E
100
AcDbEntity
  8
0
100
AcDbLine
 10
34.71
 20
283.8184549999999
 30
0.0
 11
34.75
 21
284.0784549999999
 31
0.0
  0
LINE
  5
2E9
330
1E
100
AcDbEntity
  8
0
100
AcDbLine
 10
42.88
 20
283.5784549999999
 30
0.0
 11
43.04
 21
283.368455
 31
0.0
  0
LINE
  5
2EA
330
1E
100
AcDbEntity
  8
0
100
AcDbLine
 10
42.78999999999999
 20
283.8184549999999
 30
0.0
 11
42.88
 21
283.5784549999999
 31
0.0
  0
LINE
  5
2EB
330
1E
100
AcDbEntity
  8
0
100
AcDbLine
 10
44.61999999999999
 20
283.5784549999999
 30
0.0
 11
44.71
 21
283.8184549999999
 31
0.0
  0
LINE
  5
2EC
330
1E
100
AcDbEntity
  8
0
100
AcDbLine
 10
44.71
 20
283.8184549999999
 30
0.0
 11
44.75
 21
284.0784549999999
 31
0.0
  0
LINE
  5
2ED
330
1E
100
AcDbEntity
  8
0
100
AcDbLine
 10
52.88
 20
283.5784549999999
 30
0.0
 11
53.04
 21
283.368455
 31
0.0
  0
LINE
  5
2EE
330
1E
100
AcDbEntity
  8
0
100
AcDbLine
 10
52.78999999999999
 20
283.8184549999999
 30
0.0
 11
52.88
 21
283.5784549999999
 31
0.0
  0
LINE
  5
2EF
330
1E
100
AcDbEntity
  8
0
100
AcDbLine
 10
54.46
 20
283.368455
 30
0.0
 11
54.61999999999999
 21
283.5784549999999
 31
0.0
  0
LINE
  5
2F0
330
1E
100
AcDbEntity
  8
0
100
AcDbLine
 10
54.61999999999999
 20
283.5784549999999
 30
0.0
 11
54.71
 21
283.8184549999999
 31
0.0
  0
LINE
  5
2F1
330
1E
100
AcDbEntity
  8
0
100
AcDbLine
 10
54.71
 20
283.8184549999999
 30
0.0
 11
54.75
 21
284.0784549999999
 31
0.0
  0
LINE
  5
2F2
330
1E
100
AcDbEntity
  8
0
100
AcDbLine
 10
24.62
 20
283.5784549999999
 30
0.0
 11
24.71
 21
283.8184549999999
 31
0.0
  0
LINE
  5
2F3
330
1E
100
AcDbEntity
  8
0
100
AcDbLine
 10
32.75
 20
284.0784549999999
 30
0.0
 11
32.78999999999999
 21
283.8184549999999
 31
0.0
  0
LINE
  5
2F4
330
1E
100
AcDbEntity
  8
0
100
AcDbLine
 10
32.75
 20
284.0784549999999
 30
0.0
 11
32.78999999999999
 21
284.3384549999999
 31
0.0
  0
LINE
  5
2F5
330
1E
100
AcDbEntity
  8
0
100
AcDbLine
 10
42.75
 20
284.0784549999999
 30
0.0
 11
42.78999999999999
 21
283.8184549999999
 31
0.0
  0
LINE
  5
2F6
330
1E
100
AcDbEntity
  8
0
100
AcDbLine
 10
42.75
 20
284.0784549999999
 30
0.0
 11
42.78999999999999
 21
284.3384549999999
 31
0.0
  0
LINE
  5
2F7
330
1E
100
AcDbEntity
  8
0
100
AcDbLine
 10
34.71
 20
284.3384549999999
 30
0.0
 11
34.75
 21
284.0784549999999
 31
0.0
  0
LINE
  5
2F8
330
1E
100
AcDbEntity
  8
0
100
AcDbLine
 10
32.78999999999999
 20
284.3384549999999
 30
0.0
 11
32.88
 21
284.5784549999999
 31
0.0
  0
LINE
  5
2F9
330
1E
100
AcDbEntity
  8
0
100
AcDbLine
 10
44.71
 20
284.3384549999999
 30
0.0
 11
44.75
 21
284.0784549999999
 31
0.0
  0
LINE
  5
2FA
330
1E
100
AcDbEntity
  8
0
100
AcDbLine
 10
42.78999999999999
 20
284.3384549999999
 30
0.0
 11
42.88
 21
284.5784549999999
 31
0.0
  0
LINE
  5
2FB
330
1E
100
AcDbEntity
  8
0
100
AcDbLine
 10
54.71
 20
284.3384549999999
 30
0.0
 11
54.75
 21
284.0784549999999
 31
0.0
  0
LINE
  5
2FC
330
1E
100
AcDbEntity
  8
0
100
AcDbLine
 10
52.78999999999999
 20
284.3384549999999
 30
0.0
 11
52.88
 21
284.5784549999999
 31
0.0
  0
LINE
  5
2FD
330
1E
100
AcDbEntity
  8
0
100
AcDbLine
 10
52.75
 20
284.0784549999999
 30
0.0
 11
52.78999999999999
 21
283.8184549999999
 31
0.0
  0
LINE
  5
2FE
330
1E
100
AcDbEntity
  8
0
100
AcDbLine
 10
52.75
 20
284.0784549999999
 30
0.0
 11
52.78999999999999
 21
284.3384549999999
 31
0.0
  0
LINE
  5
2FF
330
1E
100
AcDbEntity
  8
0
100
AcDbLine
 10
24.71
 20
284.3384549999999
 30
0.0
 11
24.75
 21
284.0784549999999
 31
0.0
  0
LINE
  5
300
330
1E
100
AcDbEntity
  8
0
100
AcDbLine
 10
24.46
 20
284.7884549999999
 30
0.0
 11
24.62
 21
284.5784549999999
 31
0.0
  0
LINE
  5
301
330
1E
100
AcDbEntity
  8
0
100
AcDbLine
 10
34.61999999999999
 20
284.5784549999999
 30
0.0
 11
34.71
 21
284.3384549999999
 31
0.0
  0
LINE
  5
302
330
1E
100
AcDbEntity
  8
0
100
AcDbLine
 10
32.88
 20
284.5784549999999
 30
0.0
 11
33.04
 21
284.7884549999999
 31
0.0
  0
LINE
  5
303
330
1E
100
AcDbEntity
  8
0
100
AcDbLine
 10
44.61999999999999
 20
284.5784549999999
 30
0.0
 11
44.71
 21
284.3384549999999
 31
0.0
  0
LINE
  5
304
330
1E
100
AcDbEntity
  8
0
100
AcDbLine
 10
42.88
 20
284.5784549999999
 30
0.0
 11
43.04
 21
284.7884549999999
 31
0.0
  0
LINE
  5
305
330
1E
100
AcDbEntity
  8
0
100
AcDbLine
 10
54.61999999999999
 20
284.5784549999999
 30
0.0
 11
54.71
 21
284.3384549999999
 31
0.0
  0
LINE
  5
306
330
1E
100
AcDbEntity
  8
0
100
AcDbLine
 10
34.46
 20
284.7884549999999
 30
0.0
 11
34.61999999999999
 21
284.5784549999999
 31
0.0
  0
LINE
  5
307
330
1E
100
AcDbEntity
  8
0
100
AcDbLine
 10
33.04
 20
284.7884549999999
 30
0.0
 11
33.25
 21
284.9484549999999
 31
0.0
  0
LINE
  5
308
330
1E
100
AcDbEntity
  8
0
100
AcDbLine
 10
44.46
 20
284.7884549999999
 30
0.0
 11
44.61999999999999
 21
284.5784549999999
 31
0.0
  0
LINE
  5
309
330
1E
100
AcDbEntity
  8
0
100
AcDbLine
 10
43.04
 20
284.7884549999999
 30
0.0
 11
43.25
 21
284.9484549999999
 31
0.0
  0
LINE
  5
30A
330
1E
100
AcDbEntity
  8
0
100
AcDbLine
 10
54.46
 20
284.7884549999999
 30
0.0
 11
54.61999999999999
 21
284.5784549999999
 31
0.0
  0
LINE
  5
30B
330
1E
100
AcDbEntity
  8
0
100
AcDbLine
 10
53.04
 20
284.7884549999999
 30
0.0
 11
53.25
 21
284.9484549999999
 31
0.0
  0
LINE
  5
30C
330
1E
100
AcDbEntity
  8
0
100
AcDbLine
 10
52.88
 20
284.5784549999999
 30
0.0
 11
53.04
 21
284.7884549999999
 31
0.0
  0
LINE
  5
30D
330
1E
100
AcDbEntity
  8
0
100
AcDbLine
 10
24.62
 20
284.5784549999999
 30
0.0
 11
24.71
 21
284.3384549999999
 31
0.0
  0
LINE
  5
30E
330
1E
100
AcDbEntity
  8
0
100
AcDbLine
 10
24.01
 20
285.038455
 30
0.0
 11
24.25
 21
284.9484549999999
 31
0.0
  0
LINE
  5
30F
330
1E
100
AcDbEntity
  8
0
100
AcDbLine
 10
34.25
 20
284.9484549999999
 30
0.0
 11
34.46
 21
284.7884549999999
 31
0.0
  0
LINE
  5
310
330
1E
100
AcDbEntity
  8
0
100
AcDbLine
 10
33.25
 20
284.9484549999999
 30
0.0
 11
33.49
 21
285.038455
 31
0.0
  0
LINE
  5
311
330
1E
100
AcDbEntity
  8
0
100
AcDbLine
 10
44.24999999999999
 20
284.9484549999999
 30
0.0
 11
44.46
 21
284.7884549999999
 31
0.0
  0
LINE
  5
312
330
1E
100
AcDbEntity
  8
0
100
AcDbLine
 10
43.25
 20
284.9484549999999
 30
0.0
 11
43.49
 21
285.038455
 31
0.0
  0
LINE
  5
313
330
1E
100
AcDbEntity
  8
0
100
AcDbLine
 10
54.25
 20
284.9484549999999
 30
0.0
 11
54.46
 21
284.7884549999999
 31
0.0
  0
LINE
  5
314
330
1E
100
AcDbEntity
  8
0
100
AcDbLine
 10
34.00999999999999
 20
285.038455
 30
0.0
 11
34.25
 21
284.9484549999999
 31
0.0
  0
LINE
  5
315
330
1E
100
AcDbEntity
  8
0
100
AcDbLine
 10
33.49
 20
285.038455
 30
0.0
 11
33.75
 21
285.0784549999999
 31
0.0
  0
LINE
  5
316
330
1E
100
AcDbEntity
  8
0
100
AcDbLine
 10
44.00999999999999
 20
285.038455
 30
0.0
 11
44.24999999999999
 21
284.9484549999999
 31
0.0
  0
LINE
  5
317
330
1E
100
AcDbEntity
  8
0
100
AcDbLine
 10
43.49
 20
285.038455
 30
0.0
 11
43.75
 21
285.0784549999999
 31
0.0
  0
LINE
  5
318
330
1E
100
AcDbEntity
  8
0
100
AcDbLine
 10
54.00999999999999
 20
285.038455
 30
0.0
 11
54.25
 21
284.9484549999999
 31
0.0
  0
LINE
  5
319
330
1E
100
AcDbEntity
  8
0
100
AcDbLine
 10
53.49
 20
285.038455
 30
0.0
 11
53.75
 21
285.0784549999999
 31
0.0
  0
LINE
  5
31A
330
1E
100
AcDbEntity
  8
0
100
AcDbLine
 10
53.25
 20
284.9484549999999
 30
0.0
 11
53.49
 21
285.038455
 31
0.0
  0
LINE
  5
31B
330
1E
100
AcDbEntity
  8
0
100
AcDbLine
 10
24.25
 20
284.9484549999999
 30
0.0
 11
24.46
 21
284.7884549999999
 31
0.0
  0
LINE
  5
31C
330
1E
100
AcDbEntity
  8
0
100
AcDbLine
 10
33.75
 20
285.0784549999999
 30
0.0
 11
34.00999999999999
 21
285.038455
 31
0.0
  0
LINE
  5
31D
330
1E
100
AcDbEntity
  8
0
100
AcDbLine
 10
43.75
 20
285.0784549999999
 30
0.0
 11
44.00999999999999
 21
285.038455
 31
0.0
  0
LINE
  5
31E
330
1E
100
AcDbEntity
  8
0
100
AcDbLine
 10
53.75
 20
285.0784549999999
 30
0.0
 11
54.00999999999999
 21
285.038455
 31
0.0
  0
LINE
  5
31F
330
1E
100
AcDbEntity
  8
0
100
AcDbLine
 10
23.75
 20
285.0784549999999
 30
0.0
 11
24.01
 21
285.038455
 31
0.0
  0
LINE
  5
320
330
1E
100
AcDbEntity
  8
0
100
AcDbLine
 10
23.48999999999999
 20
285.038455
 30
0.0
 11
23.75
 21
285.0784549999999
 31
0.0
  0
LINE
  5
321
330
1E
100
AcDbEntity
  8
0
100
AcDbLine
 10
23.25
 20
284.9484549999999
 30
0.0
 11
23.48999999999999
 21
285.038455
 31
0.0
  0
LINE
  5
322
330
1E
100
AcDbEntity
  8
0
100
AcDbLine
 10
23.03999999999999
 20
284.7884549999999
 30
0.0
 11
23.25
 21
284.9484549999999
 31
0.0
  0
LINE
  5
323
330
1E
100
AcDbEntity
  8
0
100
AcDbLine
 10
22.87999999999999
 20
284.5784549999999
 30
0.0
 11
23.03999999999999
 21
284.7884549999999
 31
0.0
  0
LINE
  5
324
330
1E
100
AcDbEntity
  8
0
100
AcDbLine
 10
22.78999999999999
 20
284.3384549999999
 30
0.0
 11
22.87999999999999
 21
284.5784549999999
 31
0.0
  0
LINE
  5
325
330
1E
100
AcDbEntity
  8
0
100
AcDbLine
 10
22.74999999999999
 20
284.0784549999999
 30
0.0
 11
22.78999999999999
 21
283.8184549999999
 31
0.0
  0
LINE
  5
326
330
1E
100
AcDbEntity
  8
0
100
AcDbLine
 10
22.74999999999999
 20
284.0784549999999
 30
0.0
 11
22.78999999999999
 21
284.3384549999999
 31
0.0
  0
LINE
  5
327
330
1E
100
AcDbEntity
  8
0
100
AcDbLine
 10
24.71
 20
283.8184549999999
 30
0.0
 11
24.75
 21
284.0784549999999
 31
0.0
  0
LINE
  5
328
330
1E
100
AcDbEntity
  8
0
100
AcDbLine
 10
63.75
 20
283.0784549999999
 30
0.0
 11
64.01
 21
283.1184549999999
 31
0.0
  0
LINE
  5
329
330
1E
100
AcDbEntity
  8
0
100
AcDbLine
 10
83.75
 20
283.0784549999999
 30
0.0
 11
84.01000000000001
 21
283.1184549999999
 31
0.0
  0
LINE
  5
32A
330
1E
100
AcDbEntity
  8
0
100
AcDbLine
 10
93.75
 20
283.0784549999999
 30
0.0
 11
94.01000000000001
 21
283.1184549999999
 31
0.0
  0
LINE
  5
32B
330
1E
100
AcDbEntity
  8
0
100
AcDbLine
 10
94.01000000000001
 20
283.1184549999999
 30
0.0
 11
94.25
 21
283.2084549999999
 31
0.0
  0
LINE
  5
32C
330
1E
100
AcDbEntity
  8
0
100
AcDbLine
 10
93.49
 20
283.1184549999999
 30
0.0
 11
93.75
 21
283.0784549999999
 31
0.0
  0
LINE
  5
32D
330
1E
100
AcDbEntity
  8
0
100
AcDbLine
 10
103.75
 20
283.0784549999999
 30
0.0
 11
104.01
 21
283.1184549999999
 31
0.0
  0
LINE
  5
32E
330
1E
100
AcDbEntity
  8
0
100
AcDbLine
 10
104.01
 20
283.1184549999999
 30
0.0
 11
104.2499999999999
 21
283.2084549999999
 31
0.0
  0
LINE
  5
32F
330
1E
100
AcDbEntity
  8
0
100
AcDbLine
 10
103.4899999999999
 20
283.1184549999999
 30
0.0
 11
103.75
 21
283.0784549999999
 31
0.0
  0
LINE
  5
330
330
1E
100
AcDbEntity
  8
0
100
AcDbLine
 10
84.01000000000001
 20
283.1184549999999
 30
0.0
 11
84.25
 21
283.2084549999999
 31
0.0
  0
LINE
  5
331
330
1E
100
AcDbEntity
  8
0
100
AcDbLine
 10
83.49
 20
283.1184549999999
 30
0.0
 11
83.75
 21
283.0784549999999
 31
0.0
  0
LINE
  5
332
330
1E
100
AcDbEntity
  8
0
100
AcDbLine
 10
73.75
 20
283.0784549999999
 30
0.0
 11
74.01
 21
283.1184549999999
 31
0.0
  0
LINE
  5
333
330
1E
100
AcDbEntity
  8
0
100
AcDbLine
 10
74.01
 20
283.1184549999999
 30
0.0
 11
74.25
 21
283.2084549999999
 31
0.0
  0
LINE
  5
334
330
1E
100
AcDbEntity
  8
0
100
AcDbLine
 10
73.49
 20
283.1184549999999
 30
0.0
 11
73.75
 21
283.0784549999999
 31
0.0
  0
LINE
  5
335
330
1E
100
AcDbEntity
  8
0
100
AcDbLine
 10
64.01
 20
283.1184549999999
 30
0.0
 11
64.25
 21
283.2084549999999
 31
0.0
  0
LINE
  5
336
330
1E
100
AcDbEntity
  8
0
100
AcDbLine
 10
64.25
 20
283.2084549999999
 30
0.0
 11
64.45999999999999
 21
283.368455
 31
0.0
  0
LINE
  5
337
330
1E
100
AcDbEntity
  8
0
100
AcDbLine
 10
94.25
 20
283.2084549999999
 30
0.0
 11
94.45999999999999
 21
283.368455
 31
0.0
  0
LINE
  5
338
330
1E
100
AcDbEntity
  8
0
100
AcDbLine
 10
93.25000000000001
 20
283.2084549999999
 30
0.0
 11
93.49
 21
283.1184549999999
 31
0.0
  0
LINE
  5
339
330
1E
100
AcDbEntity
  8
0
100
AcDbLine
 10
104.2499999999999
 20
283.2084549999999
 30
0.0
 11
104.4599999999999
 21
283.368455
 31
0.0
  0
LINE
  5
33A
330
1E
100
AcDbEntity
  8
0
100
AcDbLine
 10
103.2499999999999
 20
283.2084549999999
 30
0.0
 11
103.4899999999999
 21
283.1184549999999
 31
0.0
  0
LINE
  5
33B
330
1E
100
AcDbEntity
  8
0
100
AcDbLine
 10
84.25
 20
283.2084549999999
 30
0.0
 11
84.45999999999999
 21
283.368455
 31
0.0
  0
LINE
  5
33C
330
1E
100
AcDbEntity
  8
0
100
AcDbLine
 10
83.25000000000001
 20
283.2084549999999
 30
0.0
 11
83.49
 21
283.1184549999999
 31
0.0
  0
LINE
  5
33D
330
1E
100
AcDbEntity
  8
0
100
AcDbLine
 10
74.25
 20
283.2084549999999
 30
0.0
 11
74.45999999999999
 21
283.368455
 31
0.0
  0
LINE
  5
33E
330
1E
100
AcDbEntity
  8
0
100
AcDbLine
 10
73.25
 20
283.2084549999999
 30
0.0
 11
73.49
 21
283.1184549999999
 31
0.0
  0
LINE
  5
33F
330
1E
100
AcDbEntity
  8
0
100
AcDbLine
 10
94.45999999999999
 20
283.368455
 30
0.0
 11
94.62000000000001
 21
283.5784549999999
 31
0.0
  0
LINE
  5
340
330
1E
100
AcDbEntity
  8
0
100
AcDbLine
 10
93.04
 20
283.368455
 30
0.0
 11
93.25000000000001
 21
283.2084549999999
 31
0.0
  0
LINE
  5
341
330
1E
100
AcDbEntity
  8
0
100
AcDbLine
 10
104.4599999999999
 20
283.368455
 30
0.0
 11
104.62
 21
283.5784549999999
 31
0.0
  0
LINE
  5
342
330
1E
100
AcDbEntity
  8
0
100
AcDbLine
 10
103.0399999999999
 20
283.368455
 30
0.0
 11
103.2499999999999
 21
283.2084549999999
 31
0.0
  0
LINE
  5
343
330
1E
100
AcDbEntity
  8
0
100
AcDbLine
 10
84.45999999999999
 20
283.368455
 30
0.0
 11
84.62000000000001
 21
283.5784549999999
 31
0.0
  0
LINE
  5
344
330
1E
100
AcDbEntity
  8
0
100
AcDbLine
 10
83.04
 20
283.368455
 30
0.0
 11
83.25000000000001
 21
283.2084549999999
 31
0.0
  0
LINE
  5
345
330
1E
100
AcDbEntity
  8
0
100
AcDbLine
 10
74.45999999999999
 20
283.368455
 30
0.0
 11
74.62
 21
283.5784549999999
 31
0.0
  0
LINE
  5
346
330
1E
100
AcDbEntity
  8
0
100
AcDbLine
 10
73.04000000000001
 20
283.368455
 30
0.0
 11
73.25
 21
283.2084549999999
 31
0.0
  0
LINE
  5
347
330
1E
100
AcDbEntity
  8
0
100
AcDbLine
 10
64.45999999999999
 20
283.368455
 30
0.0
 11
64.62
 21
283.5784549999999
 31
0.0
  0
LINE
  5
348
330
1E
100
AcDbEntity
  8
0
100
AcDbLine
 10
63.49
 20
283.1184549999999
 30
0.0
 11
63.75
 21
283.0784549999999
 31
0.0
  0
LINE
  5
349
330
1E
100
AcDbEntity
  8
0
100
AcDbLine
 10
63.25
 20
283.2084549999999
 30
0.0
 11
63.49
 21
283.1184549999999
 31
0.0
  0
LINE
  5
34A
330
1E
100
AcDbEntity
  8
0
100
AcDbLine
 10
64.62
 20
283.5784549999999
 30
0.0
 11
64.71
 21
283.8184549999999
 31
0.0
  0
LINE
  5
34B
330
1E
100
AcDbEntity
  8
0
100
AcDbLine
 10
94.62000000000001
 20
283.5784549999999
 30
0.0
 11
94.71
 21
283.8184549999999
 31
0.0
  0
LINE
  5
34C
330
1E
100
AcDbEntity
  8
0
100
AcDbLine
 10
94.71
 20
283.8184549999999
 30
0.0
 11
94.74999999999999
 21
284.0784549999999
 31
0.0
  0
LINE
  5
34D
330
1E
100
AcDbEntity
  8
0
100
AcDbLine
 10
92.88
 20
283.5784549999999
 30
0.0
 11
93.04
 21
283.368455
 31
0.0
  0
LINE
  5
34E
330
1E
100
AcDbEntity
  8
0
100
AcDbLine
 10
92.79000000000001
 20
283.8184549999999
 30
0.0
 11
92.88
 21
283.5784549999999
 31
0.0
  0
LINE
  5
34F
330
1E
100
AcDbEntity
  8
0
100
AcDbLine
 10
104.62
 20
283.5784549999999
 30
0.0
 11
104.7099999999999
 21
283.8184549999999
 31
0.0
  0
LINE
  5
350
330
1E
100
AcDbEntity
  8
0
100
AcDbLine
 10
104.7099999999999
 20
283.8184549999999
 30
0.0
 11
104.75
 21
284.0784549999999
 31
0.0
  0
LINE
  5
351
330
1E
100
AcDbEntity
  8
0
100
AcDbLine
 10
102.8799999999999
 20
283.5784549999999
 30
0.0
 11
103.0399999999999
 21
283.368455
 31
0.0
  0
LINE
  5
352
330
1E
100
AcDbEntity
  8
0
100
AcDbLine
 10
102.79
 20
283.8184549999999
 30
0.0
 11
102.8799999999999
 21
283.5784549999999
 31
0.0
  0
LINE
  5
353
330
1E
100
AcDbEntity
  8
0
100
AcDbLine
 10
84.62000000000001
 20
283.5784549999999
 30
0.0
 11
84.71
 21
283.8184549999999
 31
0.0
  0
LINE
  5
354
330
1E
100
AcDbEntity
  8
0
100
AcDbLine
 10
84.71
 20
283.8184549999999
 30
0.0
 11
84.74999999999999
 21
284.0784549999999
 31
0.0
  0
LINE
  5
355
330
1E
100
AcDbEntity
  8
0
100
AcDbLine
 10
82.88
 20
283.5784549999999
 30
0.0
 11
83.04
 21
283.368455
 31
0.0
  0
LINE
  5
356
330
1E
100
AcDbEntity
  8
0
100
AcDbLine
 10
82.79000000000001
 20
283.8184549999999
 30
0.0
 11
82.88
 21
283.5784549999999
 31
0.0
  0
LINE
  5
357
330
1E
100
AcDbEntity
  8
0
100
AcDbLine
 10
74.62
 20
283.5784549999999
 30
0.0
 11
74.71
 21
283.8184549999999
 31
0.0
  0
LINE
  5
358
330
1E
100
AcDbEntity
  8
0
100
AcDbLine
 10
74.71
 20
283.8184549999999
 30
0.0
 11
74.75
 21
284.0784549999999
 31
0.0
  0
LINE
  5
359
330
1E
100
AcDbEntity
  8
0
100
AcDbLine
 10
72.88
 20
283.5784549999999
 30
0.0
 11
73.04000000000001
 21
283.368455
 31
0.0
  0
LINE
  5
35A
330
1E
100
AcDbEntity
  8
0
100
AcDbLine
 10
72.79
 20
283.8184549999999
 30
0.0
 11
72.88
 21
283.5784549999999
 31
0.0
  0
LINE
  5
35B
330
1E
100
AcDbEntity
  8
0
100
AcDbLine
 10
64.71
 20
283.8184549999999
 30
0.0
 11
64.75
 21
284.0784549999999
 31
0.0
  0
LINE
  5
35C
330
1E
100
AcDbEntity
  8
0
100
AcDbLine
 10
63.04
 20
283.368455
 30
0.0
 11
63.25
 21
283.2084549999999
 31
0.0
  0
LINE
  5
35D
330
1E
100
AcDbEntity
  8
0
100
AcDbLine
 10
62.88
 20
283.5784549999999
 30
0.0
 11
63.04
 21
283.368455
 31
0.0
  0
LINE
  5
35E
330
1E
100
AcDbEntity
  8
0
100
AcDbLine
 10
62.88
 20
284.5784549999999
 30
0.0
 11
63.04
 21
284.7884549999999
 31
0.0
  0
LINE
  5
35F
330
1E
100
AcDbEntity
  8
0
100
AcDbLine
 10
62.78999999999999
 20
284.3384549999999
 30
0.0
 11
62.88
 21
284.5784549999999
 31
0.0
  0
LINE
  5
360
330
1E
100
AcDbEntity
  8
0
100
AcDbLine
 10
63.25
 20
284.9484549999999
 30
0.0
 11
63.49
 21
285.038455
 31
0.0
  0
LINE
  5
361
330
1E
100
AcDbEntity
  8
0
100
AcDbLine
 10
63.04
 20
284.7884549999999
 30
0.0
 11
63.25
 21
284.9484549999999
 31
0.0
  0
LINE
  5
362
330
1E
100
AcDbEntity
  8
0
100
AcDbLine
 10
63.49
 20
285.038455
 30
0.0
 11
63.75
 21
285.0784549999999
 31
0.0
  0
LINE
  5
363
330
1E
100
AcDbEntity
  8
0
100
AcDbLine
 10
63.75
 20
285.0784549999999
 30
0.0
 11
64.01
 21
285.038455
 31
0.0
  0
LINE
  5
364
330
1E
100
AcDbEntity
  8
0
100
AcDbLine
 10
64.01
 20
285.038455
 30
0.0
 11
64.25
 21
284.9484549999999
 31
0.0
  0
LINE
  5
365
330
1E
100
AcDbEntity
  8
0
100
AcDbLine
 10
64.25
 20
284.9484549999999
 30
0.0
 11
64.45999999999999
 21
284.7884549999999
 31
0.0
  0
LINE
  5
366
330
1E
100
AcDbEntity
  8
0
100
AcDbLine
 10
64.45999999999999
 20
284.7884549999999
 30
0.0
 11
64.62
 21
284.5784549999999
 31
0.0
  0
LINE
  5
367
330
1E
100
AcDbEntity
  8
0
100
AcDbLine
 10
64.62
 20
284.5784549999999
 30
0.0
 11
64.71
 21
284.3384549999999
 31
0.0
  0
LINE
  5
368
330
1E
100
AcDbEntity
  8
0
100
AcDbLine
 10
92.75
 20
284.0784549999999
 30
0.0
 11
92.79000000000001
 21
283.8184549999999
 31
0.0
  0
LINE
  5
369
330
1E
100
AcDbEntity
  8
0
100
AcDbLine
 10
92.75
 20
284.0784549999999
 30
0.0
 11
92.79000000000001
 21
284.3384549999999
 31
0.0
  0
LINE
  5
36A
330
1E
100
AcDbEntity
  8
0
100
AcDbLine
 10
102.75
 20
284.0784549999999
 30
0.0
 11
102.79
 21
283.8184549999999
 31
0.0
  0
LINE
  5
36B
330
1E
100
AcDbEntity
  8
0
100
AcDbLine
 10
102.75
 20
284.0784549999999
 30
0.0
 11
102.79
 21
284.3384549999999
 31
0.0
  0
LINE
  5
36C
330
1E
100
AcDbEntity
  8
0
100
AcDbLine
 10
82.79000000000001
 20
284.3384549999999
 30
0.0
 11
82.88
 21
284.5784549999999
 31
0.0
  0
LINE
  5
36D
330
1E
100
AcDbEntity
  8
0
100
AcDbLine
 10
92.79000000000001
 20
284.3384549999999
 30
0.0
 11
92.88
 21
284.5784549999999
 31
0.0
  0
LINE
  5
36E
330
1E
100
AcDbEntity
  8
0
100
AcDbLine
 10
94.71
 20
284.3384549999999
 30
0.0
 11
94.74999999999999
 21
284.0784549999999
 31
0.0
  0
LINE
  5
36F
330
1E
100
AcDbEntity
  8
0
100
AcDbLine
 10
102.79
 20
284.3384549999999
 30
0.0
 11
102.8799999999999
 21
284.5784549999999
 31
0.0
  0
LINE
  5
370
330
1E
100
AcDbEntity
  8
0
100
AcDbLine
 10
104.7099999999999
 20
284.3384549999999
 30
0.0
 11
104.75
 21
284.0784549999999
 31
0.0
  0
LINE
  5
371
330
1E
100
AcDbEntity
  8
0
100
AcDbLine
 10
84.71
 20
284.3384549999999
 30
0.0
 11
84.74999999999999
 21
284.0784549999999
 31
0.0
  0
LINE
  5
372
330
1E
100
AcDbEntity
  8
0
100
AcDbLine
 10
82.75
 20
284.0784549999999
 30
0.0
 11
82.79000000000001
 21
283.8184549999999
 31
0.0
  0
LINE
  5
373
330
1E
100
AcDbEntity
  8
0
100
AcDbLine
 10
82.75
 20
284.0784549999999
 30
0.0
 11
82.79000000000001
 21
284.3384549999999
 31
0.0
  0
LINE
  5
374
330
1E
100
AcDbEntity
  8
0
100
AcDbLine
 10
72.79
 20
284.3384549999999
 30
0.0
 11
72.88
 21
284.5784549999999
 31
0.0
  0
LINE
  5
375
330
1E
100
AcDbEntity
  8
0
100
AcDbLine
 10
74.71
 20
284.3384549999999
 30
0.0
 11
74.75
 21
284.0784549999999
 31
0.0
  0
LINE
  5
376
330
1E
100
AcDbEntity
  8
0
100
AcDbLine
 10
72.75
 20
284.0784549999999
 30
0.0
 11
72.79
 21
283.8184549999999
 31
0.0
  0
LINE
  5
377
330
1E
100
AcDbEntity
  8
0
100
AcDbLine
 10
72.75
 20
284.0784549999999
 30
0.0
 11
72.79
 21
284.3384549999999
 31
0.0
  0
LINE
  5
378
330
1E
100
AcDbEntity
  8
0
100
AcDbLine
 10
92.88
 20
284.5784549999999
 30
0.0
 11
93.04
 21
284.7884549999999
 31
0.0
  0
LINE
  5
379
330
1E
100
AcDbEntity
  8
0
100
AcDbLine
 10
94.62000000000001
 20
284.5784549999999
 30
0.0
 11
94.71
 21
284.3384549999999
 31
0.0
  0
LINE
  5
37A
330
1E
100
AcDbEntity
  8
0
100
AcDbLine
 10
102.8799999999999
 20
284.5784549999999
 30
0.0
 11
103.0399999999999
 21
284.7884549999999
 31
0.0
  0
LINE
  5
37B
330
1E
100
AcDbEntity
  8
0
100
AcDbLine
 10
104.62
 20
284.5784549999999
 30
0.0
 11
104.7099999999999
 21
284.3384549999999
 31
0.0
  0
LINE
  5
37C
330
1E
100
AcDbEntity
  8
0
100
AcDbLine
 10
82.88
 20
284.5784549999999
 30
0.0
 11
83.04
 21
284.7884549999999
 31
0.0
  0
LINE
  5
37D
330
1E
100
AcDbEntity
  8
0
100
AcDbLine
 10
84.62000000000001
 20
284.5784549999999
 30
0.0
 11
84.71
 21
284.3384549999999
 31
0.0
  0
LINE
  5
37E
330
1E
100
AcDbEntity
  8
0
100
AcDbLine
 10
72.88
 20
284.5784549999999
 30
0.0
 11
73.04000000000001
 21
284.7884549999999
 31
0.0
  0
LINE
  5
37F
330
1E
100
AcDbEntity
  8
0
100
AcDbLine
 10
73.25
 20
284.9484549999999
 30
0.0
 11
73.49
 21
285.038455
 31
0.0
  0
LINE
  5
380
330
1E
100
AcDbEntity
  8
0
100
AcDbLine
 10
73.04000000000001
 20
284.7884549999999
 30
0.0
 11
73.25
 21
284.9484549999999
 31
0.0
  0
LINE
  5
381
330
1E
100
AcDbEntity
  8
0
100
AcDbLine
 10
73.49
 20
285.038455
 30
0.0
 11
73.75
 21
285.0784549999999
 31
0.0
  0
LINE
  5
382
330
1E
100
AcDbEntity
  8
0
100
AcDbLine
 10
73.75
 20
285.0784549999999
 30
0.0
 11
74.01
 21
285.038455
 31
0.0
  0
LINE
  5
383
330
1E
100
AcDbEntity
  8
0
100
AcDbLine
 10
74.01
 20
285.038455
 30
0.0
 11
74.25
 21
284.9484549999999
 31
0.0
  0
LINE
  5
384
330
1E
100
AcDbEntity
  8
0
100
AcDbLine
 10
74.25
 20
284.9484549999999
 30
0.0
 11
74.45999999999999
 21
284.7884549999999
 31
0.0
  0
LINE
  5
385
330
1E
100
AcDbEntity
  8
0
100
AcDbLine
 10
83.25000000000001
 20
284.9484549999999
 30
0.0
 11
83.49
 21
285.038455
 31
0.0
  0
LINE
  5
386
330
1E
100
AcDbEntity
  8
0
100
AcDbLine
 10
83.04
 20
284.7884549999999
 30
0.0
 11
83.25000000000001
 21
284.9484549999999
 31
0.0
  0
LINE
  5
387
330
1E
100
AcDbEntity
  8
0
100
AcDbLine
 10
83.49
 20
285.038455
 30
0.0
 11
83.75
 21
285.0784549999999
 31
0.0
  0
LINE
  5
388
330
1E
100
AcDbEntity
  8
0
100
AcDbLine
 10
83.75
 20
285.0784549999999
 30
0.0
 11
84.01000000000001
 21
285.038455
 31
0.0
  0
LINE
  5
389
330
1E
100
AcDbEntity
  8
0
100
AcDbLine
 10
84.01000000000001
 20
285.038455
 30
0.0
 11
84.25
 21
284.9484549999999
 31
0.0
  0
LINE
  5
38A
330
1E
100
AcDbEntity
  8
0
100
AcDbLine
 10
84.25
 20
284.9484549999999
 30
0.0
 11
84.45999999999999
 21
284.7884549999999
 31
0.0
  0
LINE
  5
38B
330
1E
100
AcDbEntity
  8
0
100
AcDbLine
 10
93.04
 20
284.7884549999999
 30
0.0
 11
93.25000000000001
 21
284.9484549999999
 31
0.0
  0
LINE
  5
38C
330
1E
100
AcDbEntity
  8
0
100
AcDbLine
 10
94.45999999999999
 20
284.7884549999999
 30
0.0
 11
94.62000000000001
 21
284.5784549999999
 31
0.0
  0
LINE
  5
38D
330
1E
100
AcDbEntity
  8
0
100
AcDbLine
 10
103.0399999999999
 20
284.7884549999999
 30
0.0
 11
103.2499999999999
 21
284.9484549999999
 31
0.0
  0
LINE
  5
38E
330
1E
100
AcDbEntity
  8
0
100
AcDbLine
 10
93.25000000000001
 20
284.9484549999999
 30
0.0
 11
93.49
 21
285.038455
 31
0.0
  0
LINE
  5
38F
330
1E
100
AcDbEntity
  8
0
100
AcDbLine
 10
93.49
 20
285.038455
 30
0.0
 11
93.75
 21
285.0784549999999
 31
0.0
  0
LINE
  5
390
330
1E
100
AcDbEntity
  8
0
100
AcDbLine
 10
94.01000000000001
 20
285.038455
 30
0.0
 11
94.25
 21
284.9484549999999
 31
0.0
  0
LINE
  5
391
330
1E
100
AcDbEntity
  8
0
100
AcDbLine
 10
94.25
 20
284.9484549999999
 30
0.0
 11
94.45999999999999
 21
284.7884549999999
 31
0.0
  0
LINE
  5
392
330
1E
100
AcDbEntity
  8
0
100
AcDbLine
 10
103.4899999999999
 20
285.038455
 30
0.0
 11
103.75
 21
285.0784549999999
 31
0.0
  0
LINE
  5
393
330
1E
100
AcDbEntity
  8
0
100
AcDbLine
 10
103.2499999999999
 20
284.9484549999999
 30
0.0
 11
103.4899999999999
 21
285.038455
 31
0.0
  0
LINE
  5
394
330
1E
100
AcDbEntity
  8
0
100
AcDbLine
 10
93.75
 20
285.0784549999999
 30
0.0
 11
94.01000000000001
 21
285.038455
 31
0.0
  0
LINE
  5
395
330
1E
100
AcDbEntity
  8
0
100
AcDbLine
 10
103.75
 20
285.0784549999999
 30
0.0
 11
104.01
 21
285.038455
 31
0.0
  0
LINE
  5
396
330
1E
100
AcDbEntity
  8
0
100
AcDbLine
 10
104.01
 20
285.038455
 30
0.0
 11
104.2499999999999
 21
284.9484549999999
 31
0.0
  0
LINE
  5
397
330
1E
100
AcDbEntity
  8
0
100
AcDbLine
 10
104.2499999999999
 20
284.9484549999999
 30
0.0
 11
104.4599999999999
 21
284.7884549999999
 31
0.0
  0
LINE
  5
398
330
1E
100
AcDbEntity
  8
0
100
AcDbLine
 10
104.4599999999999
 20
284.7884549999999
 30
0.0
 11
104.62
 21
284.5784549999999
 31
0.0
  0
LINE
  5
399
330
1E
100
AcDbEntity
  8
0
100
AcDbLine
 10
84.45999999999999
 20
284.7884549999999
 30
0.0
 11
84.62000000000001
 21
284.5784549999999
 31
0.0
  0
LINE
  5
39A
330
1E
100
AcDbEntity
  8
0
100
AcDbLine
 10
74.45999999999999
 20
284.7884549999999
 30
0.0
 11
74.62
 21
284.5784549999999
 31
0.0
  0
LINE
  5
39B
330
1E
100
AcDbEntity
  8
0
100
AcDbLine
 10
74.62
 20
284.5784549999999
 30
0.0
 11
74.71
 21
284.3384549999999
 31
0.0
  0
LINE
  5
39C
330
1E
100
AcDbEntity
  8
0
100
AcDbLine
 10
64.71
 20
284.3384549999999
 30
0.0
 11
64.75
 21
284.0784549999999
 31
0.0
  0
LINE
  5
39D
330
1E
100
AcDbEntity
  8
0
100
AcDbLine
 10
62.78999999999999
 20
283.8184549999999
 30
0.0
 11
62.88
 21
283.5784549999999
 31
0.0
  0
LINE
  5
39E
330
1E
100
AcDbEntity
  8
0
100
AcDbLine
 10
62.75
 20
284.0784549999999
 30
0.0
 11
62.78999999999999
 21
283.8184549999999
 31
0.0
  0
LINE
  5
39F
330
1E
100
AcDbEntity
  8
0
100
AcDbLine
 10
62.75
 20
284.0784549999999
 30
0.0
 11
62.78999999999999
 21
284.3384549999999
 31
0.0
  0
LINE
  5
3A0
330
1E
100
AcDbEntity
  8
0
100
AcDbLine
 10
136.25
 20
276.8784549999999
 30
0.0
 11
136.25
 21
262.5784549999999
 31
0.0
  0
LINE
  5
3A2
330
1E
100
AcDbEntity
  8
0
100
AcDbLine
 10
136.26
 20
276.8784549999999
 30
0.0
 11
136.3
 21
279.978455
 31
0.0
  0
LINE
  5
3A5
330
1E
100
AcDbEntity
  8
0
100
AcDbLine
 10
136.3
 20
279.978455
 30
0.0
 11
136.4
 21
283.5784549999999
 31
0.0
  0
LINE
  5
3A7
330
1E
100
AcDbEntity
  8
0
100
AcDbLine
 10
136.4
 20
283.5784549999999
 30
0.0
 11
136.5999999999999
 21
286.5784549999999
 31
0.0
  0
LINE
  5
3A9
330
1E
100
AcDbEntity
  8
0
100
AcDbLine
 10
136.5999999999999
 20
286.5784549999999
 30
0.0
 11
136.85
 21
288.878455
 31
0.0
  0
LINE
  5
3AB
330
1E
100
AcDbEntity
  8
0
100
AcDbLine
 10
136.85
 20
288.878455
 30
0.0
 11
137.25
 21
290.9784549999999
 31
0.0
  0
LINE
  5
3B3
330
1E
100
AcDbEntity
  8
0
100
AcDbLine
 10
136.25
 20
272.9774549999999
 30
0.0
 11
136.25
 21
268.2814549999999
 31
0.0
  0
LINE
  5
3B4
330
1E
100
AcDbEntity
  8
0
100
AcDbLine
 10
136.25
 20
268.2814549999999
 30
0.0
 11
136.25
 21
259.2974549999999
 31
0.0
  0
LINE
  5
3B5
330
1E
100
AcDbEntity
  8
0
100
AcDbLine
 10
136.25
 20
268.2814549999999
 30
0.0
 11
136.25
 21
272.9774549999999
 31
0.0
  0
LINE
  5
3BD
330
1E
100
AcDbEntity
  8
0
100
AcDbLine
 10
182.2959999999999
 20
283.5784549999999
 30
0.0
 11
182.409
 21
279.978455
 31
0.0
  0
LINE
  5
3BF
330
1E
100
AcDbEntity
  8
0
100
AcDbLine
 10
182.085
 20
286.5784549999999
 30
0.0
 11
182.2959999999999
 21
283.5784549999999
 31
0.0
  0
LINE
  5
3C0
330
1E
100
AcDbEntity
  8
0
100
AcDbLine
 10
181.757
 20
288.878455
 30
0.0
 11
182.085
 21
286.5784549999999
 31
0.0
  0
LINE
  5
3C1
330
1E
100
AcDbEntity
  8
0
100
AcDbLine
 10
28.49
 20
293.1184549999999
 30
0.0
 11
28.75
 21
293.0784549999999
 31
0.0
  0
LINE
  5
3C2
330
1E
100
AcDbEntity
  8
0
100
AcDbLine
 10
28.75
 20
293.0784549999999
 30
0.0
 11
29.01
 21
293.1184549999999
 31
0.0
  0
LINE
  5
3C3
330
1E
100
AcDbEntity
  8
0
100
AcDbLine
 10
28.25
 20
293.2084549999999
 30
0.0
 11
28.49
 21
293.1184549999999
 31
0.0
  0
LINE
  5
3C4
330
1E
100
AcDbEntity
  8
0
100
AcDbLine
 10
28.04
 20
293.3684549999999
 30
0.0
 11
28.25
 21
293.2084549999999
 31
0.0
  0
LINE
  5
3C5
330
1E
100
AcDbEntity
  8
0
100
AcDbLine
 10
29.01
 20
293.1184549999999
 30
0.0
 11
29.25
 21
293.2084549999999
 31
0.0
  0
LINE
  5
3C6
330
1E
100
AcDbEntity
  8
0
100
AcDbLine
 10
38.49
 20
293.1184549999999
 30
0.0
 11
38.75
 21
293.0784549999999
 31
0.0
  0
LINE
  5
3C7
330
1E
100
AcDbEntity
  8
0
100
AcDbLine
 10
38.25
 20
293.2084549999999
 30
0.0
 11
38.49
 21
293.1184549999999
 31
0.0
  0
LINE
  5
3C8
330
1E
100
AcDbEntity
  8
0
100
AcDbLine
 10
38.75
 20
293.0784549999999
 30
0.0
 11
39.00999999999999
 21
293.1184549999999
 31
0.0
  0
LINE
  5
3C9
330
1E
100
AcDbEntity
  8
0
100
AcDbLine
 10
39.00999999999999
 20
293.1184549999999
 30
0.0
 11
39.25
 21
293.2084549999999
 31
0.0
  0
LINE
  5
3CA
330
1E
100
AcDbEntity
  8
0
100
AcDbLine
 10
38.04
 20
293.3684549999999
 30
0.0
 11
38.25
 21
293.2084549999999
 31
0.0
  0
LINE
  5
3CB
330
1E
100
AcDbEntity
  8
0
100
AcDbLine
 10
39.25
 20
293.2084549999999
 30
0.0
 11
39.46
 21
293.3684549999999
 31
0.0
  0
LINE
  5
3CC
330
1E
100
AcDbEntity
  8
0
100
AcDbLine
 10
48.75
 20
293.0784549999999
 30
0.0
 11
49.00999999999999
 21
293.1184549999999
 31
0.0
  0
LINE
  5
3CD
330
1E
100
AcDbEntity
  8
0
100
AcDbLine
 10
48.49
 20
293.1184549999999
 30
0.0
 11
48.75
 21
293.0784549999999
 31
0.0
  0
LINE
  5
3CE
330
1E
100
AcDbEntity
  8
0
100
AcDbLine
 10
48.25
 20
293.2084549999999
 30
0.0
 11
48.49
 21
293.1184549999999
 31
0.0
  0
LINE
  5
3CF
330
1E
100
AcDbEntity
  8
0
100
AcDbLine
 10
49.00999999999999
 20
293.1184549999999
 30
0.0
 11
49.25
 21
293.2084549999999
 31
0.0
  0
LINE
  5
3D0
330
1E
100
AcDbEntity
  8
0
100
AcDbLine
 10
49.25
 20
293.2084549999999
 30
0.0
 11
49.46
 21
293.3684549999999
 31
0.0
  0
LINE
  5
3D1
330
1E
100
AcDbEntity
  8
0
100
AcDbLine
 10
58.49
 20
293.1184549999999
 30
0.0
 11
58.75
 21
293.0784549999999
 31
0.0
  0
LINE
  5
3D2
330
1E
100
AcDbEntity
  8
0
100
AcDbLine
 10
58.25
 20
293.2084549999999
 30
0.0
 11
58.49
 21
293.1184549999999
 31
0.0
  0
LINE
  5
3D3
330
1E
100
AcDbEntity
  8
0
100
AcDbLine
 10
58.75
 20
293.0784549999999
 30
0.0
 11
59.00999999999999
 21
293.1184549999999
 31
0.0
  0
LINE
  5
3D4
330
1E
100
AcDbEntity
  8
0
100
AcDbLine
 10
59.00999999999999
 20
293.1184549999999
 30
0.0
 11
59.25
 21
293.2084549999999
 31
0.0
  0
LINE
  5
3D5
330
1E
100
AcDbEntity
  8
0
100
AcDbLine
 10
48.04
 20
293.3684549999999
 30
0.0
 11
48.25
 21
293.2084549999999
 31
0.0
  0
LINE
  5
3D6
330
1E
100
AcDbEntity
  8
0
100
AcDbLine
 10
49.46
 20
293.3684549999999
 30
0.0
 11
49.61999999999999
 21
293.5784549999999
 31
0.0
  0
LINE
  5
3D7
330
1E
100
AcDbEntity
  8
0
100
AcDbLine
 10
58.04
 20
293.3684549999999
 30
0.0
 11
58.25
 21
293.2084549999999
 31
0.0
  0
LINE
  5
3D8
330
1E
100
AcDbEntity
  8
0
100
AcDbLine
 10
59.25
 20
293.2084549999999
 30
0.0
 11
59.46
 21
293.3684549999999
 31
0.0
  0
LINE
  5
3D9
330
1E
100
AcDbEntity
  8
0
100
AcDbLine
 10
59.46
 20
293.3684549999999
 30
0.0
 11
59.61999999999999
 21
293.5784549999999
 31
0.0
  0
LINE
  5
3DA
330
1E
100
AcDbEntity
  8
0
100
AcDbLine
 10
39.46
 20
293.3684549999999
 30
0.0
 11
39.61999999999999
 21
293.5784549999999
 31
0.0
  0
LINE
  5
3DB
330
1E
100
AcDbEntity
  8
0
100
AcDbLine
 10
29.25
 20
293.2084549999999
 30
0.0
 11
29.46
 21
293.3684549999999
 31
0.0
  0
LINE
  5
3DC
330
1E
100
AcDbEntity
  8
0
100
AcDbLine
 10
29.46
 20
293.3684549999999
 30
0.0
 11
29.62
 21
293.5784549999999
 31
0.0
  0
LINE
  5
3DD
330
1E
100
AcDbEntity
  8
0
100
AcDbLine
 10
68.75
 20
293.0784549999999
 30
0.0
 11
69.01
 21
293.1184549999999
 31
0.0
  0
LINE
  5
3DE
330
1E
100
AcDbEntity
  8
0
100
AcDbLine
 10
78.75
 20
293.0784549999999
 30
0.0
 11
79.01
 21
293.1184549999999
 31
0.0
  0
LINE
  5
3DF
330
1E
100
AcDbEntity
  8
0
100
AcDbLine
 10
88.75
 20
293.0784549999999
 30
0.0
 11
89.01000000000001
 21
293.1184549999999
 31
0.0
  0
LINE
  5
3E0
330
1E
100
AcDbEntity
  8
0
100
AcDbLine
 10
98.75
 20
293.0784549999999
 30
0.0
 11
99.01000000000001
 21
293.1184549999999
 31
0.0
  0
LINE
  5
3E1
330
1E
100
AcDbEntity
  8
0
100
AcDbLine
 10
99.01000000000001
 20
293.1184549999999
 30
0.0
 11
99.25
 21
293.2084549999999
 31
0.0
  0
LINE
  5
3E2
330
1E
100
AcDbEntity
  8
0
100
AcDbLine
 10
99.25
 20
293.2084549999999
 30
0.0
 11
99.45999999999999
 21
293.3684549999999
 31
0.0
  0
LINE
  5
3E3
330
1E
100
AcDbEntity
  8
0
100
AcDbLine
 10
98.49
 20
293.1184549999999
 30
0.0
 11
98.75
 21
293.0784549999999
 31
0.0
  0
LINE
  5
3E4
330
1E
100
AcDbEntity
  8
0
100
AcDbLine
 10
98.25000000000001
 20
293.2084549999999
 30
0.0
 11
98.49
 21
293.1184549999999
 31
0.0
  0
LINE
  5
3E5
330
1E
100
AcDbEntity
  8
0
100
AcDbLine
 10
89.01000000000001
 20
293.1184549999999
 30
0.0
 11
89.25
 21
293.2084549999999
 31
0.0
  0
LINE
  5
3E6
330
1E
100
AcDbEntity
  8
0
100
AcDbLine
 10
89.25
 20
293.2084549999999
 30
0.0
 11
89.45999999999999
 21
293.3684549999999
 31
0.0
  0
LINE
  5
3E7
330
1E
100
AcDbEntity
  8
0
100
AcDbLine
 10
88.49
 20
293.1184549999999
 30
0.0
 11
88.75
 21
293.0784549999999
 31
0.0
  0
LINE
  5
3E8
330
1E
100
AcDbEntity
  8
0
100
AcDbLine
 10
88.25000000000001
 20
293.2084549999999
 30
0.0
 11
88.49
 21
293.1184549999999
 31
0.0
  0
LINE
  5
3E9
330
1E
100
AcDbEntity
  8
0
100
AcDbLine
 10
79.01
 20
293.1184549999999
 30
0.0
 11
79.25
 21
293.2084549999999
 31
0.0
  0
LINE
  5
3EA
330
1E
100
AcDbEntity
  8
0
100
AcDbLine
 10
79.25
 20
293.2084549999999
 30
0.0
 11
79.45999999999999
 21
293.3684549999999
 31
0.0
  0
LINE
  5
3EB
330
1E
100
AcDbEntity
  8
0
100
AcDbLine
 10
78.49
 20
293.1184549999999
 30
0.0
 11
78.75
 21
293.0784549999999
 31
0.0
  0
LINE
  5
3EC
330
1E
100
AcDbEntity
  8
0
100
AcDbLine
 10
78.25
 20
293.2084549999999
 30
0.0
 11
78.49
 21
293.1184549999999
 31
0.0
  0
LINE
  5
3ED
330
1E
100
AcDbEntity
  8
0
100
AcDbLine
 10
69.01
 20
293.1184549999999
 30
0.0
 11
69.25
 21
293.2084549999999
 31
0.0
  0
LINE
  5
3EE
330
1E
100
AcDbEntity
  8
0
100
AcDbLine
 10
69.25
 20
293.2084549999999
 30
0.0
 11
69.45999999999999
 21
293.3684549999999
 31
0.0
  0
LINE
  5
3EF
330
1E
100
AcDbEntity
  8
0
100
AcDbLine
 10
68.49
 20
293.1184549999999
 30
0.0
 11
68.75
 21
293.0784549999999
 31
0.0
  0
LINE
  5
3F0
330
1E
100
AcDbEntity
  8
0
100
AcDbLine
 10
99.45999999999999
 20
293.3684549999999
 30
0.0
 11
99.62000000000001
 21
293.5784549999999
 31
0.0
  0
LINE
  5
3F1
330
1E
100
AcDbEntity
  8
0
100
AcDbLine
 10
98.04000000000002
 20
293.3684549999999
 30
0.0
 11
98.25000000000001
 21
293.2084549999999
 31
0.0
  0
LINE
  5
3F2
330
1E
100
AcDbEntity
  8
0
100
AcDbLine
 10
89.45999999999999
 20
293.3684549999999
 30
0.0
 11
89.62000000000001
 21
293.5784549999999
 31
0.0
  0
LINE
  5
3F3
330
1E
100
AcDbEntity
  8
0
100
AcDbLine
 10
88.04
 20
293.3684549999999
 30
0.0
 11
88.25000000000001
 21
293.2084549999999
 31
0.0
  0
LINE
  5
3F4
330
1E
100
AcDbEntity
  8
0
100
AcDbLine
 10
79.45999999999999
 20
293.3684549999999
 30
0.0
 11
79.62
 21
293.5784549999999
 31
0.0
  0
LINE
  5
3F5
330
1E
100
AcDbEntity
  8
0
100
AcDbLine
 10
78.04000000000001
 20
293.3684549999999
 30
0.0
 11
78.25
 21
293.2084549999999
 31
0.0
  0
LINE
  5
3F6
330
1E
100
AcDbEntity
  8
0
100
AcDbLine
 10
69.45999999999999
 20
293.3684549999999
 30
0.0
 11
69.62
 21
293.5784549999999
 31
0.0
  0
LINE
  5
3F7
330
1E
100
AcDbEntity
  8
0
100
AcDbLine
 10
68.25
 20
293.2084549999999
 30
0.0
 11
68.49
 21
293.1184549999999
 31
0.0
  0
LINE
  5
3F8
330
1E
100
AcDbEntity
  8
0
100
AcDbLine
 10
68.04000000000001
 20
293.3684549999999
 30
0.0
 11
68.25
 21
293.2084549999999
 31
0.0
  0
LINE
  5
3F9
330
1E
100
AcDbEntity
  8
0
100
AcDbLine
 10
137.25
 20
290.9784549999999
 30
0.0
 11
138.05
 21
292.8784549999999
 31
0.0
  0
LINE
  5
3FC
330
1E
100
AcDbEntity
  8
0
100
AcDbLine
 10
180.4499999999999
 20
292.8784549999999
 30
0.0
 11
181.25
 21
290.9784549999999
 31
0.0
  0
LINE
  5
3FE
330
1E
100
AcDbEntity
  8
0
100
AcDbLine
 10
138.05
 20
292.8784549999999
 30
0.0
 11
139.25
 21
294.5784549999999
 31
0.0
  0
LINE
  5
3FF
330
1E
100
AcDbEntity
  8
0
100
AcDbLine
 10
181.25
 20
290.9784549999999
 30
0.0
 11
181.757
 21
288.878455
 31
0.0
  0
LINE
  5
400
330
1E
100
AcDbEntity
  8
0
100
AcDbLine
 10
182.4469999999999
 20
276.8784549999999
 30
0.0
 11
182.4569999999999
 21
274.5784549999999
 31
0.0
  0
LINE
  5
401
330
1E
100
AcDbEntity
  8
0
100
AcDbLine
 10
182.409
 20
279.978455
 30
0.0
 11
182.4469999999999
 21
276.8784549999999
 31
0.0
  0
LINE
  5
406
330
1E
100
AcDbEntity
  8
0
100
AcDbLine
 10
182.4469999999999
 20
272.278455
 30
0.0
 11
182.4569999999999
 21
274.5784549999999
 31
0.0
  0
LINE
  5
407
330
1E
100
AcDbEntity
  8
0
100
AcDbLine
 10
182.409
 20
269.1784549999999
 30
0.0
 11
182.4469999999999
 21
272.278455
 31
0.0
  0
LINE
  5
408
330
1E
100
AcDbEntity
  8
0
100
AcDbLine
 10
182.2959999999999
 20
265.5784549999999
 30
0.0
 11
182.409
 21
269.1784549999999
 31
0.0
  0
LINE
  5
409
330
1E
100
AcDbEntity
  8
0
100
AcDbLine
 10
182.2499999999999
 20
264.924426563981
 30
0.0
 11
182.2959999999999
 21
265.5784549999999
 31
0.0
  0
LINE
  5
411
330
1E
100
AcDbEntity
  8
0
100
AcDbLine
 10
254.048
 20
293.5784549999999
 30
0.0
 11
255.257
 21
293.5784549999999
 31
0.0
  0
LINE
  5
412
330
1E
100
AcDbEntity
  8
0
100
AcDbLine
 10
255.257
 20
293.5784549999999
 30
0.0
 11
256.245
 21
293.5784549999999
 31
0.0
  0
LINE
  5
413
330
1E
100
AcDbEntity
  8
0
100
AcDbLine
 10
256.245
 20
293.5784549999999
 30
0.0
 11
256.966
 21
293.5784549999999
 31
0.0
  0
LINE
  5
414
330
1E
100
AcDbEntity
  8
0
100
AcDbLine
 10
252.708
 20
293.5784549999999
 30
0.0
 11
254.048
 21
293.5784549999999
 31
0.0
  0
LINE
  5
415
330
1E
100
AcDbEntity
  8
0
100
AcDbLine
 10
251.4149999999999
 20
293.5784549999999
 30
0.0
 11
252.708
 21
293.5784549999999
 31
0.0
  0
LINE
  5
416
330
1E
100
AcDbEntity
  8
0
100
AcDbLine
 10
250.258
 20
293.5784549999999
 30
0.0
 11
251.4149999999999
 21
293.5784549999999
 31
0.0
  0
LINE
  5
417
330
1E
100
AcDbEntity
  8
0
100
AcDbLine
 10
256.966
 20
293.5784549999999
 30
0.0
 11
261.494
 21
293.5784549999999
 31
0.0
  0
LINE
  5
419
330
1E
100
AcDbEntity
  8
0
100
AcDbLine
 10
194.6329999999999
 20
293.278455
 30
0.0
 11
195.572
 21
293.5784549999999
 31
0.0
  0
LINE
  5
41A
330
1E
100
AcDbEntity
  8
0
100
AcDbLine
 10
194.2309999999999
 20
292.5784549999999
 30
0.0
 11
194.2309999999999
 21
256.5784549999999
 31
0.0
  0
LINE
  5
41B
330
1E
100
AcDbEntity
  8
0
100
AcDbLine
 10
194.2309999999999
 20
292.5784549999999
 30
0.0
 11
194.6329999999999
 21
293.278455
 31
0.0
  0
LINE
  5
41C
330
1E
100
AcDbEntity
  8
0
100
AcDbLine
 10
195.572
 20
293.5784549999999
 30
0.0
 11
250.258
 21
293.5784549999999
 31
0.0
  0
LINE
  5
41E
330
1E
100
AcDbEntity
  8
0
100
AcDbLine
 10
27.88
 20
293.5784549999999
 30
0.0
 11
28.04
 21
293.3684549999999
 31
0.0
  0
LINE
  5
41F
330
1E
100
AcDbEntity
  8
0
100
AcDbLine
 10
27.78999999999999
 20
293.8184549999999
 30
0.0
 11
27.88
 21
293.5784549999999
 31
0.0
  0
LINE
  5
420
330
1E
100
AcDbEntity
  8
0
100
AcDbLine
 10
37.88
 20
293.5784549999999
 30
0.0
 11
38.04
 21
293.3684549999999
 31
0.0
  0
LINE
  5
421
330
1E
100
AcDbEntity
  8
0
100
AcDbLine
 10
37.78999999999999
 20
293.8184549999999
 30
0.0
 11
37.88
 21
293.5784549999999
 31
0.0
  0
LINE
  5
422
330
1E
100
AcDbEntity
  8
0
100
AcDbLine
 10
47.88
 20
293.5784549999999
 30
0.0
 11
48.04
 21
293.3684549999999
 31
0.0
  0
LINE
  5
423
330
1E
100
AcDbEntity
  8
0
100
AcDbLine
 10
47.78999999999999
 20
293.8184549999999
 30
0.0
 11
47.88
 21
293.5784549999999
 31
0.0
  0
LINE
  5
424
330
1E
100
AcDbEntity
  8
0
100
AcDbLine
 10
49.61999999999999
 20
293.5784549999999
 30
0.0
 11
49.71
 21
293.8184549999999
 31
0.0
  0
LINE
  5
425
330
1E
100
AcDbEntity
  8
0
100
AcDbLine
 10
49.71
 20
293.8184549999999
 30
0.0
 11
49.75
 21
294.0784549999999
 31
0.0
  0
LINE
  5
426
330
1E
100
AcDbEntity
  8
0
100
AcDbLine
 10
57.88
 20
293.5784549999999
 30
0.0
 11
58.04
 21
293.3684549999999
 31
0.0
  0
LINE
  5
427
330
1E
100
AcDbEntity
  8
0
100
AcDbLine
 10
57.78999999999999
 20
293.8184549999999
 30
0.0
 11
57.88
 21
293.5784549999999
 31
0.0
  0
LINE
  5
428
330
1E
100
AcDbEntity
  8
0
100
AcDbLine
 10
59.61999999999999
 20
293.5784549999999
 30
0.0
 11
59.71
 21
293.8184549999999
 31
0.0
  0
LINE
  5
429
330
1E
100
AcDbEntity
  8
0
100
AcDbLine
 10
59.71
 20
293.8184549999999
 30
0.0
 11
59.75
 21
294.0784549999999
 31
0.0
  0
LINE
  5
42A
330
1E
100
AcDbEntity
  8
0
100
AcDbLine
 10
39.61999999999999
 20
293.5784549999999
 30
0.0
 11
39.71
 21
293.8184549999999
 31
0.0
  0
LINE
  5
42B
330
1E
100
AcDbEntity
  8
0
100
AcDbLine
 10
39.71
 20
293.8184549999999
 30
0.0
 11
39.75
 21
294.0784549999999
 31
0.0
  0
LINE
  5
42C
330
1E
100
AcDbEntity
  8
0
100
AcDbLine
 10
29.62
 20
293.5784549999999
 30
0.0
 11
29.71
 21
293.8184549999999
 31
0.0
  0
LINE
  5
42D
330
1E
100
AcDbEntity
  8
0
100
AcDbLine
 10
47.75
 20
294.0784549999999
 30
0.0
 11
47.78999999999999
 21
293.8184549999999
 31
0.0
  0
LINE
  5
42E
330
1E
100
AcDbEntity
  8
0
100
AcDbLine
 10
47.75
 20
294.0784549999999
 30
0.0
 11
47.78999999999999
 21
294.3384549999999
 31
0.0
  0
LINE
  5
42F
330
1E
100
AcDbEntity
  8
0
100
AcDbLine
 10
57.75
 20
294.0784549999999
 30
0.0
 11
57.78999999999999
 21
293.8184549999999
 31
0.0
  0
LINE
  5
430
330
1E
100
AcDbEntity
  8
0
100
AcDbLine
 10
57.75
 20
294.0784549999999
 30
0.0
 11
57.78999999999999
 21
294.3384549999999
 31
0.0
  0
LINE
  5
431
330
1E
100
AcDbEntity
  8
0
100
AcDbLine
 10
49.71
 20
294.3384549999999
 30
0.0
 11
49.75
 21
294.0784549999999
 31
0.0
  0
LINE
  5
432
330
1E
100
AcDbEntity
  8
0
100
AcDbLine
 10
47.78999999999999
 20
294.3384549999999
 30
0.0
 11
47.88
 21
294.5784549999999
 31
0.0
  0
LINE
  5
433
330
1E
100
AcDbEntity
  8
0
100
AcDbLine
 10
59.71
 20
294.3384549999999
 30
0.0
 11
59.75
 21
294.0784549999999
 31
0.0
  0
LINE
  5
434
330
1E
100
AcDbEntity
  8
0
100
AcDbLine
 10
57.78999999999999
 20
294.3384549999999
 30
0.0
 11
57.88
 21
294.5784549999999
 31
0.0
  0
LINE
  5
435
330
1E
100
AcDbEntity
  8
0
100
AcDbLine
 10
39.71
 20
294.3384549999999
 30
0.0
 11
39.75
 21
294.0784549999999
 31
0.0
  0
LINE
  5
436
330
1E
100
AcDbEntity
  8
0
100
AcDbLine
 10
37.78999999999999
 20
294.3384549999999
 30
0.0
 11
37.88
 21
294.5784549999999
 31
0.0
  0
LINE
  5
437
330
1E
100
AcDbEntity
  8
0
100
AcDbLine
 10
37.75
 20
294.0784549999999
 30
0.0
 11
37.78999999999999
 21
293.8184549999999
 31
0.0
  0
LINE
  5
438
330
1E
100
AcDbEntity
  8
0
100
AcDbLine
 10
37.75
 20
294.0784549999999
 30
0.0
 11
37.78999999999999
 21
294.3384549999999
 31
0.0
  0
LINE
  5
439
330
1E
100
AcDbEntity
  8
0
100
AcDbLine
 10
29.71
 20
294.3384549999999
 30
0.0
 11
29.75
 21
294.0784549999999
 31
0.0
  0
LINE
  5
43A
330
1E
100
AcDbEntity
  8
0
100
AcDbLine
 10
29.46
 20
294.7884549999999
 30
0.0
 11
29.62
 21
294.5784549999999
 31
0.0
  0
LINE
  5
43B
330
1E
100
AcDbEntity
  8
0
100
AcDbLine
 10
39.46
 20
294.7884549999999
 30
0.0
 11
39.61999999999999
 21
294.5784549999999
 31
0.0
  0
LINE
  5
43C
330
1E
100
AcDbEntity
  8
0
100
AcDbLine
 10
49.61999999999999
 20
294.5784549999999
 30
0.0
 11
49.71
 21
294.3384549999999
 31
0.0
  0
LINE
  5
43D
330
1E
100
AcDbEntity
  8
0
100
AcDbLine
 10
47.88
 20
294.5784549999999
 30
0.0
 11
48.04
 21
294.7884549999999
 31
0.0
  0
LINE
  5
43E
330
1E
100
AcDbEntity
  8
0
100
AcDbLine
 10
59.61999999999999
 20
294.5784549999999
 30
0.0
 11
59.71
 21
294.3384549999999
 31
0.0
  0
LINE
  5
43F
330
1E
100
AcDbEntity
  8
0
100
AcDbLine
 10
49.46
 20
294.7884549999999
 30
0.0
 11
49.61999999999999
 21
294.5784549999999
 31
0.0
  0
LINE
  5
440
330
1E
100
AcDbEntity
  8
0
100
AcDbLine
 10
48.04
 20
294.7884549999999
 30
0.0
 11
48.25
 21
294.9484549999999
 31
0.0
  0
LINE
  5
441
330
1E
100
AcDbEntity
  8
0
100
AcDbLine
 10
59.46
 20
294.7884549999999
 30
0.0
 11
59.61999999999999
 21
294.5784549999999
 31
0.0
  0
LINE
  5
442
330
1E
100
AcDbEntity
  8
0
100
AcDbLine
 10
58.04
 20
294.7884549999999
 30
0.0
 11
58.25
 21
294.9484549999999
 31
0.0
  0
LINE
  5
443
330
1E
100
AcDbEntity
  8
0
100
AcDbLine
 10
57.88
 20
294.5784549999999
 30
0.0
 11
58.04
 21
294.7884549999999
 31
0.0
  0
LINE
  5
444
330
1E
100
AcDbEntity
  8
0
100
AcDbLine
 10
39.61999999999999
 20
294.5784549999999
 30
0.0
 11
39.71
 21
294.3384549999999
 31
0.0
  0
LINE
  5
445
330
1E
100
AcDbEntity
  8
0
100
AcDbLine
 10
38.04
 20
294.7884549999999
 30
0.0
 11
38.25
 21
294.9484549999999
 31
0.0
  0
LINE
  5
446
330
1E
100
AcDbEntity
  8
0
100
AcDbLine
 10
37.88
 20
294.5784549999999
 30
0.0
 11
38.04
 21
294.7884549999999
 31
0.0
  0
LINE
  5
447
330
1E
100
AcDbEntity
  8
0
100
AcDbLine
 10
29.62
 20
294.5784549999999
 30
0.0
 11
29.71
 21
294.3384549999999
 31
0.0
  0
LINE
  5
448
330
1E
100
AcDbEntity
  8
0
100
AcDbLine
 10
29.01
 20
295.0384549999999
 30
0.0
 11
29.25
 21
294.9484549999999
 31
0.0
  0
LINE
  5
449
330
1E
100
AcDbEntity
  8
0
100
AcDbLine
 10
49.25
 20
294.9484549999999
 30
0.0
 11
49.46
 21
294.7884549999999
 31
0.0
  0
LINE
  5
44A
330
1E
100
AcDbEntity
  8
0
100
AcDbLine
 10
48.25
 20
294.9484549999999
 30
0.0
 11
48.49
 21
295.0384549999999
 31
0.0
  0
LINE
  5
44B
330
1E
100
AcDbEntity
  8
0
100
AcDbLine
 10
59.25
 20
294.9484549999999
 30
0.0
 11
59.46
 21
294.7884549999999
 31
0.0
  0
LINE
  5
44C
330
1E
100
AcDbEntity
  8
0
100
AcDbLine
 10
58.25
 20
294.9484549999999
 30
0.0
 11
58.49
 21
295.0384549999999
 31
0.0
  0
LINE
  5
44D
330
1E
100
AcDbEntity
  8
0
100
AcDbLine
 10
39.25
 20
294.9484549999999
 30
0.0
 11
39.46
 21
294.7884549999999
 31
0.0
  0
LINE
  5
44E
330
1E
100
AcDbEntity
  8
0
100
AcDbLine
 10
49.00999999999999
 20
295.0384549999999
 30
0.0
 11
49.25
 21
294.9484549999999
 31
0.0
  0
LINE
  5
44F
330
1E
100
AcDbEntity
  8
0
100
AcDbLine
 10
48.49
 20
295.0384549999999
 30
0.0
 11
48.75
 21
295.0784549999999
 31
0.0
  0
LINE
  5
450
330
1E
100
AcDbEntity
  8
0
100
AcDbLine
 10
59.00999999999999
 20
295.0384549999999
 30
0.0
 11
59.25
 21
294.9484549999999
 31
0.0
  0
LINE
  5
451
330
1E
100
AcDbEntity
  8
0
100
AcDbLine
 10
58.49
 20
295.0384549999999
 30
0.0
 11
58.75
 21
295.0784549999999
 31
0.0
  0
LINE
  5
452
330
1E
100
AcDbEntity
  8
0
100
AcDbLine
 10
39.00999999999999
 20
295.0384549999999
 30
0.0
 11
39.25
 21
294.9484549999999
 31
0.0
  0
LINE
  5
453
330
1E
100
AcDbEntity
  8
0
100
AcDbLine
 10
38.49
 20
295.0384549999999
 30
0.0
 11
38.75
 21
295.0784549999999
 31
0.0
  0
LINE
  5
454
330
1E
100
AcDbEntity
  8
0
100
AcDbLine
 10
38.25
 20
294.9484549999999
 30
0.0
 11
38.49
 21
295.0384549999999
 31
0.0
  0
LINE
  5
455
330
1E
100
AcDbEntity
  8
0
100
AcDbLine
 10
29.25
 20
294.9484549999999
 30
0.0
 11
29.46
 21
294.7884549999999
 31
0.0
  0
LINE
  5
456
330
1E
100
AcDbEntity
  8
0
100
AcDbLine
 10
48.75
 20
295.0784549999999
 30
0.0
 11
49.00999999999999
 21
295.0384549999999
 31
0.0
  0
LINE
  5
457
330
1E
100
AcDbEntity
  8
0
100
AcDbLine
 10
58.75
 20
295.0784549999999
 30
0.0
 11
59.00999999999999
 21
295.0384549999999
 31
0.0
  0
LINE
  5
458
330
1E
100
AcDbEntity
  8
0
100
AcDbLine
 10
38.75
 20
295.0784549999999
 30
0.0
 11
39.00999999999999
 21
295.0384549999999
 31
0.0
  0
LINE
  5
459
330
1E
100
AcDbEntity
  8
0
100
AcDbLine
 10
28.75
 20
295.0784549999999
 30
0.0
 11
29.01
 21
295.0384549999999
 31
0.0
  0
LINE
  5
45A
330
1E
100
AcDbEntity
  8
0
100
AcDbLine
 10
28.49
 20
295.0384549999999
 30
0.0
 11
28.75
 21
295.0784549999999
 31
0.0
  0
LINE
  5
45B
330
1E
100
AcDbEntity
  8
0
100
AcDbLine
 10
28.25
 20
294.9484549999999
 30
0.0
 11
28.49
 21
295.0384549999999
 31
0.0
  0
LINE
  5
45C
330
1E
100
AcDbEntity
  8
0
100
AcDbLine
 10
28.04
 20
294.7884549999999
 30
0.0
 11
28.25
 21
294.9484549999999
 31
0.0
  0
LINE
  5
45D
330
1E
100
AcDbEntity
  8
0
100
AcDbLine
 10
27.88
 20
294.5784549999999
 30
0.0
 11
28.04
 21
294.7884549999999
 31
0.0
  0
LINE
  5
45E
330
1E
100
AcDbEntity
  8
0
100
AcDbLine
 10
27.78999999999999
 20
294.3384549999999
 30
0.0
 11
27.88
 21
294.5784549999999
 31
0.0
  0
LINE
  5
45F
330
1E
100
AcDbEntity
  8
0
100
AcDbLine
 10
27.75
 20
294.0784549999999
 30
0.0
 11
27.78999999999999
 21
293.8184549999999
 31
0.0
  0
LINE
  5
460
330
1E
100
AcDbEntity
  8
0
100
AcDbLine
 10
27.75
 20
294.0784549999999
 30
0.0
 11
27.78999999999999
 21
294.3384549999999
 31
0.0
  0
LINE
  5
461
330
1E
100
AcDbEntity
  8
0
100
AcDbLine
 10
29.71
 20
293.8184549999999
 30
0.0
 11
29.75
 21
294.0784549999999
 31
0.0
  0
LINE
  5
462
330
1E
100
AcDbEntity
  8
0
100
AcDbLine
 10
99.62000000000001
 20
293.5784549999999
 30
0.0
 11
99.71
 21
293.8184549999999
 31
0.0
  0
LINE
  5
463
330
1E
100
AcDbEntity
  8
0
100
AcDbLine
 10
99.71
 20
293.8184549999999
 30
0.0
 11
99.75000000000001
 21
294.0784549999999
 31
0.0
  0
LINE
  5
464
330
1E
100
AcDbEntity
  8
0
100
AcDbLine
 10
97.88
 20
293.5784549999999
 30
0.0
 11
98.04000000000002
 21
293.3684549999999
 31
0.0
  0
LINE
  5
465
330
1E
100
AcDbEntity
  8
0
100
AcDbLine
 10
97.79000000000001
 20
293.8184549999999
 30
0.0
 11
97.88
 21
293.5784549999999
 31
0.0
  0
LINE
  5
466
330
1E
100
AcDbEntity
  8
0
100
AcDbLine
 10
89.62000000000001
 20
293.5784549999999
 30
0.0
 11
89.71
 21
293.8184549999999
 31
0.0
  0
LINE
  5
467
330
1E
100
AcDbEntity
  8
0
100
AcDbLine
 10
89.71
 20
293.8184549999999
 30
0.0
 11
89.74999999999999
 21
294.0784549999999
 31
0.0
  0
LINE
  5
468
330
1E
100
AcDbEntity
  8
0
100
AcDbLine
 10
87.88
 20
293.5784549999999
 30
0.0
 11
88.04
 21
293.3684549999999
 31
0.0
  0
LINE
  5
469
330
1E
100
AcDbEntity
  8
0
100
AcDbLine
 10
87.79000000000001
 20
293.8184549999999
 30
0.0
 11
87.88
 21
293.5784549999999
 31
0.0
  0
LINE
  5
46A
330
1E
100
AcDbEntity
  8
0
100
AcDbLine
 10
79.62
 20
293.5784549999999
 30
0.0
 11
79.71
 21
293.8184549999999
 31
0.0
  0
LINE
  5
46B
330
1E
100
AcDbEntity
  8
0
100
AcDbLine
 10
79.71
 20
293.8184549999999
 30
0.0
 11
79.75
 21
294.0784549999999
 31
0.0
  0
LINE
  5
46C
330
1E
100
AcDbEntity
  8
0
100
AcDbLine
 10
77.88
 20
293.5784549999999
 30
0.0
 11
78.04000000000001
 21
293.3684549999999
 31
0.0
  0
LINE
  5
46D
330
1E
100
AcDbEntity
  8
0
100
AcDbLine
 10
77.79
 20
293.8184549999999
 30
0.0
 11
77.88
 21
293.5784549999999
 31
0.0
  0
LINE
  5
46E
330
1E
100
AcDbEntity
  8
0
100
AcDbLine
 10
69.62
 20
293.5784549999999
 30
0.0
 11
69.71
 21
293.8184549999999
 31
0.0
  0
LINE
  5
46F
330
1E
100
AcDbEntity
  8
0
100
AcDbLine
 10
69.71
 20
293.8184549999999
 30
0.0
 11
69.75
 21
294.0784549999999
 31
0.0
  0
LINE
  5
470
330
1E
100
AcDbEntity
  8
0
100
AcDbLine
 10
67.88
 20
293.5784549999999
 30
0.0
 11
68.04000000000001
 21
293.3684549999999
 31
0.0
  0
LINE
  5
471
330
1E
100
AcDbEntity
  8
0
100
AcDbLine
 10
67.88
 20
294.5784549999999
 30
0.0
 11
68.04000000000001
 21
294.7884549999999
 31
0.0
  0
LINE
  5
472
330
1E
100
AcDbEntity
  8
0
100
AcDbLine
 10
67.79
 20
294.3384549999999
 30
0.0
 11
67.88
 21
294.5784549999999
 31
0.0
  0
LINE
  5
473
330
1E
100
AcDbEntity
  8
0
100
AcDbLine
 10
68.25
 20
294.9484549999999
 30
0.0
 11
68.49
 21
295.0384549999999
 31
0.0
  0
LINE
  5
474
330
1E
100
AcDbEntity
  8
0
100
AcDbLine
 10
68.04000000000001
 20
294.7884549999999
 30
0.0
 11
68.25
 21
294.9484549999999
 31
0.0
  0
LINE
  5
475
330
1E
100
AcDbEntity
  8
0
100
AcDbLine
 10
68.49
 20
295.0384549999999
 30
0.0
 11
68.75
 21
295.0784549999999
 31
0.0
  0
LINE
  5
476
330
1E
100
AcDbEntity
  8
0
100
AcDbLine
 10
68.75
 20
295.0784549999999
 30
0.0
 11
69.01
 21
295.0384549999999
 31
0.0
  0
LINE
  5
477
330
1E
100
AcDbEntity
  8
0
100
AcDbLine
 10
69.01
 20
295.0384549999999
 30
0.0
 11
69.25
 21
294.9484549999999
 31
0.0
  0
LINE
  5
478
330
1E
100
AcDbEntity
  8
0
100
AcDbLine
 10
69.25
 20
294.9484549999999
 30
0.0
 11
69.45999999999999
 21
294.7884549999999
 31
0.0
  0
LINE
  5
479
330
1E
100
AcDbEntity
  8
0
100
AcDbLine
 10
69.45999999999999
 20
294.7884549999999
 30
0.0
 11
69.62
 21
294.5784549999999
 31
0.0
  0
LINE
  5
47A
330
1E
100
AcDbEntity
  8
0
100
AcDbLine
 10
69.62
 20
294.5784549999999
 30
0.0
 11
69.71
 21
294.3384549999999
 31
0.0
  0
LINE
  5
47B
330
1E
100
AcDbEntity
  8
0
100
AcDbLine
 10
97.75
 20
294.0784549999999
 30
0.0
 11
97.79000000000001
 21
293.8184549999999
 31
0.0
  0
LINE
  5
47C
330
1E
100
AcDbEntity
  8
0
100
AcDbLine
 10
97.75
 20
294.0784549999999
 30
0.0
 11
97.79000000000001
 21
294.3384549999999
 31
0.0
  0
LINE
  5
47D
330
1E
100
AcDbEntity
  8
0
100
AcDbLine
 10
87.75
 20
294.0784549999999
 30
0.0
 11
87.79000000000001
 21
293.8184549999999
 31
0.0
  0
LINE
  5
47E
330
1E
100
AcDbEntity
  8
0
100
AcDbLine
 10
87.75
 20
294.0784549999999
 30
0.0
 11
87.79000000000001
 21
294.3384549999999
 31
0.0
  0
LINE
  5
47F
330
1E
100
AcDbEntity
  8
0
100
AcDbLine
 10
77.88
 20
294.5784549999999
 30
0.0
 11
78.04000000000001
 21
294.7884549999999
 31
0.0
  0
LINE
  5
480
330
1E
100
AcDbEntity
  8
0
100
AcDbLine
 10
77.79
 20
294.3384549999999
 30
0.0
 11
77.88
 21
294.5784549999999
 31
0.0
  0
LINE
  5
481
330
1E
100
AcDbEntity
  8
0
100
AcDbLine
 10
78.25
 20
294.9484549999999
 30
0.0
 11
78.49
 21
295.0384549999999
 31
0.0
  0
LINE
  5
482
330
1E
100
AcDbEntity
  8
0
100
AcDbLine
 10
78.04000000000001
 20
294.7884549999999
 30
0.0
 11
78.25
 21
294.9484549999999
 31
0.0
  0
LINE
  5
483
330
1E
100
AcDbEntity
  8
0
100
AcDbLine
 10
78.49
 20
295.0384549999999
 30
0.0
 11
78.75
 21
295.0784549999999
 31
0.0
  0
LINE
  5
484
330
1E
100
AcDbEntity
  8
0
100
AcDbLine
 10
78.75
 20
295.0784549999999
 30
0.0
 11
79.01
 21
295.0384549999999
 31
0.0
  0
LINE
  5
485
330
1E
100
AcDbEntity
  8
0
100
AcDbLine
 10
79.01
 20
295.0384549999999
 30
0.0
 11
79.25
 21
294.9484549999999
 31
0.0
  0
LINE
  5
486
330
1E
100
AcDbEntity
  8
0
100
AcDbLine
 10
79.25
 20
294.9484549999999
 30
0.0
 11
79.45999999999999
 21
294.7884549999999
 31
0.0
  0
LINE
  5
487
330
1E
100
AcDbEntity
  8
0
100
AcDbLine
 10
79.45999999999999
 20
294.7884549999999
 30
0.0
 11
79.62
 21
294.5784549999999
 31
0.0
  0
LINE
  5
488
330
1E
100
AcDbEntity
  8
0
100
AcDbLine
 10
79.62
 20
294.5784549999999
 30
0.0
 11
79.71
 21
294.3384549999999
 31
0.0
  0
LINE
  5
489
330
1E
100
AcDbEntity
  8
0
100
AcDbLine
 10
87.88
 20
294.5784549999999
 30
0.0
 11
88.04
 21
294.7884549999999
 31
0.0
  0
LINE
  5
48A
330
1E
100
AcDbEntity
  8
0
100
AcDbLine
 10
87.79000000000001
 20
294.3384549999999
 30
0.0
 11
87.88
 21
294.5784549999999
 31
0.0
  0
LINE
  5
48B
330
1E
100
AcDbEntity
  8
0
100
AcDbLine
 10
89.62000000000001
 20
294.5784549999999
 30
0.0
 11
89.71
 21
294.3384549999999
 31
0.0
  0
LINE
  5
48C
330
1E
100
AcDbEntity
  8
0
100
AcDbLine
 10
97.79000000000001
 20
294.3384549999999
 30
0.0
 11
97.88
 21
294.5784549999999
 31
0.0
  0
LINE
  5
48D
330
1E
100
AcDbEntity
  8
0
100
AcDbLine
 10
97.88
 20
294.5784549999999
 30
0.0
 11
98.04000000000002
 21
294.7884549999999
 31
0.0
  0
LINE
  5
48E
330
1E
100
AcDbEntity
  8
0
100
AcDbLine
 10
99.62000000000001
 20
294.5784549999999
 30
0.0
 11
99.71
 21
294.3384549999999
 31
0.0
  0
LINE
  5
48F
330
1E
100
AcDbEntity
  8
0
100
AcDbLine
 10
99.71
 20
294.3384549999999
 30
0.0
 11
99.75000000000001
 21
294.0784549999999
 31
0.0
  0
LINE
  5
490
330
1E
100
AcDbEntity
  8
0
100
AcDbLine
 10
89.71
 20
294.3384549999999
 30
0.0
 11
89.74999999999999
 21
294.0784549999999
 31
0.0
  0
LINE
  5
491
330
1E
100
AcDbEntity
  8
0
100
AcDbLine
 10
88.25000000000001
 20
294.9484549999999
 30
0.0
 11
88.49
 21
295.0384549999999
 31
0.0
  0
LINE
  5
492
330
1E
100
AcDbEntity
  8
0
100
AcDbLine
 10
88.04
 20
294.7884549999999
 30
0.0
 11
88.25000000000001
 21
294.9484549999999
 31
0.0
  0
LINE
  5
493
330
1E
100
AcDbEntity
  8
0
100
AcDbLine
 10
88.49
 20
295.0384549999999
 30
0.0
 11
88.75
 21
295.0784549999999
 31
0.0
  0
LINE
  5
494
330
1E
100
AcDbEntity
  8
0
100
AcDbLine
 10
88.75
 20
295.0784549999999
 30
0.0
 11
89.01000000000001
 21
295.0384549999999
 31
0.0
  0
LINE
  5
495
330
1E
100
AcDbEntity
  8
0
100
AcDbLine
 10
89.01000000000001
 20
295.0384549999999
 30
0.0
 11
89.25
 21
294.9484549999999
 31
0.0
  0
LINE
  5
496
330
1E
100
AcDbEntity
  8
0
100
AcDbLine
 10
89.25
 20
294.9484549999999
 30
0.0
 11
89.45999999999999
 21
294.7884549999999
 31
0.0
  0
LINE
  5
497
330
1E
100
AcDbEntity
  8
0
100
AcDbLine
 10
98.04000000000002
 20
294.7884549999999
 30
0.0
 11
98.25000000000001
 21
294.9484549999999
 31
0.0
  0
LINE
  5
498
330
1E
100
AcDbEntity
  8
0
100
AcDbLine
 10
98.49
 20
295.0384549999999
 30
0.0
 11
98.75
 21
295.0784549999999
 31
0.0
  0
LINE
  5
499
330
1E
100
AcDbEntity
  8
0
100
AcDbLine
 10
98.25000000000001
 20
294.9484549999999
 30
0.0
 11
98.49
 21
295.0384549999999
 31
0.0
  0
LINE
  5
49A
330
1E
100
AcDbEntity
  8
0
100
AcDbLine
 10
98.75
 20
295.0784549999999
 30
0.0
 11
99.01000000000001
 21
295.0384549999999
 31
0.0
  0
LINE
  5
49B
330
1E
100
AcDbEntity
  8
0
100
AcDbLine
 10
99.01000000000001
 20
295.0384549999999
 30
0.0
 11
99.25
 21
294.9484549999999
 31
0.0
  0
LINE
  5
49C
330
1E
100
AcDbEntity
  8
0
100
AcDbLine
 10
99.25
 20
294.9484549999999
 30
0.0
 11
99.45999999999999
 21
294.7884549999999
 31
0.0
  0
LINE
  5
49D
330
1E
100
AcDbEntity
  8
0
100
AcDbLine
 10
99.45999999999999
 20
294.7884549999999
 30
0.0
 11
99.62000000000001
 21
294.5784549999999
 31
0.0
  0
LINE
  5
49E
330
1E
100
AcDbEntity
  8
0
100
AcDbLine
 10
89.45999999999999
 20
294.7884549999999
 30
0.0
 11
89.62000000000001
 21
294.5784549999999
 31
0.0
  0
LINE
  5
49F
330
1E
100
AcDbEntity
  8
0
100
AcDbLine
 10
79.71
 20
294.3384549999999
 30
0.0
 11
79.75
 21
294.0784549999999
 31
0.0
  0
LINE
  5
4A0
330
1E
100
AcDbEntity
  8
0
100
AcDbLine
 10
77.75
 20
294.0784549999999
 30
0.0
 11
77.79
 21
293.8184549999999
 31
0.0
  0
LINE
  5
4A1
330
1E
100
AcDbEntity
  8
0
100
AcDbLine
 10
77.75
 20
294.0784549999999
 30
0.0
 11
77.79
 21
294.3384549999999
 31
0.0
  0
LINE
  5
4A2
330
1E
100
AcDbEntity
  8
0
100
AcDbLine
 10
69.71
 20
294.3384549999999
 30
0.0
 11
69.75
 21
294.0784549999999
 31
0.0
  0
LINE
  5
4A3
330
1E
100
AcDbEntity
  8
0
100
AcDbLine
 10
67.79
 20
293.8184549999999
 30
0.0
 11
67.88
 21
293.5784549999999
 31
0.0
  0
LINE
  5
4A4
330
1E
100
AcDbEntity
  8
0
100
AcDbLine
 10
67.75
 20
294.0784549999999
 30
0.0
 11
67.79
 21
293.8184549999999
 31
0.0
  0
LINE
  5
4A5
330
1E
100
AcDbEntity
  8
0
100
AcDbLine
 10
67.75
 20
294.0784549999999
 30
0.0
 11
67.79
 21
294.3384549999999
 31
0.0
  0
LINE
  5
4AC
330
1E
100
AcDbEntity
  8
0
100
AcDbLine
 10
175.65
 20
296.5784549999999
 30
0.0
 11
177.55
 21
295.7784549999999
 31
0.0
  0
LINE
  5
4B0
330
1E
100
AcDbEntity
  8
0
100
AcDbLine
 10
142.8499999999999
 20
296.5784549999999
 30
0.0
 11
144.95
 21
296.9784549999999
 31
0.0
  0
LINE
  5
4B1
330
1E
100
AcDbEntity
  8
0
100
AcDbLine
 10
140.9499999999999
 20
295.7784549999999
 30
0.0
 11
142.8499999999999
 21
296.5784549999999
 31
0.0
  0
LINE
  5
4B2
330
1E
100
AcDbEntity
  8
0
100
AcDbLine
 10
139.25
 20
294.5784549999999
 30
0.0
 11
140.9499999999999
 21
295.7784549999999
 31
0.0
  0
LINE
  5
4B3
330
1E
100
AcDbEntity
  8
0
100
AcDbLine
 10
173.55
 20
296.9784549999999
 30
0.0
 11
175.65
 21
296.5784549999999
 31
0.0
  0
LINE
  5
4B6
330
1E
100
AcDbEntity
  8
0
100
AcDbLine
 10
171.25
 20
297.2284549999999
 30
0.0
 11
173.55
 21
296.9784549999999
 31
0.0
  0
LINE
  5
4BD
330
1E
100
AcDbEntity
  8
0
100
AcDbLine
 10
147.2499999999999
 20
297.2284549999999
 30
0.0
 11
150.2499999999999
 21
297.4284549999999
 31
0.0
  0
LINE
  5
4BE
330
1E
100
AcDbEntity
  8
0
100
AcDbLine
 10
144.95
 20
296.9784549999999
 30
0.0
 11
147.2499999999999
 21
297.2284549999999
 31
0.0
  0
LINE
  5
4BF
330
1E
100
AcDbEntity
  8
0
100
AcDbLine
 10
175.2499999999999
 20
296.7475551697789
 30
0.0
 11
175.2499999999999
 21
352.5784549999999
 31
0.0
  0
LINE
  5
4C0
330
1E
100
AcDbEntity
  8
0
100
AcDbLine
 10
179.2499999999999
 20
294.5784549999999
 30
0.0
 11
180.4499999999999
 21
292.8784549999999
 31
0.0
  0
LINE
  5
4C1
330
1E
100
AcDbEntity
  8
0
100
AcDbLine
 10
177.55
 20
295.7784549999999
 30
0.0
 11
179.2499999999999
 21
294.5784549999999
 31
0.0
  0
LINE
  5
4C6
330
1E
100
AcDbEntity
  8
0
100
AcDbLine
 10
187.439
 20
297.0224549999999
 30
0.0
 11
193.724
 21
296.2454549999999
 31
0.0
  0
LINE
  5
4C9
330
1E
100
AcDbEntity
  8
0
100
AcDbLine
 10
182.357
 20
297.3134549999999
 30
0.0
 11
187.439
 21
297.0224549999999
 31
0.0
  0
LINE
  5
4CA
330
1E
100
AcDbEntity
  8
0
100
AcDbLine
 10
193.724
 20
296.2454549999999
 30
0.0
 11
198.638
 21
295.492455
 31
0.0
  0
LINE
  5
4CD
330
1E
100
AcDbEntity
  8
0
100
AcDbLine
 10
168.25
 20
297.4284549999999
 30
0.0
 11
171.25
 21
297.2284549999999
 31
0.0
  0
LINE
  5
4CE
330
1E
100
AcDbEntity
  8
0
100
AcDbLine
 10
150.2499999999999
 20
297.4284549999999
 30
0.0
 11
153.8499999999999
 21
297.5284549999999
 31
0.0
  0
LINE
  5
4D4
330
1E
100
AcDbEntity
  8
0
100
AcDbLine
 10
4.674999999999999
 20
325.7474549999999
 30
0.0
 11
6.099999999999999
 21
326.995455
 31
0.0
  0
LINE
  5
4D6
330
1E
100
AcDbEntity
  8
0
100
AcDbLine
 10
6.099999999999999
 20
326.995455
 30
0.0
 11
7.75
 21
328.096455
 31
0.0
  0
LINE
  5
4D8
330
1E
100
AcDbEntity
  8
0
100
AcDbLine
 10
7.75
 20
328.096455
 30
0.0
 11
9.55
 21
328.9044549999999
 31
0.0
  0
LINE
  5
4DA
330
1E
100
AcDbEntity
  8
0
100
AcDbLine
 10
9.55
 20
328.9044549999999
 30
0.0
 11
11.35
 21
329.564455
 31
0.0
  0
LINE
  5
4DD
330
1E
100
AcDbEntity
  8
0
100
AcDbLine
 10
11.35
 20
329.564455
 30
0.0
 11
13.3
 21
329.9314549999999
 31
0.0
  0
LINE
  5
4DE
330
1E
100
AcDbEntity
  8
0
100
AcDbLine
 10
15.25
 20
330.0784549999999
 30
0.0
 11
63.75
 21
330.0784549999999
 31
0.0
  0
LINE
  5
4E2
330
1E
100
AcDbEntity
  8
0
100
AcDbLine
 10
13.3
 20
329.9314549999999
 30
0.0
 11
15.25
 21
330.0784549999999
 31
0.0
  0
LINE
  5
4E4
330
1E
100
AcDbEntity
  8
0
100
AcDbLine
 10
3.399999999999999
 20
324.353455
 30
0.0
 11
4.674999999999999
 21
325.7474549999999
 31
0.0
  0
LINE
  5
4E6
330
1E
100
AcDbEntity
  8
0
100
AcDbLine
 10
2.274999999999999
 20
322.738455
 30
0.0
 11
3.399999999999999
 21
324.353455
 31
0.0
  0
LINE
  5
4E8
330
1E
100
AcDbEntity
  8
0
100
AcDbLine
 10
1.45
 20
320.976455
 30
0.0
 11
2.274999999999999
 21
322.738455
 31
0.0
  0
LINE
  5
4EA
330
1E
100
AcDbEntity
  8
0
100
AcDbLine
 10
0.7750000000000059
 20
319.214455
 30
0.0
 11
1.45
 21
320.976455
 31
0.0
  0
LINE
  5
4EC
330
1E
100
AcDbEntity
  8
0
100
AcDbLine
 10
0.400000000000009
 20
317.3064549999999
 30
0.0
 11
0.7750000000000059
 21
319.214455
 31
0.0
  0
LINE
  5
4ED
330
1E
100
AcDbEntity
  8
0
100
AcDbLine
 10
0.250000000000003
 20
315.397455
 30
0.0
 11
0.400000000000009
 21
317.3064549999999
 31
0.0
  0
LINE
  5
4EE
330
1E
100
AcDbEntity
  8
0
100
AcDbLine
 10
0.250000000000003
 20
315.397455
 30
0.0
 11
0.250000000000003
 21
252.7594549999999
 31
0.0
  0
LINE
  5
4EF
330
1E
100
AcDbEntity
  8
0
100
AcDbLine
 10
43.49
 20
303.1184549999999
 30
0.0
 11
43.75
 21
303.0784549999999
 31
0.0
  0
LINE
  5
4F0
330
1E
100
AcDbEntity
  8
0
100
AcDbLine
 10
43.75
 20
303.0784549999999
 30
0.0
 11
44.00999999999999
 21
303.1184549999999
 31
0.0
  0
LINE
  5
4F1
330
1E
100
AcDbEntity
  8
0
100
AcDbLine
 10
44.00999999999999
 20
303.1184549999999
 30
0.0
 11
44.24999999999999
 21
303.2084549999999
 31
0.0
  0
LINE
  5
4F2
330
1E
100
AcDbEntity
  8
0
100
AcDbLine
 10
53.49
 20
303.1184549999999
 30
0.0
 11
53.75
 21
303.0784549999999
 31
0.0
  0
LINE
  5
4F3
330
1E
100
AcDbEntity
  8
0
100
AcDbLine
 10
53.75
 20
303.0784549999999
 30
0.0
 11
54.00999999999999
 21
303.1184549999999
 31
0.0
  0
LINE
  5
4F4
330
1E
100
AcDbEntity
  8
0
100
AcDbLine
 10
43.25
 20
303.2084549999999
 30
0.0
 11
43.49
 21
303.1184549999999
 31
0.0
  0
LINE
  5
4F5
330
1E
100
AcDbEntity
  8
0
100
AcDbLine
 10
43.04
 20
303.3684549999999
 30
0.0
 11
43.25
 21
303.2084549999999
 31
0.0
  0
LINE
  5
4F6
330
1E
100
AcDbEntity
  8
0
100
AcDbLine
 10
44.24999999999999
 20
303.2084549999999
 30
0.0
 11
44.46
 21
303.3684549999999
 31
0.0
  0
LINE
  5
4F7
330
1E
100
AcDbEntity
  8
0
100
AcDbLine
 10
44.46
 20
303.3684549999999
 30
0.0
 11
44.61999999999999
 21
303.5784549999999
 31
0.0
  0
LINE
  5
4F8
330
1E
100
AcDbEntity
  8
0
100
AcDbLine
 10
53.25
 20
303.2084549999999
 30
0.0
 11
53.49
 21
303.1184549999999
 31
0.0
  0
LINE
  5
4F9
330
1E
100
AcDbEntity
  8
0
100
AcDbLine
 10
53.04
 20
303.3684549999999
 30
0.0
 11
53.25
 21
303.2084549999999
 31
0.0
  0
LINE
  5
4FA
330
1E
100
AcDbEntity
  8
0
100
AcDbLine
 10
54.00999999999999
 20
303.1184549999999
 30
0.0
 11
54.25
 21
303.2084549999999
 31
0.0
  0
LINE
  5
4FB
330
1E
100
AcDbEntity
  8
0
100
AcDbLine
 10
54.25
 20
303.2084549999999
 30
0.0
 11
54.46
 21
303.3684549999999
 31
0.0
  0
LINE
  5
4FC
330
1E
100
AcDbEntity
  8
0
100
AcDbLine
 10
42.88
 20
303.5784549999999
 30
0.0
 11
43.04
 21
303.3684549999999
 31
0.0
  0
LINE
  5
4FD
330
1E
100
AcDbEntity
  8
0
100
AcDbLine
 10
42.78999999999999
 20
303.8184549999999
 30
0.0
 11
42.88
 21
303.5784549999999
 31
0.0
  0
LINE
  5
4FE
330
1E
100
AcDbEntity
  8
0
100
AcDbLine
 10
44.61999999999999
 20
303.5784549999999
 30
0.0
 11
44.71
 21
303.8184549999999
 31
0.0
  0
LINE
  5
4FF
330
1E
100
AcDbEntity
  8
0
100
AcDbLine
 10
44.71
 20
303.8184549999999
 30
0.0
 11
44.75
 21
304.0784549999999
 31
0.0
  0
LINE
  5
500
330
1E
100
AcDbEntity
  8
0
100
AcDbLine
 10
52.88
 20
303.5784549999999
 30
0.0
 11
53.04
 21
303.3684549999999
 31
0.0
  0
LINE
  5
501
330
1E
100
AcDbEntity
  8
0
100
AcDbLine
 10
52.78999999999999
 20
303.8184549999999
 30
0.0
 11
52.88
 21
303.5784549999999
 31
0.0
  0
LINE
  5
502
330
1E
100
AcDbEntity
  8
0
100
AcDbLine
 10
54.46
 20
303.3684549999999
 30
0.0
 11
54.61999999999999
 21
303.5784549999999
 31
0.0
  0
LINE
  5
503
330
1E
100
AcDbEntity
  8
0
100
AcDbLine
 10
54.61999999999999
 20
303.5784549999999
 30
0.0
 11
54.71
 21
303.8184549999999
 31
0.0
  0
LINE
  5
504
330
1E
100
AcDbEntity
  8
0
100
AcDbLine
 10
42.75
 20
304.0784549999999
 30
0.0
 11
42.78999999999999
 21
303.8184549999999
 31
0.0
  0
LINE
  5
505
330
1E
100
AcDbEntity
  8
0
100
AcDbLine
 10
42.75
 20
304.0784549999999
 30
0.0
 11
42.78999999999999
 21
304.3384549999999
 31
0.0
  0
LINE
  5
506
330
1E
100
AcDbEntity
  8
0
100
AcDbLine
 10
52.75
 20
304.0784549999999
 30
0.0
 11
52.78999999999999
 21
303.8184549999999
 31
0.0
  0
LINE
  5
507
330
1E
100
AcDbEntity
  8
0
100
AcDbLine
 10
52.75
 20
304.0784549999999
 30
0.0
 11
52.78999999999999
 21
304.3384549999999
 31
0.0
  0
LINE
  5
508
330
1E
100
AcDbEntity
  8
0
100
AcDbLine
 10
54.71
 20
303.8184549999999
 30
0.0
 11
54.75
 21
304.0784549999999
 31
0.0
  0
LINE
  5
509
330
1E
100
AcDbEntity
  8
0
100
AcDbLine
 10
63.75
 20
303.0784549999999
 30
0.0
 11
64.01
 21
303.1184549999999
 31
0.0
  0
LINE
  5
50A
330
1E
100
AcDbEntity
  8
0
100
AcDbLine
 10
64.01
 20
303.1184549999999
 30
0.0
 11
64.25
 21
303.2084549999999
 31
0.0
  0
LINE
  5
50B
330
1E
100
AcDbEntity
  8
0
100
AcDbLine
 10
64.25
 20
303.2084549999999
 30
0.0
 11
64.45999999999999
 21
303.3684549999999
 31
0.0
  0
LINE
  5
50C
330
1E
100
AcDbEntity
  8
0
100
AcDbLine
 10
63.49
 20
303.1184549999999
 30
0.0
 11
63.75
 21
303.0784549999999
 31
0.0
  0
LINE
  5
50D
330
1E
100
AcDbEntity
  8
0
100
AcDbLine
 10
64.45999999999999
 20
303.3684549999999
 30
0.0
 11
64.62
 21
303.5784549999999
 31
0.0
  0
LINE
  5
50E
330
1E
100
AcDbEntity
  8
0
100
AcDbLine
 10
64.62
 20
303.5784549999999
 30
0.0
 11
64.71
 21
303.8184549999999
 31
0.0
  0
LINE
  5
50F
330
1E
100
AcDbEntity
  8
0
100
AcDbLine
 10
63.25
 20
303.2084549999999
 30
0.0
 11
63.49
 21
303.1184549999999
 31
0.0
  0
LINE
  5
510
330
1E
100
AcDbEntity
  8
0
100
AcDbLine
 10
63.04
 20
303.3684549999999
 30
0.0
 11
63.25
 21
303.2084549999999
 31
0.0
  0
LINE
  5
511
330
1E
100
AcDbEntity
  8
0
100
AcDbLine
 10
64.71
 20
303.8184549999999
 30
0.0
 11
64.75
 21
304.0784549999999
 31
0.0
  0
LINE
  5
512
330
1E
100
AcDbEntity
  8
0
100
AcDbLine
 10
62.88
 20
303.5784549999999
 30
0.0
 11
63.04
 21
303.3684549999999
 31
0.0
  0
LINE
  5
513
330
1E
100
AcDbEntity
  8
0
100
AcDbLine
 10
62.78999999999999
 20
303.8184549999999
 30
0.0
 11
62.88
 21
303.5784549999999
 31
0.0
  0
LINE
  5
514
330
1E
100
AcDbEntity
  8
0
100
AcDbLine
 10
62.75
 20
304.0784549999999
 30
0.0
 11
62.78999999999999
 21
303.8184549999999
 31
0.0
  0
LINE
  5
515
330
1E
100
AcDbEntity
  8
0
100
AcDbLine
 10
62.75
 20
304.0784549999999
 30
0.0
 11
62.78999999999999
 21
304.3384549999999
 31
0.0
  0
LINE
  5
516
330
1E
100
AcDbEntity
  8
0
100
AcDbLine
 10
73.75
 20
303.0784549999999
 30
0.0
 11
74.01
 21
303.1184549999999
 31
0.0
  0
LINE
  5
517
330
1E
100
AcDbEntity
  8
0
100
AcDbLine
 10
74.01
 20
303.1184549999999
 30
0.0
 11
74.25
 21
303.2084549999999
 31
0.0
  0
LINE
  5
518
330
1E
100
AcDbEntity
  8
0
100
AcDbLine
 10
74.25
 20
303.2084549999999
 30
0.0
 11
74.45999999999999
 21
303.3684549999999
 31
0.0
  0
LINE
  5
519
330
1E
100
AcDbEntity
  8
0
100
AcDbLine
 10
73.49
 20
303.1184549999999
 30
0.0
 11
73.75
 21
303.0784549999999
 31
0.0
  0
LINE
  5
51A
330
1E
100
AcDbEntity
  8
0
100
AcDbLine
 10
74.45999999999999
 20
303.3684549999999
 30
0.0
 11
74.62
 21
303.5784549999999
 31
0.0
  0
LINE
  5
51B
330
1E
100
AcDbEntity
  8
0
100
AcDbLine
 10
74.62
 20
303.5784549999999
 30
0.0
 11
74.71
 21
303.8184549999999
 31
0.0
  0
LINE
  5
51C
330
1E
100
AcDbEntity
  8
0
100
AcDbLine
 10
73.25
 20
303.2084549999999
 30
0.0
 11
73.49
 21
303.1184549999999
 31
0.0
  0
LINE
  5
51D
330
1E
100
AcDbEntity
  8
0
100
AcDbLine
 10
73.04000000000001
 20
303.3684549999999
 30
0.0
 11
73.25
 21
303.2084549999999
 31
0.0
  0
LINE
  5
51E
330
1E
100
AcDbEntity
  8
0
100
AcDbLine
 10
74.71
 20
303.8184549999999
 30
0.0
 11
74.75
 21
304.0784549999999
 31
0.0
  0
LINE
  5
51F
330
1E
100
AcDbEntity
  8
0
100
AcDbLine
 10
72.88
 20
303.5784549999999
 30
0.0
 11
73.04000000000001
 21
303.3684549999999
 31
0.0
  0
LINE
  5
520
330
1E
100
AcDbEntity
  8
0
100
AcDbLine
 10
72.79
 20
303.8184549999999
 30
0.0
 11
72.88
 21
303.5784549999999
 31
0.0
  0
LINE
  5
521
330
1E
100
AcDbEntity
  8
0
100
AcDbLine
 10
44.71
 20
304.3384549999999
 30
0.0
 11
44.75
 21
304.0784549999999
 31
0.0
  0
LINE
  5
522
330
1E
100
AcDbEntity
  8
0
100
AcDbLine
 10
42.78999999999999
 20
304.3384549999999
 30
0.0
 11
42.88
 21
304.5784549999999
 31
0.0
  0
LINE
  5
523
330
1E
100
AcDbEntity
  8
0
100
AcDbLine
 10
54.71
 20
304.3384549999999
 30
0.0
 11
54.75
 21
304.0784549999999
 31
0.0
  0
LINE
  5
524
330
1E
100
AcDbEntity
  8
0
100
AcDbLine
 10
52.78999999999999
 20
304.3384549999999
 30
0.0
 11
52.88
 21
304.5784549999999
 31
0.0
  0
LINE
  5
525
330
1E
100
AcDbEntity
  8
0
100
AcDbLine
 10
62.78999999999999
 20
304.3384549999999
 30
0.0
 11
62.88
 21
304.5784549999999
 31
0.0
  0
LINE
  5
526
330
1E
100
AcDbEntity
  8
0
100
AcDbLine
 10
44.61999999999999
 20
304.5784549999999
 30
0.0
 11
44.71
 21
304.3384549999999
 31
0.0
  0
LINE
  5
527
330
1E
100
AcDbEntity
  8
0
100
AcDbLine
 10
42.88
 20
304.5784549999999
 30
0.0
 11
43.04
 21
304.788455
 31
0.0
  0
LINE
  5
528
330
1E
100
AcDbEntity
  8
0
100
AcDbLine
 10
54.61999999999999
 20
304.5784549999999
 30
0.0
 11
54.71
 21
304.3384549999999
 31
0.0
  0
LINE
  5
529
330
1E
100
AcDbEntity
  8
0
100
AcDbLine
 10
52.88
 20
304.5784549999999
 30
0.0
 11
53.04
 21
304.788455
 31
0.0
  0
LINE
  5
52A
330
1E
100
AcDbEntity
  8
0
100
AcDbLine
 10
62.88
 20
304.5784549999999
 30
0.0
 11
63.04
 21
304.788455
 31
0.0
  0
LINE
  5
52B
330
1E
100
AcDbEntity
  8
0
100
AcDbLine
 10
64.62
 20
304.5784549999999
 30
0.0
 11
64.71
 21
304.3384549999999
 31
0.0
  0
LINE
  5
52C
330
1E
100
AcDbEntity
  8
0
100
AcDbLine
 10
64.71
 20
304.3384549999999
 30
0.0
 11
64.75
 21
304.0784549999999
 31
0.0
  0
LINE
  5
52D
330
1E
100
AcDbEntity
  8
0
100
AcDbLine
 10
72.88
 20
304.5784549999999
 30
0.0
 11
73.04000000000001
 21
304.788455
 31
0.0
  0
LINE
  5
52E
330
1E
100
AcDbEntity
  8
0
100
AcDbLine
 10
72.79
 20
304.3384549999999
 30
0.0
 11
72.88
 21
304.5784549999999
 31
0.0
  0
LINE
  5
52F
330
1E
100
AcDbEntity
  8
0
100
AcDbLine
 10
44.46
 20
304.788455
 30
0.0
 11
44.61999999999999
 21
304.5784549999999
 31
0.0
  0
LINE
  5
530
330
1E
100
AcDbEntity
  8
0
100
AcDbLine
 10
43.04
 20
304.788455
 30
0.0
 11
43.25
 21
304.9484549999999
 31
0.0
  0
LINE
  5
531
330
1E
100
AcDbEntity
  8
0
100
AcDbLine
 10
54.46
 20
304.788455
 30
0.0
 11
54.61999999999999
 21
304.5784549999999
 31
0.0
  0
LINE
  5
532
330
1E
100
AcDbEntity
  8
0
100
AcDbLine
 10
53.04
 20
304.788455
 30
0.0
 11
53.25
 21
304.9484549999999
 31
0.0
  0
LINE
  5
533
330
1E
100
AcDbEntity
  8
0
100
AcDbLine
 10
63.04
 20
304.788455
 30
0.0
 11
63.25
 21
304.9484549999999
 31
0.0
  0
LINE
  5
534
330
1E
100
AcDbEntity
  8
0
100
AcDbLine
 10
44.24999999999999
 20
304.9484549999999
 30
0.0
 11
44.46
 21
304.788455
 31
0.0
  0
LINE
  5
535
330
1E
100
AcDbEntity
  8
0
100
AcDbLine
 10
43.25
 20
304.9484549999999
 30
0.0
 11
43.49
 21
305.0384549999999
 31
0.0
  0
LINE
  5
536
330
1E
100
AcDbEntity
  8
0
100
AcDbLine
 10
54.25
 20
304.9484549999999
 30
0.0
 11
54.46
 21
304.788455
 31
0.0
  0
LINE
  5
537
330
1E
100
AcDbEntity
  8
0
100
AcDbLine
 10
53.25
 20
304.9484549999999
 30
0.0
 11
53.49
 21
305.0384549999999
 31
0.0
  0
LINE
  5
538
330
1E
100
AcDbEntity
  8
0
100
AcDbLine
 10
63.25
 20
304.9484549999999
 30
0.0
 11
63.49
 21
305.0384549999999
 31
0.0
  0
LINE
  5
539
330
1E
100
AcDbEntity
  8
0
100
AcDbLine
 10
64.25
 20
304.9484549999999
 30
0.0
 11
64.45999999999999
 21
304.788455
 31
0.0
  0
LINE
  5
53A
330
1E
100
AcDbEntity
  8
0
100
AcDbLine
 10
64.45999999999999
 20
304.788455
 30
0.0
 11
64.62
 21
304.5784549999999
 31
0.0
  0
LINE
  5
53B
330
1E
100
AcDbEntity
  8
0
100
AcDbLine
 10
73.25
 20
304.9484549999999
 30
0.0
 11
73.49
 21
305.0384549999999
 31
0.0
  0
LINE
  5
53C
330
1E
100
AcDbEntity
  8
0
100
AcDbLine
 10
73.04000000000001
 20
304.788455
 30
0.0
 11
73.25
 21
304.9484549999999
 31
0.0
  0
LINE
  5
53D
330
1E
100
AcDbEntity
  8
0
100
AcDbLine
 10
44.00999999999999
 20
305.0384549999999
 30
0.0
 11
44.24999999999999
 21
304.9484549999999
 31
0.0
  0
LINE
  5
53E
330
1E
100
AcDbEntity
  8
0
100
AcDbLine
 10
43.49
 20
305.0384549999999
 30
0.0
 11
43.75
 21
305.0784549999999
 31
0.0
  0
LINE
  5
53F
330
1E
100
AcDbEntity
  8
0
100
AcDbLine
 10
54.00999999999999
 20
305.0384549999999
 30
0.0
 11
54.25
 21
304.9484549999999
 31
0.0
  0
LINE
  5
540
330
1E
100
AcDbEntity
  8
0
100
AcDbLine
 10
53.49
 20
305.0384549999999
 30
0.0
 11
53.75
 21
305.0784549999999
 31
0.0
  0
LINE
  5
541
330
1E
100
AcDbEntity
  8
0
100
AcDbLine
 10
63.49
 20
305.0384549999999
 30
0.0
 11
63.75
 21
305.0784549999999
 31
0.0
  0
LINE
  5
542
330
1E
100
AcDbEntity
  8
0
100
AcDbLine
 10
43.75
 20
305.0784549999999
 30
0.0
 11
44.00999999999999
 21
305.0384549999999
 31
0.0
  0
LINE
  5
543
330
1E
100
AcDbEntity
  8
0
100
AcDbLine
 10
53.75
 20
305.0784549999999
 30
0.0
 11
54.00999999999999
 21
305.0384549999999
 31
0.0
  0
LINE
  5
544
330
1E
100
AcDbEntity
  8
0
100
AcDbLine
 10
63.75
 20
305.0784549999999
 30
0.0
 11
64.01
 21
305.0384549999999
 31
0.0
  0
LINE
  5
545
330
1E
100
AcDbEntity
  8
0
100
AcDbLine
 10
64.01
 20
305.0384549999999
 30
0.0
 11
64.25
 21
304.9484549999999
 31
0.0
  0
LINE
  5
546
330
1E
100
AcDbEntity
  8
0
100
AcDbLine
 10
73.49
 20
305.0384549999999
 30
0.0
 11
73.75
 21
305.0784549999999
 31
0.0
  0
LINE
  5
547
330
1E
100
AcDbEntity
  8
0
100
AcDbLine
 10
73.75
 20
305.0784549999999
 30
0.0
 11
74.01
 21
305.0384549999999
 31
0.0
  0
LINE
  5
548
330
1E
100
AcDbEntity
  8
0
100
AcDbLine
 10
74.01
 20
305.0384549999999
 30
0.0
 11
74.25
 21
304.9484549999999
 31
0.0
  0
LINE
  5
549
330
1E
100
AcDbEntity
  8
0
100
AcDbLine
 10
74.25
 20
304.9484549999999
 30
0.0
 11
74.45999999999999
 21
304.788455
 31
0.0
  0
LINE
  5
54A
330
1E
100
AcDbEntity
  8
0
100
AcDbLine
 10
74.45999999999999
 20
304.788455
 30
0.0
 11
74.62
 21
304.5784549999999
 31
0.0
  0
LINE
  5
54B
330
1E
100
AcDbEntity
  8
0
100
AcDbLine
 10
74.62
 20
304.5784549999999
 30
0.0
 11
74.71
 21
304.3384549999999
 31
0.0
  0
LINE
  5
54C
330
1E
100
AcDbEntity
  8
0
100
AcDbLine
 10
74.71
 20
304.3384549999999
 30
0.0
 11
74.75
 21
304.0784549999999
 31
0.0
  0
LINE
  5
54D
330
1E
100
AcDbEntity
  8
0
100
AcDbLine
 10
72.75
 20
304.0784549999999
 30
0.0
 11
72.79
 21
303.8184549999999
 31
0.0
  0
LINE
  5
54E
330
1E
100
AcDbEntity
  8
0
100
AcDbLine
 10
72.75
 20
304.0784549999999
 30
0.0
 11
72.79
 21
304.3384549999999
 31
0.0
  0
LINE
  5
54F
330
1E
100
AcDbEntity
  8
0
100
AcDbLine
 10
83.75
 20
303.0784549999999
 30
0.0
 11
84.01000000000001
 21
303.1184549999999
 31
0.0
  0
LINE
  5
550
330
1E
100
AcDbEntity
  8
0
100
AcDbLine
 10
84.01000000000001
 20
303.1184549999999
 30
0.0
 11
84.25
 21
303.2084549999999
 31
0.0
  0
LINE
  5
551
330
1E
100
AcDbEntity
  8
0
100
AcDbLine
 10
84.25
 20
303.2084549999999
 30
0.0
 11
84.45999999999999
 21
303.3684549999999
 31
0.0
  0
LINE
  5
552
330
1E
100
AcDbEntity
  8
0
100
AcDbLine
 10
84.45999999999999
 20
303.3684549999999
 30
0.0
 11
84.62000000000001
 21
303.5784549999999
 31
0.0
  0
LINE
  5
553
330
1E
100
AcDbEntity
  8
0
100
AcDbLine
 10
83.49
 20
303.1184549999999
 30
0.0
 11
83.75
 21
303.0784549999999
 31
0.0
  0
LINE
  5
554
330
1E
100
AcDbEntity
  8
0
100
AcDbLine
 10
83.25000000000001
 20
303.2084549999999
 30
0.0
 11
83.49
 21
303.1184549999999
 31
0.0
  0
LINE
  5
555
330
1E
100
AcDbEntity
  8
0
100
AcDbLine
 10
84.62000000000001
 20
303.5784549999999
 30
0.0
 11
84.71
 21
303.8184549999999
 31
0.0
  0
LINE
  5
556
330
1E
100
AcDbEntity
  8
0
100
AcDbLine
 10
84.71
 20
303.8184549999999
 30
0.0
 11
84.74999999999999
 21
304.0784549999999
 31
0.0
  0
LINE
  5
557
330
1E
100
AcDbEntity
  8
0
100
AcDbLine
 10
83.04
 20
303.3684549999999
 30
0.0
 11
83.25000000000001
 21
303.2084549999999
 31
0.0
  0
LINE
  5
558
330
1E
100
AcDbEntity
  8
0
100
AcDbLine
 10
82.88
 20
303.5784549999999
 30
0.0
 11
83.04
 21
303.3684549999999
 31
0.0
  0
LINE
  5
559
330
1E
100
AcDbEntity
  8
0
100
AcDbLine
 10
82.88
 20
304.5784549999999
 30
0.0
 11
83.04
 21
304.788455
 31
0.0
  0
LINE
  5
55A
330
1E
100
AcDbEntity
  8
0
100
AcDbLine
 10
82.79000000000001
 20
304.3384549999999
 30
0.0
 11
82.88
 21
304.5784549999999
 31
0.0
  0
LINE
  5
55B
330
1E
100
AcDbEntity
  8
0
100
AcDbLine
 10
83.25000000000001
 20
304.9484549999999
 30
0.0
 11
83.49
 21
305.0384549999999
 31
0.0
  0
LINE
  5
55C
330
1E
100
AcDbEntity
  8
0
100
AcDbLine
 10
83.04
 20
304.788455
 30
0.0
 11
83.25000000000001
 21
304.9484549999999
 31
0.0
  0
LINE
  5
55D
330
1E
100
AcDbEntity
  8
0
100
AcDbLine
 10
83.49
 20
305.0384549999999
 30
0.0
 11
83.75
 21
305.0784549999999
 31
0.0
  0
LINE
  5
55E
330
1E
100
AcDbEntity
  8
0
100
AcDbLine
 10
83.75
 20
305.0784549999999
 30
0.0
 11
84.01000000000001
 21
305.0384549999999
 31
0.0
  0
LINE
  5
55F
330
1E
100
AcDbEntity
  8
0
100
AcDbLine
 10
84.01000000000001
 20
305.0384549999999
 30
0.0
 11
84.25
 21
304.9484549999999
 31
0.0
  0
LINE
  5
560
330
1E
100
AcDbEntity
  8
0
100
AcDbLine
 10
84.25
 20
304.9484549999999
 30
0.0
 11
84.45999999999999
 21
304.788455
 31
0.0
  0
LINE
  5
561
330
1E
100
AcDbEntity
  8
0
100
AcDbLine
 10
84.45999999999999
 20
304.788455
 30
0.0
 11
84.62000000000001
 21
304.5784549999999
 31
0.0
  0
LINE
  5
562
330
1E
100
AcDbEntity
  8
0
100
AcDbLine
 10
84.62000000000001
 20
304.5784549999999
 30
0.0
 11
84.71
 21
304.3384549999999
 31
0.0
  0
LINE
  5
563
330
1E
100
AcDbEntity
  8
0
100
AcDbLine
 10
84.71
 20
304.3384549999999
 30
0.0
 11
84.74999999999999
 21
304.0784549999999
 31
0.0
  0
LINE
  5
564
330
1E
100
AcDbEntity
  8
0
100
AcDbLine
 10
82.79000000000001
 20
303.8184549999999
 30
0.0
 11
82.88
 21
303.5784549999999
 31
0.0
  0
LINE
  5
565
330
1E
100
AcDbEntity
  8
0
100
AcDbLine
 10
82.75
 20
304.0784549999999
 30
0.0
 11
82.79000000000001
 21
303.8184549999999
 31
0.0
  0
LINE
  5
566
330
1E
100
AcDbEntity
  8
0
100
AcDbLine
 10
82.75
 20
304.0784549999999
 30
0.0
 11
82.79000000000001
 21
304.3384549999999
 31
0.0
  0
LINE
  5
567
330
1E
100
AcDbEntity
  8
0
100
AcDbLine
 10
63.75
 20
330.0784549999999
 30
0.0
 11
112.25
 21
330.0784549999999
 31
0.0
  0
LINE
  5
56A
330
1E
100
AcDbEntity
  8
0
100
AcDbLine
 10
114.2
 20
329.9314549999999
 30
0.0
 11
116.1499999999999
 21
329.564455
 31
0.0
  0
LINE
  5
56B
330
1E
100
AcDbEntity
  8
0
100
AcDbLine
 10
112.25
 20
330.0784549999999
 30
0.0
 11
114.2
 21
329.9314549999999
 31
0.0
  0
LINE
  5
56E
330
1E
100
AcDbEntity
  8
0
100
AcDbLine
 10
113.3779999999999
 20
352.5784549999999
 30
0.0
 11
115.07
 21
352.5784549999999
 31
0.0
  0
LINE
  5
56F
330
1E
100
AcDbEntity
  8
0
100
AcDbLine
 10
115.07
 20
352.5784549999999
 30
0.0
 11
119.582
 21
352.5784549999999
 31
0.0
  0
LINE
  5
570
330
1E
100
AcDbEntity
  8
0
100
AcDbLine
 10
113.3779999999999
 20
352.5784549999999
 30
0.0
 11
115.07
 21
352.5784549999999
 31
0.0
  0
LINE
  5
574
330
1E
100
AcDbEntity
  8
0
100
AcDbLine
 10
117.9499999999999
 20
328.9044549999999
 30
0.0
 11
119.75
 21
328.096455
 31
0.0
  0
LINE
  5
575
330
1E
100
AcDbEntity
  8
0
100
AcDbLine
 10
116.1499999999999
 20
329.564455
 30
0.0
 11
117.9499999999999
 21
328.9044549999999
 31
0.0
  0
LINE
  5
57A
330
1E
100
AcDbEntity
  8
0
100
AcDbLine
 10
121.4
 20
326.995455
 30
0.0
 11
122.825
 21
325.7474549999999
 31
0.0
  0
LINE
  5
57B
330
1E
100
AcDbEntity
  8
0
100
AcDbLine
 10
119.75
 20
328.096455
 30
0.0
 11
121.4
 21
326.995455
 31
0.0
  0
LINE
  5
57C
330
1E
100
AcDbEntity
  8
0
100
AcDbLine
 10
122.825
 20
325.7474549999999
 30
0.0
 11
124.0999999999999
 21
324.353455
 31
0.0
  0
LINE
  5
57D
330
1E
100
AcDbEntity
  8
0
100
AcDbLine
 10
124.0999999999999
 20
324.353455
 30
0.0
 11
125.2249999999999
 21
322.738455
 31
0.0
  0
LINE
  5
57E
330
1E
100
AcDbEntity
  8
0
100
AcDbLine
 10
125.2249999999999
 20
322.738455
 30
0.0
 11
126.0499999999999
 21
320.976455
 31
0.0
  0
LINE
  5
582
330
1E
100
AcDbEntity
  8
0
100
AcDbLine
 10
126.0499999999999
 20
320.976455
 30
0.0
 11
126.7249999999999
 21
319.214455
 31
0.0
  0
LINE
  5
583
330
1E
100
AcDbEntity
  8
0
100
AcDbLine
 10
126.7249999999999
 20
319.214455
 30
0.0
 11
127.0999999999999
 21
317.3064549999999
 31
0.0
  0
LINE
  5
584
330
1E
100
AcDbEntity
  8
0
100
AcDbLine
 10
127.0999999999999
 20
317.3064549999999
 30
0.0
 11
127.2499999999999
 21
315.397455
 31
0.0
  0
LINE
  5
587
330
1E
100
AcDbEntity
  8
0
100
AcDbLine
 10
127.2499999999999
 20
315.397455
 30
0.0
 11
127.2499999999999
 21
252.7594549999999
 31
0.0
  0
LINE
  5
589
330
1E
100
AcDbEntity
  8
0
100
AcDbLine
 10
119.582
 20
352.5784549999999
 30
0.0
 11
126.9139999999999
 21
352.5784549999999
 31
0.0
  0
LINE
  5
58A
330
1E
100
AcDbEntity
  8
0
100
AcDbLine
 10
119.582
 20
352.5784549999999
 30
0.0
 11
126.9139999999999
 21
352.5784549999999
 31
0.0
  0
LINE
  5
58B
330
1E
100
AcDbEntity
  8
0
100
AcDbLine
 10
126.9139999999999
 20
352.5784549999999
 30
0.0
 11
136.502
 21
352.5784549999999
 31
0.0
  0
LINE
  5
58C
330
1E
100
AcDbEntity
  8
0
100
AcDbLine
 10
126.9139999999999
 20
352.5784549999999
 30
0.0
 11
136.502
 21
352.5784549999999
 31
0.0
  0
LINE
  5
58D
330
1E
100
AcDbEntity
  8
0
100
AcDbLine
 10
115.07
 20
352.5784549999999
 30
0.0
 11
119.582
 21
352.5784549999999
 31
0.0
  0
LINE
  5
58F
330
1E
100
AcDbEntity
  8
0
100
AcDbLine
 10
112.25
 20
353.4184549999999
 30
0.0
 11
113.3779999999999
 21
352.5784549999999
 31
0.0
  0
LINE
  5
590
330
1E
100
AcDbEntity
  8
0
100
AcDbLine
 10
112.25
 20
353.4184549999999
 30
0.0
 11
112.25
 21
366.5784549999999
 31
0.0
  0
LINE
  5
591
330
1E
100
AcDbEntity
  8
0
100
AcDbLine
 10
112.25
 20
366.5784549999999
 30
0.0
 11
113.942
 21
366.5784549999999
 31
0.0
  0
LINE
  5
592
330
1E
100
AcDbEntity
  8
0
100
AcDbLine
 10
112.25
 20
366.5784549999999
 30
0.0
 11
112.25
 21
353.4184549999999
 31
0.0
  0
LINE
  5
595
330
1E
100
AcDbEntity
  8
0
100
AcDbLine
 10
113.942
 20
366.5784549999999
 30
0.0
 11
118.4539999999999
 21
366.5784549999999
 31
0.0
  0
LINE
  5
597
330
1E
100
AcDbEntity
  8
0
100
AcDbLine
 10
118.4539999999999
 20
366.5784549999999
 30
0.0
 11
125.9739999999999
 21
366.5784549999999
 31
0.0
  0
LINE
  5
598
330
1E
100
AcDbEntity
  8
0
100
AcDbLine
 10
125.9739999999999
 20
366.5784549999999
 30
0.0
 11
135.9379999999999
 21
366.5784549999999
 31
0.0
  0
LINE
  5
599
330
1E
100
AcDbEntity
  8
0
100
AcDbLine
 10
112.25
 20
366.5784549999999
 30
0.0
 11
112.25
 21
353.4184549999999
 31
0.0
  0
LINE
  5
59A
330
1E
100
AcDbEntity
  8
0
100
AcDbLine
 10
112.25
 20
353.4184549999999
 30
0.0
 11
113.3779999999999
 21
352.5784549999999
 31
0.0
  0
LINE
  5
59B
330
1E
100
AcDbEntity
  8
0
100
AcDbLine
 10
112.25
 20
353.4184549999999
 30
0.0
 11
112.25
 21
366.5784549999999
 31
0.0
  0
LINE
  5
59C
330
1E
100
AcDbEntity
  8
0
100
AcDbLine
 10
164.65
 20
297.5284549999999
 30
0.0
 11
168.25
 21
297.4284549999999
 31
0.0
  0
LINE
  5
59D
330
1E
100
AcDbEntity
  8
0
100
AcDbLine
 10
161.55
 20
297.568455
 30
0.0
 11
164.65
 21
297.5284549999999
 31
0.0
  0
LINE
  5
59E
330
1E
100
AcDbEntity
  8
0
100
AcDbLine
 10
156.9499999999999
 20
297.568455
 30
0.0
 11
159.25
 21
297.5784549999999
 31
0.0
  0
LINE
  5
59F
330
1E
100
AcDbEntity
  8
0
100
AcDbLine
 10
153.8499999999999
 20
297.5284549999999
 30
0.0
 11
156.9499999999999
 21
297.568455
 31
0.0
  0
LINE
  5
5A0
330
1E
100
AcDbEntity
  8
0
100
AcDbLine
 10
143.25
 20
297.5784549999999
 30
0.0
 11
143.25
 21
352.5784549999999
 31
0.0
  0
LINE
  5
5A1
330
1E
100
AcDbEntity
  8
0
100
AcDbLine
 10
143.25
 20
297.5784549999999
 30
0.0
 11
143.25
 21
352.5784549999999
 31
0.0
  0
LINE
  5
5A3
330
1E
100
AcDbEntity
  8
0
100
AcDbLine
 10
159.25000000001
 20
297.5784549999999
 30
0.0
 11
161.55
 21
297.5784549999999
 31
0.0
  0
LINE
  5
5A4
330
1E
100
AcDbEntity
  8
0
100
AcDbLine
 10
133.894
 20
297.5784549999999
 30
0.0
 11
143.25
 21
297.5784549999999
 31
0.0
  0
LINE
  5
5A5
330
1E
100
AcDbEntity
  8
0
100
AcDbLine
 10
136.502
 20
352.5784549999999
 30
0.0
 11
147.406
 21
352.5784549999999
 31
0.0
  0
LINE
  5
5A6
330
1E
100
AcDbEntity
  8
0
100
AcDbLine
 10
136.502
 20
352.5784549999999
 30
0.0
 11
143.25
 21
352.5784549999999
 31
0.0
  0
LINE
  5
5A8
330
1E
100
AcDbEntity
  8
0
100
AcDbLine
 10
135.9379999999999
 20
366.5784549999999
 30
0.0
 11
147.2179999999999
 21
366.5784549999999
 31
0.0
  0
LINE
  5
5A9
330
1E
100
AcDbEntity
  8
0
100
AcDbLine
 10
175.2499999999999
 20
315.866006172098
 30
0.0
 11
176.674
 21
317.901455
 31
0.0
  0
LINE
  5
5AA
330
1E
100
AcDbEntity
  8
0
100
AcDbLine
 10
159.25
 20
297.5784549999999
 30
0.0
 11
161.55
 21
297.568455
 31
0.0
  0
LINE
  5
5AB
330
1E
100
AcDbEntity
  8
0
100
AcDbLine
 10
143.25
 20
352.5784549999999
 30
0.0
 11
143.25
 21
297.5784549999999
 31
0.0
  0
LINE
  5
5AC
330
1E
100
AcDbEntity
  8
0
100
AcDbLine
 10
143.25
 20
352.5784549999999
 30
0.0
 11
143.8259999999999
 21
352.5784549999999
 31
0.0
  0
LINE
  5
5AD
330
1E
100
AcDbEntity
  8
0
100
AcDbLine
 10
143.8259999999999
 20
352.5784549999999
 30
0.0
 11
145.3619999999999
 21
352.5784549999999
 31
0.0
  0
LINE
  5
5AE
330
1E
100
AcDbEntity
  8
0
100
AcDbLine
 10
145.3619999999999
 20
352.5784549999999
 30
0.0
 11
147.9219999999999
 21
352.5784549999999
 31
0.0
  0
LINE
  5
5AF
330
1E
100
AcDbEntity
  8
0
100
AcDbLine
 10
147.9219999999999
 20
352.5784549999999
 30
0.0
 11
151.3139999999999
 21
352.5784549999999
 31
0.0
  0
LINE
  5
5B0
330
1E
100
AcDbEntity
  8
0
100
AcDbLine
 10
151.3139999999999
 20
352.5784549999999
 30
0.0
 11
155.1539999999999
 21
352.5784549999999
 31
0.0
  0
LINE
  5
5B1
330
1E
100
AcDbEntity
  8
0
100
AcDbLine
 10
170.578
 20
352.5784549999999
 30
0.0
 11
173.138
 21
352.5784549999999
 31
0.0
  0
LINE
  5
5B2
330
1E
100
AcDbEntity
  8
0
100
AcDbLine
 10
167.1859999999999
 20
352.5784549999999
 30
0.0
 11
170.578
 21
352.5784549999999
 31
0.0
  0
LINE
  5
5B3
330
1E
100
AcDbEntity
  8
0
100
AcDbLine
 10
163.346
 20
352.5784549999999
 30
0.0
 11
167.1859999999999
 21
352.5784549999999
 31
0.0
  0
LINE
  5
5B4
330
1E
100
AcDbEntity
  8
0
100
AcDbLine
 10
155.1539999999999
 20
352.5784549999999
 30
0.0
 11
159.25
 21
352.5784549999999
 31
0.0
  0
LINE
  5
5B5
330
1E
100
AcDbEntity
  8
0
100
AcDbLine
 10
147.406
 20
352.5784549999999
 30
0.0
 11
159.25
 21
352.5784549999999
 31
0.0
  0
LINE
  5
5B6
330
1E
100
AcDbEntity
  8
0
100
AcDbLine
 10
171.094
 20
352.5784549999999
 30
0.0
 11
181.9979999999999
 21
352.5784549999999
 31
0.0
  0
LINE
  5
5B8
330
1E
100
AcDbEntity
  8
0
100
AcDbLine
 10
159.25
 20
352.5784549999999
 30
0.0
 11
171.094
 21
352.5784549999999
 31
0.0
  0
LINE
  5
5B9
330
1E
100
AcDbEntity
  8
0
100
AcDbLine
 10
159.25
 20
352.5784549999999
 30
0.0
 11
163.346
 21
352.5784549999999
 31
0.0
  0
LINE
  5
5BB
330
1E
100
AcDbEntity
  8
0
100
AcDbLine
 10
147.2179999999999
 20
366.5784549999999
 30
0.0
 11
159.25
 21
366.5784549999999
 31
0.0
  0
LINE
  5
5BD
330
1E
100
AcDbEntity
  8
0
100
AcDbLine
 10
174.674
 20
352.5784549999999
 30
0.0
 11
175.2499999999999
 21
352.5784549999999
 31
0.0
  0
LINE
  5
5BE
330
1E
100
AcDbEntity
  8
0
100
AcDbLine
 10
173.478045625
 20
366.5784549999999
 30
0.0
 11
175.069
 21
376.8014549999999
 31
0.0
  0
LINE
  5
5C0
330
1E
100
AcDbEntity
  8
0
100
AcDbLine
 10
173.138
 20
352.5784549999999
 30
0.0
 11
174.674
 21
352.5784549999999
 31
0.0
  0
LINE
  5
5C1
330
1E
100
AcDbEntity
  8
0
100
AcDbLine
 10
171.282
 20
366.5784549999999
 30
0.0
 11
182.562
 21
366.5784549999999
 31
0.0
  0
LINE
  5
5C2
330
1E
100
AcDbEntity
  8
0
100
AcDbLine
 10
175.069
 20
376.8014549999999
 30
0.0
 11
175.5359999999999
 21
379.4014549999999
 31
0.0
  0
LINE
  5
5C4
330
1E
100
AcDbEntity
  8
0
100
AcDbLine
 10
159.25
 20
366.5784549999999
 30
0.0
 11
171.282
 21
366.5784549999999
 31
0.0
  0
LINE
  5
5C5
330
1E
100
AcDbEntity
  8
0
100
AcDbLine
 10
175.2499999999999
 20
352.5784549999999
 30
0.0
 11
181.9979999999999
 21
352.5784549999999
 31
0.0
  0
LINE
  5
5C6
330
1E
100
AcDbEntity
  8
0
100
AcDbLine
 10
175.2499999999999
 20
352.5784549999999
 30
0.0
 11
175.2499999999999
 21
296.7475551697789
 31
0.0
  0
LINE
  5
5C7
330
1E
100
AcDbEntity
  8
0
100
AcDbLine
 10
143.25
 20
352.5784549999999
 30
0.0
 11
143.25
 21
297.5784549999999
 31
0.0
  0
LINE
  5
5C8
330
1E
100
AcDbEntity
  8
0
100
AcDbLine
 10
136.502
 20
352.5784549999999
 30
0.0
 11
143.25
 21
352.5784549999999
 31
0.0
  0
LINE
  5
5C9
330
1E
100
AcDbEntity
  8
0
100
AcDbLine
 10
130.216
 20
297.5784549999999
 30
0.0
 11
133.894
 21
297.5784549999999
 31
0.0
  0
LINE
  5
5CA
330
1E
100
AcDbEntity
  8
0
100
AcDbLine
 10
127.2499999999999
 20
297.5784549999999
 30
0.0
 11
130.216
 21
297.5784549999999
 31
0.0
  0
LINE
  5
5CC
330
1E
100
AcDbEntity
  8
0
100
AcDbLine
 10
176.674
 20
317.901455
 30
0.0
 11
178.7309999999999
 21
321.4014549999999
 31
0.0
  0
LINE
  5
5CD
330
1E
100
AcDbEntity
  8
0
100
AcDbLine
 10
178.7309999999999
 20
321.4014549999999
 30
0.0
 11
180.9099999999999
 21
326.3014549999999
 31
0.0
  0
LINE
  5
5CE
330
1E
100
AcDbEntity
  8
0
100
AcDbLine
 10
180.9099999999999
 20
326.3014549999999
 30
0.0
 11
183.115
 21
332.901455
 31
0.0
  0
LINE
  5
5CF
330
1E
100
AcDbEntity
  8
0
100
AcDbLine
 10
183.115
 20
332.901455
 30
0.0
 11
185.1459999999999
 21
341.1014549999999
 31
0.0
  0
LINE
  5
5D0
330
1E
100
AcDbEntity
  8
0
100
AcDbLine
 10
185.1459999999999
 20
341.1014549999999
 30
0.0
 11
186.898
 21
350.4014549999999
 31
0.0
  0
LINE
  5
5D1
330
1E
100
AcDbEntity
  8
0
100
AcDbLine
 10
186.898
 20
350.4014549999999
 30
0.0
 11
187.2820228
 21
352.5784549999999
 31
0.0
  0
LINE
  5
5D3
330
1E
100
AcDbEntity
  8
0
100
AcDbLine
 10
179.5359999999999
 20
396.0014549999999
 30
0.0
 11
181.5149999999999
 21
399.901455
 31
0.0
  0
LINE
  5
5D4
330
1E
100
AcDbEntity
  8
0
100
AcDbLine
 10
177.532
 20
389.7014549999999
 30
0.0
 11
179.5359999999999
 21
396.0014549999999
 31
0.0
  0
LINE
  5
5D5
330
1E
100
AcDbEntity
  8
0
100
AcDbLine
 10
175.5359999999999
 20
379.4014549999999
 30
0.0
 11
177.532
 21
389.7014549999999
 31
0.0
  0
LINE
  5
5D7
330
1E
100
AcDbEntity
  8
0
100
AcDbLine
 10
181.5149999999999
 20
399.901455
 30
0.0
 11
183.299
 21
402.5014549999999
 31
0.0
  0
LINE
  5
5DB
330
1E
100
AcDbEntity
  8
0
100
AcDbLine
 10
185.7809999999999
 20
404.2014549999999
 30
0.0
 11
187.5239999999999
 21
405.4014549999999
 31
0.0
  0
LINE
  5
5DC
330
1E
100
AcDbEntity
  8
0
100
AcDbLine
 10
183.299
 20
402.5014549999999
 30
0.0
 11
185.7809999999999
 21
404.2014549999999
 31
0.0
  0
LINE
  5
5DE
330
1E
100
AcDbEntity
  8
0
100
AcDbLine
 10
182.562
 20
366.5784549999999
 30
0.0
 11
192.5259999999999
 21
366.5784549999999
 31
0.0
  0
LINE
  5
5DF
330
1E
100
AcDbEntity
  8
0
100
AcDbLine
 10
181.9979999999999
 20
352.5784549999999
 30
0.0
 11
191.5859999999999
 21
352.5784549999999
 31
0.0
  0
LINE
  5
5E0
330
1E
100
AcDbEntity
  8
0
100
AcDbLine
 10
193.354
 20
350.7014549999999
 30
0.0
 11
194.7829999999999
 21
331.7014549999999
 31
0.0
  0
LINE
  5
5E1
330
1E
100
AcDbEntity
  8
0
100
AcDbLine
 10
194.7829999999999
 20
331.7014549999999
 30
0.0
 11
195.6109999999999
 21
313.0014549999999
 31
0.0
  0
LINE
  5
5E2
330
1E
100
AcDbEntity
  8
0
100
AcDbLine
 10
195.6109999999999
 20
313.0014549999999
 30
0.0
 11
196.0644580278309
 21
295.886813385235
 31
0.0
  0
LINE
  5
5E3
330
1E
100
AcDbEntity
  8
0
100
AcDbLine
 10
189.417045625
 20
366.5784549999999
 30
0.0
 11
191.0079999999999
 21
376.8014549999999
 31
0.0
  0
LINE
  5
5E5
330
1E
100
AcDbEntity
  8
0
100
AcDbLine
 10
187.5239999999999
 20
405.4014549999999
 30
0.0
 11
190.6119999999999
 21
406.0014549999999
 31
0.0
  0
LINE
  5
5E6
330
1E
100
AcDbEntity
  8
0
100
AcDbLine
 10
190.746416539051
 20
375.1205974196029
 30
0.0
 11
192.4579999999999
 21
384.0014549999999
 31
0.0
  0
LINE
  5
5E9
330
1E
100
AcDbEntity
  8
0
100
AcDbLine
 10
190.6119999999999
 20
374.2568766867469
 30
0.0
 11
191.806954375
 21
366.5784549999999
 31
0.0
  0
LINE
  5
5EA
330
1E
100
AcDbEntity
  8
0
100
AcDbLine
 10
190.6119999999999
 20
406.0014549999999
 30
0.0
 11
193.6999999999999
 21
405.4014549999999
 31
0.0
  0
LINE
  5
5EB
330
1E
100
AcDbEntity
  8
0
100
AcDbLine
 10
193.1782674496639
 20
352.5784549999999
 30
0.0
 11
193.354
 21
350.7014549999999
 31
0.0
  0
LINE
  5
5ED
330
1E
100
AcDbEntity
  8
0
100
AcDbLine
 10
194.367
 20
390.0014549999999
 30
0.0
 11
196.293
 21
393.8014549999999
 31
0.0
  0
LINE
  5
5EE
330
1E
100
AcDbEntity
  8
0
100
AcDbLine
 10
192.4579999999999
 20
384.0014549999999
 30
0.0
 11
194.367
 21
390.0014549999999
 31
0.0
  0
LINE
  5
5EF
330
1E
100
AcDbEntity
  8
0
100
AcDbLine
 10
197.925
 20
402.5014549999999
 30
0.0
 11
199.71
 21
399.901455
 31
0.0
  0
LINE
  5
5F0
330
1E
100
AcDbEntity
  8
0
100
AcDbLine
 10
192.5259999999999
 20
366.5784549999999
 30
0.0
 11
200.0459999999999
 21
366.5784549999999
 31
0.0
  0
LINE
  5
5F1
330
1E
100
AcDbEntity
  8
0
100
AcDbLine
 10
191.5859999999999
 20
352.5784549999999
 30
0.0
 11
198.918
 21
352.5784549999999
 31
0.0
  0
LINE
  5
5F2
330
1E
100
AcDbEntity
  8
0
100
AcDbLine
 10
191.5859999999999
 20
352.5784549999999
 30
0.0
 11
193.1782674496639
 21
352.5784549999999
 31
0.0
  0
LINE
  5
5F3
330
1E
100
AcDbEntity
  8
0
100
AcDbLine
 10
187.2820228
 20
352.5784549999999
 30
0.0
 11
191.5859999999999
 21
352.5784549999999
 31
0.0
  0
LINE
  5
5F4
330
1E
100
AcDbEntity
  8
0
100
AcDbLine
 10
175.655
 20
297.5284549999999
 30
0.0
 11
182.357
 21
297.3134549999999
 31
0.0
  0
LINE
  5
5F5
330
1E
100
AcDbEntity
  8
0
100
AcDbLine
 10
175.2499999999999
 20
297.5362886557059
 30
0.0
 11
175.655
 21
297.5284549999999
 31
0.0
  0
LINE
  5
5F7
330
1E
100
AcDbEntity
  8
0
100
AcDbLine
 10
205.122
 20
352.5784549999999
 30
0.0
 11
206.25
 21
353.4184549999999
 31
0.0
  0
LINE
  5
5F8
330
1E
100
AcDbEntity
  8
0
100
AcDbLine
 10
203.4299999999999
 20
352.5784549999999
 30
0.0
 11
205.122
 21
352.5784549999999
 31
0.0
  0
LINE
  5
5F9
330
1E
100
AcDbEntity
  8
0
100
AcDbLine
 10
199.71
 20
399.901455
 30
0.0
 11
201.688
 21
396.0014549999999
 31
0.0
  0
LINE
  5
5FB
330
1E
100
AcDbEntity
  8
0
100
AcDbLine
 10
206.25
 20
353.4184549999999
 30
0.0
 11
206.25
 21
366.5784549999999
 31
0.0
  0
LINE
  5
5FD
330
1E
100
AcDbEntity
  8
0
100
AcDbLine
 10
201.688
 20
396.0014549999999
 30
0.0
 11
203.6929999999999
 21
389.7014549999999
 31
0.0
  0
LINE
  5
5FE
330
1E
100
AcDbEntity
  8
0
100
AcDbLine
 10
203.6929999999999
 20
389.7014549999999
 30
0.0
 11
205.688
 21
379.4014549999999
 31
0.0
  0
LINE
  5
5FF
330
1E
100
AcDbEntity
  8
0
100
AcDbLine
 10
205.688
 20
379.4014549999999
 30
0.0
 11
206.1549999999999
 21
376.8014549999999
 31
0.0
  0
LINE
  5
600
330
1E
100
AcDbEntity
  8
0
100
AcDbLine
 10
206.1549999999999
 20
376.8014549999999
 30
0.0
 11
207.899
 21
365.601455
 31
0.0
  0
LINE
  5
601
330
1E
100
AcDbEntity
  8
0
100
AcDbLine
 10
204.558
 20
366.5784549999999
 30
0.0
 11
206.25
 21
366.5784549999999
 31
0.0
  0
LINE
  5
602
330
1E
100
AcDbEntity
  8
0
100
AcDbLine
 10
200.0459999999999
 20
366.5784549999999
 30
0.0
 11
204.558
 21
366.5784549999999
 31
0.0
  0
LINE
  5
603
330
1E
100
AcDbEntity
  8
0
100
AcDbLine
 10
198.918
 20
352.5784549999999
 30
0.0
 11
203.4299999999999
 21
352.5784549999999
 31
0.0
  0
LINE
  5
604
330
1E
100
AcDbEntity
  8
0
100
AcDbLine
 10
207.899
 20
365.601455
 30
0.0
 11
209.2929999999999
 21
350.7014549999999
 31
0.0
  0
LINE
  5
605
330
1E
100
AcDbEntity
  8
0
100
AcDbLine
 10
209.2929999999999
 20
350.7014549999999
 30
0.0
 11
210.722
 21
331.7014549999999
 31
0.0
  0
LINE
  5
606
330
1E
100
AcDbEntity
  8
0
100
AcDbLine
 10
210.722
 20
331.7014549999999
 30
0.0
 11
211.5499999999999
 21
313.0014549999999
 31
0.0
  0
LINE
  5
607
330
1E
100
AcDbEntity
  8
0
100
AcDbLine
 10
211.5499999999999
 20
313.0014549999999
 30
0.0
 11
212.0646187383179
 21
293.5784549999999
 31
0.0
  0
LINE
  5
608
330
1E
100
AcDbEntity
  8
0
100
AcDbLine
 10
206.25
 20
366.5784549999999
 30
0.0
 11
206.25
 21
353.4184549999999
 31
0.0
  0
LINE
  5
609
330
1E
100
AcDbEntity
  8
0
100
AcDbLine
 10
207.4679999999999
 20
293.819455
 30
0.0
 11
209.235
 21
293.5784549999999
 31
0.0
  0
LINE
  5
60A
330
1E
100
AcDbEntity
  8
0
100
AcDbLine
 10
198.638
 20
295.492455
 30
0.0
 11
207.4679999999999
 21
293.819455
 31
0.0
  0
LINE
  5
60B
330
1E
100
AcDbEntity
  8
0
100
AcDbLine
 10
261.494
 20
293.5784549999999
 30
0.0
 11
266.0229999999999
 21
293.5784549999999
 31
0.0
  0
LINE
  5
60C
330
1E
100
AcDbEntity
  8
0
100
AcDbLine
 10
266.488
 20
293.5784549999999
 30
0.0
 11
267.2019999999999
 21
293.278455
 31
0.0
  0
LINE
  5
60D
330
1E
100
AcDbEntity
  8
0
100
AcDbLine
 10
267.1009999999999
 20
293.278455
 30
0.0
 11
267.2019999999999
 21
293.278455
 31
0.0
  0
LINE
  5
60E
330
1E
100
AcDbEntity
  8
0
100
AcDbLine
 10
267.2019999999999
 20
293.278455
 30
0.0
 11
267.425
 21
292.5784549999999
 31
0.0
  0
LINE
  5
610
330
1E
100
AcDbEntity
  8
0
100
AcDbLine
 10
266.389
 20
293.5784549999999
 30
0.0
 11
266.488
 21
293.5784549999999
 31
0.0
  0
LINE
  5
611
330
1E
100
AcDbEntity
  8
0
100
AcDbLine
 10
266.0229999999999
 20
293.5784549999999
 30
0.0
 11
266.389
 21
293.5784549999999
 31
0.0
  0
LINE
  5
612
330
1E
100
AcDbEntity
  8
0
100
AcDbLine
 10
267.425
 20
256.5784549999999
 30
0.0
 11
267.425
 21
292.5784549999999
 31
0.0
  0
LINE
  5
613
330
1E
100
AcDbEntity
  8
0
100
AcDbLine
 10
280.2659999999999
 20
2.37841500000008
 30
0.0
 11
281.66
 21
3.080055000000079
 31
0.0
  0
LINE
  5
614
330
1E
100
AcDbEntity
  8
0
100
AcDbLine
 10
278.812
 20
1.92232500000008
 30
0.0
 11
280.2659999999999
 21
2.37841500000008
 31
0.0
  0
LINE
  5
615
330
1E
100
AcDbEntity
  8
0
100
AcDbLine
 10
277.278
 20
1.76444500000008
 30
0.0
 11
278.812
 21
1.92232500000008
 31
0.0
  0
LINE
  5
616
330
1E
100
AcDbEntity
  8
0
100
AcDbLine
 10
281.66
 20
3.080055000000079
 30
0.0
 11
282.7559999999999
 21
4.04485500000008
 31
0.0
  0
LINE
  5
617
330
1E
100
AcDbEntity
  8
0
100
AcDbLine
 10
282.7559999999999
 20
4.04485500000008
 30
0.0
 11
283.5529999999999
 21
5.272855000000079
 31
0.0
  0
LINE
  5
618
330
1E
100
AcDbEntity
  8
0
100
AcDbLine
 10
280.2659999999999
 20
7.699055000000079
 30
0.0
 11
281.66
 21
8.40075500000008
 31
0.0
  0
LINE
  5
619
330
1E
100
AcDbEntity
  8
0
100
AcDbLine
 10
278.812
 20
7.24295500000008
 30
0.0
 11
280.2659999999999
 21
7.699055000000079
 31
0.0
  0
LINE
  5
61A
330
1E
100
AcDbEntity
  8
0
100
AcDbLine
 10
277.278
 20
7.08515500000008
 30
0.0
 11
278.812
 21
7.24295500000008
 31
0.0
  0
LINE
  5
61B
330
1E
100
AcDbEntity
  8
0
100
AcDbLine
 10
283.5529999999999
 20
5.272855000000079
 30
0.0
 11
284.0709999999999
 21
6.553455000000079
 31
0.0
  0
LINE
  5
61C
330
1E
100
AcDbEntity
  8
0
100
AcDbLine
 10
284.25
 20
7.90415500000008
 30
0.0
 11
285.7499999999999
 21
67.9855550000001
 31
0.0
  0
LINE
  5
61D
330
1E
100
AcDbEntity
  8
0
100
AcDbLine
 10
284.0709999999999
 20
6.553455000000079
 30
0.0
 11
284.25
 21
7.90415500000008
 31
0.0
  0
LINE
  5
61E
330
1E
100
AcDbEntity
  8
0
100
AcDbLine
 10
281.66
 20
8.40075500000008
 30
0.0
 11
282.7559999999999
 21
9.36555500000008
 31
0.0
  0
LINE
  5
61F
330
1E
100
AcDbEntity
  8
0
100
AcDbLine
 10
282.7559999999999
 20
9.36555500000008
 30
0.0
 11
283.5529999999999
 21
10.5935550000001
 31
0.0
  0
LINE
  5
620
330
1E
100
AcDbEntity
  8
0
100
AcDbLine
 10
283.5529999999999
 20
10.5935550000001
 30
0.0
 11
284.0709999999999
 21
11.8740550000001
 31
0.0
  0
LINE
  5
621
330
1E
100
AcDbEntity
  8
0
100
AcDbLine
 10
280.2659999999999
 20
138.913455
 30
0.0
 11
281.66
 21
138.211455
 31
0.0
  0
LINE
  5
622
330
1E
100
AcDbEntity
  8
0
100
AcDbLine
 10
278.812
 20
139.369455
 30
0.0
 11
280.2659999999999
 21
138.913455
 31
0.0
  0
LINE
  5
623
330
1E
100
AcDbEntity
  8
0
100
AcDbLine
 10
277.278
 20
139.527455
 30
0.0
 11
278.812
 21
139.369455
 31
0.0
  0
LINE
  5
624
330
1E
100
AcDbEntity
  8
0
100
AcDbLine
 10
281.66
 20
138.211455
 30
0.0
 11
282.7559999999999
 21
137.2464549999999
 31
0.0
  0
LINE
  5
625
330
1E
100
AcDbEntity
  8
0
100
AcDbLine
 10
282.7559999999999
 20
137.2464549999999
 30
0.0
 11
283.5529999999999
 21
136.018455
 31
0.0
  0
LINE
  5
626
330
1E
100
AcDbEntity
  8
0
100
AcDbLine
 10
283.5529999999999
 20
136.018455
 30
0.0
 11
284.0709999999999
 21
134.738455
 31
0.0
  0
LINE
  5
627
330
1E
100
AcDbEntity
  8
0
100
AcDbLine
 10
284.0709999999999
 20
134.738455
 30
0.0
 11
284.25
 21
133.387455
 31
0.0
  0
LINE
  5
628
330
1E
100
AcDbEntity
  8
0
100
AcDbLine
 10
284.25
 20
133.387455
 30
0.0
 11
285.7499999999999
 21
73.30615500000009
 31
0.0
  0
LINE
  5
629
330
1E
100
AcDbEntity
  8
0
100
AcDbLine
 10
284.25
 20
13.22485500000009
 30
0.0
 11
285.7499999999999
 21
73.30615500000009
 31
0.0
  0
LINE
  5
62A
330
1E
100
AcDbEntity
  8
0
100
AcDbLine
 10
284.0709999999999
 20
11.8740550000001
 30
0.0
 11
284.25
 21
13.22485500000009
 31
0.0
  0
LINE
  5
62B
330
1E
100
AcDbEntity
  8
0
100
AcDbLine
 10
285.7499999999999
 20
67.9855550000001
 30
0.0
 11
285.7499999999999
 21
73.30615500000009
 31
0.0
  0
LINE
  5
62C
330
1E
100
AcDbEntity
  8
0
100
AcDbLine
 10
285.7499999999999
 20
73.30615500000009
 30
0.0
 11
285.7499999999999
 21
67.9855550000001
 31
0.0
  0
LINE
  5
62D
330
1E
100
AcDbEntity
  8
0
100
AcDbLine
 10
284.25
 20
13.22485500000009
 30
0.0
 11
285.7499999999999
 21
73.30615500000009
 31
0.0
  0
LINE
  5
62E
330
1E
100
AcDbEntity
  8
0
100
AcDbLine
 10
284.25
 20
7.90415500000008
 30
0.0
 11
285.7499999999999
 21
67.9855550000001
 31
0.0
  0
LINE
  5
62F
330
1E
100
AcDbEntity
  8
0
100
AcDbLine
 10
267.425
 20
292.5784549999999
 30
0.0
 11
267.425
 21
256.5784549999999
 31
0.0
  0
LINE
  5
634
330
1E
100
AcDbEntity
  8
0
100
AcDbLine
 10
193.6999999999999
 20
405.4014549999999
 30
0.0
 11
197.925
 21
402.5014549999999
 31
0.0
  0
LINE
  5
635
330
1E
100
AcDbEntity
  8
0
100
AcDbLine
 10
127.2499999999999
 20
252.7594549999999
 30
0.0
 11
127.0507939002661
 21
251.1549564479603
 31
0.0
  0
LINE
  5
636
330
1E
100
AcDbEntity
  8
0
100
AcDbLine
 10
127.0507939002661
 20
251.1549564479603
 30
0.0
 11
126.6947733576519
 21
249.3758511233297
 31
0.0
  0
LINE
  5
637
330
1E
100
AcDbEntity
  8
0
100
AcDbLine
 10
126.6947733576519
 20
249.3758511233297
 30
0.0
 11
126.245064527716
 21
247.9900217025488
 31
0.0
  0
LINE
  5
638
330
1E
100
AcDbEntity
  8
0
100
AcDbLine
 10
126.245064527716
 20
247.9900217025488
 30
0.0
 11
125.7391403942531
 21
246.6229197963805
 31
0.0
  0
LINE
  5
639
330
1E
100
AcDbEntity
  8
0
100
AcDbLine
 10
125.7391403942531
 20
246.6229197963805
 30
0.0
 11
125.2249999999999
 21
245.4184549999999
 31
0.0
  0
LINE
  5
63A
330
1E
100
AcDbEntity
  8
0
100
AcDbLine
 10
124.0999999999999
 20
243.8044549999999
 30
0.0
 11
123.1533121938571
 21
242.6714332432691
 31
0.0
  0
LINE
  5
63B
330
1E
100
AcDbEntity
  8
0
100
AcDbLine
 10
123.1533121938571
 20
242.6714332432691
 30
0.0
 11
121.673020547709
 21
241.3417854148208
 31
0.0
  0
LINE
  5
63C
330
1E
100
AcDbEntity
  8
0
100
AcDbLine
 10
121.673020547709
 20
241.3417854148208
 30
0.0
 11
120.1927269589498
 21
240.3305043832776
 31
0.0
  0
LINE
  5
63D
330
1E
100
AcDbEntity
  8
0
100
AcDbLine
 10
120.1927269589498
 20
240.3305043832776
 30
0.0
 11
118.581270156462
 21
239.4128609247961
 31
0.0
  0
LINE
  5
63E
330
1E
100
AcDbEntity
  8
0
100
AcDbLine
 10
118.581270156462
 20
239.4128609247961
 30
0.0
 11
117.1009765677024
 21
238.8510383409398
 31
0.0
  0
LINE
  5
63F
330
1E
100
AcDbEntity
  8
0
100
AcDbLine
 10
117.1009765677024
 20
238.8510383409398
 30
0.0
 11
116.1499999999999
 21
238.5924549999999
 31
0.0
  0
LINE
  5
640
330
1E
100
AcDbEntity
  8
0
100
AcDbLine
 10
2.274999999999999
 20
245.4184549999999
 30
0.0
 11
1.45
 21
247.1804549999999
 31
0.0
  0
ENDSEC
  0
SECTION
  2
OBJECTS
  0
DICTIONARY
  5
C
330
0
100
AcDbDictionary
281
     1
  3
ACAD_GROUP
350
D
  3
ACAD_LAYOUT
350
19
  3
ACAD_MLINESTYLE
350
16
  3
ACAD_PLOTSETTINGS
350
18
  3
ACAD_PLOTSTYLENAME
350
E
  3
AcDbVariableDictionary
350
642
  0
DICTIONARY
  5
D
102
{ACAD_REACTORS
330
C
102
}
330
C
100
AcDbDictionary
281
     1
  0
DICTIONARY
  5
19
102
{ACAD_REACTORS
330
C
102
}
330
C
100
AcDbDictionary
281
     1
  3
Layout1
350
1D
  3
Model
350
21
  0
DICTIONARY
  5
16
102
{ACAD_REACTORS
330
C
102
}
330
C
100
AcDbDictionary
281
     1
  3
Standard
350
17
  0
DICTIONARY
  5
18
102
{ACAD_REACTORS
330
C
102
}
330
C
100
AcDbDictionary
281
     1
  0
ACDBDICTIONARYWDFLT
  5
E
102
{ACAD_REACTORS
330
C
102
}
330
C
100
AcDbDictionary
281
     1
  3
Normal
350
F
100
AcDbDictionaryWithDefault
340
F
  0
DICTIONARY
  5
642
102
{ACAD_REACTORS
330
C
102
}
330
C
100
AcDbDictionary
281
     1
  3
DIMASSOC
350
643
  0
LAYOUT
  5
1D
102
{ACAD_REACTORS
330
19
102
}
330
19
100
AcDbPlotSettings
  1

  2
hp deskjet 980c series
  4

  6

 40
0.0
 41
0.0
 42
0.0
 43
0.0
 44
0.0
 45
0.0
 46
0.0
 47
0.0
 48
0.0
 49
0.0
140
0.0
141
0.0
142
1.0
143
1.0
 70
   688
 72
     0
 73
     0
 74
     5
  7

 75
    16
147
1.0
148
0.0
149
0.0
100
AcDbLayout
  1
Layout1
 70
     1
 71
     1
 10
0.0
 20
0.0
 11
12.0
 21
9.0
 12
0.0
 22
0.0
 32
0.0
 14
1.000000000000000E+20
 24
1.000000000000000E+20
 34
1.000000000000000E+20
 15
-1.000000000000000E+20
 25
-1.000000000000000E+20
 35
-1.000000000000000E+20
146
0.0
 13
0.0
 23
0.0
 33
0.0
 16
1.0
 26
0.0
 36
0.0
 17
0.0
 27
1.0
 37
0.0
 76
     0
330
1A
  0
LAYOUT
  5
21
102
{ACAD_REACTORS
330
19
102
}
330
19
100
AcDbPlotSettings
  1

  2
hp deskjet 980c series
  4

  6

 40
0.0
 41
0.0
 42
0.0
 43
0.0
 44
0.0
 45
0.0
 46
0.0
 47
0.0
 48
0.0
 49
0.0
140
0.0
141
0.0
142
1.0
143
1.0
 70
  1712
 72
     0
 73
     0
 74
     0
  7

 75
     0
147
1.0
148
0.0
149
0.0
100
AcDbLayout
  1
Model
 70
     1
 71
     0
 10
0.0
 20
0.0
 11
12.0
 21
9.0
 12
0.0
 22
0.0
 32
0.0
 14
0.0
 24
0.0
 34
0.0
 15
0.0
 25
0.0
 35
0.0
146
0.0
 13
0.0
 23
0.0
 33
0.0
 16
1.0
 26
0.0
 36
0.0
 17
0.0
 27
1.0
 37
0.0
 76
     0
330
1E
  0
MLINESTYLE
  5
17
102
{ACAD_REACTORS
330
16
102
}
330
16
100
AcDbMlineStyle
  2
STANDARD
 70
     0
  3

 62
   256
 51
90.0
 52
90.0
 71
     2
 49
0.5
 62
   256
  6
BYLAYER
 49
-0.5
 62
   256
  6
BYLAYER
  0
ACDBPLACEHOLDER
  5
F
102
{ACAD_REACTORS
330
E
102
}
330
E
  0
DICTIONARYVAR
  5
643
102
{ACAD_REACTORS
330
642
102
}
330
642
100
DictionaryVariables
280
     0
  1
1
  0
ENDSEC
  0
EOF
