  0
SECTION
  2
HEADER
  9
$ACADVER
  1
AC1015
  9
$ACADMAINTVER
 70
    13
  9
$DWGCODEPAGE
  3
ANSI_1252
  9
$INSBASE
 10
0.0
 20
0.0
 30
0.0
  9
$EXTMIN
 10
0.0
 20
0.127019999999995
 30
0.0
  9
$EXTMAX
 10
160.0
 20
225.8729799999999
 30
0.0
  9
$LIMMIN
 10
0.0
 20
0.0
  9
$LIMMAX
 10
12.0
 20
9.0
  9
$ORTHOMODE
 70
     0
  9
$REGENMODE
 70
     1
  9
$FILLMODE
 70
     1
  9
$QTEXTMODE
 70
     0
  9
$MIRRTEXT
 70
     1
  9
$LTSCALE
 40
1.0
  9
$ATTMODE
 70
     1
  9
$TEXTSIZE
 40
0.2
  9
$TRACEWID
 40
0.05
  9
$TEXTSTYLE
  7
Standard
  9
$CLAYER
  8
0
  9
$CELTYPE
  6
Continuous
  9
$CECOLOR
 62
   256
  9
$CELTSCALE
 40
1.0
  9
$DISPSILH
 70
     0
  9
$DIMSCALE
 40
1.0
  9
$DIMASZ
 40
0.18
  9
$DIMEXO
 40
0.0625
  9
$DIMDLI
 40
0.38
  9
$DIMRND
 40
0.0
  9
$DIMDLE
 40
0.0
  9
$DIMEXE
 40
0.18
  9
$DIMTP
 40
0.0
  9
$DIMTM
 40
0.0
  9
$DIMTXT
 40
0.18
  9
$DIMCEN
 40
0.09
  9
$DIMTSZ
 40
0.0
  9
$DIMTOL
 70
     0
  9
$DIMLIM
 70
     0
  9
$DIMTIH
 70
     1
  9
$DIMTOH
 70
     1
  9
$DIMSE1
 70
     0
  9
$DIMSE2
 70
     0
  9
$DIMTAD
 70
     0
  9
$DIMZIN
 70
     0
  9
$DIMBLK
  1

  9
$DIMASO
 70
     1
  9
$DIMSHO
 70
     1
  9
$DIMPOST
  1

  9
$DIMAPOST
  1

  9
$DIMALT
 70
     0
  9
$DIMALTD
 70
     2
  9
$DIMALTF
 40
25.4
  9
$DIMLFAC
 40
1.0
  9
$DIMTOFL
 70
     0
  9
$DIMTVP
 40
0.0
  9
$DIMTIX
 70
     0
  9
$DIMSOXD
 70
     0
  9
$DIMSAH
 70
     0
  9
$DIMBLK1
  1

  9
$DIMBLK2
  1

  9
$DIMSTYLE
  2
Standard
  9
$DIMCLRD
 70
     0
  9
$DIMCLRE
 70
     0
  9
$DIMCLRT
 70
     0
  9
$DIMTFAC
 40
1.0
  9
$DIMGAP
 40
0.09
  9
$DIMJUST
 70
     0
  9
$DIMSD1
 70
     0
  9
$DIMSD2
 70
     0
  9
$DIMTOLJ
 70
     1
  9
$DIMTZIN
 70
     0
  9
$DIMALTZ
 70
     0
  9
$DIMALTTZ
 70
     0
  9
$DIMUPT
 70
     0
  9
$DIMDEC
 70
     4
  9
$DIMTDEC
 70
     4
  9
$DIMALTU
 70
     2
  9
$DIMALTTD
 70
     2
  9
$DIMTXSTY
  7
Standard
  9
$DIMAUNIT
 70
     0
  9
$DIMADEC
 70
     0
  9
$DIMALTRND
 40
0.0
  9
$DIMAZIN
 70
     0
  9
$DIMDSEP
 70
    46
  9
$DIMATFIT
 70
     3
  9
$DIMFRAC
 70
     0
  9
$DIMLDRBLK
  1

  9
$DIMLUNIT
 70
     2
  9
$DIMLWD
 70
    -2
  9
$DIMLWE
 70
    -2
  9
$DIMTMOVE
 70
     0
  9
$LUNITS
 70
     2
  9
$LUPREC
 70
     4
  9
$SKETCHINC
 40
0.1
  9
$FILLETRAD
 40
0.0
  9
$AUNITS
 70
     0
  9
$AUPREC
 70
     0
  9
$MENU
  1
.
  9
$ELEVATION
 40
0.0
  9
$PELEVATION
 40
0.0
  9
$THICKNESS
 40
0.0
  9
$LIMCHECK
 70
     0
  9
$CHAMFERA
 40
0.0
  9
$CHAMFERB
 40
0.0
  9
$CHAMFERC
 40
0.0
  9
$CHAMFERD
 40
0.0
  9
$SKPOLY
 70
     0
  9
$TDCREATE
 40
2456021.584355521
  9
$TDUCREATE
 40
2456021.501022187
  9
$TDUPDATE
 40
2456021.585583275
  9
$TDUUPDATE
 40
2456021.502249942
  9
$TDINDWG
 40
0.0012279282
  9
$TDUSRTIMER
 40
0.0012279282
  9
$USRTIMER
 70
     1
  9
$ANGBASE
 50
0.0
  9
$ANGDIR
 70
     0
  9
$PDMODE
 70
     0
  9
$PDSIZE
 40
0.0
  9
$PLINEWID
 40
0.0
  9
$SPLFRAME
 70
     0
  9
$SPLINETYPE
 70
     6
  9
$SPLINESEGS
 70
     8
  9
$HANDSEED
  5
1DC
  9
$SURFTAB1
 70
     6
  9
$SURFTAB2
 70
     6
  9
$SURFTYPE
 70
     6
  9
$SURFU
 70
     6
  9
$SURFV
 70
     6
  9
$UCSBASE
  2

  9
$UCSNAME
  2

  9
$UCSORG
 10
0.0
 20
0.0
 30
0.0
  9
$UCSXDIR
 10
1.0
 20
0.0
 30
0.0
  9
$UCSYDIR
 10
0.0
 20
1.0
 30
0.0
  9
$UCSORTHOREF
  2

  9
$UCSORTHOVIEW
 70
     1
  9
$UCSORGTOP
 10
0.0
 20
0.0
 30
0.0
  9
$UCSORGBOTTOM
 10
0.0
 20
0.0
 30
0.0
  9
$UCSORGLEFT
 10
0.0
 20
0.0
 30
0.0
  9
$UCSORGRIGHT
 10
0.0
 20
0.0
 30
0.0
  9
$UCSORGFRONT
 10
0.0
 20
0.0
 30
0.0
  9
$UCSORGBACK
 10
0.0
 20
0.0
 30
0.0
  9
$PUCSBASE
  2

  9
$PUCSNAME
  2

  9
$PUCSORG
 10
0.0
 20
0.0
 30
0.0
  9
$PUCSXDIR
 10
1.0
 20
0.0
 30
0.0
  9
$PUCSYDIR
 10
0.0
 20
1.0
 30
0.0
  9
$PUCSORTHOREF
  2

  9
$PUCSORTHOVIEW
 70
     0
  9
$PUCSORGTOP
 10
0.0
 20
0.0
 30
0.0
  9
$PUCSORGBOTTOM
 10
0.0
 20
0.0
 30
0.0
  9
$PUCSORGLEFT
 10
0.0
 20
0.0
 30
0.0
  9
$PUCSORGRIGHT
 10
0.0
 20
0.0
 30
0.0
  9
$PUCSORGFRONT
 10
0.0
 20
0.0
 30
0.0
  9
$PUCSORGBACK
 10
0.0
 20
0.0
 30
0.0
  9
$USERI1
 70
     0
  9
$USERI2
 70
     0
  9
$USERI3
 70
     0
  9
$USERI4
 70
     0
  9
$USERI5
 70
     0
  9
$USERR1
 40
0.0
  9
$USERR2
 40
0.0
  9
$USERR3
 40
0.0
  9
$USERR4
 40
0.0
  9
$USERR5
 40
0.0
  9
$WORLDVIEW
 70
     1
  9
$SHADEDGE
 70
     3
  9
$SHADEDIF
 70
    70
  9
$TILEMODE
 70
     1
  9
$MAXACTVP
 70
    64
  9
$PINSBASE
 10
0.0
 20
0.0
 30
0.0
  9
$PLIMCHECK
 70
     0
  9
$PEXTMIN
 10
1.000000000000000E+20
 20
1.000000000000000E+20
 30
1.000000000000000E+20
  9
$PEXTMAX
 10
-1.000000000000000E+20
 20
-1.000000000000000E+20
 30
-1.000000000000000E+20
  9
$PLIMMIN
 10
0.0
 20
0.0
  9
$PLIMMAX
 10
12.0
 20
9.0
  9
$UNITMODE
 70
     0
  9
$VISRETAIN
 70
     1
  9
$PLINEGEN
 70
     0
  9
$PSLTSCALE
 70
     1
  9
$TREEDEPTH
 70
  3020
  9
$CMLSTYLE
  2
Standard
  9
$CMLJUST
 70
     0
  9
$CMLSCALE
 40
1.0
  9
$PROXYGRAPHICS
 70
     1
  9
$MEASUREMENT
 70
     0
  9
$CELWEIGHT
370
    -1
  9
$ENDCAPS
280
     0
  9
$JOINSTYLE
280
     0
  9
$LWDISPLAY
290
     0
  9
$INSUNITS
 70
     0
  9
$HYPERLINKBASE
  1

  9
$STYLESHEET
  1

  9
$XEDIT
290
     1
  9
$CEPSNTYPE
380
     0
  9
$PSTYLEMODE
290
     1
  9
$FINGERPRINTGUID
  2
{4CA57EC4-2051-451E-8184-E825F45310E4}
  9
$VERSIONGUID
  2
{EB82903C-C954-4C47-ABDF-11B0F84D269F}
  9
$EXTNAMES
290
     1
  9
$PSVPSCALE
 40
0.0
  9
$OLESTARTUP
290
     0
  0
ENDSEC
  0
SECTION
  2
CLASSES
  0
CLASS
  1
ACDBDICTIONARYWDFLT
  2
AcDbDictionaryWithDefault
  3
AutoCAD 2000
 90
        0
280
     0
281
     0
  0
CLASS
  1
ACDBPLACEHOLDER
  2
AcDbPlaceHolder
  3
AutoCAD 2000
 90
        0
280
     0
281
     0
  0
CLASS
  1
LAYOUT
  2
AcDbLayout
  3
AutoCAD 2000
 90
        0
280
     0
281
     0
  0
CLASS
  1
DICTIONARYVAR
  2
AcDbDictionaryVar
  3
AutoCAD 2000
 90
        0
280
     0
281
     0
  0
ENDSEC
  0
SECTION
  2
TABLES
  0
TABLE
  2
VPORT
  5
8
330
0
100
AcDbSymbolTable
 70
     5
  0
VPORT
  5
1DB
330
8
100
AcDbSymbolTableRecord
100
AcDbViewportTableRecord
  2
*Active
 70
     0
 10
0.0
 20
0.0
 11
1.0
 21
1.0
 12
80.0
 22
113.0
 13
0.0
 23
0.0
 14
1.0
 24
1.0
 15
0.0
 25
0.0
 16
0.0
 26
0.0
 36
1.0
 17
0.0
 27
0.0
 37
0.0
 40
227.5234872440945
 41
2.102496714848883
 42
50.0
 43
0.0
 44
0.0
 50
0.0
 51
0.0
 71
     0
 72
   100
 73
     1
 74
     3
 75
     0
 76
     0
 77
     0
 78
     0
281
     0
 65
     1
110
0.0
120
0.0
130
0.0
111
1.0
121
0.0
131
0.0
112
0.0
122
1.0
132
0.0
 79
     1
146
0.0
  0
ENDTAB
  0
TABLE
  2
LTYPE
  5
5
330
0
100
AcDbSymbolTable
 70
     1
  0
LTYPE
  5
13
330
5
100
AcDbSymbolTableRecord
100
AcDbLinetypeTableRecord
  2
ByBlock
 70
     0
  3

 72
    65
 73
     0
 40
0.0
  0
LTYPE
  5
14
330
5
100
AcDbSymbolTableRecord
100
AcDbLinetypeTableRecord
  2
ByLayer
 70
     0
  3

 72
    65
 73
     0
 40
0.0
  0
LTYPE
  5
15
330
5
100
AcDbSymbolTableRecord
100
AcDbLinetypeTableRecord
  2
Continuous
 70
     0
  3
Solid line
 72
    65
 73
     0
 40
0.0
  0
ENDTAB
  0
TABLE
  2
LAYER
  5
2
330
0
100
AcDbSymbolTable
 70
     1
  0
LAYER
  5
10
330
2
100
AcDbSymbolTableRecord
100
AcDbLayerTableRecord
  2
0
 70
     0
 62
     7
  6
Continuous
370
    -3
390
F
  0
ENDTAB
  0
TABLE
  2
STYLE
  5
3
330
0
100
AcDbSymbolTable
 70
     1
  0
STYLE
  5
11
330
3
100
AcDbSymbolTableRecord
100
AcDbTextStyleTableRecord
  2
Standard
 70
     0
 40
0.0
 41
1.0
 50
0.0
 71
     0
 42
0.2
  3
txt
  4

  0
ENDTAB
  0
TABLE
  2
VIEW
  5
6
330
0
100
AcDbSymbolTable
 70
     0
  0
ENDTAB
  0
TABLE
  2
UCS
  5
7
330
0
100
AcDbSymbolTable
 70
     0
  0
ENDTAB
  0
TABLE
  2
APPID
  5
9
330
0
100
AcDbSymbolTable
 70
     1
  0
APPID
  5
12
330
9
100
AcDbSymbolTableRecord
100
AcDbRegAppTableRecord
  2
ACAD
 70
     0
  0
ENDTAB
  0
TABLE
  2
DIMSTYLE
  5
A
330
0
100
AcDbSymbolTable
 70
     1
100
AcDbDimStyleTable
 71
     0
  0
DIMSTYLE
105
1A6
330
A
100
AcDbSymbolTableRecord
100
AcDbDimStyleTableRecord
  2
Standard
 70
     0
340
11
  0
ENDTAB
  0
TABLE
  2
BLOCK_RECORD
  5
1
330
0
100
AcDbSymbolTable
 70
     0
  0
BLOCK_RECORD
  5
1E
330
1
100
AcDbSymbolTableRecord
100
AcDbBlockTableRecord
  2
*Model_Space
340
21
  0
BLOCK_RECORD
  5
1A
330
1
100
AcDbSymbolTableRecord
100
AcDbBlockTableRecord
  2
*Paper_Space
340
1D
  0
ENDTAB
  0
ENDSEC
  0
SECTION
  2
BLOCKS
  0
BLOCK
  5
1F
330
1E
100
AcDbEntity
  8
0
100
AcDbBlockBegin
  2
*Model_Space
 70
     0
 10
0.0
 20
0.0
 30
0.0
  3
*Model_Space
  1

  0
ENDBLK
  5
20
330
1E
100
AcDbEntity
  8
0
100
AcDbBlockEnd
  0
BLOCK
  5
1B
330
1A
100
AcDbEntity
 67
     1
  8
0
100
AcDbBlockBegin
  2
*Paper_Space
 70
     0
 10
0.0
 20
0.0
 30
0.0
  3
*Paper_Space
  1

  0
ENDBLK
  5
1C
330
1A
100
AcDbEntity
 67
     1
  8
0
100
AcDbBlockEnd
  0
ENDSEC
  0
SECTION
  2
ENTITIES
  0
LINE
  5
22
330
1E
100
AcDbEntity
  8
0
100
AcDbLine
 10
19.0
 20
12.78318
 30
0.0
 11
19.0
 21
10.95991
 31
0.0
  0
LINE
  5
23
330
1E
100
AcDbEntity
  8
0
100
AcDbLine
 10
19.0
 20
12.78318
 30
0.0
 11
19.39999999999999
 21
10.02574999999999
 31
0.0
  0
LINE
  5
24
330
1E
100
AcDbEntity
  8
0
100
AcDbLine
 10
19.0
 20
10.95991
 30
0.0
 11
19.39999999999999
 21
8.20244999999999
 31
0.0
  0
LINE
  5
25
330
1E
100
AcDbEntity
  8
0
100
AcDbLine
 10
19.0
 20
10.95991
 30
0.0
 11
19.0
 21
12.78318
 31
0.0
  0
LINE
  5
26
330
1E
100
AcDbEntity
  8
0
100
AcDbLine
 10
19.0
 20
31.51498
 30
0.0
 11
19.0
 21
25.21497999999999
 31
0.0
  0
LINE
  5
27
330
1E
100
AcDbEntity
  8
0
100
AcDbLine
 10
19.0
 20
31.51498
 30
0.0
 11
19.0
 21
39.11497999999999
 31
0.0
  0
LINE
  5
28
330
1E
100
AcDbEntity
  8
0
100
AcDbLine
 10
19.0
 20
25.21497999999999
 30
0.0
 11
19.0
 21
20.21497999999999
 31
0.0
  0
LINE
  5
29
330
1E
100
AcDbEntity
  8
0
100
AcDbLine
 10
19.0
 20
25.21497999999999
 30
0.0
 11
19.0
 21
31.51498
 31
0.0
  0
LINE
  5
2A
330
1E
100
AcDbEntity
  8
0
100
AcDbLine
 10
19.0
 20
20.21497999999999
 30
0.0
 11
19.0
 21
16.51497999999999
 31
0.0
  0
LINE
  5
2B
330
1E
100
AcDbEntity
  8
0
100
AcDbLine
 10
19.0
 20
20.21497999999999
 30
0.0
 11
19.0
 21
25.21497999999999
 31
0.0
  0
LINE
  5
2C
330
1E
100
AcDbEntity
  8
0
100
AcDbLine
 10
19.0
 20
16.51497999999999
 30
0.0
 11
19.0
 21
14.21497999999999
 31
0.0
  0
LINE
  5
2D
330
1E
100
AcDbEntity
  8
0
100
AcDbLine
 10
19.0
 20
16.51497999999999
 30
0.0
 11
19.0
 21
20.21497999999999
 31
0.0
  0
LINE
  5
2E
330
1E
100
AcDbEntity
  8
0
100
AcDbLine
 10
19.0
 20
14.21497999999999
 30
0.0
 11
19.0
 21
12.85268
 31
0.0
  0
LINE
  5
2F
330
1E
100
AcDbEntity
  8
0
100
AcDbLine
 10
19.0
 20
14.21497999999999
 30
0.0
 11
19.0
 21
16.51497999999999
 31
0.0
  0
LINE
  5
30
330
1E
100
AcDbEntity
  8
0
100
AcDbLine
 10
19.0
 20
12.85268
 30
0.0
 11
19.39999999999999
 21
10.09521
 31
0.0
  0
LINE
  5
31
330
1E
100
AcDbEntity
  8
0
100
AcDbLine
 10
19.0
 20
12.85268
 30
0.0
 11
19.0
 21
14.21497999999999
 31
0.0
  0
LINE
  5
32
330
1E
100
AcDbEntity
  8
0
100
AcDbLine
 10
19.0
 20
39.11497999999999
 30
0.0
 11
19.0
 21
47.71498
 31
0.0
  0
LINE
  5
33
330
1E
100
AcDbEntity
  8
0
100
AcDbLine
 10
19.0
 20
39.11497999999999
 30
0.0
 11
19.0
 21
31.51498
 31
0.0
  0
LINE
  5
34
330
1E
100
AcDbEntity
  8
0
100
AcDbLine
 10
19.0
 20
47.71498
 30
0.0
 11
19.0
 21
57.21498
 31
0.0
  0
LINE
  5
35
330
1E
100
AcDbEntity
  8
0
100
AcDbLine
 10
19.0
 20
47.71498
 30
0.0
 11
19.0
 21
39.11497999999999
 31
0.0
  0
LINE
  5
36
330
1E
100
AcDbEntity
  8
0
100
AcDbLine
 10
19.0
 20
57.21498
 30
0.0
 11
19.0
 21
67.61498
 31
0.0
  0
LINE
  5
37
330
1E
100
AcDbEntity
  8
0
100
AcDbLine
 10
19.0
 20
57.21498
 30
0.0
 11
19.0
 21
47.71498
 31
0.0
  0
LINE
  5
38
330
1E
100
AcDbEntity
  8
0
100
AcDbLine
 10
19.0
 20
67.61498
 30
0.0
 11
19.0
 21
78.41498
 31
0.0
  0
LINE
  5
39
330
1E
100
AcDbEntity
  8
0
100
AcDbLine
 10
19.0
 20
67.61498
 30
0.0
 11
19.0
 21
57.21498
 31
0.0
  0
LINE
  5
3A
330
1E
100
AcDbEntity
  8
0
100
AcDbLine
 10
19.0
 20
78.41498
 30
0.0
 11
19.0
 21
89.61498
 31
0.0
  0
LINE
  5
3B
330
1E
100
AcDbEntity
  8
0
100
AcDbLine
 10
19.0
 20
78.41498
 30
0.0
 11
19.0
 21
67.61498
 31
0.0
  0
LINE
  5
3C
330
1E
100
AcDbEntity
  8
0
100
AcDbLine
 10
19.0
 20
89.61498
 30
0.0
 11
19.0
 21
101.01498
 31
0.0
  0
LINE
  5
3D
330
1E
100
AcDbEntity
  8
0
100
AcDbLine
 10
19.0
 20
89.61498
 30
0.0
 11
19.0
 21
78.41498
 31
0.0
  0
LINE
  5
3E
330
1E
100
AcDbEntity
  8
0
100
AcDbLine
 10
15.0882
 20
162.57398
 30
0.0
 11
19.0
 21
160.952015465012
 31
0.0
  0
LINE
  5
3F
330
1E
100
AcDbEntity
  8
0
100
AcDbLine
 10
19.0
 20
154.3149799999999
 30
0.0
 11
19.0
 21
144.8149799999999
 31
0.0
  0
LINE
  5
40
330
1E
100
AcDbEntity
  8
0
100
AcDbLine
 10
19.0
 20
154.3149799999999
 30
0.0
 11
19.0
 21
162.91498
 31
0.0
  0
LINE
  5
41
330
1E
100
AcDbEntity
  8
0
100
AcDbLine
 10
19.0
 20
144.8149799999999
 30
0.0
 11
19.0
 21
134.41498
 31
0.0
  0
LINE
  5
42
330
1E
100
AcDbEntity
  8
0
100
AcDbLine
 10
19.0
 20
144.8149799999999
 30
0.0
 11
19.0
 21
154.3149799999999
 31
0.0
  0
LINE
  5
43
330
1E
100
AcDbEntity
  8
0
100
AcDbLine
 10
19.0
 20
134.41498
 30
0.0
 11
19.0
 21
123.6149799999999
 31
0.0
  0
LINE
  5
44
330
1E
100
AcDbEntity
  8
0
100
AcDbLine
 10
19.0
 20
134.41498
 30
0.0
 11
19.0
 21
144.8149799999999
 31
0.0
  0
LINE
  5
45
330
1E
100
AcDbEntity
  8
0
100
AcDbLine
 10
19.0
 20
123.6149799999999
 30
0.0
 11
19.0
 21
112.41498
 31
0.0
  0
LINE
  5
46
330
1E
100
AcDbEntity
  8
0
100
AcDbLine
 10
19.0
 20
123.6149799999999
 30
0.0
 11
19.0
 21
134.41498
 31
0.0
  0
LINE
  5
47
330
1E
100
AcDbEntity
  8
0
100
AcDbLine
 10
19.0
 20
101.01498
 30
0.0
 11
19.0
 21
112.41498
 31
0.0
  0
LINE
  5
48
330
1E
100
AcDbEntity
  8
0
100
AcDbLine
 10
19.0
 20
101.01498
 30
0.0
 11
19.0
 21
89.61498
 31
0.0
  0
LINE
  5
49
330
1E
100
AcDbEntity
  8
0
100
AcDbLine
 10
19.0
 20
112.41498
 30
0.0
 11
19.0
 21
101.01498
 31
0.0
  0
LINE
  5
4A
330
1E
100
AcDbEntity
  8
0
100
AcDbLine
 10
19.0
 20
112.41498
 30
0.0
 11
19.0
 21
123.6149799999999
 31
0.0
  0
LINE
  5
4B
330
1E
100
AcDbEntity
  8
0
100
AcDbLine
 10
8.823499999999999
 20
167.3389799999999
 30
0.0
 11
15.0882
 21
162.57398
 31
0.0
  0
LINE
  5
4C
330
1E
100
AcDbEntity
  8
0
100
AcDbLine
 10
4.058799999999999
 20
173.60298
 30
0.0
 11
8.823499999999999
 21
167.3389799999999
 31
0.0
  0
LINE
  5
4E
330
1E
100
AcDbEntity
  8
0
100
AcDbLine
 10
16.23529999999999
 20
173.7499799999999
 30
0.0
 11
19.0
 21
171.6473116225039
 31
0.0
  0
LINE
  5
4F
330
1E
100
AcDbEntity
  8
0
100
AcDbLine
 10
19.0
 20
162.91498
 30
0.0
 11
19.0
 21
170.51498
 31
0.0
  0
LINE
  5
50
330
1E
100
AcDbEntity
  8
0
100
AcDbLine
 10
19.0
 20
162.91498
 30
0.0
 11
19.0
 21
154.3149799999999
 31
0.0
  0
LINE
  5
51
330
1E
100
AcDbEntity
  8
0
100
AcDbLine
 10
19.0
 20
170.51498
 30
0.0
 11
19.0
 21
176.8149799999999
 31
0.0
  0
LINE
  5
52
330
1E
100
AcDbEntity
  8
0
100
AcDbLine
 10
19.0
 20
170.51498
 30
0.0
 11
19.0
 21
162.91498
 31
0.0
  0
LINE
  5
53
330
1E
100
AcDbEntity
  8
0
100
AcDbLine
 10
1.058799999999999
 20
180.83898
 30
0.0
 11
4.058799999999999
 21
173.60298
 31
0.0
  0
LINE
  5
54
330
1E
100
AcDbEntity
  8
0
100
AcDbLine
 10
1.058799999999999
 20
180.83898
 30
0.0
 11
4.058799999999999
 21
173.60298
 31
0.0
  0
LINE
  5
57
330
1E
100
AcDbEntity
  8
0
100
AcDbLine
 10
13.13819999999999
 20
177.82198
 30
0.0
 11
16.23529999999999
 21
173.7499799999999
 31
0.0
  0
LINE
  5
58
330
1E
100
AcDbEntity
  8
0
100
AcDbLine
 10
11.1882
 20
182.5249799999999
 30
0.0
 11
13.13819999999999
 21
177.82198
 31
0.0
  0
LINE
  5
59
330
1E
100
AcDbEntity
  8
0
100
AcDbLine
 10
19.0
 20
176.8149799999999
 30
0.0
 11
19.0
 21
181.81498
 31
0.0
  0
LINE
  5
5A
330
1E
100
AcDbEntity
  8
0
100
AcDbLine
 10
19.0
 20
176.8149799999999
 30
0.0
 11
19.0
 21
170.51498
 31
0.0
  0
LINE
  5
5B
330
1E
100
AcDbEntity
  8
0
100
AcDbLine
 10
19.0
 20
181.81498
 30
0.0
 11
19.0
 21
185.51498
 31
0.0
  0
LINE
  5
5C
330
1E
100
AcDbEntity
  8
0
100
AcDbLine
 10
19.0
 20
181.81498
 30
0.0
 11
19.0
 21
176.8149799999999
 31
0.0
  0
LINE
  5
5D
330
1E
100
AcDbEntity
  8
0
100
AcDbLine
 10
0.0
 20
188.51498
 30
0.0
 11
1.058799999999999
 21
196.1909799999999
 31
0.0
  0
LINE
  5
5E
330
1E
100
AcDbEntity
  8
0
100
AcDbLine
 10
0.0
 20
188.51498
 30
0.0
 11
1.058799999999999
 21
180.83898
 31
0.0
  0
LINE
  5
61
330
1E
100
AcDbEntity
  8
0
100
AcDbLine
 10
10.5
 20
187.51498
 30
0.0
 11
11.1882
 21
192.50498
 31
0.0
  0
LINE
  5
62
330
1E
100
AcDbEntity
  8
0
100
AcDbLine
 10
10.5
 20
187.51498
 30
0.0
 11
11.1882
 21
182.5249799999999
 31
0.0
  0
LINE
  5
63
330
1E
100
AcDbEntity
  8
0
100
AcDbLine
 10
19.0
 20
185.51498
 30
0.0
 11
19.0
 21
187.8149799999999
 31
0.0
  0
LINE
  5
64
330
1E
100
AcDbEntity
  8
0
100
AcDbLine
 10
19.0
 20
185.51498
 30
0.0
 11
19.0
 21
181.81498
 31
0.0
  0
LINE
  5
65
330
1E
100
AcDbEntity
  8
0
100
AcDbLine
 10
19.39999999999999
 20
10.02574999999999
 30
0.0
 11
20.5
 21
7.36676999999999
 31
0.0
  0
LINE
  5
66
330
1E
100
AcDbEntity
  8
0
100
AcDbLine
 10
19.39999999999999
 20
8.20244999999999
 30
0.0
 11
20.5
 21
5.54346999999999
 31
0.0
  0
LINE
  5
67
330
1E
100
AcDbEntity
  8
0
100
AcDbLine
 10
19.39999999999999
 20
10.09521
 30
0.0
 11
20.5
 21
7.43623
 31
0.0
  0
LINE
  5
68
330
1E
100
AcDbEntity
  8
0
100
AcDbLine
 10
19.0
 20
187.8149799999999
 30
0.0
 11
19.0
 21
188.51498
 31
0.0
  0
LINE
  5
69
330
1E
100
AcDbEntity
  8
0
100
AcDbLine
 10
19.0
 20
187.8149799999999
 30
0.0
 11
19.0
 21
185.51498
 31
0.0
  0
LINE
  5
6B
330
1E
100
AcDbEntity
  8
0
100
AcDbLine
 10
11.1882
 20
192.50498
 30
0.0
 11
13.13819999999999
 21
197.2079799999999
 31
0.0
  0
LINE
  5
6C
330
1E
100
AcDbEntity
  8
0
100
AcDbLine
 10
19.0
 20
188.51498
 30
0.0
 11
19.0
 21
187.8149799999999
 31
0.0
  0
LINE
  5
6D
330
1E
100
AcDbEntity
  8
0
100
AcDbLine
 10
19.0
 20
188.51498
 30
0.0
 11
19.39999999999999
 21
191.31498
 31
0.0
  0
LINE
  5
6E
330
1E
100
AcDbEntity
  8
0
100
AcDbLine
 10
22.2
 20
5.101709999999999
 30
0.0
 11
24.5
 21
3.42754099999999
 31
0.0
  0
LINE
  5
6F
330
1E
100
AcDbEntity
  8
0
100
AcDbLine
 10
22.2
 20
3.27840799999999
 30
0.0
 11
24.5
 21
1.604234999999989
 31
0.0
  0
LINE
  5
70
330
1E
100
AcDbEntity
  8
0
100
AcDbLine
 10
20.5
 20
7.36676999999999
 30
0.0
 11
22.2
 21
5.101709999999999
 31
0.0
  0
LINE
  5
71
330
1E
100
AcDbEntity
  8
0
100
AcDbLine
 10
20.5
 20
5.54346999999999
 30
0.0
 11
22.2
 21
3.27840799999999
 31
0.0
  0
LINE
  5
72
330
1E
100
AcDbEntity
  8
0
100
AcDbLine
 10
20.5
 20
7.43623
 30
0.0
 11
22.2
 21
5.17116999999999
 31
0.0
  0
LINE
  5
73
330
1E
100
AcDbEntity
  8
0
100
AcDbLine
 10
22.2
 20
5.17116999999999
 30
0.0
 11
24.5
 21
3.496999999999999
 31
0.0
  0
LINE
  5
74
330
1E
100
AcDbEntity
  8
0
100
AcDbLine
 10
19.39999999999999
 20
191.31498
 30
0.0
 11
20.5
 21
194.01498
 31
0.0
  0
LINE
  5
75
330
1E
100
AcDbEntity
  8
0
100
AcDbLine
 10
1.058799999999999
 20
196.1909799999999
 30
0.0
 11
4.058799999999999
 21
203.42698
 31
0.0
  0
LINE
  5
76
330
1E
100
AcDbEntity
  8
0
100
AcDbLine
 10
1.058799999999999
 20
196.1909799999999
 30
0.0
 11
4.058799999999999
 21
203.42698
 31
0.0
  0
LINE
  5
78
330
1E
100
AcDbEntity
  8
0
100
AcDbLine
 10
13.13819999999999
 20
197.2079799999999
 30
0.0
 11
16.23529999999999
 21
201.2799799999999
 31
0.0
  0
LINE
  5
79
330
1E
100
AcDbEntity
  8
0
100
AcDbLine
 10
20.5
 20
194.01498
 30
0.0
 11
22.2
 21
196.31498
 31
0.0
  0
LINE
  5
7A
330
1E
100
AcDbEntity
  8
0
100
AcDbLine
 10
27.2
 20
2.344252
 30
0.0
 11
30.0
 21
1.950328999999999
 31
0.0
  0
LINE
  5
7B
330
1E
100
AcDbEntity
  8
0
100
AcDbLine
 10
27.2
 20
0.5209499999999951
 30
0.0
 11
30.0
 21
0.127019999999995
 31
0.0
  0
LINE
  5
7C
330
1E
100
AcDbEntity
  8
0
100
AcDbLine
 10
24.5
 20
1.604234999999989
 30
0.0
 11
27.2
 21
0.5209499999999951
 31
0.0
  0
LINE
  5
7D
330
1E
100
AcDbEntity
  8
0
100
AcDbLine
 10
24.5
 20
3.42754099999999
 30
0.0
 11
27.2
 21
2.344252
 31
0.0
  0
LINE
  5
7E
330
1E
100
AcDbEntity
  8
0
100
AcDbLine
 10
24.5
 20
3.496999999999999
 30
0.0
 11
27.2
 21
2.413711
 31
0.0
  0
LINE
  5
7F
330
1E
100
AcDbEntity
  8
0
100
AcDbLine
 10
27.2
 20
2.413711
 30
0.0
 11
30.0
 21
2.019788
 31
0.0
  0
LINE
  5
80
330
1E
100
AcDbEntity
  8
0
100
AcDbLine
 10
22.2
 20
196.31498
 30
0.0
 11
24.5
 21
198.01498
 31
0.0
  0
LINE
  5
81
330
1E
100
AcDbEntity
  8
0
100
AcDbLine
 10
4.058799999999999
 20
203.42698
 30
0.0
 11
8.823499999999999
 21
209.69098
 31
0.0
  0
LINE
  5
84
330
1E
100
AcDbEntity
  8
0
100
AcDbLine
 10
16.23529999999999
 20
201.2799799999999
 30
0.0
 11
20.3074
 21
204.37698
 31
0.0
  0
LINE
  5
85
330
1E
100
AcDbEntity
  8
0
100
AcDbLine
 10
8.823499999999999
 20
209.69098
 30
0.0
 11
15.0882
 21
214.4559799999999
 31
0.0
  0
LINE
  5
86
330
1E
100
AcDbEntity
  8
0
100
AcDbLine
 10
22.32349999999999
 20
217.4559799999999
 30
0.0
 11
27.5046787060996
 21
218.170741707778
 31
0.0
  0
LINE
  5
87
330
1E
100
AcDbEntity
  8
0
100
AcDbLine
 10
15.0882
 20
214.4559799999999
 30
0.0
 11
22.32349999999999
 21
217.4559799999999
 31
0.0
  0
LINE
  5
88
330
1E
100
AcDbEntity
  8
0
100
AcDbLine
 10
20.3074
 20
204.37698
 30
0.0
 11
25.0103
 21
206.32698
 31
0.0
  0
LINE
  5
8A
330
1E
100
AcDbEntity
  8
0
100
AcDbLine
 10
25.0103
 20
206.32698
 30
0.0
 11
27.529107295663
 21
206.67428332874
 31
0.0
  0
LINE
  5
8B
330
1E
100
AcDbEntity
  8
0
100
AcDbLine
 10
25.0103
 20
206.32698
 30
0.0
 11
30.0
 21
207.01498
 31
0.0
  0
LINE
  5
8C
330
1E
100
AcDbEntity
  8
0
100
AcDbLine
 10
24.5
 20
198.01498
 30
0.0
 11
27.2
 21
199.11498
 31
0.0
  0
LINE
  5
8D
330
1E
100
AcDbEntity
  8
0
100
AcDbLine
 10
30.0
 20
0.127019999999995
 30
0.0
 11
32.79999999999999
 21
0.5209499999999951
 31
0.0
  0
LINE
  5
8E
330
1E
100
AcDbEntity
  8
0
100
AcDbLine
 10
30.0
 20
1.950328999999999
 30
0.0
 11
32.79999999999999
 21
2.344252
 31
0.0
  0
LINE
  5
8F
330
1E
100
AcDbEntity
  8
0
100
AcDbLine
 10
32.79999999999999
 20
0.5209499999999951
 30
0.0
 11
35.5
 21
1.604234999999989
 31
0.0
  0
LINE
  5
90
330
1E
100
AcDbEntity
  8
0
100
AcDbLine
 10
35.5
 20
1.604234999999989
 30
0.0
 11
37.79999999999999
 21
3.27840799999999
 31
0.0
  0
LINE
  5
91
330
1E
100
AcDbEntity
  8
0
100
AcDbLine
 10
32.79999999999999
 20
2.344252
 30
0.0
 11
35.5
 21
3.42754099999999
 31
0.0
  0
LINE
  5
92
330
1E
100
AcDbEntity
  8
0
100
AcDbLine
 10
35.5
 20
3.42754099999999
 30
0.0
 11
37.79999999999999
 21
5.101709999999999
 31
0.0
  0
LINE
  5
93
330
1E
100
AcDbEntity
  8
0
100
AcDbLine
 10
37.79999999999999
 20
3.27840799999999
 30
0.0
 11
39.5
 21
5.54346999999999
 31
0.0
  0
LINE
  5
94
330
1E
100
AcDbEntity
  8
0
100
AcDbLine
 10
37.79999999999999
 20
5.101709999999999
 30
0.0
 11
39.5
 21
7.36676999999999
 31
0.0
  0
LINE
  5
95
330
1E
100
AcDbEntity
  8
0
100
AcDbLine
 10
39.5
 20
7.36676999999999
 30
0.0
 11
40.6
 21
10.02574999999999
 31
0.0
  0
LINE
  5
96
330
1E
100
AcDbEntity
  8
0
100
AcDbLine
 10
39.5
 20
5.54346999999999
 30
0.0
 11
40.6
 21
8.20244999999999
 31
0.0
  0
LINE
  5
97
330
1E
100
AcDbEntity
  8
0
100
AcDbLine
 10
40.6
 20
10.02574999999999
 30
0.0
 11
41.0
 21
12.78318
 31
0.0
  0
LINE
  5
98
330
1E
100
AcDbEntity
  8
0
100
AcDbLine
 10
40.6
 20
8.20244999999999
 30
0.0
 11
41.0
 21
10.95991
 31
0.0
  0
LINE
  5
99
330
1E
100
AcDbEntity
  8
0
100
AcDbLine
 10
41.0
 20
10.95991
 30
0.0
 11
41.0
 21
12.78318
 31
0.0
  0
LINE
  5
9A
330
1E
100
AcDbEntity
  8
0
100
AcDbLine
 10
41.0
 20
12.78318
 30
0.0
 11
41.0
 21
10.95991
 31
0.0
  0
LINE
  5
9B
330
1E
100
AcDbEntity
  8
0
100
AcDbLine
 10
41.0
 20
31.51498
 30
0.0
 11
41.0
 21
25.21497999999999
 31
0.0
  0
LINE
  5
9C
330
1E
100
AcDbEntity
  8
0
100
AcDbLine
 10
41.0
 20
31.51498
 30
0.0
 11
41.0
 21
39.11497999999999
 31
0.0
  0
LINE
  5
9D
330
1E
100
AcDbEntity
  8
0
100
AcDbLine
 10
41.0
 20
25.21497999999999
 30
0.0
 11
41.0
 21
20.21497999999999
 31
0.0
  0
LINE
  5
9E
330
1E
100
AcDbEntity
  8
0
100
AcDbLine
 10
41.0
 20
25.21497999999999
 30
0.0
 11
41.0
 21
31.51498
 31
0.0
  0
LINE
  5
9F
330
1E
100
AcDbEntity
  8
0
100
AcDbLine
 10
41.0
 20
20.21497999999999
 30
0.0
 11
41.0
 21
16.51497999999999
 31
0.0
  0
LINE
  5
A0
330
1E
100
AcDbEntity
  8
0
100
AcDbLine
 10
41.0
 20
20.21497999999999
 30
0.0
 11
41.0
 21
25.21497999999999
 31
0.0
  0
LINE
  5
A1
330
1E
100
AcDbEntity
  8
0
100
AcDbLine
 10
41.0
 20
16.51497999999999
 30
0.0
 11
41.0
 21
14.21497999999999
 31
0.0
  0
LINE
  5
A2
330
1E
100
AcDbEntity
  8
0
100
AcDbLine
 10
41.0
 20
16.51497999999999
 30
0.0
 11
41.0
 21
20.21497999999999
 31
0.0
  0
LINE
  5
A3
330
1E
100
AcDbEntity
  8
0
100
AcDbLine
 10
41.0
 20
14.21497999999999
 30
0.0
 11
41.0
 21
12.85268
 31
0.0
  0
LINE
  5
A4
330
1E
100
AcDbEntity
  8
0
100
AcDbLine
 10
41.0
 20
14.21497999999999
 30
0.0
 11
41.0
 21
16.51497999999999
 31
0.0
  0
LINE
  5
A5
330
1E
100
AcDbEntity
  8
0
100
AcDbLine
 10
41.0
 20
12.85268
 30
0.0
 11
41.0
 21
14.21497999999999
 31
0.0
  0
LINE
  5
A6
330
1E
100
AcDbEntity
  8
0
100
AcDbLine
 10
40.6
 20
10.09521
 30
0.0
 11
41.0
 21
12.85268
 31
0.0
  0
LINE
  5
A7
330
1E
100
AcDbEntity
  8
0
100
AcDbLine
 10
39.5
 20
7.43623
 30
0.0
 11
40.6
 21
10.09521
 31
0.0
  0
LINE
  5
A8
330
1E
100
AcDbEntity
  8
0
100
AcDbLine
 10
37.79999999999999
 20
5.17116999999999
 30
0.0
 11
39.5
 21
7.43623
 31
0.0
  0
LINE
  5
A9
330
1E
100
AcDbEntity
  8
0
100
AcDbLine
 10
35.5
 20
3.496999999999999
 30
0.0
 11
37.79999999999999
 21
5.17116999999999
 31
0.0
  0
LINE
  5
AA
330
1E
100
AcDbEntity
  8
0
100
AcDbLine
 10
32.79999999999999
 20
2.413711
 30
0.0
 11
35.5
 21
3.496999999999999
 31
0.0
  0
LINE
  5
AB
330
1E
100
AcDbEntity
  8
0
100
AcDbLine
 10
30.0
 20
2.019788
 30
0.0
 11
32.79999999999999
 21
2.413711
 31
0.0
  0
LINE
  5
AC
330
1E
100
AcDbEntity
  8
0
100
AcDbLine
 10
41.0
 20
39.11497999999999
 30
0.0
 11
41.0
 21
47.71498
 31
0.0
  0
LINE
  5
AD
330
1E
100
AcDbEntity
  8
0
100
AcDbLine
 10
41.0
 20
39.11497999999999
 30
0.0
 11
41.0
 21
31.51498
 31
0.0
  0
LINE
  5
AE
330
1E
100
AcDbEntity
  8
0
100
AcDbLine
 10
41.0
 20
47.71498
 30
0.0
 11
41.0
 21
57.21498
 31
0.0
  0
LINE
  5
AF
330
1E
100
AcDbEntity
  8
0
100
AcDbLine
 10
41.0
 20
47.71498
 30
0.0
 11
41.0
 21
39.11497999999999
 31
0.0
  0
LINE
  5
B0
330
1E
100
AcDbEntity
  8
0
100
AcDbLine
 10
41.0
 20
57.21498
 30
0.0
 11
41.0
 21
67.61498
 31
0.0
  0
LINE
  5
B1
330
1E
100
AcDbEntity
  8
0
100
AcDbLine
 10
41.0
 20
57.21498
 30
0.0
 11
41.0
 21
47.71498
 31
0.0
  0
LINE
  5
B2
330
1E
100
AcDbEntity
  8
0
100
AcDbLine
 10
41.0
 20
67.61498
 30
0.0
 11
41.0
 21
78.41498
 31
0.0
  0
LINE
  5
B3
330
1E
100
AcDbEntity
  8
0
100
AcDbLine
 10
41.0
 20
67.61498
 30
0.0
 11
41.0
 21
57.21498
 31
0.0
  0
LINE
  5
B4
330
1E
100
AcDbEntity
  8
0
100
AcDbLine
 10
41.0
 20
78.41498
 30
0.0
 11
41.0
 21
89.61498
 31
0.0
  0
LINE
  5
B5
330
1E
100
AcDbEntity
  8
0
100
AcDbLine
 10
41.0
 20
78.41498
 30
0.0
 11
41.0
 21
67.61498
 31
0.0
  0
LINE
  5
B6
330
1E
100
AcDbEntity
  8
0
100
AcDbLine
 10
41.0
 20
154.3149799999999
 30
0.0
 11
41.0
 21
144.8149799999999
 31
0.0
  0
LINE
  5
B7
330
1E
100
AcDbEntity
  8
0
100
AcDbLine
 10
41.0
 20
154.3149799999999
 30
0.0
 11
41.0
 21
162.91498
 31
0.0
  0
LINE
  5
B8
330
1E
100
AcDbEntity
  8
0
100
AcDbLine
 10
41.0
 20
144.8149799999999
 30
0.0
 11
41.0
 21
134.41498
 31
0.0
  0
LINE
  5
B9
330
1E
100
AcDbEntity
  8
0
100
AcDbLine
 10
41.0
 20
144.8149799999999
 30
0.0
 11
41.0
 21
154.3149799999999
 31
0.0
  0
LINE
  5
BA
330
1E
100
AcDbEntity
  8
0
100
AcDbLine
 10
41.0
 20
134.41498
 30
0.0
 11
41.0
 21
123.6149799999999
 31
0.0
  0
LINE
  5
BB
330
1E
100
AcDbEntity
  8
0
100
AcDbLine
 10
41.0
 20
134.41498
 30
0.0
 11
41.0
 21
144.8149799999999
 31
0.0
  0
LINE
  5
BC
330
1E
100
AcDbEntity
  8
0
100
AcDbLine
 10
41.0
 20
123.6149799999999
 30
0.0
 11
41.0
 21
112.41498
 31
0.0
  0
LINE
  5
BD
330
1E
100
AcDbEntity
  8
0
100
AcDbLine
 10
41.0
 20
123.6149799999999
 30
0.0
 11
41.0
 21
134.41498
 31
0.0
  0
LINE
  5
BE
330
1E
100
AcDbEntity
  8
0
100
AcDbLine
 10
41.0
 20
112.41498
 30
0.0
 11
41.0
 21
101.01498
 31
0.0
  0
LINE
  5
BF
330
1E
100
AcDbEntity
  8
0
100
AcDbLine
 10
41.0
 20
112.41498
 30
0.0
 11
41.0
 21
123.6149799999999
 31
0.0
  0
LINE
  5
C0
330
1E
100
AcDbEntity
  8
0
100
AcDbLine
 10
41.0
 20
162.91498
 30
0.0
 11
41.0
 21
170.51498
 31
0.0
  0
LINE
  5
C1
330
1E
100
AcDbEntity
  8
0
100
AcDbLine
 10
41.0
 20
162.91498
 30
0.0
 11
41.0
 21
154.3149799999999
 31
0.0
  0
LINE
  5
C2
330
1E
100
AcDbEntity
  8
0
100
AcDbLine
 10
41.0
 20
170.51498
 30
0.0
 11
41.0
 21
176.8149799999999
 31
0.0
  0
LINE
  5
C3
330
1E
100
AcDbEntity
  8
0
100
AcDbLine
 10
41.0
 20
170.51498
 30
0.0
 11
41.0
 21
162.91498
 31
0.0
  0
LINE
  5
C4
330
1E
100
AcDbEntity
  8
0
100
AcDbLine
 10
41.0
 20
101.01498
 30
0.0
 11
41.0
 21
89.61498
 31
0.0
  0
LINE
  5
C5
330
1E
100
AcDbEntity
  8
0
100
AcDbLine
 10
41.0
 20
101.01498
 30
0.0
 11
41.0
 21
112.41498
 31
0.0
  0
LINE
  5
C6
330
1E
100
AcDbEntity
  8
0
100
AcDbLine
 10
41.0
 20
89.61498
 30
0.0
 11
41.0
 21
101.01498
 31
0.0
  0
LINE
  5
C7
330
1E
100
AcDbEntity
  8
0
100
AcDbLine
 10
41.0
 20
89.61498
 30
0.0
 11
41.0
 21
78.41498
 31
0.0
  0
LINE
  5
C8
330
1E
100
AcDbEntity
  8
0
100
AcDbLine
 10
115.0879999999999
 20
162.57398
 30
0.0
 11
122.324
 21
159.57398
 31
0.0
  0
LINE
  5
C9
330
1E
100
AcDbEntity
  8
0
100
AcDbLine
 10
122.324
 20
159.57398
 30
0.0
 11
130.0
 21
158.51498
 31
0.0
  0
LINE
  5
CD
330
1E
100
AcDbEntity
  8
0
100
AcDbLine
 10
108.824
 20
167.3389799999999
 30
0.0
 11
115.0879999999999
 21
162.57398
 31
0.0
  0
LINE
  5
D1
330
1E
100
AcDbEntity
  8
0
100
AcDbLine
 10
120.307
 20
170.65298
 30
0.0
 11
125.0099999999999
 21
168.7029799999999
 31
0.0
  0
LINE
  5
D2
330
1E
100
AcDbEntity
  8
0
100
AcDbLine
 10
125.0099999999999
 20
168.7029799999999
 30
0.0
 11
130.0
 21
168.01498
 31
0.0
  0
LINE
  5
D6
330
1E
100
AcDbEntity
  8
0
100
AcDbLine
 10
51.1765
 20
167.3389799999999
 30
0.0
 11
55.9412
 21
173.60298
 31
0.0
  0
LINE
  5
D7
330
1E
100
AcDbEntity
  8
0
100
AcDbLine
 10
44.91179999999999
 20
162.57398
 30
0.0
 11
51.1765
 21
167.3389799999999
 31
0.0
  0
LINE
  5
D8
330
1E
100
AcDbEntity
  8
0
100
AcDbLine
 10
41.0
 20
160.952015465012
 30
0.0
 11
44.91179999999999
 21
162.57398
 31
0.0
  0
LINE
  5
D9
330
1E
100
AcDbEntity
  8
0
100
AcDbLine
 10
41.0
 20
176.8149799999999
 30
0.0
 11
41.0
 21
181.81498
 31
0.0
  0
LINE
  5
DA
330
1E
100
AcDbEntity
  8
0
100
AcDbLine
 10
41.0
 20
176.8149799999999
 30
0.0
 11
41.0
 21
170.51498
 31
0.0
  0
LINE
  5
DB
330
1E
100
AcDbEntity
  8
0
100
AcDbLine
 10
43.5927
 20
173.9219799999999
 30
0.0
 11
46.6324
 21
177.93698
 31
0.0
  0
LINE
  5
DC
330
1E
100
AcDbEntity
  8
0
100
AcDbLine
 10
41.0
 20
181.81498
 30
0.0
 11
41.0
 21
185.51498
 31
0.0
  0
LINE
  5
DD
330
1E
100
AcDbEntity
  8
0
100
AcDbLine
 10
41.0
 20
181.81498
 30
0.0
 11
41.0
 21
176.8149799999999
 31
0.0
  0
LINE
  5
DE
330
1E
100
AcDbEntity
  8
0
100
AcDbLine
 10
41.0
 20
185.51498
 30
0.0
 11
41.0
 21
187.8149799999999
 31
0.0
  0
LINE
  5
DF
330
1E
100
AcDbEntity
  8
0
100
AcDbLine
 10
41.0
 20
185.51498
 30
0.0
 11
41.0
 21
181.81498
 31
0.0
  0
LINE
  5
E0
330
1E
100
AcDbEntity
  8
0
100
AcDbLine
 10
41.0
 20
188.51498
 30
0.0
 11
41.0
 21
187.8149799999999
 31
0.0
  0
LINE
  5
E1
330
1E
100
AcDbEntity
  8
0
100
AcDbLine
 10
41.0
 20
187.8149799999999
 30
0.0
 11
41.0
 21
188.51498
 31
0.0
  0
LINE
  5
E2
330
1E
100
AcDbEntity
  8
0
100
AcDbLine
 10
41.0
 20
187.8149799999999
 30
0.0
 11
41.0
 21
185.51498
 31
0.0
  0
LINE
  5
E3
330
1E
100
AcDbEntity
  8
0
100
AcDbLine
 10
40.6
 20
191.31498
 30
0.0
 11
41.0
 21
188.51498
 31
0.0
  0
LINE
  5
E4
330
1E
100
AcDbEntity
  8
0
100
AcDbLine
 10
39.5
 20
194.01498
 30
0.0
 11
40.6
 21
191.31498
 31
0.0
  0
LINE
  5
E5
330
1E
100
AcDbEntity
  8
0
100
AcDbLine
 10
37.79999999999999
 20
196.31498
 30
0.0
 11
39.5
 21
194.01498
 31
0.0
  0
LINE
  5
E6
330
1E
100
AcDbEntity
  8
0
100
AcDbLine
 10
35.5
 20
198.01498
 30
0.0
 11
37.79999999999999
 21
196.31498
 31
0.0
  0
LINE
  5
E7
330
1E
100
AcDbEntity
  8
0
100
AcDbLine
 10
32.79999999999999
 20
199.11498
 30
0.0
 11
35.5
 21
198.01498
 31
0.0
  0
LINE
  5
E8
330
1E
100
AcDbEntity
  8
0
100
AcDbLine
 10
30.0
 20
199.51498
 30
0.0
 11
32.79999999999999
 21
199.11498
 31
0.0
  0
LINE
  5
EF
330
1E
100
AcDbEntity
  8
0
100
AcDbLine
 10
27.5001
 20
213.5429799999999
 30
0.0
 11
27.5004
 21
213.9369799999999
 31
0.0
  0
LINE
  5
F0
330
1E
100
AcDbEntity
  8
0
100
AcDbLine
 10
27.5
 20
213.15998
 30
0.0
 11
27.5
 21
212.80098
 31
0.0
  0
LINE
  5
F1
330
1E
100
AcDbEntity
  8
0
100
AcDbLine
 10
27.5
 20
213.15998
 30
0.0
 11
27.5001
 21
213.5429799999999
 31
0.0
  0
LINE
  5
F2
330
1E
100
AcDbEntity
  8
0
100
AcDbLine
 10
27.5
 20
212.80098
 30
0.0
 11
27.5002
 21
212.4799799999999
 31
0.0
  0
LINE
  5
F3
330
1E
100
AcDbEntity
  8
0
100
AcDbLine
 10
27.5
 20
212.80098
 30
0.0
 11
27.5
 21
213.15998
 31
0.0
  0
LINE
  5
F4
330
1E
100
AcDbEntity
  8
0
100
AcDbLine
 10
27.5004
 20
213.9369799999999
 30
0.0
 11
27.5123
 21
225.7119799999999
 31
0.0
  0
LINE
  5
F5
330
1E
100
AcDbEntity
  8
0
100
AcDbLine
 10
27.5002
 20
212.4799799999999
 30
0.0
 11
27.5007
 21
212.1559799999999
 31
0.0
  0
LINE
  5
F9
330
1E
100
AcDbEntity
  8
0
100
AcDbLine
 10
28.22309999999999
 20
210.99798
 30
0.0
 11
29.0253
 21
210.6469799999999
 31
0.0
  0
LINE
  5
FA
330
1E
100
AcDbEntity
  8
0
100
AcDbLine
 10
30.02769999999999
 20
210.52298
 30
0.0
 11
30.97469999999999
 21
210.6469799999999
 31
0.0
  0
LINE
  5
FE
330
1E
100
AcDbEntity
  8
0
100
AcDbLine
 10
30.97469999999999
 20
210.6469799999999
 30
0.0
 11
31.7769
 21
210.99798
 31
0.0
  0
LINE
  5
FF
330
1E
100
AcDbEntity
  8
0
100
AcDbLine
 10
31.7769
 20
210.99798
 30
0.0
 11
32.31239999999999
 21
211.5229799999999
 31
0.0
  0
LINE
  5
100
330
1E
100
AcDbEntity
  8
0
100
AcDbLine
 10
32.31239999999999
 20
211.5229799999999
 30
0.0
 11
32.49929999999999
 21
212.14298
 31
0.0
  0
LINE
  5
105
330
1E
100
AcDbEntity
  8
0
100
AcDbLine
 10
29.0253
 20
210.6469799999999
 30
0.0
 11
29.9723
 21
210.52298
 31
0.0
  0
LINE
  5
106
330
1E
100
AcDbEntity
  8
0
100
AcDbLine
 10
27.5123
 20
225.7119799999999
 30
0.0
 11
27.6991
 21
225.7739799999999
 31
0.0
  0
LINE
  5
107
330
1E
100
AcDbEntity
  8
0
100
AcDbLine
 10
27.6991
 20
225.7739799999999
 30
0.0
 11
28.2345
 21
225.8269799999999
 31
0.0
  0
LINE
  5
108
330
1E
100
AcDbEntity
  8
0
100
AcDbLine
 10
32.3009
 20
225.7739799999999
 30
0.0
 11
32.48769999999999
 21
225.7119799999999
 31
0.0
  0
LINE
  5
109
330
1E
100
AcDbEntity
  8
0
100
AcDbLine
 10
31.7655
 20
225.8269799999999
 30
0.0
 11
32.3009
 21
225.7739799999999
 31
0.0
  0
LINE
  5
10A
330
1E
100
AcDbEntity
  8
0
100
AcDbLine
 10
30.9634
 20
225.8609799999999
 30
0.0
 11
31.7655
 21
225.8269799999999
 31
0.0
  0
LINE
  5
10C
330
1E
100
AcDbEntity
  8
0
100
AcDbLine
 10
28.2345
 20
225.8269799999999
 30
0.0
 11
29.0366
 21
225.8609799999999
 31
0.0
  0
LINE
  5
10D
330
1E
100
AcDbEntity
  8
0
100
AcDbLine
 10
30.0163
 20
225.8729799999999
 30
0.0
 11
30.9634
 21
225.8609799999999
 31
0.0
  0
LINE
  5
10E
330
1E
100
AcDbEntity
  8
0
100
AcDbLine
 10
29.0366
 20
225.8609799999999
 30
0.0
 11
29.98369999999999
 21
225.8729799999999
 31
0.0
  0
LINE
  5
110
330
1E
100
AcDbEntity
  8
0
100
AcDbLine
 10
27.6876
 20
211.5229799999999
 30
0.0
 11
28.22309999999999
 21
210.99798
 31
0.0
  0
LINE
  5
111
330
1E
100
AcDbEntity
  8
0
100
AcDbLine
 10
27.5007
 20
212.14298
 30
0.0
 11
27.529107295663
 21
206.67428332874
 31
0.0
  0
LINE
  5
112
330
1E
100
AcDbEntity
  8
0
100
AcDbLine
 10
27.5007
 20
212.14298
 30
0.0
 11
27.6876
 21
211.5229799999999
 31
0.0
  0
LINE
  5
113
330
1E
100
AcDbEntity
  8
0
100
AcDbLine
 10
30.0
 20
207.01498
 30
0.0
 11
34.98969999999999
 21
206.32698
 31
0.0
  0
LINE
  5
116
330
1E
100
AcDbEntity
  8
0
100
AcDbLine
 10
32.48769999999999
 20
225.7119799999999
 30
0.0
 11
32.4996
 21
213.9369799999999
 31
0.0
  0
LINE
  5
117
330
1E
100
AcDbEntity
  8
0
100
AcDbLine
 10
32.4996
 20
213.9369799999999
 30
0.0
 11
32.49989999999999
 21
213.5429799999999
 31
0.0
  0
LINE
  5
118
330
1E
100
AcDbEntity
  8
0
100
AcDbLine
 10
32.49989999999999
 20
213.5429799999999
 30
0.0
 11
32.5
 21
213.15998
 31
0.0
  0
LINE
  5
119
330
1E
100
AcDbEntity
  8
0
100
AcDbLine
 10
32.5
 20
213.15998
 30
0.0
 11
32.5
 21
212.80098
 31
0.0
  0
LINE
  5
11A
330
1E
100
AcDbEntity
  8
0
100
AcDbLine
 10
32.5
 20
212.80098
 30
0.0
 11
32.5
 21
213.15998
 31
0.0
  0
LINE
  5
11B
330
1E
100
AcDbEntity
  8
0
100
AcDbLine
 10
32.4998
 20
212.4799799999999
 30
0.0
 11
32.5
 21
212.80098
 31
0.0
  0
LINE
  5
11C
330
1E
100
AcDbEntity
  8
0
100
AcDbLine
 10
32.49929999999999
 20
212.1559799999999
 30
0.0
 11
32.4998
 21
212.4799799999999
 31
0.0
  0
LINE
  5
11D
330
1E
100
AcDbEntity
  8
0
100
AcDbLine
 10
32.49532129390039
 20
218.170741707778
 30
0.0
 11
37.67649999999999
 21
217.4559799999999
 31
0.0
  0
LINE
  5
11F
330
1E
100
AcDbEntity
  8
0
100
AcDbLine
 10
44.91179999999999
 20
214.4559799999999
 30
0.0
 11
51.1765
 21
209.69098
 31
0.0
  0
LINE
  5
120
330
1E
100
AcDbEntity
  8
0
100
AcDbLine
 10
37.67649999999999
 20
217.4559799999999
 30
0.0
 11
44.91179999999999
 21
214.4559799999999
 31
0.0
  0
LINE
  5
121
330
1E
100
AcDbEntity
  8
0
100
AcDbLine
 10
34.98969999999999
 20
206.32698
 30
0.0
 11
39.6926
 21
204.37698
 31
0.0
  0
LINE
  5
122
330
1E
100
AcDbEntity
  8
0
100
AcDbLine
 10
39.6926
 20
204.37698
 30
0.0
 11
43.7647
 21
201.2799799999999
 31
0.0
  0
LINE
  5
123
330
1E
100
AcDbEntity
  8
0
100
AcDbLine
 10
32.470892704337
 20
206.67428332874
 30
0.0
 11
34.98969999999999
 21
206.32698
 31
0.0
  0
LINE
  5
124
330
1E
100
AcDbEntity
  8
0
100
AcDbLine
 10
32.470892704337
 20
206.67428332874
 30
0.0
 11
32.49929999999999
 21
212.14298
 31
0.0
  0
LINE
  5
125
330
1E
100
AcDbEntity
  8
0
100
AcDbLine
 10
43.7647
 20
201.2799799999999
 30
0.0
 11
46.8618
 21
197.2079799999999
 31
0.0
  0
LINE
  5
127
330
1E
100
AcDbEntity
  8
0
100
AcDbLine
 10
46.8618
 20
197.2079799999999
 30
0.0
 11
48.8118
 21
192.50498
 31
0.0
  0
LINE
  5
128
330
1E
100
AcDbEntity
  8
0
100
AcDbLine
 10
46.6324
 20
177.93698
 30
0.0
 11
48.525
 21
182.5829799999999
 31
0.0
  0
LINE
  5
129
330
1E
100
AcDbEntity
  8
0
100
AcDbLine
 10
48.8118
 20
192.50498
 30
0.0
 11
49.5
 21
187.51498
 31
0.0
  0
LINE
  5
12A
330
1E
100
AcDbEntity
  8
0
100
AcDbLine
 10
48.525
 20
182.5829799999999
 30
0.0
 11
49.5
 21
187.51498
 31
0.0
  0
LINE
  5
12C
330
1E
100
AcDbEntity
  8
0
100
AcDbLine
 10
104.0589999999999
 20
173.60298
 30
0.0
 11
108.824
 21
167.3389799999999
 31
0.0
  0
LINE
  5
12D
330
1E
100
AcDbEntity
  8
0
100
AcDbLine
 10
126.5149999999999
 20
173.46098
 30
0.0
 11
127.5439999999999
 21
172.69398
 31
0.0
  0
LINE
  5
12E
330
1E
100
AcDbEntity
  8
0
100
AcDbLine
 10
127.5439999999999
 20
172.69398
 30
0.0
 11
128.735
 21
172.21598
 31
0.0
  0
LINE
  5
12F
330
1E
100
AcDbEntity
  8
0
100
AcDbLine
 10
126.471
 20
173.4419799999999
 30
0.0
 11
127.515
 21
172.65998
 31
0.0
  0
LINE
  5
130
330
1E
100
AcDbEntity
  8
0
100
AcDbLine
 10
127.515
 20
172.65998
 30
0.0
 11
128.7209999999999
 21
172.1669799999999
 31
0.0
  0
LINE
  5
139
330
1E
100
AcDbEntity
  8
0
100
AcDbLine
 10
128.735
 20
172.21598
 30
0.0
 11
130.0
 21
172.0419799999999
 31
0.0
  0
LINE
  5
13A
330
1E
100
AcDbEntity
  8
0
100
AcDbLine
 10
128.7209999999999
 20
172.1669799999999
 30
0.0
 11
130.0
 21
171.9939799999999
 31
0.0
  0
LINE
  5
13C
330
1E
100
AcDbEntity
  8
0
100
AcDbLine
 10
116.2349999999999
 20
173.7499799999999
 30
0.0
 11
120.307
 21
170.65298
 31
0.0
  0
LINE
  5
13E
330
1E
100
AcDbEntity
  8
0
100
AcDbLine
 10
101.059
 20
180.83898
 30
0.0
 11
104.0589999999999
 21
173.60298
 31
0.0
  0
LINE
  5
13F
330
1E
100
AcDbEntity
  8
0
100
AcDbLine
 10
125.676
 20
174.46998
 30
0.0
 11
126.471
 21
173.4419799999999
 31
0.0
  0
LINE
  5
140
330
1E
100
AcDbEntity
  8
0
100
AcDbLine
 10
125.7349999999999
 20
174.47498
 30
0.0
 11
126.5149999999999
 21
173.46098
 31
0.0
  0
LINE
  5
141
330
1E
100
AcDbEntity
  8
0
100
AcDbLine
 10
125.2499999999999
 20
175.64798
 30
0.0
 11
125.7349999999999
 21
174.47498
 31
0.0
  0
LINE
  5
142
330
1E
100
AcDbEntity
  8
0
100
AcDbLine
 10
125.1759999999999
 20
175.65798
 30
0.0
 11
125.676
 21
174.46998
 31
0.0
  0
LINE
  5
147
330
1E
100
AcDbEntity
  8
0
100
AcDbLine
 10
125.0
 20
176.91798
 30
0.0
 11
125.1759999999999
 21
175.65798
 31
0.0
  0
LINE
  5
148
330
1E
100
AcDbEntity
  8
0
100
AcDbLine
 10
125.0
 20
176.91798
 30
0.0
 11
125.0
 21
188.51498
 31
0.0
  0
LINE
  5
149
330
1E
100
AcDbEntity
  8
0
100
AcDbLine
 10
125.0739999999999
 20
176.89398
 30
0.0
 11
125.2499999999999
 21
178.13898
 31
0.0
  0
LINE
  5
14A
330
1E
100
AcDbEntity
  8
0
100
AcDbLine
 10
125.0739999999999
 20
176.89398
 30
0.0
 11
125.2499999999999
 21
175.64798
 31
0.0
  0
LINE
  5
14C
330
1E
100
AcDbEntity
  8
0
100
AcDbLine
 10
125.7349999999999
 20
179.31198
 30
0.0
 11
126.5149999999999
 21
180.32598
 31
0.0
  0
LINE
  5
14D
330
1E
100
AcDbEntity
  8
0
100
AcDbLine
 10
125.2499999999999
 20
178.13898
 30
0.0
 11
125.7349999999999
 21
179.31198
 31
0.0
  0
LINE
  5
14E
330
1E
100
AcDbEntity
  8
0
100
AcDbLine
 10
126.5149999999999
 20
180.32598
 30
0.0
 11
127.5439999999999
 21
181.09398
 31
0.0
  0
LINE
  5
153
330
1E
100
AcDbEntity
  8
0
100
AcDbLine
 10
113.1379999999999
 20
177.82198
 30
0.0
 11
116.2349999999999
 21
173.7499799999999
 31
0.0
  0
LINE
  5
158
330
1E
100
AcDbEntity
  8
0
100
AcDbLine
 10
55.9412
 20
173.60298
 30
0.0
 11
58.9412
 21
180.83898
 31
0.0
  0
LINE
  5
159
330
1E
100
AcDbEntity
  8
0
100
AcDbLine
 10
55.9412
 20
203.42698
 30
0.0
 11
58.9412
 21
196.1909799999999
 31
0.0
  0
LINE
  5
15A
330
1E
100
AcDbEntity
  8
0
100
AcDbLine
 10
51.1765
 20
209.69098
 30
0.0
 11
55.9412
 21
203.42698
 31
0.0
  0
LINE
  5
15B
330
1E
100
AcDbEntity
  8
0
100
AcDbLine
 10
127.5439999999999
 20
181.09398
 30
0.0
 11
128.735
 21
181.57198
 31
0.0
  0
LINE
  5
15C
330
1E
100
AcDbEntity
  8
0
100
AcDbLine
 10
128.735
 20
181.57198
 30
0.0
 11
130.0
 21
181.74498
 31
0.0
  0
LINE
  5
161
330
1E
100
AcDbEntity
  8
0
100
AcDbLine
 10
111.1879999999999
 20
182.5249799999999
 30
0.0
 11
113.1379999999999
 21
177.82198
 31
0.0
  0
LINE
  5
162
330
1E
100
AcDbEntity
  8
0
100
AcDbLine
 10
101.059
 20
196.1909799999999
 30
0.0
 11
104.0589999999999
 21
203.42698
 31
0.0
  0
LINE
  5
163
330
1E
100
AcDbEntity
  8
0
100
AcDbLine
 10
100.0
 20
188.51498
 30
0.0
 11
101.059
 21
196.1909799999999
 31
0.0
  0
LINE
  5
164
330
1E
100
AcDbEntity
  8
0
100
AcDbLine
 10
100.0
 20
188.51498
 30
0.0
 11
101.059
 21
180.83898
 31
0.0
  0
LINE
  5
17B
330
1E
100
AcDbEntity
  8
0
100
AcDbLine
 10
125.0
 20
188.51498
 30
0.0
 11
125.0
 21
176.91798
 31
0.0
  0
LINE
  5
182
330
1E
100
AcDbEntity
  8
0
100
AcDbLine
 10
113.1379999999999
 20
197.2079799999999
 30
0.0
 11
116.2349999999999
 21
201.2799799999999
 31
0.0
  0
LINE
  5
183
330
1E
100
AcDbEntity
  8
0
100
AcDbLine
 10
111.1879999999999
 20
192.50498
 30
0.0
 11
113.1379999999999
 21
197.2079799999999
 31
0.0
  0
LINE
  5
184
330
1E
100
AcDbEntity
  8
0
100
AcDbLine
 10
110.4999999999999
 20
187.51498
 30
0.0
 11
111.1879999999999
 21
192.50498
 31
0.0
  0
LINE
  5
185
330
1E
100
AcDbEntity
  8
0
100
AcDbLine
 10
110.4999999999999
 20
187.51498
 30
0.0
 11
111.1879999999999
 21
182.5249799999999
 31
0.0
  0
LINE
  5
186
330
1E
100
AcDbEntity
  8
0
100
AcDbLine
 10
116.2349999999999
 20
201.2799799999999
 30
0.0
 11
120.307
 21
204.37698
 31
0.0
  0
LINE
  5
189
330
1E
100
AcDbEntity
  8
0
100
AcDbLine
 10
104.0589999999999
 20
203.42698
 30
0.0
 11
108.824
 21
209.69098
 31
0.0
  0
LINE
  5
18B
330
1E
100
AcDbEntity
  8
0
100
AcDbLine
 10
120.307
 20
204.37698
 30
0.0
 11
125.0099999999999
 21
206.32698
 31
0.0
  0
LINE
  5
18D
330
1E
100
AcDbEntity
  8
0
100
AcDbLine
 10
125.0099999999999
 20
206.32698
 30
0.0
 11
130.0
 21
207.01498
 31
0.0
  0
LINE
  5
18E
330
1E
100
AcDbEntity
  8
0
100
AcDbLine
 10
108.824
 20
209.69098
 30
0.0
 11
115.0879999999999
 21
214.4559799999999
 31
0.0
  0
LINE
  5
18F
330
1E
100
AcDbEntity
  8
0
100
AcDbLine
 10
122.324
 20
217.4559799999999
 30
0.0
 11
130.0
 21
218.51498
 31
0.0
  0
LINE
  5
190
330
1E
100
AcDbEntity
  8
0
100
AcDbLine
 10
115.0879999999999
 20
214.4559799999999
 30
0.0
 11
122.324
 21
217.4559799999999
 31
0.0
  0
LINE
  5
1A2
330
1E
100
AcDbEntity
  8
0
100
AcDbLine
 10
58.9412
 20
196.1909799999999
 30
0.0
 11
60.0
 21
188.51498
 31
0.0
  0
LINE
  5
1A3
330
1E
100
AcDbEntity
  8
0
100
AcDbLine
 10
58.9412
 20
180.83898
 30
0.0
 11
60.0
 21
188.51498
 31
0.0
  0
LINE
  5
1A4
330
1E
100
AcDbEntity
  8
0
100
AcDbLine
 10
41.0
 20
171.9594375819469
 30
0.0
 11
43.5927
 21
173.9219799999999
 31
0.0
  0
LINE
  5
1A5
330
1E
100
AcDbEntity
  8
0
100
AcDbLine
 10
27.2
 20
199.11498
 30
0.0
 11
30.0
 21
199.51498
 31
0.0
  0
LINE
  5
1AD
330
1E
100
AcDbEntity
  8
0
100
AcDbLine
 10
137.6759999999999
 20
217.4559799999999
 30
0.0
 11
130.0
 21
218.51498
 31
0.0
  0
LINE
  5
1AE
330
1E
100
AcDbEntity
  8
0
100
AcDbLine
 10
134.99
 20
206.32698
 30
0.0
 11
130.0
 21
207.01498
 31
0.0
  0
LINE
  5
1AF
330
1E
100
AcDbEntity
  8
0
100
AcDbLine
 10
131.2649999999999
 20
181.57198
 30
0.0
 11
130.0
 21
181.74498
 31
0.0
  0
LINE
  5
1B0
330
1E
100
AcDbEntity
  8
0
100
AcDbLine
 10
131.2789999999999
 20
172.1669799999999
 30
0.0
 11
130.0
 21
171.9939799999999
 31
0.0
  0
LINE
  5
1B1
330
1E
100
AcDbEntity
  8
0
100
AcDbLine
 10
131.2649999999999
 20
172.21598
 30
0.0
 11
130.0
 21
172.0419799999999
 31
0.0
  0
LINE
  5
1B2
330
1E
100
AcDbEntity
  8
0
100
AcDbLine
 10
134.99
 20
168.7029799999999
 30
0.0
 11
130.0
 21
168.01498
 31
0.0
  0
LINE
  5
1B3
330
1E
100
AcDbEntity
  8
0
100
AcDbLine
 10
137.6759999999999
 20
159.57398
 30
0.0
 11
130.0
 21
158.51498
 31
0.0
  0
LINE
  5
1B4
330
1E
100
AcDbEntity
  8
0
100
AcDbLine
 10
149.5
 20
187.51498
 30
0.0
 11
148.812
 21
182.5249799999999
 31
0.0
  0
LINE
  5
1B5
330
1E
100
AcDbEntity
  8
0
100
AcDbLine
 10
135.0
 20
188.51498
 30
0.0
 11
135.0
 21
176.91798
 31
0.0
  0
LINE
  5
1B6
330
1E
100
AcDbEntity
  8
0
100
AcDbLine
 10
160.0
 20
188.51498
 30
0.0
 11
158.9409999999999
 21
180.83898
 31
0.0
  0
LINE
  5
1B7
330
1E
100
AcDbEntity
  8
0
100
AcDbLine
 10
135.0
 20
176.91798
 30
0.0
 11
135.0
 21
188.51498
 31
0.0
  0
LINE
  5
1B8
330
1E
100
AcDbEntity
  8
0
100
AcDbLine
 10
155.9409999999999
 20
173.60298
 30
0.0
 11
151.1759999999999
 21
167.3389799999999
 31
0.0
  0
LINE
  5
1B9
330
1E
100
AcDbEntity
  8
0
100
AcDbLine
 10
158.9409999999999
 20
180.83898
 30
0.0
 11
155.9409999999999
 21
173.60298
 31
0.0
  0
LINE
  5
1BA
330
1E
100
AcDbEntity
  8
0
100
AcDbLine
 10
143.7649999999999
 20
173.7499799999999
 30
0.0
 11
139.6929999999999
 21
170.65298
 31
0.0
  0
LINE
  5
1BB
330
1E
100
AcDbEntity
  8
0
100
AcDbLine
 10
144.912
 20
162.57398
 30
0.0
 11
137.6759999999999
 21
159.57398
 31
0.0
  0
LINE
  5
1BC
330
1E
100
AcDbEntity
  8
0
100
AcDbLine
 10
151.1759999999999
 20
167.3389799999999
 30
0.0
 11
144.912
 21
162.57398
 31
0.0
  0
LINE
  5
1BD
330
1E
100
AcDbEntity
  8
0
100
AcDbLine
 10
148.812
 20
182.5249799999999
 30
0.0
 11
146.862
 21
177.82198
 31
0.0
  0
LINE
  5
1BE
330
1E
100
AcDbEntity
  8
0
100
AcDbLine
 10
146.862
 20
177.82198
 30
0.0
 11
143.7649999999999
 21
173.7499799999999
 31
0.0
  0
LINE
  5
1BF
330
1E
100
AcDbEntity
  8
0
100
AcDbLine
 10
139.6929999999999
 20
170.65298
 30
0.0
 11
134.99
 21
168.7029799999999
 31
0.0
  0
LINE
  5
1C0
330
1E
100
AcDbEntity
  8
0
100
AcDbLine
 10
134.824
 20
175.65798
 30
0.0
 11
134.324
 21
174.46998
 31
0.0
  0
LINE
  5
1C1
330
1E
100
AcDbEntity
  8
0
100
AcDbLine
 10
134.7499999999999
 20
175.64798
 30
0.0
 11
134.2649999999999
 21
174.47498
 31
0.0
  0
LINE
  5
1C2
330
1E
100
AcDbEntity
  8
0
100
AcDbLine
 10
133.529
 20
173.4419799999999
 30
0.0
 11
132.485
 21
172.65998
 31
0.0
  0
LINE
  5
1C3
330
1E
100
AcDbEntity
  8
0
100
AcDbLine
 10
133.485
 20
173.46098
 30
0.0
 11
132.456
 21
172.69398
 31
0.0
  0
LINE
  5
1C4
330
1E
100
AcDbEntity
  8
0
100
AcDbLine
 10
134.2649999999999
 20
174.47498
 30
0.0
 11
133.485
 21
173.46098
 31
0.0
  0
LINE
  5
1C5
330
1E
100
AcDbEntity
  8
0
100
AcDbLine
 10
134.324
 20
174.46998
 30
0.0
 11
133.529
 21
173.4419799999999
 31
0.0
  0
LINE
  5
1C6
330
1E
100
AcDbEntity
  8
0
100
AcDbLine
 10
132.485
 20
172.65998
 30
0.0
 11
131.2789999999999
 21
172.1669799999999
 31
0.0
  0
LINE
  5
1C7
330
1E
100
AcDbEntity
  8
0
100
AcDbLine
 10
132.456
 20
172.69398
 30
0.0
 11
131.2649999999999
 21
172.21598
 31
0.0
  0
LINE
  5
1C8
330
1E
100
AcDbEntity
  8
0
100
AcDbLine
 10
133.485
 20
180.32598
 30
0.0
 11
132.456
 21
181.09398
 31
0.0
  0
LINE
  5
1C9
330
1E
100
AcDbEntity
  8
0
100
AcDbLine
 10
134.7499999999999
 20
178.13898
 30
0.0
 11
134.2649999999999
 21
179.31198
 31
0.0
  0
LINE
  5
1CA
330
1E
100
AcDbEntity
  8
0
100
AcDbLine
 10
134.9259999999999
 20
176.89398
 30
0.0
 11
134.7499999999999
 21
175.64798
 31
0.0
  0
LINE
  5
1CB
330
1E
100
AcDbEntity
  8
0
100
AcDbLine
 10
134.9259999999999
 20
176.89398
 30
0.0
 11
134.7499999999999
 21
178.13898
 31
0.0
  0
LINE
  5
1CC
330
1E
100
AcDbEntity
  8
0
100
AcDbLine
 10
135.0
 20
176.91798
 30
0.0
 11
134.824
 21
175.65798
 31
0.0
  0
LINE
  5
1CD
330
1E
100
AcDbEntity
  8
0
100
AcDbLine
 10
134.2649999999999
 20
179.31198
 30
0.0
 11
133.485
 21
180.32598
 31
0.0
  0
LINE
  5
1CE
330
1E
100
AcDbEntity
  8
0
100
AcDbLine
 10
132.456
 20
181.09398
 30
0.0
 11
131.2649999999999
 21
181.57198
 31
0.0
  0
LINE
  5
1CF
330
1E
100
AcDbEntity
  8
0
100
AcDbLine
 10
155.9409999999999
 20
203.42698
 30
0.0
 11
151.1759999999999
 21
209.69098
 31
0.0
  0
LINE
  5
1D0
330
1E
100
AcDbEntity
  8
0
100
AcDbLine
 10
158.9409999999999
 20
196.1909799999999
 30
0.0
 11
155.9409999999999
 21
203.42698
 31
0.0
  0
LINE
  5
1D1
330
1E
100
AcDbEntity
  8
0
100
AcDbLine
 10
160.0
 20
188.51498
 30
0.0
 11
158.9409999999999
 21
196.1909799999999
 31
0.0
  0
LINE
  5
1D2
330
1E
100
AcDbEntity
  8
0
100
AcDbLine
 10
144.912
 20
214.4559799999999
 30
0.0
 11
137.6759999999999
 21
217.4559799999999
 31
0.0
  0
LINE
  5
1D3
330
1E
100
AcDbEntity
  8
0
100
AcDbLine
 10
143.7649999999999
 20
201.2799799999999
 30
0.0
 11
139.6929999999999
 21
204.37698
 31
0.0
  0
LINE
  5
1D4
330
1E
100
AcDbEntity
  8
0
100
AcDbLine
 10
146.862
 20
197.2079799999999
 30
0.0
 11
143.7649999999999
 21
201.2799799999999
 31
0.0
  0
LINE
  5
1D5
330
1E
100
AcDbEntity
  8
0
100
AcDbLine
 10
148.812
 20
192.50498
 30
0.0
 11
146.862
 21
197.2079799999999
 31
0.0
  0
LINE
  5
1D6
330
1E
100
AcDbEntity
  8
0
100
AcDbLine
 10
149.5
 20
187.51498
 30
0.0
 11
148.812
 21
192.50498
 31
0.0
  0
LINE
  5
1D7
330
1E
100
AcDbEntity
  8
0
100
AcDbLine
 10
151.1759999999999
 20
209.69098
 30
0.0
 11
144.912
 21
214.4559799999999
 31
0.0
  0
LINE
  5
1D8
330
1E
100
AcDbEntity
  8
0
100
AcDbLine
 10
139.6929999999999
 20
204.37698
 30
0.0
 11
134.99
 21
206.32698
 31
0.0
  0
ENDSEC
  0
SECTION
  2
OBJECTS
  0
DICTIONARY
  5
C
330
0
100
AcDbDictionary
281
     1
  3
ACAD_GROUP
350
D
  3
ACAD_LAYOUT
350
19
  3
ACAD_MLINESTYLE
350
16
  3
ACAD_PLOTSETTINGS
350
18
  3
ACAD_PLOTSTYLENAME
350
E
  3
AcDbVariableDictionary
350
1AB
  0
DICTIONARY
  5
D
102
{ACAD_REACTORS
330
C
102
}
330
C
100
AcDbDictionary
281
     1
  0
DICTIONARY
  5
19
102
{ACAD_REACTORS
330
C
102
}
330
C
100
AcDbDictionary
281
     1
  3
Layout1
350
1D
  3
Model
350
21
  0
DICTIONARY
  5
16
102
{ACAD_REACTORS
330
C
102
}
330
C
100
AcDbDictionary
281
     1
  3
Standard
350
17
  0
DICTIONARY
  5
18
102
{ACAD_REACTORS
330
C
102
}
330
C
100
AcDbDictionary
281
     1
  0
ACDBDICTIONARYWDFLT
  5
E
102
{ACAD_REACTORS
330
C
102
}
330
C
100
AcDbDictionary
281
     1
  3
Normal
350
F
100
AcDbDictionaryWithDefault
340
F
  0
DICTIONARY
  5
1AB
102
{ACAD_REACTORS
330
C
102
}
330
C
100
AcDbDictionary
281
     1
  3
DIMASSOC
350
1AC
  0
LAYOUT
  5
1D
102
{ACAD_REACTORS
330
19
102
}
330
19
100
AcDbPlotSettings
  1

  2
C:\Programme\AutoCAD LT 2002 Deu2\plotters\DWF ePlot (optimized for plotting).pc3
  4

  6

 40
0.0
 41
0.0
 42
0.0
 43
0.0
 44
0.0
 45
0.0
 46
0.0
 47
0.0
 48
0.0
 49
0.0
140
0.0
141
0.0
142
1.0
143
1.0
 70
   688
 72
     0
 73
     0
 74
     5
  7

 75
    16
147
1.0
148
0.0
149
0.0
100
AcDbLayout
  1
Layout1
 70
     1
 71
     1
 10
0.0
 20
0.0
 11
12.0
 21
9.0
 12
0.0
 22
0.0
 32
0.0
 14
1.000000000000000E+20
 24
1.000000000000000E+20
 34
1.000000000000000E+20
 15
-1.000000000000000E+20
 25
-1.000000000000000E+20
 35
-1.000000000000000E+20
146
0.0
 13
0.0
 23
0.0
 33
0.0
 16
1.0
 26
0.0
 36
0.0
 17
0.0
 27
1.0
 37
0.0
 76
     0
330
1A
  0
LAYOUT
  5
21
102
{ACAD_REACTORS
330
19
102
}
330
19
100
AcDbPlotSettings
  1

  2
C:\Programme\AutoCAD LT 2002 Deu2\plotters\DWF ePlot (optimized for plotting).pc3
  4

  6

 40
0.0
 41
0.0
 42
0.0
 43
0.0
 44
0.0
 45
0.0
 46
0.0
 47
0.0
 48
0.0
 49
0.0
140
0.0
141
0.0
142
1.0
143
1.0
 70
  1712
 72
     0
 73
     0
 74
     0
  7

 75
     0
147
1.0
148
0.0
149
0.0
100
AcDbLayout
  1
Model
 70
     1
 71
     0
 10
0.0
 20
0.0
 11
12.0
 21
9.0
 12
0.0
 22
0.0
 32
0.0
 14
0.0
 24
0.0
 34
0.0
 15
0.0
 25
0.0
 35
0.0
146
0.0
 13
0.0
 23
0.0
 33
0.0
 16
1.0
 26
0.0
 36
0.0
 17
0.0
 27
1.0
 37
0.0
 76
     0
330
1E
  0
MLINESTYLE
  5
17
102
{ACAD_REACTORS
330
16
102
}
330
16
100
AcDbMlineStyle
  2
STANDARD
 70
     0
  3

 62
   256
 51
90.0
 52
90.0
 71
     2
 49
0.5
 62
   256
  6
BYLAYER
 49
-0.5
 62
   256
  6
BYLAYER
  0
ACDBPLACEHOLDER
  5
F
102
{ACAD_REACTORS
330
E
102
}
330
E
  0
DICTIONARYVAR
  5
1AC
102
{ACAD_REACTORS
330
1AB
102
}
330
1AB
100
DictionaryVariables
280
     0
  1
1
  0
ENDSEC
  0
EOF
