  0
SECTION
  2
HEADER
  9
$ACADVER
  1
AC1015
  9
$ACADMAINTVER
 70
    13
  9
$DWGCODEPAGE
  3
ANSI_1252
  9
$INSBASE
 10
0.0
 20
0.0
 30
0.0
  9
$EXTMIN
 10
0.0000000000000004
 20
-0.0000000000000067
 30
0.0
  9
$EXTMAX
 10
58.0
 20
174.0
 30
0.0
  9
$LIMMIN
 10
0.0
 20
0.0
  9
$LIMMAX
 10
12.0
 20
9.0
  9
$ORTHOMODE
 70
     0
  9
$REGENMODE
 70
     1
  9
$FILLMODE
 70
     1
  9
$QTEXTMODE
 70
     0
  9
$MIRRTEXT
 70
     1
  9
$LTSCALE
 40
1.0
  9
$ATTMODE
 70
     1
  9
$TEXTSIZE
 40
0.2
  9
$TRACEWID
 40
0.05
  9
$TEXTSTYLE
  7
Standard
  9
$CLAYER
  8
0
  9
$CELTYPE
  6
Continuous
  9
$CECOLOR
 62
   256
  9
$CELTSCALE
 40
1.0
  9
$DISPSILH
 70
     0
  9
$DIMSCALE
 40
1.0
  9
$DIMASZ
 40
0.18
  9
$DIMEXO
 40
0.0625
  9
$DIMDLI
 40
0.38
  9
$DIMRND
 40
0.0
  9
$DIMDLE
 40
0.0
  9
$DIMEXE
 40
0.18
  9
$DIMTP
 40
0.0
  9
$DIMTM
 40
0.0
  9
$DIMTXT
 40
0.18
  9
$DIMCEN
 40
0.09
  9
$DIMTSZ
 40
0.0
  9
$DIMTOL
 70
     0
  9
$DIMLIM
 70
     0
  9
$DIMTIH
 70
     1
  9
$DIMTOH
 70
     1
  9
$DIMSE1
 70
     0
  9
$DIMSE2
 70
     0
  9
$DIMTAD
 70
     0
  9
$DIMZIN
 70
     0
  9
$DIMBLK
  1

  9
$DIMASO
 70
     1
  9
$DIMSHO
 70
     1
  9
$DIMPOST
  1

  9
$DIMAPOST
  1

  9
$DIMALT
 70
     0
  9
$DIMALTD
 70
     2
  9
$DIMALTF
 40
25.4
  9
$DIMLFAC
 40
1.0
  9
$DIMTOFL
 70
     0
  9
$DIMTVP
 40
0.0
  9
$DIMTIX
 70
     0
  9
$DIMSOXD
 70
     0
  9
$DIMSAH
 70
     0
  9
$DIMBLK1
  1

  9
$DIMBLK2
  1

  9
$DIMSTYLE
  2
Standard
  9
$DIMCLRD
 70
     0
  9
$DIMCLRE
 70
     0
  9
$DIMCLRT
 70
     0
  9
$DIMTFAC
 40
1.0
  9
$DIMGAP
 40
0.09
  9
$DIMJUST
 70
     0
  9
$DIMSD1
 70
     0
  9
$DIMSD2
 70
     0
  9
$DIMTOLJ
 70
     1
  9
$DIMTZIN
 70
     0
  9
$DIMALTZ
 70
     0
  9
$DIMALTTZ
 70
     0
  9
$DIMUPT
 70
     0
  9
$DIMDEC
 70
     4
  9
$DIMTDEC
 70
     4
  9
$DIMALTU
 70
     2
  9
$DIMALTTD
 70
     2
  9
$DIMTXSTY
  7
Standard
  9
$DIMAUNIT
 70
     0
  9
$DIMADEC
 70
     0
  9
$DIMALTRND
 40
0.0
  9
$DIMAZIN
 70
     0
  9
$DIMDSEP
 70
    46
  9
$DIMATFIT
 70
     3
  9
$DIMFRAC
 70
     0
  9
$DIMLDRBLK
  1

  9
$DIMLUNIT
 70
     2
  9
$DIMLWD
 70
    -2
  9
$DIMLWE
 70
    -2
  9
$DIMTMOVE
 70
     0
  9
$LUNITS
 70
     2
  9
$LUPREC
 70
     4
  9
$SKETCHINC
 40
0.1
  9
$FILLETRAD
 40
0.0
  9
$AUNITS
 70
     0
  9
$AUPREC
 70
     0
  9
$MENU
  1
.
  9
$ELEVATION
 40
0.0
  9
$PELEVATION
 40
0.0
  9
$THICKNESS
 40
0.0
  9
$LIMCHECK
 70
     0
  9
$CHAMFERA
 40
0.0
  9
$CHAMFERB
 40
0.0
  9
$CHAMFERC
 40
0.0
  9
$CHAMFERD
 40
0.0
  9
$SKPOLY
 70
     0
  9
$TDCREATE
 40
2454751.617571250
  9
$TDUCREATE
 40
2454751.534237916
  9
$TDUPDATE
 40
2454751.624161053
  9
$TDUUPDATE
 40
2454751.540827720
  9
$TDINDWG
 40
0.0065899884
  9
$TDUSRTIMER
 40
0.0065899884
  9
$USRTIMER
 70
     1
  9
$ANGBASE
 50
0.0
  9
$ANGDIR
 70
     0
  9
$PDMODE
 70
     0
  9
$PDSIZE
 40
0.0
  9
$PLINEWID
 40
0.0
  9
$SPLFRAME
 70
     0
  9
$SPLINETYPE
 70
     6
  9
$SPLINESEGS
 70
     8
  9
$HANDSEED
  5
2F4
  9
$SURFTAB1
 70
     6
  9
$SURFTAB2
 70
     6
  9
$SURFTYPE
 70
     6
  9
$SURFU
 70
     6
  9
$SURFV
 70
     6
  9
$UCSBASE
  2

  9
$UCSNAME
  2

  9
$UCSORG
 10
0.0
 20
0.0
 30
0.0
  9
$UCSXDIR
 10
1.0
 20
0.0
 30
0.0
  9
$UCSYDIR
 10
0.0
 20
1.0
 30
0.0
  9
$UCSORTHOREF
  2

  9
$UCSORTHOVIEW
 70
     1
  9
$UCSORGTOP
 10
0.0
 20
0.0
 30
0.0
  9
$UCSORGBOTTOM
 10
0.0
 20
0.0
 30
0.0
  9
$UCSORGLEFT
 10
0.0
 20
0.0
 30
0.0
  9
$UCSORGRIGHT
 10
0.0
 20
0.0
 30
0.0
  9
$UCSORGFRONT
 10
0.0
 20
0.0
 30
0.0
  9
$UCSORGBACK
 10
0.0
 20
0.0
 30
0.0
  9
$PUCSBASE
  2

  9
$PUCSNAME
  2

  9
$PUCSORG
 10
0.0
 20
0.0
 30
0.0
  9
$PUCSXDIR
 10
1.0
 20
0.0
 30
0.0
  9
$PUCSYDIR
 10
0.0
 20
1.0
 30
0.0
  9
$PUCSORTHOREF
  2

  9
$PUCSORTHOVIEW
 70
     0
  9
$PUCSORGTOP
 10
0.0
 20
0.0
 30
0.0
  9
$PUCSORGBOTTOM
 10
0.0
 20
0.0
 30
0.0
  9
$PUCSORGLEFT
 10
0.0
 20
0.0
 30
0.0
  9
$PUCSORGRIGHT
 10
0.0
 20
0.0
 30
0.0
  9
$PUCSORGFRONT
 10
0.0
 20
0.0
 30
0.0
  9
$PUCSORGBACK
 10
0.0
 20
0.0
 30
0.0
  9
$USERI1
 70
     0
  9
$USERI2
 70
     0
  9
$USERI3
 70
     0
  9
$USERI4
 70
     0
  9
$USERI5
 70
     0
  9
$USERR1
 40
0.0
  9
$USERR2
 40
0.0
  9
$USERR3
 40
0.0
  9
$USERR4
 40
0.0
  9
$USERR5
 40
0.0
  9
$WORLDVIEW
 70
     1
  9
$SHADEDGE
 70
     3
  9
$SHADEDIF
 70
    70
  9
$TILEMODE
 70
     1
  9
$MAXACTVP
 70
    64
  9
$PINSBASE
 10
0.0
 20
0.0
 30
0.0
  9
$PLIMCHECK
 70
     0
  9
$PEXTMIN
 10
1.000000000000000E+20
 20
1.000000000000000E+20
 30
1.000000000000000E+20
  9
$PEXTMAX
 10
-1.000000000000000E+20
 20
-1.000000000000000E+20
 30
-1.000000000000000E+20
  9
$PLIMMIN
 10
0.0
 20
0.0
  9
$PLIMMAX
 10
12.0
 20
9.0
  9
$UNITMODE
 70
     0
  9
$VISRETAIN
 70
     1
  9
$PLINEGEN
 70
     0
  9
$PSLTSCALE
 70
     1
  9
$TREEDEPTH
 70
  3020
  9
$CMLSTYLE
  2
Standard
  9
$CMLJUST
 70
     0
  9
$CMLSCALE
 40
1.0
  9
$PROXYGRAPHICS
 70
     1
  9
$MEASUREMENT
 70
     0
  9
$CELWEIGHT
370
    -1
  9
$ENDCAPS
280
     0
  9
$JOINSTYLE
280
     0
  9
$LWDISPLAY
290
     0
  9
$INSUNITS
 70
     0
  9
$HYPERLINKBASE
  1

  9
$STYLESHEET
  1

  9
$XEDIT
290
     1
  9
$CEPSNTYPE
380
     0
  9
$PSTYLEMODE
290
     1
  9
$FINGERPRINTGUID
  2
{85948185-BA95-4825-AC09-7169AB3D88AA}
  9
$VERSIONGUID
  2
{B0233A7B-2762-4D2F-A23F-148E39BCBD1C}
  9
$EXTNAMES
290
     1
  9
$PSVPSCALE
 40
0.0
  9
$OLESTARTUP
290
     0
  0
ENDSEC
  0
SECTION
  2
CLASSES
  0
CLASS
  1
ACDBDICTIONARYWDFLT
  2
AcDbDictionaryWithDefault
  3
AutoCAD 2000
 90
        0
280
     0
281
     0
  0
CLASS
  1
ACDBPLACEHOLDER
  2
AcDbPlaceHolder
  3
AutoCAD 2000
 90
        0
280
     0
281
     0
  0
CLASS
  1
LAYOUT
  2
AcDbLayout
  3
AutoCAD 2000
 90
        0
280
     0
281
     0
  0
CLASS
  1
DICTIONARYVAR
  2
AcDbDictionaryVar
  3
AutoCAD 2000
 90
        0
280
     0
281
     0
  0
ENDSEC
  0
SECTION
  2
TABLES
  0
TABLE
  2
VPORT
  5
8
330
0
100
AcDbSymbolTable
 70
     2
  0
VPORT
  5
2F3
330
8
100
AcDbSymbolTableRecord
100
AcDbViewportTableRecord
  2
*Active
 70
     0
 10
0.0
 20
0.0
 11
1.0
 21
1.0
 12
29.0
 22
87.0
 13
0.0
 23
0.0
 14
1.0
 24
1.0
 15
0.0
 25
0.0
 16
0.0
 26
0.0
 36
1.0
 17
0.0
 27
0.0
 37
0.0
 40
175.3350383631713
 41
2.078104993597951
 42
50.0
 43
0.0
 44
0.0
 50
0.0
 51
0.0
 71
     0
 72
   100
 73
     1
 74
     3
 75
     0
 76
     0
 77
     0
 78
     0
281
     0
 65
     1
110
0.0
120
0.0
130
0.0
111
1.0
121
0.0
131
0.0
112
0.0
122
1.0
132
0.0
 79
     1
146
0.0
  0
ENDTAB
  0
TABLE
  2
LTYPE
  5
5
330
0
100
AcDbSymbolTable
 70
     1
  0
LTYPE
  5
13
330
5
100
AcDbSymbolTableRecord
100
AcDbLinetypeTableRecord
  2
ByBlock
 70
     0
  3

 72
    65
 73
     0
 40
0.0
  0
LTYPE
  5
14
330
5
100
AcDbSymbolTableRecord
100
AcDbLinetypeTableRecord
  2
ByLayer
 70
     0
  3

 72
    65
 73
     0
 40
0.0
  0
LTYPE
  5
15
330
5
100
AcDbSymbolTableRecord
100
AcDbLinetypeTableRecord
  2
Continuous
 70
     0
  3
Solid line
 72
    65
 73
     0
 40
0.0
  0
ENDTAB
  0
TABLE
  2
LAYER
  5
2
330
0
100
AcDbSymbolTable
 70
     1
  0
LAYER
  5
10
330
2
100
AcDbSymbolTableRecord
100
AcDbLayerTableRecord
  2
0
 70
     0
 62
     7
  6
Continuous
370
    -3
390
F
  0
ENDTAB
  0
TABLE
  2
STYLE
  5
3
330
0
100
AcDbSymbolTable
 70
     1
  0
STYLE
  5
11
330
3
100
AcDbSymbolTableRecord
100
AcDbTextStyleTableRecord
  2
Standard
 70
     0
 40
0.0
 41
1.0
 50
0.0
 71
     0
 42
0.2
  3
txt
  4

  0
ENDTAB
  0
TABLE
  2
VIEW
  5
6
330
0
100
AcDbSymbolTable
 70
     0
  0
ENDTAB
  0
TABLE
  2
UCS
  5
7
330
0
100
AcDbSymbolTable
 70
     0
  0
ENDTAB
  0
TABLE
  2
APPID
  5
9
330
0
100
AcDbSymbolTable
 70
     1
  0
APPID
  5
12
330
9
100
AcDbSymbolTableRecord
100
AcDbRegAppTableRecord
  2
ACAD
 70
     0
  0
ENDTAB
  0
TABLE
  2
DIMSTYLE
  5
A
330
0
100
AcDbSymbolTable
 70
     1
100
AcDbDimStyleTable
 71
     0
  0
DIMSTYLE
105
2EC
330
A
100
AcDbSymbolTableRecord
100
AcDbDimStyleTableRecord
  2
Standard
 70
     0
340
11
  0
ENDTAB
  0
TABLE
  2
BLOCK_RECORD
  5
1
330
0
100
AcDbSymbolTable
 70
     0
  0
BLOCK_RECORD
  5
1E
330
1
100
AcDbSymbolTableRecord
100
AcDbBlockTableRecord
  2
*Model_Space
340
21
  0
BLOCK_RECORD
  5
1A
330
1
100
AcDbSymbolTableRecord
100
AcDbBlockTableRecord
  2
*Paper_Space
340
1D
  0
ENDTAB
  0
ENDSEC
  0
SECTION
  2
BLOCKS
  0
BLOCK
  5
1F
330
1E
100
AcDbEntity
  8
0
100
AcDbBlockBegin
  2
*Model_Space
 70
     0
 10
0.0
 20
0.0
 30
0.0
  3
*Model_Space
  1

  0
ENDBLK
  5
20
330
1E
100
AcDbEntity
  8
0
100
AcDbBlockEnd
  0
BLOCK
  5
1B
330
1A
100
AcDbEntity
 67
     1
  8
0
100
AcDbBlockBegin
  2
*Paper_Space
 70
     0
 10
0.0
 20
0.0
 30
0.0
  3
*Paper_Space
  1

  0
ENDBLK
  5
1C
330
1A
100
AcDbEntity
 67
     1
  8
0
100
AcDbBlockEnd
  0
ENDSEC
  0
SECTION
  2
ENTITIES
  0
LINE
  5
22
330
1E
100
AcDbEntity
  8
0
100
AcDbLine
 10
7.299999999999999
 20
-0.0000000000000059
 30
0.0
 11
11.4
 21
-0.0000000000000062
 31
0.0
  0
LINE
  5
23
330
1E
100
AcDbEntity
  8
0
100
AcDbLine
 10
4.9
 20
-0.0000000000000056
 30
0.0
 11
7.299999999999999
 21
-0.0000000000000059
 31
0.0
  0
LINE
  5
24
330
1E
100
AcDbEntity
  8
0
100
AcDbLine
 10
4.0
 20
-0.0000000000000051
 30
0.0
 11
4.5
 21
1.499999999999989
 31
0.0
  0
LINE
  5
25
330
1E
100
AcDbEntity
  8
0
100
AcDbLine
 10
7.299999999999999
 20
-0.0000000000000044
 30
0.0
 11
11.4
 21
-0.0000000000000041
 31
0.0
  0
LINE
  5
26
330
1E
100
AcDbEntity
  8
0
100
AcDbLine
 10
4.9
 20
-0.0000000000000048
 30
0.0
 11
7.299999999999999
 21
-0.0000000000000044
 31
0.0
  0
LINE
  5
27
330
1E
100
AcDbEntity
  8
0
100
AcDbLine
 10
4.0
 20
-0.0000000000000052
 30
0.0
 11
4.9
 21
-0.0000000000000056
 31
0.0
  0
LINE
  5
28
330
1E
100
AcDbEntity
  8
0
100
AcDbLine
 10
4.0
 20
-0.0000000000000052
 30
0.0
 11
4.5
 21
1.499999999999989
 31
0.0
  0
LINE
  5
29
330
1E
100
AcDbEntity
  8
0
100
AcDbLine
 10
4.0
 20
-0.0000000000000052
 30
0.0
 11
4.9
 21
-0.0000000000000048
 31
0.0
  0
LINE
  5
2A
330
1E
100
AcDbEntity
  8
0
100
AcDbLine
 10
11.4
 20
-0.0000000000000062
 30
0.0
 11
16.6
 21
-0.0000000000000065
 31
0.0
  0
LINE
  5
2B
330
1E
100
AcDbEntity
  8
0
100
AcDbLine
 10
11.5
 20
14.0
 30
0.0
 11
12.0
 21
15.0
 31
0.0
  0
LINE
  5
2C
330
1E
100
AcDbEntity
  8
0
100
AcDbLine
 10
11.5
 20
14.0
 30
0.0
 11
11.5
 21
13.5
 31
0.0
  0
LINE
  5
2D
330
1E
100
AcDbEntity
  8
0
100
AcDbLine
 10
12.0
 20
68.0
 30
0.0
 11
12.5
 21
66.5
 31
0.0
  0
LINE
  5
2E
330
1E
100
AcDbEntity
  8
0
100
AcDbLine
 10
12.0
 20
68.0
 30
0.0
 11
12.5
 21
69.5
 31
0.0
  0
LINE
  5
30
330
1E
100
AcDbEntity
  8
0
100
AcDbLine
 10
12.0
 20
15.0
 30
0.0
 11
13.0
 21
15.5
 31
0.0
  0
LINE
  5
31
330
1E
100
AcDbEntity
  8
0
100
AcDbLine
 10
12.0
 20
15.0
 30
0.0
 11
12.6
 21
15.0
 31
0.0
  0
LINE
  5
32
330
1E
100
AcDbEntity
  8
0
100
AcDbLine
 10
11.5
 20
13.5
 30
0.0
 11
12.0
 21
12.5
 31
0.0
  0
LINE
  5
33
330
1E
100
AcDbEntity
  8
0
100
AcDbLine
 10
11.5
 20
13.5
 30
0.0
 11
11.5
 21
14.0
 31
0.0
  0
LINE
  5
34
330
1E
100
AcDbEntity
  8
0
100
AcDbLine
 10
12.0
 20
12.5
 30
0.0
 11
12.19999999999999
 21
11.4
 31
0.0
  0
LINE
  5
35
330
1E
100
AcDbEntity
  8
0
100
AcDbLine
 10
12.6
 20
15.0
 30
0.0
 11
45.4
 21
15.0
 31
0.0
  0
LINE
  5
36
330
1E
100
AcDbEntity
  8
0
100
AcDbLine
 10
12.5
 20
69.5
 30
0.0
 11
14.0
 21
70.0
 31
0.0
  0
LINE
  5
37
330
1E
100
AcDbEntity
  8
0
100
AcDbLine
 10
12.5
 20
69.5
 30
0.0
 11
13.1
 21
69.5
 31
0.0
  0
LINE
  5
38
330
1E
100
AcDbEntity
  8
0
100
AcDbLine
 10
13.1
 20
69.5
 30
0.0
 11
14.69999999999999
 21
69.5
 31
0.0
  0
LINE
  5
3A
330
1E
100
AcDbEntity
  8
0
100
AcDbLine
 10
13.1
 20
66.5
 30
0.0
 11
14.69999999999999
 21
66.5
 31
0.0
  0
LINE
  5
3B
330
1E
100
AcDbEntity
  8
0
100
AcDbLine
 10
12.5
 20
66.5
 30
0.0
 11
13.5
 21
66.0
 31
0.0
  0
LINE
  5
3C
330
1E
100
AcDbEntity
  8
0
100
AcDbLine
 10
12.5
 20
66.5
 30
0.0
 11
13.1
 21
66.5
 31
0.0
  0
LINE
  5
3D
330
1E
100
AcDbEntity
  8
0
100
AcDbLine
 10
13.0
 20
15.5
 30
0.0
 11
13.5
 21
16.0
 31
0.0
  0
LINE
  5
3E
330
1E
100
AcDbEntity
  8
0
100
AcDbLine
 10
12.0
 20
9.999999999999991
 30
0.0
 11
12.19999999999999
 21
11.4
 31
0.0
  0
LINE
  5
3F
330
1E
100
AcDbEntity
  8
0
100
AcDbLine
 10
11.0
 20
6.99999999999999
 30
0.0
 11
12.0
 21
9.999999999999991
 31
0.0
  0
LINE
  5
40
330
1E
100
AcDbEntity
  8
0
100
AcDbLine
 10
9.0
 20
3.99999999999999
 30
0.0
 11
11.0
 21
6.99999999999999
 31
0.0
  0
LINE
  5
41
330
1E
100
AcDbEntity
  8
0
100
AcDbLine
 10
5.5
 20
2.49999999999999
 30
0.0
 11
9.0
 21
3.99999999999999
 31
0.0
  0
LINE
  5
42
330
1E
100
AcDbEntity
  8
0
100
AcDbLine
 10
4.5
 20
1.499999999999989
 30
0.0
 11
5.5
 21
2.49999999999999
 31
0.0
  0
LINE
  5
43
330
1E
100
AcDbEntity
  8
0
100
AcDbLine
 10
11.4
 20
-0.0000000000000041
 30
0.0
 11
16.6
 21
-0.0000000000000038
 31
0.0
  0
LINE
  5
44
330
1E
100
AcDbEntity
  8
0
100
AcDbLine
 10
13.5
 20
66.0
 30
0.0
 11
14.0
 21
64.5
 31
0.0
  0
LINE
  5
45
330
1E
100
AcDbEntity
  8
0
100
AcDbLine
 10
13.5
 20
66.0
 30
0.0
 11
14.1
 21
66.0
 31
0.0
  0
LINE
  5
46
330
1E
100
AcDbEntity
  8
0
100
AcDbLine
 10
13.5
 20
16.0
 30
0.0
 11
14.0
 21
18.0
 31
0.0
  0
LINE
  5
47
330
1E
100
AcDbEntity
  8
0
100
AcDbLine
 10
13.1
 20
117.5
 30
0.0
 11
14.69999999999999
 21
117.5
 31
0.0
  0
LINE
  5
49
330
1E
100
AcDbEntity
  8
0
100
AcDbLine
 10
0.875370000000001
 20
163.9559999999999
 30
0.0
 11
1.52918
 21
163.187
 31
0.0
  0
LINE
  5
4A
330
1E
100
AcDbEntity
  8
0
100
AcDbLine
 10
0.356166
 20
165.071
 30
0.0
 11
0.875370000000001
 21
163.9559999999999
 31
0.0
  0
LINE
  5
4B
330
1E
100
AcDbEntity
  8
0
100
AcDbLine
 10
4.1252
 20
162.092
 30
0.0
 11
6.022909999999999
 21
162.212
 31
0.0
  0
LINE
  5
4C
330
1E
100
AcDbEntity
  8
0
100
AcDbLine
 10
5.33992902240279
 20
162.168812306774
 30
0.0
 11
5.896419999999999
 21
162.1929999999999
 31
0.0
  0
LINE
  5
4E
330
1E
100
AcDbEntity
  8
0
100
AcDbLine
 10
2.62528
 20
162.476
 30
0.0
 11
4.1252
 21
162.092
 31
0.0
  0
LINE
  5
4F
330
1E
100
AcDbEntity
  8
0
100
AcDbLine
 10
5.896419999999999
 20
162.1929999999999
 30
0.0
 11
6.536247964666559
 21
162.273727678619
 31
0.0
  0
LINE
  5
50
330
1E
100
AcDbEntity
  8
0
100
AcDbLine
 10
9.998039999999999
 20
162.69
 30
0.0
 11
13.5421
 21
163.217
 31
0.0
  0
LINE
  5
51
330
1E
100
AcDbEntity
  8
0
100
AcDbLine
 10
6.022909999999999
 20
162.212
 30
0.0
 11
9.998039999999999
 21
162.69
 31
0.0
  0
LINE
  5
52
330
1E
100
AcDbEntity
  8
0
100
AcDbLine
 10
3.73734029355485
 20
162.19129738071
 30
0.0
 11
4.00983
 21
162.1109999999999
 31
0.0
  0
LINE
  5
53
330
1E
100
AcDbEntity
  8
0
100
AcDbLine
 10
1.52918
 20
163.187
 30
0.0
 11
2.62528
 21
162.476
 31
0.0
  0
LINE
  5
55
330
1E
100
AcDbEntity
  8
0
100
AcDbLine
 10
1.282888916557759
 20
163.476683307333
 30
0.0
 11
1.43303
 21
163.283
 31
0.0
  0
LINE
  5
57
330
1E
100
AcDbEntity
  8
0
100
AcDbLine
 10
0.875370000000001
 20
172.044
 30
0.0
 11
1.52918
 21
172.8129999999999
 31
0.0
  0
LINE
  5
58
330
1E
100
AcDbEntity
  8
0
100
AcDbLine
 10
0.356166
 20
170.929
 30
0.0
 11
0.875370000000001
 21
172.044
 31
0.0
  0
LINE
  5
5B
330
1E
100
AcDbEntity
  8
0
100
AcDbLine
 10
2.62528
 20
173.524
 30
0.0
 11
4.1252
 21
173.9079999999999
 31
0.0
  0
LINE
  5
5C
330
1E
100
AcDbEntity
  8
0
100
AcDbLine
 10
1.52918
 20
172.8129999999999
 30
0.0
 11
2.62528
 21
173.524
 31
0.0
  0
LINE
  5
5D
330
1E
100
AcDbEntity
  8
0
100
AcDbLine
 10
9.998039999999999
 20
173.31
 30
0.0
 11
13.5421
 21
172.7829999999999
 31
0.0
  0
LINE
  5
5E
330
1E
100
AcDbEntity
  8
0
100
AcDbLine
 10
6.022909999999999
 20
173.7879999999999
 30
0.0
 11
9.998039999999999
 21
173.31
 31
0.0
  0
LINE
  5
5F
330
1E
100
AcDbEntity
  8
0
100
AcDbLine
 10
5.896419999999999
 20
173.807
 30
0.0
 11
6.536247964666559
 21
173.726272321381
 31
0.0
  0
LINE
  5
60
330
1E
100
AcDbEntity
  8
0
100
AcDbLine
 10
4.1252
 20
173.9079999999999
 30
0.0
 11
5.339929022403199
 21
173.831187693226
 31
0.0
  0
LINE
  5
61
330
1E
100
AcDbEntity
  8
0
100
AcDbLine
 10
4.1252
 20
173.9079999999999
 30
0.0
 11
6.022909999999999
 21
173.7879999999999
 31
0.0
  0
LINE
  5
62
330
1E
100
AcDbEntity
  8
0
100
AcDbLine
 10
5.339929022403199
 20
173.831187693226
 30
0.0
 11
5.896419999999999
 21
173.807
 31
0.0
  0
LINE
  5
63
330
1E
100
AcDbEntity
  8
0
100
AcDbLine
 10
3.737340293555309
 20
173.80870261929
 30
0.0
 11
4.00983
 21
173.889
 31
0.0
  0
LINE
  5
64
330
1E
100
AcDbEntity
  8
0
100
AcDbLine
 10
1.282888916557899
 20
172.523316692668
 30
0.0
 11
1.43303
 21
172.717
 31
0.0
  0
LINE
  5
65
330
1E
100
AcDbEntity
  8
0
100
AcDbLine
 10
0.0000000000000004
 20
168.0
 30
0.0
 11
0.356166
 21
165.071
 31
0.0
  0
LINE
  5
66
330
1E
100
AcDbEntity
  8
0
100
AcDbLine
 10
0.0000000000000004
 20
168.0
 30
0.0
 11
0.356166
 21
170.929
 31
0.0
  0
LINE
  5
67
330
1E
100
AcDbEntity
  8
0
100
AcDbLine
 10
13.1
 20
120.5
 30
0.0
 11
14.69999999999999
 21
120.5
 31
0.0
  0
LINE
  5
69
330
1E
100
AcDbEntity
  8
0
100
AcDbLine
 10
13.5
 20
127.0
 30
0.0
 11
13.5
 21
121.0
 31
0.0
  0
LINE
  5
6A
330
1E
100
AcDbEntity
  8
0
100
AcDbLine
 10
13.5
 20
127.0
 30
0.0
 11
24.8415
 21
127.0
 31
0.0
  0
LINE
  5
6B
330
1E
100
AcDbEntity
  8
0
100
AcDbLine
 10
13.5
 20
121.0
 30
0.0
 11
13.5
 21
127.0
 31
0.0
  0
LINE
  5
6C
330
1E
100
AcDbEntity
  8
0
100
AcDbLine
 10
13.5
 20
121.0
 30
0.0
 11
14.0
 21
121.0
 31
0.0
  0
LINE
  5
6D
330
1E
100
AcDbEntity
  8
0
100
AcDbLine
 10
13.5
 20
121.0
 30
0.0
 11
16.0
 21
121.0
 31
0.0
  0
LINE
  5
6E
330
1E
100
AcDbEntity
  8
0
100
AcDbLine
 10
12.5
 20
120.5
 30
0.0
 11
14.0
 21
121.0
 31
0.0
  0
LINE
  5
6F
330
1E
100
AcDbEntity
  8
0
100
AcDbLine
 10
12.5
 20
120.5
 30
0.0
 11
13.1
 21
120.5
 31
0.0
  0
LINE
  5
70
330
1E
100
AcDbEntity
  8
0
100
AcDbLine
 10
12.0
 20
119.0
 30
0.0
 11
12.5
 21
117.5
 31
0.0
  0
LINE
  5
71
330
1E
100
AcDbEntity
  8
0
100
AcDbLine
 10
12.0
 20
119.0
 30
0.0
 11
12.5
 21
120.5
 31
0.0
  0
LINE
  5
73
330
1E
100
AcDbEntity
  8
0
100
AcDbLine
 10
12.5
 20
117.5
 30
0.0
 11
13.5
 21
117.0
 31
0.0
  0
LINE
  5
74
330
1E
100
AcDbEntity
  8
0
100
AcDbLine
 10
12.5
 20
117.5
 30
0.0
 11
13.1
 21
117.5
 31
0.0
  0
LINE
  5
75
330
1E
100
AcDbEntity
  8
0
100
AcDbLine
 10
16.6
 20
-0.0000000000000065
 30
0.0
 11
22.6
 21
-0.0000000000000066
 31
0.0
  0
LINE
  5
76
330
1E
100
AcDbEntity
  8
0
100
AcDbLine
 10
35.4
 20
-0.0000000000000066
 30
0.0
 11
41.39999999999999
 21
-0.0000000000000065
 31
0.0
  0
LINE
  5
77
330
1E
100
AcDbEntity
  8
0
100
AcDbLine
 10
29.0
 20
-0.0000000000000067
 30
0.0
 11
35.4
 21
-0.0000000000000066
 31
0.0
  0
LINE
  5
78
330
1E
100
AcDbEntity
  8
0
100
AcDbLine
 10
22.6
 20
-0.0000000000000066
 30
0.0
 11
29.0
 21
-0.0000000000000067
 31
0.0
  0
LINE
  5
79
330
1E
100
AcDbEntity
  8
0
100
AcDbLine
 10
16.6
 20
-0.0000000000000038
 30
0.0
 11
22.6
 21
-0.0000000000000037
 31
0.0
  0
LINE
  5
7A
330
1E
100
AcDbEntity
  8
0
100
AcDbLine
 10
22.6
 20
-0.0000000000000037
 30
0.0
 11
29.0
 21
-0.0000000000000036
 31
0.0
  0
LINE
  5
7B
330
1E
100
AcDbEntity
  8
0
100
AcDbLine
 10
41.39999999999999
 20
-0.0000000000000065
 30
0.0
 11
46.6
 21
-0.0000000000000062
 31
0.0
  0
LINE
  5
7C
330
1E
100
AcDbEntity
  8
0
100
AcDbLine
 10
41.39999999999999
 20
-0.0000000000000038
 30
0.0
 11
46.6
 21
-0.0000000000000041
 31
0.0
  0
LINE
  5
7D
330
1E
100
AcDbEntity
  8
0
100
AcDbLine
 10
35.4
 20
-0.0000000000000037
 30
0.0
 11
41.39999999999999
 21
-0.0000000000000038
 31
0.0
  0
LINE
  5
81
330
1E
100
AcDbEntity
  8
0
100
AcDbLine
 10
14.0
 20
64.3211
 30
0.0
 11
14.5769
 21
63.3387
 31
0.0
  0
LINE
  5
82
330
1E
100
AcDbEntity
  8
0
100
AcDbLine
 10
14.0
 20
64.3211
 30
0.0
 11
14.0
 21
64.8122
 31
0.0
  0
LINE
  5
83
330
1E
100
AcDbEntity
  8
0
100
AcDbLine
 10
14.0
 20
64.8122
 30
0.0
 11
14.5769
 21
66.28589999999999
 31
0.0
  0
LINE
  5
84
330
1E
100
AcDbEntity
  8
0
100
AcDbLine
 10
14.0
 20
64.8122
 30
0.0
 11
14.0
 21
64.3211
 31
0.0
  0
LINE
  5
85
330
1E
100
AcDbEntity
  8
0
100
AcDbLine
 10
14.0
 20
64.5
 30
0.0
 11
14.0
 21
18.0
 31
0.0
  0
LINE
  5
86
330
1E
100
AcDbEntity
  8
0
100
AcDbLine
 10
15.61539999999999
 20
53.347
 30
0.0
 11
16.7692
 21
52.4347
 31
0.0
  0
LINE
  5
87
330
1E
100
AcDbEntity
  8
0
100
AcDbLine
 10
14.5769
 20
63.3387
 30
0.0
 11
15.1538
 21
62.6975
 31
0.0
  0
LINE
  5
88
330
1E
100
AcDbEntity
  8
0
100
AcDbLine
 10
15.61539999999999
 20
63.4686
 30
0.0
 11
17.0
 21
64.04959999999999
 31
0.0
  0
LINE
  5
89
330
1E
100
AcDbEntity
  8
0
100
AcDbLine
 10
15.1538
 20
62.8474
 30
0.0
 11
15.61539999999999
 21
63.4686
 31
0.0
  0
LINE
  5
8A
330
1E
100
AcDbEntity
  8
0
100
AcDbLine
 10
15.1538
 20
62.8474
 30
0.0
 11
15.1538
 21
53.9681
 31
0.0
  0
LINE
  5
8B
330
1E
100
AcDbEntity
  8
0
100
AcDbLine
 10
15.61539999999999
 20
54.58919999999999
 30
0.0
 11
17.0
 21
55.1703
 31
0.0
  0
LINE
  5
8C
330
1E
100
AcDbEntity
  8
0
100
AcDbLine
 10
15.1538
 20
53.9681
 30
0.0
 11
15.61539999999999
 21
54.58919999999999
 31
0.0
  0
LINE
  5
8D
330
1E
100
AcDbEntity
  8
0
100
AcDbLine
 10
15.1538
 20
53.9681
 30
0.0
 11
15.1538
 21
62.8474
 31
0.0
  0
LINE
  5
8E
330
1E
100
AcDbEntity
  8
0
100
AcDbLine
 10
15.1538
 20
53.9681
 30
0.0
 11
15.61539999999999
 21
53.347
 31
0.0
  0
LINE
  5
8F
330
1E
100
AcDbEntity
  8
0
100
AcDbLine
 10
20.0
 20
51.4229
 30
0.0
 11
22.6539
 21
51.0822
 31
0.0
  0
LINE
  5
90
330
1E
100
AcDbEntity
  8
0
100
AcDbLine
 10
18.03849999999999
 20
51.88369999999999
 30
0.0
 11
20.0
 21
51.4229
 31
0.0
  0
LINE
  5
91
330
1E
100
AcDbEntity
  8
0
100
AcDbLine
 10
16.7692
 20
52.4347
 30
0.0
 11
18.03849999999999
 21
51.88369999999999
 31
0.0
  0
LINE
  5
92
330
1E
100
AcDbEntity
  8
0
100
AcDbLine
 10
17.0
 20
64.04959999999999
 30
0.0
 11
19.19229999999999
 21
64.55049999999999
 31
0.0
  0
LINE
  5
93
330
1E
100
AcDbEntity
  8
0
100
AcDbLine
 10
17.0
 20
55.1703
 30
0.0
 11
19.19229999999999
 21
55.6712
 31
0.0
  0
LINE
  5
94
330
1E
100
AcDbEntity
  8
0
100
AcDbLine
 10
19.19229999999999
 20
64.55049999999999
 30
0.0
 11
22.07689999999999
 21
64.93120000000001
 31
0.0
  0
LINE
  5
95
330
1E
100
AcDbEntity
  8
0
100
AcDbLine
 10
19.19229999999999
 20
55.6712
 30
0.0
 11
22.07689999999999
 21
56.0519
 31
0.0
  0
LINE
  5
96
330
1E
100
AcDbEntity
  8
0
100
AcDbLine
 10
20.0
 20
54.5485
 30
0.0
 11
22.6539
 21
54.8891
 31
0.0
  0
LINE
  5
97
330
1E
100
AcDbEntity
  8
0
100
AcDbLine
 10
18.03849999999999
 20
54.0877
 30
0.0
 11
20.0
 21
54.5485
 31
0.0
  0
LINE
  5
98
330
1E
100
AcDbEntity
  8
0
100
AcDbLine
 10
16.7692
 20
53.53670000000001
 30
0.0
 11
18.03849999999999
 21
54.0877
 31
0.0
  0
LINE
  5
99
330
1E
100
AcDbEntity
  8
0
100
AcDbLine
 10
16.3077
 20
52.9857
 30
0.0
 11
16.7692
 21
53.53670000000001
 31
0.0
  0
LINE
  5
9A
330
1E
100
AcDbEntity
  8
0
100
AcDbLine
 10
16.3077
 20
52.9857
 30
0.0
 11
16.7692
 21
52.4347
 31
0.0
  0
LINE
  5
9B
330
1E
100
AcDbEntity
  8
0
100
AcDbLine
 10
14.5769
 20
66.28589999999999
 30
0.0
 11
15.1538
 21
66.92699999999999
 31
0.0
  0
LINE
  5
9D
330
1E
100
AcDbEntity
  8
0
100
AcDbLine
 10
14.69999999999999
 20
69.5
 30
0.0
 11
16.5
 21
69.5
 31
0.0
  0
LINE
  5
9E
330
1E
100
AcDbEntity
  8
0
100
AcDbLine
 10
16.5
 20
67.902779893836
 30
0.0
 11
16.5
 21
71.0112
 31
0.0
  0
LINE
  5
9F
330
1E
100
AcDbEntity
  8
0
100
AcDbLine
 10
20.2
 20
69.24129999999999
 30
0.0
 11
22.8
 21
69.5951
 31
0.0
  0
LINE
  5
A0
330
1E
100
AcDbEntity
  8
0
100
AcDbLine
 10
18.2
 20
68.7781
 30
0.0
 11
20.2
 21
69.24129999999999
 31
0.0
  0
LINE
  5
A1
330
1E
100
AcDbEntity
  8
0
100
AcDbLine
 10
17.0
 20
68.26519999999999
 30
0.0
 11
18.2
 21
68.7781
 31
0.0
  0
LINE
  5
A2
330
1E
100
AcDbEntity
  8
0
100
AcDbLine
 10
15.1538
 20
66.92699999999999
 30
0.0
 11
17.0
 21
68.26519999999999
 31
0.0
  0
LINE
  5
A3
330
1E
100
AcDbEntity
  8
0
100
AcDbLine
 10
14.69999999999999
 20
66.5
 30
0.0
 11
14.7695599438465
 21
66.5
 31
0.0
  0
LINE
  5
A4
330
1E
100
AcDbEntity
  8
0
100
AcDbLine
 10
14.1
 20
66.0
 30
0.0
 11
14.4649805387799
 21
66.0
 31
0.0
  0
LINE
  5
A5
330
1E
100
AcDbEntity
  8
0
100
AcDbLine
 10
14.0
 20
18.0
 30
0.0
 11
14.0
 21
64.5
 31
0.0
  0
LINE
  5
A7
330
1E
100
AcDbEntity
  8
0
100
AcDbLine
 10
29.0
 20
50.7817
 30
0.0
 11
32.2308
 21
50.8618
 31
0.0
  0
LINE
  5
A8
330
1E
100
AcDbEntity
  8
0
100
AcDbLine
 10
25.7692
 20
50.8618
 30
0.0
 11
29.0
 21
50.7817
 31
0.0
  0
LINE
  5
A9
330
1E
100
AcDbEntity
  8
0
100
AcDbLine
 10
22.6539
 20
51.0822
 30
0.0
 11
25.7692
 21
50.8618
 31
0.0
  0
LINE
  5
AA
330
1E
100
AcDbEntity
  8
0
100
AcDbLine
 10
22.8
 20
69.5951
 30
0.0
 11
25.8
 21
69.82040000000001
 31
0.0
  0
LINE
  5
AC
330
1E
100
AcDbEntity
  8
0
100
AcDbLine
 10
25.4231
 20
65.1716
 30
0.0
 11
29.0
 21
65.2518
 31
0.0
  0
LINE
  5
AD
330
1E
100
AcDbEntity
  8
0
100
AcDbLine
 10
22.07689999999999
 20
64.93120000000001
 30
0.0
 11
25.4231
 21
65.1716
 31
0.0
  0
LINE
  5
AE
330
1E
100
AcDbEntity
  8
0
100
AcDbLine
 10
25.4231
 20
56.29229999999999
 30
0.0
 11
29.0
 21
56.3724
 31
0.0
  0
LINE
  5
AF
330
1E
100
AcDbEntity
  8
0
100
AcDbLine
 10
22.07689999999999
 20
56.0519
 30
0.0
 11
25.4231
 21
56.29229999999999
 31
0.0
  0
LINE
  5
B1
330
1E
100
AcDbEntity
  8
0
100
AcDbLine
 10
29.0
 20
65.2518
 30
0.0
 11
32.5769
 21
65.1716
 31
0.0
  0
LINE
  5
B2
330
1E
100
AcDbEntity
  8
0
100
AcDbLine
 10
29.0
 20
56.3724
 30
0.0
 11
32.5769
 21
56.29229999999999
 31
0.0
  0
LINE
  5
B3
330
1E
100
AcDbEntity
  8
0
100
AcDbLine
 10
29.0
 20
55.1897
 30
0.0
 11
32.2308
 21
55.1095
 31
0.0
  0
LINE
  5
B4
330
1E
100
AcDbEntity
  8
0
100
AcDbLine
 10
29.0
 20
69.86329999999999
 30
0.0
 11
32.2
 21
69.82040000000001
 31
0.0
  0
LINE
  5
B5
330
1E
100
AcDbEntity
  8
0
100
AcDbLine
 10
25.8
 20
69.82040000000001
 30
0.0
 11
29.0
 21
69.86329999999999
 31
0.0
  0
LINE
  5
B6
330
1E
100
AcDbEntity
  8
0
100
AcDbLine
 10
25.7692
 20
55.1095
 30
0.0
 11
29.0
 21
55.1897
 31
0.0
  0
LINE
  5
B7
330
1E
100
AcDbEntity
  8
0
100
AcDbLine
 10
22.6539
 20
54.8891
 30
0.0
 11
25.7692
 21
55.1095
 31
0.0
  0
LINE
  5
BB
330
1E
100
AcDbEntity
  8
0
100
AcDbLine
 10
32.2308
 20
50.8618
 30
0.0
 11
35.3461
 21
51.0822
 31
0.0
  0
LINE
  5
BC
330
1E
100
AcDbEntity
  8
0
100
AcDbLine
 10
32.2
 20
69.82040000000001
 30
0.0
 11
35.2
 21
69.5951
 31
0.0
  0
LINE
  5
BD
330
1E
100
AcDbEntity
  8
0
100
AcDbLine
 10
32.5769
 20
65.1716
 30
0.0
 11
35.92309999999999
 21
64.93120000000001
 31
0.0
  0
LINE
  5
BE
330
1E
100
AcDbEntity
  8
0
100
AcDbLine
 10
32.5769
 20
56.29229999999999
 30
0.0
 11
35.92309999999999
 21
56.0519
 31
0.0
  0
LINE
  5
BF
330
1E
100
AcDbEntity
  8
0
100
AcDbLine
 10
32.2308
 20
55.1095
 30
0.0
 11
35.3461
 21
54.8891
 31
0.0
  0
LINE
  5
C2
330
1E
100
AcDbEntity
  8
0
100
AcDbLine
 10
35.3461
 20
51.0822
 30
0.0
 11
38.0
 21
51.4229
 31
0.0
  0
LINE
  5
C3
330
1E
100
AcDbEntity
  8
0
100
AcDbLine
 10
38.0
 20
51.4229
 30
0.0
 11
39.9615
 21
51.88369999999999
 31
0.0
  0
LINE
  5
C4
330
1E
100
AcDbEntity
  8
0
100
AcDbLine
 10
39.9615
 20
51.88369999999999
 30
0.0
 11
41.2308
 21
52.4347
 31
0.0
  0
LINE
  5
C5
330
1E
100
AcDbEntity
  8
0
100
AcDbLine
 10
41.2308
 20
52.4347
 30
0.0
 11
41.6923
 21
52.9857
 31
0.0
  0
LINE
  5
C6
330
1E
100
AcDbEntity
  8
0
100
AcDbLine
 10
41.2308
 20
52.4347
 30
0.0
 11
42.38459999999999
 21
53.347
 31
0.0
  0
LINE
  5
C7
330
1E
100
AcDbEntity
  8
0
100
AcDbLine
 10
35.92309999999999
 20
56.0519
 30
0.0
 11
38.8077
 21
55.6712
 31
0.0
  0
LINE
  5
C8
330
1E
100
AcDbEntity
  8
0
100
AcDbLine
 10
35.3461
 20
54.8891
 30
0.0
 11
38.0
 21
54.5485
 31
0.0
  0
LINE
  5
C9
330
1E
100
AcDbEntity
  8
0
100
AcDbLine
 10
41.0
 20
64.04959999999999
 30
0.0
 11
42.38459999999999
 21
63.4686
 31
0.0
  0
LINE
  5
CA
330
1E
100
AcDbEntity
  8
0
100
AcDbLine
 10
38.8077
 20
55.6712
 30
0.0
 11
41.0
 21
55.1703
 31
0.0
  0
LINE
  5
CB
330
1E
100
AcDbEntity
  8
0
100
AcDbLine
 10
41.0
 20
55.1703
 30
0.0
 11
42.38459999999999
 21
54.58919999999999
 31
0.0
  0
LINE
  5
CC
330
1E
100
AcDbEntity
  8
0
100
AcDbLine
 10
38.0
 20
54.5485
 30
0.0
 11
39.9615
 21
54.0877
 31
0.0
  0
LINE
  5
CD
330
1E
100
AcDbEntity
  8
0
100
AcDbLine
 10
39.9615
 20
54.0877
 30
0.0
 11
41.2308
 21
53.53670000000001
 31
0.0
  0
LINE
  5
CE
330
1E
100
AcDbEntity
  8
0
100
AcDbLine
 10
42.84609999999999
 20
53.9681
 30
0.0
 11
42.84609999999999
 21
62.8474
 31
0.0
  0
LINE
  5
CF
330
1E
100
AcDbEntity
  8
0
100
AcDbLine
 10
42.38459999999999
 20
53.347
 30
0.0
 11
42.84609999999999
 21
53.9681
 31
0.0
  0
LINE
  5
D0
330
1E
100
AcDbEntity
  8
0
100
AcDbLine
 10
42.84609999999999
 20
62.6975
 30
0.0
 11
43.4231
 21
63.3387
 31
0.0
  0
LINE
  5
D1
330
1E
100
AcDbEntity
  8
0
100
AcDbLine
 10
42.38459999999999
 20
63.4686
 30
0.0
 11
42.84609999999999
 21
62.8474
 31
0.0
  0
LINE
  5
D2
330
1E
100
AcDbEntity
  8
0
100
AcDbLine
 10
43.4231
 20
63.3387
 30
0.0
 11
44.0
 21
64.3211
 31
0.0
  0
LINE
  5
D3
330
1E
100
AcDbEntity
  8
0
100
AcDbLine
 10
42.84609999999999
 20
62.8474
 30
0.0
 11
42.84609999999999
 21
53.9681
 31
0.0
  0
LINE
  5
D4
330
1E
100
AcDbEntity
  8
0
100
AcDbLine
 10
42.38459999999999
 20
54.58919999999999
 30
0.0
 11
42.84609999999999
 21
53.9681
 31
0.0
  0
LINE
  5
D5
330
1E
100
AcDbEntity
  8
0
100
AcDbLine
 10
41.2308
 20
53.53670000000001
 30
0.0
 11
41.6923
 21
52.9857
 31
0.0
  0
LINE
  5
D6
330
1E
100
AcDbEntity
  8
0
100
AcDbLine
 10
35.92309999999999
 20
64.93120000000001
 30
0.0
 11
38.8077
 21
64.55049999999999
 31
0.0
  0
LINE
  5
D7
330
1E
100
AcDbEntity
  8
0
100
AcDbLine
 10
38.8077
 20
64.55049999999999
 30
0.0
 11
41.0
 21
64.04959999999999
 31
0.0
  0
LINE
  5
D8
330
1E
100
AcDbEntity
  8
0
100
AcDbLine
 10
44.0
 20
64.8122
 30
0.0
 11
44.0
 21
64.3211
 31
0.0
  0
LINE
  5
D9
330
1E
100
AcDbEntity
  8
0
100
AcDbLine
 10
43.5350194612201
 20
66.0
 30
0.0
 11
43.89999999999999
 21
66.0
 31
0.0
  0
LINE
  5
DA
330
1E
100
AcDbEntity
  8
0
100
AcDbLine
 10
41.5
 20
67.9027602621743
 30
0.0
 11
41.5
 21
71.0112
 31
0.0
  0
LINE
  5
DB
330
1E
100
AcDbEntity
  8
0
100
AcDbLine
 10
37.79999999999999
 20
69.24129999999999
 30
0.0
 11
39.8
 21
68.7781
 31
0.0
  0
LINE
  5
DC
330
1E
100
AcDbEntity
  8
0
100
AcDbLine
 10
39.8
 20
68.7781
 30
0.0
 11
41.0
 21
68.26519999999999
 31
0.0
  0
LINE
  5
DD
330
1E
100
AcDbEntity
  8
0
100
AcDbLine
 10
41.0
 20
68.26519999999999
 30
0.0
 11
42.84609999999999
 21
66.92699999999999
 31
0.0
  0
LINE
  5
DE
330
1E
100
AcDbEntity
  8
0
100
AcDbLine
 10
42.84609999999999
 20
66.92699999999999
 30
0.0
 11
43.4231
 21
66.28589999999999
 31
0.0
  0
LINE
  5
DF
330
1E
100
AcDbEntity
  8
0
100
AcDbLine
 10
35.2
 20
69.5951
 30
0.0
 11
37.79999999999999
 21
69.24129999999999
 31
0.0
  0
LINE
  5
E2
330
1E
100
AcDbEntity
  8
0
100
AcDbLine
 10
41.5
 20
69.5
 30
0.0
 11
43.3
 21
69.5
 31
0.0
  0
LINE
  5
E3
330
1E
100
AcDbEntity
  8
0
100
AcDbLine
 10
43.3
 20
69.5
 30
0.0
 11
44.9
 21
69.5
 31
0.0
  0
LINE
  5
E4
330
1E
100
AcDbEntity
  8
0
100
AcDbLine
 10
43.23040666042739
 20
66.5
 30
0.0
 11
43.3
 21
66.5
 31
0.0
  0
LINE
  5
E5
330
1E
100
AcDbEntity
  8
0
100
AcDbLine
 10
43.4231
 20
66.28589999999999
 30
0.0
 11
44.0
 21
64.8122
 31
0.0
  0
LINE
  5
E8
330
1E
100
AcDbEntity
  8
0
100
AcDbLine
 10
43.3
 20
66.5
 30
0.0
 11
44.9
 21
66.5
 31
0.0
  0
LINE
  5
E9
330
1E
100
AcDbEntity
  8
0
100
AcDbLine
 10
43.89999999999999
 20
66.0
 30
0.0
 11
44.5
 21
66.0
 31
0.0
  0
LINE
  5
EA
330
1E
100
AcDbEntity
  8
0
100
AcDbLine
 10
44.0
 20
64.5
 30
0.0
 11
44.5
 21
66.0
 31
0.0
  0
LINE
  5
EB
330
1E
100
AcDbEntity
  8
0
100
AcDbLine
 10
44.0
 20
64.3211
 30
0.0
 11
44.0
 21
18.0
 31
0.0
  0
LINE
  5
EC
330
1E
100
AcDbEntity
  8
0
100
AcDbLine
 10
44.0
 20
64.3211
 30
0.0
 11
44.0
 21
64.8122
 31
0.0
  0
LINE
  5
ED
330
1E
100
AcDbEntity
  8
0
100
AcDbLine
 10
44.0
 20
18.0
 30
0.0
 11
44.5
 21
16.0
 31
0.0
  0
LINE
  5
EE
330
1E
100
AcDbEntity
  8
0
100
AcDbLine
 10
44.0
 20
18.0
 30
0.0
 11
44.0
 21
64.3211
 31
0.0
  0
LINE
  5
F3
330
1E
100
AcDbEntity
  8
0
100
AcDbLine
 10
29.0
 20
-0.0000000000000036
 30
0.0
 11
35.4
 21
-0.0000000000000037
 31
0.0
  0
LINE
  5
F4
330
1E
100
AcDbEntity
  8
0
100
AcDbLine
 10
46.6
 20
-0.0000000000000062
 30
0.0
 11
50.7
 21
-0.0000000000000059
 31
0.0
  0
LINE
  5
F5
330
1E
100
AcDbEntity
  8
0
100
AcDbLine
 10
50.7
 20
-0.0000000000000059
 30
0.0
 11
53.1
 21
-0.0000000000000056
 31
0.0
  0
LINE
  5
F6
330
1E
100
AcDbEntity
  8
0
100
AcDbLine
 10
46.6
 20
-0.0000000000000041
 30
0.0
 11
50.7
 21
-0.0000000000000044
 31
0.0
  0
LINE
  5
F7
330
1E
100
AcDbEntity
  8
0
100
AcDbLine
 10
50.7
 20
-0.0000000000000044
 30
0.0
 11
53.1
 21
-0.0000000000000048
 31
0.0
  0
LINE
  5
F8
330
1E
100
AcDbEntity
  8
0
100
AcDbLine
 10
53.1
 20
-0.0000000000000048
 30
0.0
 11
54.0
 21
-0.0000000000000052
 31
0.0
  0
LINE
  5
F9
330
1E
100
AcDbEntity
  8
0
100
AcDbLine
 10
45.4
 20
15.0
 30
0.0
 11
46.0
 21
15.0
 31
0.0
  0
LINE
  5
FA
330
1E
100
AcDbEntity
  8
0
100
AcDbLine
 10
44.9
 20
69.5
 30
0.0
 11
45.49999999999999
 21
69.5
 31
0.0
  0
LINE
  5
FB
330
1E
100
AcDbEntity
  8
0
100
AcDbLine
 10
44.9
 20
66.5
 30
0.0
 11
45.49999999999999
 21
66.5
 31
0.0
  0
LINE
  5
FC
330
1E
100
AcDbEntity
  8
0
100
AcDbLine
 10
44.5
 20
66.0
 30
0.0
 11
45.49999999999999
 21
66.5
 31
0.0
  0
LINE
  5
FD
330
1E
100
AcDbEntity
  8
0
100
AcDbLine
 10
44.5
 20
16.0
 30
0.0
 11
45.0
 21
15.5
 31
0.0
  0
LINE
  5
FF
330
1E
100
AcDbEntity
  8
0
100
AcDbLine
 10
45.49999999999999
 20
69.5
 30
0.0
 11
46.0
 21
68.0
 31
0.0
  0
LINE
  5
100
330
1E
100
AcDbEntity
  8
0
100
AcDbLine
 10
45.49999999999999
 20
66.5
 30
0.0
 11
46.0
 21
68.0
 31
0.0
  0
LINE
  5
101
330
1E
100
AcDbEntity
  8
0
100
AcDbLine
 10
45.0
 20
15.5
 30
0.0
 11
46.0
 21
15.0
 31
0.0
  0
LINE
  5
102
330
1E
100
AcDbEntity
  8
0
100
AcDbLine
 10
46.0
 20
15.0
 30
0.0
 11
46.5
 21
14.0
 31
0.0
  0
LINE
  5
103
330
1E
100
AcDbEntity
  8
0
100
AcDbLine
 10
46.0
 20
12.5
 30
0.0
 11
46.5
 21
13.5
 31
0.0
  0
LINE
  5
104
330
1E
100
AcDbEntity
  8
0
100
AcDbLine
 10
45.8
 20
11.4
 30
0.0
 11
46.0
 21
9.999999999999991
 31
0.0
  0
LINE
  5
105
330
1E
100
AcDbEntity
  8
0
100
AcDbLine
 10
45.8
 20
11.4
 30
0.0
 11
46.0
 21
12.5
 31
0.0
  0
LINE
  5
106
330
1E
100
AcDbEntity
  8
0
100
AcDbLine
 10
46.5
 20
13.5
 30
0.0
 11
46.5
 21
14.0
 31
0.0
  0
LINE
  5
107
330
1E
100
AcDbEntity
  8
0
100
AcDbLine
 10
46.5
 20
14.0
 30
0.0
 11
46.5
 21
13.5
 31
0.0
  0
LINE
  5
108
330
1E
100
AcDbEntity
  8
0
100
AcDbLine
 10
46.0
 20
9.999999999999991
 30
0.0
 11
47.0
 21
6.99999999999999
 31
0.0
  0
LINE
  5
109
330
1E
100
AcDbEntity
  8
0
100
AcDbLine
 10
47.0
 20
6.99999999999999
 30
0.0
 11
49.0
 21
3.99999999999999
 31
0.0
  0
LINE
  5
10A
330
1E
100
AcDbEntity
  8
0
100
AcDbLine
 10
49.0
 20
3.99999999999999
 30
0.0
 11
52.5
 21
2.49999999999999
 31
0.0
  0
LINE
  5
10B
330
1E
100
AcDbEntity
  8
0
100
AcDbLine
 10
52.5
 20
2.49999999999999
 30
0.0
 11
53.5
 21
1.499999999999989
 31
0.0
  0
LINE
  5
10C
330
1E
100
AcDbEntity
  8
0
100
AcDbLine
 10
53.5
 20
1.499999999999989
 30
0.0
 11
54.0
 21
-0.0000000000000051
 31
0.0
  0
LINE
  5
10D
330
1E
100
AcDbEntity
  8
0
100
AcDbLine
 10
53.5
 20
1.499999999999989
 30
0.0
 11
54.0
 21
-0.0000000000000052
 31
0.0
  0
LINE
  5
10E
330
1E
100
AcDbEntity
  8
0
100
AcDbLine
 10
53.1
 20
-0.0000000000000056
 30
0.0
 11
54.0
 21
-0.0000000000000052
 31
0.0
  0
LINE
  5
10F
330
1E
100
AcDbEntity
  8
0
100
AcDbLine
 10
44.0
 20
70.0
 30
0.0
 11
44.0
 21
115.5
 31
0.0
  0
LINE
  5
110
330
1E
100
AcDbEntity
  8
0
100
AcDbLine
 10
44.0
 20
70.0
 30
0.0
 11
45.49999999999999
 21
69.5
 31
0.0
  0
LINE
  5
111
330
1E
100
AcDbEntity
  8
0
100
AcDbLine
 10
14.0
 20
121.0
 30
0.0
 11
14.5
 21
121.0
 31
0.0
  0
LINE
  5
112
330
1E
100
AcDbEntity
  8
0
100
AcDbLine
 10
15.46669999999999
 20
88.36
 30
0.0
 11
16.5
 21
85.88008
 31
0.0
  0
LINE
  5
113
330
1E
100
AcDbEntity
  8
0
100
AcDbLine
 10
15.46669999999999
 20
92.0
 30
0.0
 11
15.93329999999999
 21
95.45329999999999
 31
0.0
  0
LINE
  5
114
330
1E
100
AcDbEntity
  8
0
100
AcDbLine
 10
15.46669999999999
 20
92.0
 30
0.0
 11
15.93329999999999
 21
88.5467
 31
0.0
  0
LINE
  5
115
330
1E
100
AcDbEntity
  8
0
100
AcDbLine
 10
15.46669999999999
 20
95.64
 30
0.0
 11
16.8667
 21
99.0
 31
0.0
  0
LINE
  5
116
330
1E
100
AcDbEntity
  8
0
100
AcDbLine
 10
15.0
 20
92.0
 30
0.0
 11
15.46669999999999
 21
95.64
 31
0.0
  0
LINE
  5
117
330
1E
100
AcDbEntity
  8
0
100
AcDbLine
 10
15.0
 20
92.0
 30
0.0
 11
15.46669999999999
 21
88.36
 31
0.0
  0
LINE
  5
118
330
1E
100
AcDbEntity
  8
0
100
AcDbLine
 10
15.93329999999999
 20
88.5467
 30
0.0
 11
16.5
 21
87.12997168439578
 31
0.0
  0
LINE
  5
119
330
1E
100
AcDbEntity
  8
0
100
AcDbLine
 10
16.5
 20
78.6979
 30
0.0
 11
16.5
 21
82.04159999999999
 31
0.0
  0
LINE
  5
11A
330
1E
100
AcDbEntity
  8
0
100
AcDbLine
 10
16.5
 20
78.6979
 30
0.0
 11
16.5
 21
75.0
 31
0.0
  0
LINE
  5
11B
330
1E
100
AcDbEntity
  8
0
100
AcDbLine
 10
16.5
 20
71.0112
 30
0.0
 11
16.5
 21
67.902779893836
 31
0.0
  0
LINE
  5
11C
330
1E
100
AcDbEntity
  8
0
100
AcDbLine
 10
16.5
 20
71.0112
 30
0.0
 11
16.5
 21
75.0
 31
0.0
  0
LINE
  5
11D
330
1E
100
AcDbEntity
  8
0
100
AcDbLine
 10
16.5
 20
75.0
 30
0.0
 11
16.5
 21
71.0112
 31
0.0
  0
LINE
  5
11E
330
1E
100
AcDbEntity
  8
0
100
AcDbLine
 10
16.5
 20
75.0
 30
0.0
 11
16.5
 21
78.6979
 31
0.0
  0
LINE
  5
11F
330
1E
100
AcDbEntity
  8
0
100
AcDbLine
 10
16.5
 20
82.04159999999999
 30
0.0
 11
16.5
 21
84.97399999999998
 31
0.0
  0
LINE
  5
120
330
1E
100
AcDbEntity
  8
0
100
AcDbLine
 10
16.5
 20
82.04159999999999
 30
0.0
 11
16.5
 21
78.6979
 31
0.0
  0
LINE
  5
121
330
1E
100
AcDbEntity
  8
0
100
AcDbLine
 10
16.5
 20
84.97399999999998
 30
0.0
 11
16.5
 21
82.04159999999999
 31
0.0
  0
LINE
  5
122
330
1E
100
AcDbEntity
  8
0
100
AcDbLine
 10
16.5
 20
84.97399999999998
 30
0.0
 11
16.5
 21
87.4449
 31
0.0
  0
LINE
  5
123
330
1E
100
AcDbEntity
  8
0
100
AcDbLine
 10
16.5
 20
90.84149999999999
 30
0.0
 11
16.5
 21
89.4119
 31
0.0
  0
LINE
  5
124
330
1E
100
AcDbEntity
  8
0
100
AcDbLine
 10
16.5
 20
90.84149999999999
 30
0.0
 11
16.5
 21
91.30004285408181
 31
0.0
  0
LINE
  5
125
330
1E
100
AcDbEntity
  8
0
100
AcDbLine
 10
16.5
 20
89.4119
 30
0.0
 11
16.5
 21
87.4449
 31
0.0
  0
LINE
  5
126
330
1E
100
AcDbEntity
  8
0
100
AcDbLine
 10
16.5
 20
89.4119
 30
0.0
 11
16.5
 21
90.84149999999999
 31
0.0
  0
LINE
  5
127
330
1E
100
AcDbEntity
  8
0
100
AcDbLine
 10
16.5
 20
91.30004285408181
 30
0.0
 11
16.5
 21
90.84149999999999
 31
0.0
  0
LINE
  5
129
330
1E
100
AcDbEntity
  8
0
100
AcDbLine
 10
16.5
 20
87.4449
 30
0.0
 11
16.5
 21
84.97399999999998
 31
0.0
  0
LINE
  5
12A
330
1E
100
AcDbEntity
  8
0
100
AcDbLine
 10
16.5
 20
87.4449
 30
0.0
 11
16.5
 21
89.4119
 31
0.0
  0
LINE
  5
12E
330
1E
100
AcDbEntity
  8
0
100
AcDbLine
 10
16.8667
 20
95.26670000000001
 30
0.0
 11
18.07999999999999
 21
98.25330000000001
 31
0.0
  0
LINE
  5
12F
330
1E
100
AcDbEntity
  8
0
100
AcDbLine
 10
16.39999999999999
 20
92.0
 30
0.0
 11
16.8667
 21
95.26670000000001
 31
0.0
  0
LINE
  5
130
330
1E
100
AcDbEntity
  8
0
100
AcDbLine
 10
16.39999999999999
 20
92.0
 30
0.0
 11
16.5
 21
91.30004285408181
 31
0.0
  0
LINE
  5
131
330
1E
100
AcDbEntity
  8
0
100
AcDbLine
 10
15.93329999999999
 20
95.45329999999999
 30
0.0
 11
17.24
 21
98.71999999999999
 31
0.0
  0
LINE
  5
132
330
1E
100
AcDbEntity
  8
0
100
AcDbLine
 10
16.8667
 20
99.0
 30
0.0
 11
19.1067
 21
101.8929999999999
 31
0.0
  0
LINE
  5
133
330
1E
100
AcDbEntity
  8
0
100
AcDbLine
 10
15.6
 20
117.0
 30
0.0
 11
18.1
 21
117.0
 31
0.0
  0
LINE
  5
134
330
1E
100
AcDbEntity
  8
0
100
AcDbLine
 10
14.5
 20
121.0
 30
0.0
 11
16.0
 21
121.0
 31
0.0
  0
LINE
  5
135
330
1E
100
AcDbEntity
  8
0
100
AcDbLine
 10
14.69999999999999
 20
120.5
 30
0.0
 11
17.3
 21
120.5
 31
0.0
  0
LINE
  5
136
330
1E
100
AcDbEntity
  8
0
100
AcDbLine
 10
16.0
 20
121.0
 30
0.0
 11
18.39999999999999
 21
121.0
 31
0.0
  0
LINE
  5
137
330
1E
100
AcDbEntity
  8
0
100
AcDbLine
 10
14.69999999999999
 20
117.5
 30
0.0
 11
17.3
 21
117.5
 31
0.0
  0
LINE
  5
138
330
1E
100
AcDbEntity
  8
0
100
AcDbLine
 10
14.1
 20
117.0
 30
0.0
 11
15.6
 21
117.0
 31
0.0
  0
LINE
  5
139
330
1E
100
AcDbEntity
  8
0
100
AcDbLine
 10
14.0
 20
115.5
 30
0.0
 11
14.0
 21
70.0
 31
0.0
  0
LINE
  5
13A
330
1E
100
AcDbEntity
  8
0
100
AcDbLine
 10
13.5421
 20
172.7829999999999
 30
0.0
 11
16.29599999999999
 21
172.4479999999999
 31
0.0
  0
LINE
  5
13B
330
1E
100
AcDbEntity
  8
0
100
AcDbLine
 10
13.5421
 20
172.7829999999999
 30
0.0
 11
13.8618
 21
172.757
 31
0.0
  0
LINE
  5
13C
330
1E
100
AcDbEntity
  8
0
100
AcDbLine
 10
13.5421
 20
163.217
 30
0.0
 11
16.29599999999999
 21
163.552
 31
0.0
  0
LINE
  5
13D
330
1E
100
AcDbEntity
  8
0
100
AcDbLine
 10
13.5421
 20
163.217
 30
0.0
 11
13.8618
 21
163.243
 31
0.0
  0
LINE
  5
13E
330
1E
100
AcDbEntity
  8
0
100
AcDbLine
 10
16.29599999999999
 20
163.552
 30
0.0
 11
18.5777
 21
163.857
 31
0.0
  0
LINE
  5
13F
330
1E
100
AcDbEntity
  8
0
100
AcDbLine
 10
16.29599999999999
 20
172.4479999999999
 30
0.0
 11
18.5777
 21
172.1429999999999
 31
0.0
  0
LINE
  5
140
330
1E
100
AcDbEntity
  8
0
100
AcDbLine
 10
13.8618
 20
163.243
 30
0.0
 11
14.61380501845569
 21
163.3473682708819
 31
0.0
  0
LINE
  5
141
330
1E
100
AcDbEntity
  8
0
100
AcDbLine
 10
17.0
 20
141.5
 30
0.0
 11
17.5
 21
142.0
 31
0.0
  0
LINE
  5
142
330
1E
100
AcDbEntity
  8
0
100
AcDbLine
 10
17.0
 20
141.5
 30
0.0
 11
17.0
 21
140.0
 31
0.0
  0
LINE
  5
143
330
1E
100
AcDbEntity
  8
0
100
AcDbLine
 10
17.0
 20
141.5
 30
0.0
 11
17.4
 21
141.5
 31
0.0
  0
LINE
  5
144
330
1E
100
AcDbEntity
  8
0
100
AcDbLine
 10
17.0
 20
140.0
 30
0.0
 11
17.5
 21
139.5
 31
0.0
  0
LINE
  5
145
330
1E
100
AcDbEntity
  8
0
100
AcDbLine
 10
17.0
 20
140.0
 30
0.0
 11
17.0
 21
141.5
 31
0.0
  0
LINE
  5
146
330
1E
100
AcDbEntity
  8
0
100
AcDbLine
 10
17.0
 20
140.0
 30
0.0
 11
17.4
 21
140.0
 31
0.0
  0
LINE
  5
147
330
1E
100
AcDbEntity
  8
0
100
AcDbLine
 10
17.0
 20
139.0
 30
0.0
 11
17.5
 21
139.5
 31
0.0
  0
LINE
  5
148
330
1E
100
AcDbEntity
  8
0
100
AcDbLine
 10
17.0
 20
139.0
 30
0.0
 11
17.0
 21
127.0
 31
0.0
  0
LINE
  5
149
330
1E
100
AcDbEntity
  8
0
100
AcDbLine
 10
17.0
 20
139.0
 30
0.0
 11
17.4
 21
139.0
 31
0.0
  0
LINE
  5
14B
330
1E
100
AcDbEntity
  8
0
100
AcDbLine
 10
18.07999999999999
 20
98.25330000000001
 30
0.0
 11
20.13329999999999
 21
100.8669999999999
 31
0.0
  0
LINE
  5
14C
330
1E
100
AcDbEntity
  8
0
100
AcDbLine
 10
17.24
 20
98.71999999999999
 30
0.0
 11
19.48
 21
101.5199999999999
 31
0.0
  0
LINE
  5
14E
330
1E
100
AcDbEntity
  8
0
100
AcDbLine
 10
20.13329999999999
 20
100.8669999999999
 30
0.0
 11
22.74669999999999
 21
102.92
 31
0.0
  0
LINE
  5
14F
330
1E
100
AcDbEntity
  8
0
100
AcDbLine
 10
19.48
 20
101.5199999999999
 30
0.0
 11
22.28
 21
103.76
 31
0.0
  0
LINE
  5
150
330
1E
100
AcDbEntity
  8
0
100
AcDbLine
 10
19.1067
 20
101.8929999999999
 30
0.0
 11
22.0
 21
104.1329999999999
 31
0.0
  0
LINE
  5
151
330
1E
100
AcDbEntity
  8
0
100
AcDbLine
 10
18.1
 20
117.0
 30
0.0
 11
21.3
 21
117.0
 31
0.0
  0
LINE
  5
152
330
1E
100
AcDbEntity
  8
0
100
AcDbLine
 10
32.2667
 20
104.1329999999999
 30
0.0
 11
35.2533
 21
102.92
 31
0.0
  0
LINE
  5
156
330
1E
100
AcDbEntity
  8
0
100
AcDbLine
 10
22.74669999999999
 20
102.92
 30
0.0
 11
25.7333
 21
104.1329999999999
 31
0.0
  0
LINE
  5
157
330
1E
100
AcDbEntity
  8
0
100
AcDbLine
 10
29.0
 20
104.6
 30
0.0
 11
32.2667
 21
104.1329999999999
 31
0.0
  0
LINE
  5
158
330
1E
100
AcDbEntity
  8
0
100
AcDbLine
 10
32.4533
 20
105.0669999999999
 30
0.0
 11
35.72
 21
103.76
 31
0.0
  0
LINE
  5
159
330
1E
100
AcDbEntity
  8
0
100
AcDbLine
 10
25.7333
 20
104.1329999999999
 30
0.0
 11
29.0
 21
104.6
 31
0.0
  0
LINE
  5
15A
330
1E
100
AcDbEntity
  8
0
100
AcDbLine
 10
22.28
 20
103.76
 30
0.0
 11
25.5467
 21
105.0669999999999
 31
0.0
  0
LINE
  5
15B
330
1E
100
AcDbEntity
  8
0
100
AcDbLine
 10
29.0
 20
105.5329999999999
 30
0.0
 11
32.4533
 21
105.0669999999999
 31
0.0
  0
LINE
  5
15C
330
1E
100
AcDbEntity
  8
0
100
AcDbLine
 10
32.64
 20
105.5329999999999
 30
0.0
 11
36.0
 21
104.1329999999999
 31
0.0
  0
LINE
  5
15D
330
1E
100
AcDbEntity
  8
0
100
AcDbLine
 10
25.5467
 20
105.0669999999999
 30
0.0
 11
29.0
 21
105.5329999999999
 31
0.0
  0
LINE
  5
15E
330
1E
100
AcDbEntity
  8
0
100
AcDbLine
 10
22.0
 20
104.1329999999999
 30
0.0
 11
25.36
 21
105.5329999999999
 31
0.0
  0
LINE
  5
160
330
1E
100
AcDbEntity
  8
0
100
AcDbLine
 10
29.0
 20
106.0
 30
0.0
 11
32.64
 21
105.5329999999999
 31
0.0
  0
LINE
  5
162
330
1E
100
AcDbEntity
  8
0
100
AcDbLine
 10
25.36
 20
105.5329999999999
 30
0.0
 11
29.0
 21
106.0
 31
0.0
  0
LINE
  5
163
330
1E
100
AcDbEntity
  8
0
100
AcDbLine
 10
35.2533
 20
102.92
 30
0.0
 11
37.8667
 21
100.8669999999999
 31
0.0
  0
LINE
  5
164
330
1E
100
AcDbEntity
  8
0
100
AcDbLine
 10
35.72
 20
103.76
 30
0.0
 11
38.52
 21
101.5199999999999
 31
0.0
  0
LINE
  5
165
330
1E
100
AcDbEntity
  8
0
100
AcDbLine
 10
36.0
 20
104.1329999999999
 30
0.0
 11
38.8933
 21
101.8929999999999
 31
0.0
  0
LINE
  5
166
330
1E
100
AcDbEntity
  8
0
100
AcDbLine
 10
41.5
 20
87.12997168439578
 30
0.0
 11
42.06669999999999
 21
88.5467
 31
0.0
  0
LINE
  5
167
330
1E
100
AcDbEntity
  8
0
100
AcDbLine
 10
41.5
 20
85.88008
 30
0.0
 11
42.5333
 21
88.36
 31
0.0
  0
LINE
  5
168
330
1E
100
AcDbEntity
  8
0
100
AcDbLine
 10
41.5
 20
84.97399999999998
 30
0.0
 11
41.5
 21
82.04159999999999
 31
0.0
  0
LINE
  5
169
330
1E
100
AcDbEntity
  8
0
100
AcDbLine
 10
41.5
 20
84.97399999999998
 30
0.0
 11
41.5
 21
87.4449
 31
0.0
  0
LINE
  5
16A
330
1E
100
AcDbEntity
  8
0
100
AcDbLine
 10
41.5
 20
87.4449
 30
0.0
 11
41.5
 21
84.97399999999998
 31
0.0
  0
LINE
  5
16B
330
1E
100
AcDbEntity
  8
0
100
AcDbLine
 10
41.5
 20
87.4449
 30
0.0
 11
41.5
 21
89.4119
 31
0.0
  0
LINE
  5
16C
330
1E
100
AcDbEntity
  8
0
100
AcDbLine
 10
41.5
 20
78.6979
 30
0.0
 11
41.5
 21
82.04159999999999
 31
0.0
  0
LINE
  5
16D
330
1E
100
AcDbEntity
  8
0
100
AcDbLine
 10
41.5
 20
78.6979
 30
0.0
 11
41.5
 21
75.0
 31
0.0
  0
LINE
  5
16E
330
1E
100
AcDbEntity
  8
0
100
AcDbLine
 10
41.5
 20
75.0
 30
0.0
 11
41.5
 21
78.6979
 31
0.0
  0
LINE
  5
16F
330
1E
100
AcDbEntity
  8
0
100
AcDbLine
 10
41.5
 20
75.0
 30
0.0
 11
41.5
 21
71.0112
 31
0.0
  0
LINE
  5
170
330
1E
100
AcDbEntity
  8
0
100
AcDbLine
 10
41.5
 20
71.0112
 30
0.0
 11
41.5
 21
75.0
 31
0.0
  0
LINE
  5
171
330
1E
100
AcDbEntity
  8
0
100
AcDbLine
 10
41.5
 20
71.0112
 30
0.0
 11
41.5
 21
67.9027602621743
 31
0.0
  0
LINE
  5
172
330
1E
100
AcDbEntity
  8
0
100
AcDbLine
 10
42.06669999999999
 20
88.5467
 30
0.0
 11
42.5333
 21
92.0
 31
0.0
  0
LINE
  5
173
330
1E
100
AcDbEntity
  8
0
100
AcDbLine
 10
41.5
 20
82.04159999999999
 30
0.0
 11
41.5
 21
84.97399999999998
 31
0.0
  0
LINE
  5
174
330
1E
100
AcDbEntity
  8
0
100
AcDbLine
 10
41.5
 20
82.04159999999999
 30
0.0
 11
41.5
 21
78.6979
 31
0.0
  0
LINE
  5
175
330
1E
100
AcDbEntity
  8
0
100
AcDbLine
 10
41.5
 20
91.30004285408189
 30
0.0
 11
41.6
 21
92.0
 31
0.0
  0
LINE
  5
176
330
1E
100
AcDbEntity
  8
0
100
AcDbLine
 10
41.5
 20
90.84149999999999
 30
0.0
 11
41.5
 21
89.4119
 31
0.0
  0
LINE
  5
177
330
1E
100
AcDbEntity
  8
0
100
AcDbLine
 10
41.5
 20
90.84149999999999
 30
0.0
 11
41.5
 21
91.30004285408189
 31
0.0
  0
LINE
  5
178
330
1E
100
AcDbEntity
  8
0
100
AcDbLine
 10
41.1333
 20
95.26670000000001
 30
0.0
 11
41.6
 21
92.0
 31
0.0
  0
LINE
  5
17A
330
1E
100
AcDbEntity
  8
0
100
AcDbLine
 10
42.06669999999999
 20
95.45329999999999
 30
0.0
 11
42.5333
 21
92.0
 31
0.0
  0
LINE
  5
17B
330
1E
100
AcDbEntity
  8
0
100
AcDbLine
 10
41.5
 20
91.30004285408189
 30
0.0
 11
41.5
 21
90.84149999999999
 31
0.0
  0
LINE
  5
17D
330
1E
100
AcDbEntity
  8
0
100
AcDbLine
 10
41.5
 20
89.4119
 30
0.0
 11
41.5
 21
87.4449
 31
0.0
  0
LINE
  5
17E
330
1E
100
AcDbEntity
  8
0
100
AcDbLine
 10
41.5
 20
89.4119
 30
0.0
 11
41.5
 21
90.84149999999999
 31
0.0
  0
LINE
  5
180
330
1E
100
AcDbEntity
  8
0
100
AcDbLine
 10
37.8667
 20
100.8669999999999
 30
0.0
 11
39.92
 21
98.25330000000001
 31
0.0
  0
LINE
  5
181
330
1E
100
AcDbEntity
  8
0
100
AcDbLine
 10
39.92
 20
98.25330000000001
 30
0.0
 11
41.1333
 21
95.26670000000001
 31
0.0
  0
LINE
  5
182
330
1E
100
AcDbEntity
  8
0
100
AcDbLine
 10
38.52
 20
101.5199999999999
 30
0.0
 11
40.75999999999999
 21
98.71999999999999
 31
0.0
  0
LINE
  5
183
330
1E
100
AcDbEntity
  8
0
100
AcDbLine
 10
40.75999999999999
 20
98.71999999999999
 30
0.0
 11
42.06669999999999
 21
95.45329999999999
 31
0.0
  0
LINE
  5
184
330
1E
100
AcDbEntity
  8
0
100
AcDbLine
 10
38.8933
 20
101.8929999999999
 30
0.0
 11
41.1333
 21
99.0
 31
0.0
  0
LINE
  5
185
330
1E
100
AcDbEntity
  8
0
100
AcDbLine
 10
41.1333
 20
99.0
 30
0.0
 11
42.5333
 21
95.64
 31
0.0
  0
LINE
  5
188
330
1E
100
AcDbEntity
  8
0
100
AcDbLine
 10
39.9
 20
117.0
 30
0.0
 11
42.4
 21
117.0
 31
0.0
  0
LINE
  5
189
330
1E
100
AcDbEntity
  8
0
100
AcDbLine
 10
42.5333
 20
88.36
 30
0.0
 11
43.0
 21
92.0
 31
0.0
  0
LINE
  5
18A
330
1E
100
AcDbEntity
  8
0
100
AcDbLine
 10
42.5333
 20
95.64
 30
0.0
 11
43.0
 21
92.0
 31
0.0
  0
LINE
  5
18B
330
1E
100
AcDbEntity
  8
0
100
AcDbLine
 10
42.4
 20
117.0
 30
0.0
 11
43.89999999999999
 21
117.0
 31
0.0
  0
LINE
  5
18C
330
1E
100
AcDbEntity
  8
0
100
AcDbLine
 10
43.89999999999999
 20
117.0
 30
0.0
 11
44.5
 21
117.0
 31
0.0
  0
LINE
  5
18D
330
1E
100
AcDbEntity
  8
0
100
AcDbLine
 10
44.5
 20
117.0
 30
0.0
 11
45.49999999999999
 21
117.5
 31
0.0
  0
LINE
  5
18E
330
1E
100
AcDbEntity
  8
0
100
AcDbLine
 10
44.0
 20
115.5
 30
0.0
 11
44.5
 21
117.0
 31
0.0
  0
LINE
  5
18F
330
1E
100
AcDbEntity
  8
0
100
AcDbLine
 10
44.0
 20
115.5
 30
0.0
 11
44.0
 21
70.0
 31
0.0
  0
LINE
  5
190
330
1E
100
AcDbEntity
  8
0
100
AcDbLine
 10
36.7
 20
117.0
 30
0.0
 11
39.9
 21
117.0
 31
0.0
  0
LINE
  5
191
330
1E
100
AcDbEntity
  8
0
100
AcDbLine
 10
33.0
 20
117.0
 30
0.0
 11
36.7
 21
117.0
 31
0.0
  0
LINE
  5
192
330
1E
100
AcDbEntity
  8
0
100
AcDbLine
 10
29.0
 20
117.0
 30
0.0
 11
33.0
 21
117.0
 31
0.0
  0
LINE
  5
193
330
1E
100
AcDbEntity
  8
0
100
AcDbLine
 10
21.3
 20
117.0
 30
0.0
 11
25.0
 21
117.0
 31
0.0
  0
LINE
  5
194
330
1E
100
AcDbEntity
  8
0
100
AcDbLine
 10
17.3
 20
117.5
 30
0.0
 11
20.8
 21
117.5
 31
0.0
  0
LINE
  5
195
330
1E
100
AcDbEntity
  8
0
100
AcDbLine
 10
17.5
 20
142.0
 30
0.0
 11
17.9
 21
142.0
 31
0.0
  0
LINE
  5
196
330
1E
100
AcDbEntity
  8
0
100
AcDbLine
 10
17.4
 20
141.5
 30
0.0
 11
18.6
 21
141.5
 31
0.0
  0
LINE
  5
197
330
1E
100
AcDbEntity
  8
0
100
AcDbLine
 10
17.4
 20
140.0
 30
0.0
 11
18.6
 21
140.0
 31
0.0
  0
LINE
  5
198
330
1E
100
AcDbEntity
  8
0
100
AcDbLine
 10
18.07763003273669
 20
172.2328900982099
 30
0.0
 11
18.5
 21
173.5
 31
0.0
  0
LINE
  5
199
330
1E
100
AcDbEntity
  8
0
100
AcDbLine
 10
17.9
 20
142.0
 30
0.0
 11
19.0
 21
142.0
 31
0.0
  0
LINE
  5
19A
330
1E
100
AcDbEntity
  8
0
100
AcDbLine
 10
17.9
 20
139.5
 30
0.0
 11
19.0
 21
139.5
 31
0.0
  0
LINE
  5
19B
330
1E
100
AcDbEntity
  8
0
100
AcDbLine
 10
17.5
 20
139.5
 30
0.0
 11
17.9
 21
139.5
 31
0.0
  0
LINE
  5
19C
330
1E
100
AcDbEntity
  8
0
100
AcDbLine
 10
17.4
 20
139.0
 30
0.0
 11
18.6
 21
139.0
 31
0.0
  0
LINE
  5
19D
330
1E
100
AcDbEntity
  8
0
100
AcDbLine
 10
20.5
 20
139.0
 30
0.0
 11
23.0
 21
139.0
 31
0.0
  0
LINE
  5
19E
330
1E
100
AcDbEntity
  8
0
100
AcDbLine
 10
18.5335354046947
 20
163.8221548651019
 30
0.0
 11
21.0
 21
163.0
 31
0.0
  0
LINE
  5
19F
330
1E
100
AcDbEntity
  8
0
100
AcDbLine
 10
18.5777
 20
172.1429999999999
 30
0.0
 11
20.5
 21
172.0
 31
0.0
  0
LINE
  5
1A0
330
1E
100
AcDbEntity
  8
0
100
AcDbLine
 10
18.5777
 20
163.857
 30
0.0
 11
20.5
 21
164.0
 31
0.0
  0
LINE
  5
1A1
330
1E
100
AcDbEntity
  8
0
100
AcDbLine
 10
18.5
 20
173.5
 30
0.0
 11
20.0
 21
174.0
 31
0.0
  0
LINE
  5
1A2
330
1E
100
AcDbEntity
  8
0
100
AcDbLine
 10
18.5
 20
173.5
 30
0.0
 11
18.89999999999999
 21
173.5
 31
0.0
  0
LINE
  5
1A3
330
1E
100
AcDbEntity
  8
0
100
AcDbLine
 10
18.89999999999999
 20
173.5
 30
0.0
 11
19.9
 21
173.5
 31
0.0
  0
LINE
  5
1A4
330
1E
100
AcDbEntity
  8
0
100
AcDbLine
 10
19.0
 20
142.0
 30
0.0
 11
20.89999999999999
 21
142.0
 31
0.0
  0
LINE
  5
1A5
330
1E
100
AcDbEntity
  8
0
100
AcDbLine
 10
18.6
 20
141.5
 30
0.0
 11
20.5
 21
141.5
 31
0.0
  0
LINE
  5
1A6
330
1E
100
AcDbEntity
  8
0
100
AcDbLine
 10
18.6
 20
140.0
 30
0.0
 11
20.5
 21
140.0
 31
0.0
  0
LINE
  5
1A7
330
1E
100
AcDbEntity
  8
0
100
AcDbLine
 10
20.5
 20
172.0
 30
0.0
 11
23.0
 21
172.1429999999999
 31
0.0
  0
LINE
  5
1A8
330
1E
100
AcDbEntity
  8
0
100
AcDbLine
 10
20.5
 20
164.0
 30
0.0
 11
23.0
 21
163.857
 31
0.0
  0
LINE
  5
1A9
330
1E
100
AcDbEntity
  8
0
100
AcDbLine
 10
19.9
 20
173.5
 30
0.0
 11
21.6
 21
173.5
 31
0.0
  0
LINE
  5
1AA
330
1E
100
AcDbEntity
  8
0
100
AcDbLine
 10
20.5
 20
141.5
 30
0.0
 11
23.0
 21
141.5
 31
0.0
  0
LINE
  5
1AB
330
1E
100
AcDbEntity
  8
0
100
AcDbLine
 10
20.5
 20
140.0
 30
0.0
 11
23.0
 21
140.0
 31
0.0
  0
LINE
  5
1AC
330
1E
100
AcDbEntity
  8
0
100
AcDbLine
 10
19.0
 20
139.5
 30
0.0
 11
20.89999999999999
 21
139.5
 31
0.0
  0
LINE
  5
1AD
330
1E
100
AcDbEntity
  8
0
100
AcDbLine
 10
18.6
 20
139.0
 30
0.0
 11
20.5
 21
139.0
 31
0.0
  0
LINE
  5
1AE
330
1E
100
AcDbEntity
  8
0
100
AcDbLine
 10
18.39999999999999
 20
121.0
 30
0.0
 11
21.49999999999999
 21
121.0
 31
0.0
  0
LINE
  5
1AF
330
1E
100
AcDbEntity
  8
0
100
AcDbLine
 10
17.3
 20
120.5
 30
0.0
 11
20.8
 21
120.5
 31
0.0
  0
LINE
  5
1B0
330
1E
100
AcDbEntity
  8
0
100
AcDbLine
 10
21.3
 20
163.0
 30
0.0
 11
22.1
 21
163.0
 31
0.0
  0
LINE
  5
1B1
330
1E
100
AcDbEntity
  8
0
100
AcDbLine
 10
21.0
 20
163.0
 30
0.0
 11
22.5
 21
161.0
 31
0.0
  0
LINE
  5
1B2
330
1E
100
AcDbEntity
  8
0
100
AcDbLine
 10
21.0
 20
163.0
 30
0.0
 11
21.3
 21
163.0
 31
0.0
  0
LINE
  5
1B3
330
1E
100
AcDbEntity
  8
0
100
AcDbLine
 10
23.0
 20
153.0
 30
0.0
 11
23.0
 21
142.0
 31
0.0
  0
LINE
  5
1B4
330
1E
100
AcDbEntity
  8
0
100
AcDbLine
 10
23.0
 20
153.0
 30
0.0
 11
23.19999999999999
 21
153.0
 31
0.0
  0
LINE
  5
1B5
330
1E
100
AcDbEntity
  8
0
100
AcDbLine
 10
22.7
 20
153.0
 30
0.0
 11
23.0
 21
153.0
 31
0.0
  0
LINE
  5
1B6
330
1E
100
AcDbEntity
  8
0
100
AcDbLine
 10
22.7
 20
153.0
 30
0.0
 11
23.39999999999999
 21
153.0
 31
0.0
  0
LINE
  5
1B7
330
1E
100
AcDbEntity
  8
0
100
AcDbLine
 10
22.1
 20
163.0
 30
0.0
 11
23.39999999999999
 21
163.0
 31
0.0
  0
LINE
  5
1B8
330
1E
100
AcDbEntity
  8
0
100
AcDbLine
 10
22.7
 20
161.0
 30
0.0
 11
23.39999999999999
 21
161.0
 31
0.0
  0
LINE
  5
1B9
330
1E
100
AcDbEntity
  8
0
100
AcDbLine
 10
22.5
 20
161.0
 30
0.0
 11
22.5
 21
153.0
 31
0.0
  0
LINE
  5
1BA
330
1E
100
AcDbEntity
  8
0
100
AcDbLine
 10
22.5
 20
161.0
 30
0.0
 11
22.7
 21
161.0
 31
0.0
  0
LINE
  5
1BB
330
1E
100
AcDbEntity
  8
0
100
AcDbLine
 10
22.5
 20
153.0
 30
0.0
 11
22.7
 21
153.0
 31
0.0
  0
LINE
  5
1BC
330
1E
100
AcDbEntity
  8
0
100
AcDbLine
 10
22.5
 20
153.0
 30
0.0
 11
22.5
 21
161.0
 31
0.0
  0
LINE
  5
1BD
330
1E
100
AcDbEntity
  8
0
100
AcDbLine
 10
23.0
 20
142.0
 30
0.0
 11
23.0
 21
153.0
 31
0.0
  0
LINE
  5
1BE
330
1E
100
AcDbEntity
  8
0
100
AcDbLine
 10
23.0
 20
172.1429999999999
 30
0.0
 11
25.0098
 21
172.4479999999999
 31
0.0
  0
LINE
  5
1BF
330
1E
100
AcDbEntity
  8
0
100
AcDbLine
 10
23.0
 20
163.857
 30
0.0
 11
25.0098
 21
163.552
 31
0.0
  0
LINE
  5
1C0
330
1E
100
AcDbEntity
  8
0
100
AcDbLine
 10
22.6
 20
174.0
 30
0.0
 11
24.5
 21
174.0
 31
0.0
  0
LINE
  5
1C1
330
1E
100
AcDbEntity
  8
0
100
AcDbLine
 10
21.6
 20
173.5
 30
0.0
 11
23.8
 21
173.5
 31
0.0
  0
LINE
  5
1C2
330
1E
100
AcDbEntity
  8
0
100
AcDbLine
 10
20.0
 20
174.0
 30
0.0
 11
22.6
 21
174.0
 31
0.0
  0
LINE
  5
1C3
330
1E
100
AcDbEntity
  8
0
100
AcDbLine
 10
20.89999999999999
 20
142.0
 30
0.0
 11
23.3
 21
142.0
 31
0.0
  0
LINE
  5
1C4
330
1E
100
AcDbEntity
  8
0
100
AcDbLine
 10
23.0
 20
141.5
 30
0.0
 11
25.89999999999999
 21
141.5
 31
0.0
  0
LINE
  5
1C5
330
1E
100
AcDbEntity
  8
0
100
AcDbLine
 10
23.0
 20
140.0
 30
0.0
 11
25.89999999999999
 21
140.0
 31
0.0
  0
LINE
  5
1C6
330
1E
100
AcDbEntity
  8
0
100
AcDbLine
 10
20.89999999999999
 20
139.5
 30
0.0
 11
23.3
 21
139.5
 31
0.0
  0
LINE
  5
1C7
330
1E
100
AcDbEntity
  8
0
100
AcDbLine
 10
23.19999999999999
 20
153.0
 30
0.0
 11
23.8
 21
153.0
 31
0.0
  0
LINE
  5
1C8
330
1E
100
AcDbEntity
  8
0
100
AcDbLine
 10
23.39999999999999
 20
163.0
 30
0.0
 11
25.0
 21
163.0
 31
0.0
  0
LINE
  5
1C9
330
1E
100
AcDbEntity
  8
0
100
AcDbLine
 10
23.39999999999999
 20
161.0
 30
0.0
 11
24.39999999999999
 21
161.0
 31
0.0
  0
LINE
  5
1CA
330
1E
100
AcDbEntity
  8
0
100
AcDbLine
 10
23.39999999999999
 20
153.0
 30
0.0
 11
24.39999999999999
 21
153.0
 31
0.0
  0
LINE
  5
1CB
330
1E
100
AcDbEntity
  8
0
100
AcDbLine
 10
24.39999999999999
 20
161.0
 30
0.0
 11
25.8
 21
161.0
 31
0.0
  0
LINE
  5
1CC
330
1E
100
AcDbEntity
  8
0
100
AcDbLine
 10
24.39999999999999
 20
153.0
 30
0.0
 11
25.8
 21
153.0
 31
0.0
  0
LINE
  5
1CD
330
1E
100
AcDbEntity
  8
0
100
AcDbLine
 10
23.8
 20
153.0
 30
0.0
 11
24.8
 21
153.0
 31
0.0
  0
LINE
  5
1CE
330
1E
100
AcDbEntity
  8
0
100
AcDbLine
 10
24.5
 20
174.0
 30
0.0
 11
26.69999999999999
 21
174.0
 31
0.0
  0
LINE
  5
1CF
330
1E
100
AcDbEntity
  8
0
100
AcDbLine
 10
23.8
 20
173.5
 30
0.0
 11
26.3
 21
173.5
 31
0.0
  0
LINE
  5
1D0
330
1E
100
AcDbEntity
  8
0
100
AcDbLine
 10
23.3
 20
142.0
 30
0.0
 11
26.0
 21
142.0
 31
0.0
  0
LINE
  5
1D1
330
1E
100
AcDbEntity
  8
0
100
AcDbLine
 10
23.3
 20
139.5
 30
0.0
 11
26.0
 21
139.5
 31
0.0
  0
LINE
  5
1D2
330
1E
100
AcDbEntity
  8
0
100
AcDbLine
 10
23.0
 20
139.0
 30
0.0
 11
25.89999999999999
 21
139.0
 31
0.0
  0
LINE
  5
1D3
330
1E
100
AcDbEntity
  8
0
100
AcDbLine
 10
21.49999999999999
 20
121.0
 30
0.0
 11
25.1
 21
121.0
 31
0.0
  0
LINE
  5
1D4
330
1E
100
AcDbEntity
  8
0
100
AcDbLine
 10
21.49999999999999
 20
121.0
 30
0.0
 11
24.8415
 21
121.0
 31
0.0
  0
LINE
  5
1D5
330
1E
100
AcDbEntity
  8
0
100
AcDbLine
 10
20.8
 20
120.5
 30
0.0
 11
24.8
 21
120.5
 31
0.0
  0
LINE
  5
1D7
330
1E
100
AcDbEntity
  8
0
100
AcDbLine
 10
24.8
 20
153.0
 30
0.0
 11
26.0
 21
153.0
 31
0.0
  0
LINE
  5
1D8
330
1E
100
AcDbEntity
  8
0
100
AcDbLine
 10
24.8
 20
120.5
 30
0.0
 11
29.0
 21
120.5
 31
0.0
  0
LINE
  5
1DA
330
1E
100
AcDbEntity
  8
0
100
AcDbLine
 10
20.8
 20
117.5
 30
0.0
 11
24.8
 21
117.5
 31
0.0
  0
LINE
  5
1DC
330
1E
100
AcDbEntity
  8
0
100
AcDbLine
 10
24.8415
 20
121.0
 30
0.0
 11
32.9
 21
121.0
 31
0.0
  0
LINE
  5
1DD
330
1E
100
AcDbEntity
  8
0
100
AcDbLine
 10
29.0
 20
120.5
 30
0.0
 11
33.2
 21
120.5
 31
0.0
  0
LINE
  5
1DF
330
1E
100
AcDbEntity
  8
0
100
AcDbLine
 10
40.7
 20
117.5
 30
0.0
 11
43.3
 21
117.5
 31
0.0
  0
LINE
  5
1E0
330
1E
100
AcDbEntity
  8
0
100
AcDbLine
 10
45.49999999999999
 20
117.5
 30
0.0
 11
46.0
 21
119.0
 31
0.0
  0
LINE
  5
1E1
330
1E
100
AcDbEntity
  8
0
100
AcDbLine
 10
43.3
 20
117.5
 30
0.0
 11
44.9
 21
117.5
 31
0.0
  0
LINE
  5
1E2
330
1E
100
AcDbEntity
  8
0
100
AcDbLine
 10
44.9
 20
117.5
 30
0.0
 11
45.49999999999999
 21
117.5
 31
0.0
  0
LINE
  5
1E3
330
1E
100
AcDbEntity
  8
0
100
AcDbLine
 10
37.2
 20
117.5
 30
0.0
 11
40.7
 21
117.5
 31
0.0
  0
LINE
  5
1E4
330
1E
100
AcDbEntity
  8
0
100
AcDbLine
 10
32.9
 20
121.0
 30
0.0
 11
36.5
 21
121.0
 31
0.0
  0
LINE
  5
1E5
330
1E
100
AcDbEntity
  8
0
100
AcDbLine
 10
33.2
 20
120.5
 30
0.0
 11
37.2
 21
120.5
 31
0.0
  0
LINE
  5
1E6
330
1E
100
AcDbEntity
  8
0
100
AcDbLine
 10
40.7
 20
120.5
 30
0.0
 11
43.3
 21
120.5
 31
0.0
  0
LINE
  5
1E7
330
1E
100
AcDbEntity
  8
0
100
AcDbLine
 10
43.3
 20
120.5
 30
0.0
 11
44.9
 21
120.5
 31
0.0
  0
LINE
  5
1E8
330
1E
100
AcDbEntity
  8
0
100
AcDbLine
 10
44.9
 20
120.5
 30
0.0
 11
45.49999999999999
 21
120.5
 31
0.0
  0
LINE
  5
1EA
330
1E
100
AcDbEntity
  8
0
100
AcDbLine
 10
45.49999999999999
 20
120.5
 30
0.0
 11
46.0
 21
119.0
 31
0.0
  0
LINE
  5
1EC
330
1E
100
AcDbEntity
  8
0
100
AcDbLine
 10
36.5
 20
121.0
 30
0.0
 11
40.3415
 21
121.0
 31
0.0
  0
LINE
  5
1EE
330
1E
100
AcDbEntity
  8
0
100
AcDbLine
 10
39.6
 20
121.0
 30
0.0
 11
42.0
 21
121.0
 31
0.0
  0
LINE
  5
1EF
330
1E
100
AcDbEntity
  8
0
100
AcDbLine
 10
42.0
 20
121.0
 30
0.0
 11
43.5
 21
121.0
 31
0.0
  0
LINE
  5
1F0
330
1E
100
AcDbEntity
  8
0
100
AcDbLine
 10
44.5
 20
121.0
 30
0.0
 11
44.5
 21
127.0
 31
0.0
  0
LINE
  5
1F1
330
1E
100
AcDbEntity
  8
0
100
AcDbLine
 10
44.0
 20
121.0
 30
0.0
 11
45.49999999999999
 21
120.5
 31
0.0
  0
LINE
  5
1F2
330
1E
100
AcDbEntity
  8
0
100
AcDbLine
 10
44.0
 20
121.0
 30
0.0
 11
44.5
 21
121.0
 31
0.0
  0
LINE
  5
1F3
330
1E
100
AcDbEntity
  8
0
100
AcDbLine
 10
43.5
 20
121.0
 30
0.0
 11
44.0
 21
121.0
 31
0.0
  0
LINE
  5
1F4
330
1E
100
AcDbEntity
  8
0
100
AcDbLine
 10
37.2
 20
120.5
 30
0.0
 11
40.7
 21
120.5
 31
0.0
  0
LINE
  5
1F6
330
1E
100
AcDbEntity
  8
0
100
AcDbLine
 10
33.2
 20
117.5
 30
0.0
 11
37.2
 21
117.5
 31
0.0
  0
LINE
  5
1F7
330
1E
100
AcDbEntity
  8
0
100
AcDbLine
 10
29.0
 20
117.5
 30
0.0
 11
33.2
 21
117.5
 31
0.0
  0
LINE
  5
1F9
330
1E
100
AcDbEntity
  8
0
100
AcDbLine
 10
24.8415
 20
127.0
 30
0.0
 11
40.3415
 21
127.0
 31
0.0
  0
LINE
  5
1FA
330
1E
100
AcDbEntity
  8
0
100
AcDbLine
 10
25.0
 20
163.0
 30
0.0
 11
26.89999999999999
 21
163.0
 31
0.0
  0
LINE
  5
1FB
330
1E
100
AcDbEntity
  8
0
100
AcDbLine
 10
25.8
 20
161.0
 30
0.0
 11
27.3
 21
161.0
 31
0.0
  0
LINE
  5
1FC
330
1E
100
AcDbEntity
  8
0
100
AcDbLine
 10
25.8
 20
153.0
 30
0.0
 11
27.3
 21
153.0
 31
0.0
  0
LINE
  5
1FD
330
1E
100
AcDbEntity
  8
0
100
AcDbLine
 10
25.0098
 20
163.552
 30
0.0
 11
26.8536
 21
163.217
 31
0.0
  0
LINE
  5
1FE
330
1E
100
AcDbEntity
  8
0
100
AcDbLine
 10
25.0098
 20
172.4479999999999
 30
0.0
 11
26.8536
 21
172.7829999999999
 31
0.0
  0
LINE
  5
1FF
330
1E
100
AcDbEntity
  8
0
100
AcDbLine
 10
25.89999999999999
 20
141.5
 30
0.0
 11
29.0
 21
141.5
 31
0.0
  0
LINE
  5
200
330
1E
100
AcDbEntity
  8
0
100
AcDbLine
 10
25.89999999999999
 20
140.0
 30
0.0
 11
29.0
 21
140.0
 31
0.0
  0
LINE
  5
201
330
1E
100
AcDbEntity
  8
0
100
AcDbLine
 10
29.0
 20
139.5
 30
0.0
 11
32.0
 21
139.5
 31
0.0
  0
LINE
  5
203
330
1E
100
AcDbEntity
  8
0
100
AcDbLine
 10
40.3415
 20
127.0
 30
0.0
 11
44.5
 21
127.0
 31
0.0
  0
LINE
  5
204
330
1E
100
AcDbEntity
  8
0
100
AcDbLine
 10
44.5
 20
127.0
 30
0.0
 11
44.5
 21
121.0
 31
0.0
  0
LINE
  5
205
330
1E
100
AcDbEntity
  8
0
100
AcDbLine
 10
37.5
 20
139.0
 30
0.0
 11
39.39999999999999
 21
139.0
 31
0.0
  0
LINE
  5
206
330
1E
100
AcDbEntity
  8
0
100
AcDbLine
 10
39.39999999999999
 20
139.0
 30
0.0
 11
40.6
 21
139.0
 31
0.0
  0
LINE
  5
207
330
1E
100
AcDbEntity
  8
0
100
AcDbLine
 10
41.0
 20
139.0
 30
0.0
 11
41.0
 21
127.0
 31
0.0
  0
LINE
  5
208
330
1E
100
AcDbEntity
  8
0
100
AcDbLine
 10
40.6
 20
139.0
 30
0.0
 11
41.0
 21
139.0
 31
0.0
  0
LINE
  5
209
330
1E
100
AcDbEntity
  8
0
100
AcDbLine
 10
41.0
 20
127.0
 30
0.0
 11
41.0
 21
139.0
 31
0.0
  0
LINE
  5
20A
330
1E
100
AcDbEntity
  8
0
100
AcDbLine
 10
35.0
 20
139.0
 30
0.0
 11
37.5
 21
139.0
 31
0.0
  0
LINE
  5
20B
330
1E
100
AcDbEntity
  8
0
100
AcDbLine
 10
37.1
 20
139.5
 30
0.0
 11
39.0
 21
139.5
 31
0.0
  0
LINE
  5
20C
330
1E
100
AcDbEntity
  8
0
100
AcDbLine
 10
39.0
 20
139.5
 30
0.0
 11
40.1
 21
139.5
 31
0.0
  0
LINE
  5
20D
330
1E
100
AcDbEntity
  8
0
100
AcDbLine
 10
40.49999999999999
 20
139.5
 30
0.0
 11
41.0
 21
139.0
 31
0.0
  0
LINE
  5
20E
330
1E
100
AcDbEntity
  8
0
100
AcDbLine
 10
40.49999999999999
 20
139.5
 30
0.0
 11
41.0
 21
140.0
 31
0.0
  0
LINE
  5
20F
330
1E
100
AcDbEntity
  8
0
100
AcDbLine
 10
40.1
 20
139.5
 30
0.0
 11
40.49999999999999
 21
139.5
 31
0.0
  0
LINE
  5
210
330
1E
100
AcDbEntity
  8
0
100
AcDbLine
 10
34.7
 20
139.5
 30
0.0
 11
37.1
 21
139.5
 31
0.0
  0
LINE
  5
211
330
1E
100
AcDbEntity
  8
0
100
AcDbLine
 10
32.0
 20
139.5
 30
0.0
 11
34.7
 21
139.5
 31
0.0
  0
LINE
  5
212
330
1E
100
AcDbEntity
  8
0
100
AcDbLine
 10
32.1
 20
139.0
 30
0.0
 11
35.0
 21
139.0
 31
0.0
  0
LINE
  5
213
330
1E
100
AcDbEntity
  8
0
100
AcDbLine
 10
29.0
 20
139.0
 30
0.0
 11
32.1
 21
139.0
 31
0.0
  0
LINE
  5
214
330
1E
100
AcDbEntity
  8
0
100
AcDbLine
 10
26.0
 20
153.0
 30
0.0
 11
27.5
 21
153.0
 31
0.0
  0
LINE
  5
215
330
1E
100
AcDbEntity
  8
0
100
AcDbLine
 10
37.5
 20
140.0
 30
0.0
 11
39.39999999999999
 21
140.0
 31
0.0
  0
LINE
  5
216
330
1E
100
AcDbEntity
  8
0
100
AcDbLine
 10
39.39999999999999
 20
140.0
 30
0.0
 11
40.6
 21
140.0
 31
0.0
  0
LINE
  5
217
330
1E
100
AcDbEntity
  8
0
100
AcDbLine
 10
41.0
 20
140.0
 30
0.0
 11
41.0
 21
141.5
 31
0.0
  0
LINE
  5
218
330
1E
100
AcDbEntity
  8
0
100
AcDbLine
 10
40.6
 20
140.0
 30
0.0
 11
41.0
 21
140.0
 31
0.0
  0
LINE
  5
219
330
1E
100
AcDbEntity
  8
0
100
AcDbLine
 10
35.0
 20
140.0
 30
0.0
 11
37.5
 21
140.0
 31
0.0
  0
LINE
  5
21A
330
1E
100
AcDbEntity
  8
0
100
AcDbLine
 10
32.1
 20
140.0
 30
0.0
 11
35.0
 21
140.0
 31
0.0
  0
LINE
  5
21B
330
1E
100
AcDbEntity
  8
0
100
AcDbLine
 10
26.89999999999999
 20
163.0
 30
0.0
 11
27.2844705882353
 21
163.0
 31
0.0
  0
LINE
  5
21C
330
1E
100
AcDbEntity
  8
0
100
AcDbLine
 10
27.3
 20
161.0
 30
0.0
 11
29.0
 21
161.0
 31
0.0
  0
LINE
  5
21D
330
1E
100
AcDbEntity
  8
0
100
AcDbLine
 10
27.3
 20
153.0
 30
0.0
 11
29.0
 21
153.0
 31
0.0
  0
LINE
  5
21E
330
1E
100
AcDbEntity
  8
0
100
AcDbLine
 10
27.2
 20
170.949
 30
0.0
 11
27.7
 21
173.409
 31
0.0
  0
LINE
  5
21F
330
1E
100
AcDbEntity
  8
0
100
AcDbLine
 10
27.0
 20
168.0
 30
0.0
 11
27.2
 21
165.0509999999999
 31
0.0
  0
LINE
  5
220
330
1E
100
AcDbEntity
  8
0
100
AcDbLine
 10
27.0
 20
168.0
 30
0.0
 11
27.2
 21
170.949
 31
0.0
  0
LINE
  5
221
330
1E
100
AcDbEntity
  8
0
100
AcDbLine
 10
27.2
 20
165.0509999999999
 30
0.0
 11
27.7
 21
162.591
 31
0.0
  0
LINE
  5
222
330
1E
100
AcDbEntity
  8
0
100
AcDbLine
 10
26.8536
 20
163.217
 30
0.0
 11
27.6248143899836
 21
162.82859214113
 31
0.0
  0
LINE
  5
224
330
1E
100
AcDbEntity
  8
0
100
AcDbLine
 10
26.69999999999999
 20
174.0
 30
0.0
 11
29.0
 21
174.0
 31
0.0
  0
LINE
  5
225
330
1E
100
AcDbEntity
  8
0
100
AcDbLine
 10
26.3
 20
173.5
 30
0.0
 11
27.7911823647295
 21
173.5
 31
0.0
  0
LINE
  5
226
330
1E
100
AcDbEntity
  8
0
100
AcDbLine
 10
26.8536
 20
172.7829999999999
 30
0.0
 11
27.6248143899836
 21
173.17140785887
 31
0.0
  0
LINE
  5
227
330
1E
100
AcDbEntity
  8
0
100
AcDbLine
 10
27.5
 20
153.0
 30
0.0
 11
29.0
 21
153.0
 31
0.0
  0
LINE
  5
229
330
1E
100
AcDbEntity
  8
0
100
AcDbLine
 10
27.7
 20
162.591
 30
0.0
 11
28.2
 21
162.092
 31
0.0
  0
LINE
  5
22C
330
1E
100
AcDbEntity
  8
0
100
AcDbLine
 10
28.2
 20
162.092
 30
0.0
 11
28.2
 21
162.476
 31
0.0
  0
LINE
  5
22D
330
1E
100
AcDbEntity
  8
0
100
AcDbLine
 10
28.2
 20
162.092
 30
0.0
 11
29.0
 21
162.1109999999999
 31
0.0
  0
LINE
  5
22E
330
1E
100
AcDbEntity
  8
0
100
AcDbLine
 10
28.2
 20
162.476
 30
0.0
 11
28.2
 21
163.187
 31
0.0
  0
LINE
  5
22F
330
1E
100
AcDbEntity
  8
0
100
AcDbLine
 10
28.2
 20
162.476
 30
0.0
 11
28.2
 21
162.092
 31
0.0
  0
LINE
  5
233
330
1E
100
AcDbEntity
  8
0
100
AcDbLine
 10
28.2
 20
163.187
 30
0.0
 11
28.2
 21
163.9559999999999
 31
0.0
  0
LINE
  5
234
330
1E
100
AcDbEntity
  8
0
100
AcDbLine
 10
28.2
 20
163.187
 30
0.0
 11
28.2
 21
162.476
 31
0.0
  0
LINE
  5
235
330
1E
100
AcDbEntity
  8
0
100
AcDbLine
 10
29.0
 20
161.0
 30
0.0
 11
30.7
 21
161.0
 31
0.0
  0
LINE
  5
236
330
1E
100
AcDbEntity
  8
0
100
AcDbLine
 10
29.0
 20
153.0
 30
0.0
 11
30.5
 21
153.0
 31
0.0
  0
LINE
  5
237
330
1E
100
AcDbEntity
  8
0
100
AcDbLine
 10
29.0
 20
153.0
 30
0.0
 11
30.7
 21
153.0
 31
0.0
  0
LINE
  5
238
330
1E
100
AcDbEntity
  8
0
100
AcDbLine
 10
29.0
 20
162.1109999999999
 30
0.0
 11
29.8
 21
162.092
 31
0.0
  0
LINE
  5
239
330
1E
100
AcDbEntity
  8
0
100
AcDbLine
 10
28.2
 20
163.9559999999999
 30
0.0
 11
28.2
 21
165.071
 31
0.0
  0
LINE
  5
23A
330
1E
100
AcDbEntity
  8
0
100
AcDbLine
 10
28.2
 20
163.9559999999999
 30
0.0
 11
28.2
 21
163.187
 31
0.0
  0
LINE
  5
240
330
1E
100
AcDbEntity
  8
0
100
AcDbLine
 10
27.7
 20
173.409
 30
0.0
 11
28.2
 21
173.9079999999999
 31
0.0
  0
LINE
  5
242
330
1E
100
AcDbEntity
  8
0
100
AcDbLine
 10
28.2
 20
173.524
 30
0.0
 11
28.2
 21
173.9079999999999
 31
0.0
  0
LINE
  5
243
330
1E
100
AcDbEntity
  8
0
100
AcDbLine
 10
28.2
 20
173.524
 30
0.0
 11
28.2
 21
172.8129999999999
 31
0.0
  0
LINE
  5
244
330
1E
100
AcDbEntity
  8
0
100
AcDbLine
 10
28.2
 20
173.9079999999999
 30
0.0
 11
29.0
 21
173.889
 31
0.0
  0
LINE
  5
245
330
1E
100
AcDbEntity
  8
0
100
AcDbLine
 10
28.2
 20
173.9079999999999
 30
0.0
 11
28.2
 21
173.524
 31
0.0
  0
LINE
  5
246
330
1E
100
AcDbEntity
  8
0
100
AcDbLine
 10
28.2
 20
172.8129999999999
 30
0.0
 11
28.2
 21
173.524
 31
0.0
  0
LINE
  5
247
330
1E
100
AcDbEntity
  8
0
100
AcDbLine
 10
28.2
 20
172.8129999999999
 30
0.0
 11
28.2
 21
172.044
 31
0.0
  0
LINE
  5
248
330
1E
100
AcDbEntity
  8
0
100
AcDbLine
 10
28.2
 20
172.044
 30
0.0
 11
28.2
 21
172.8129999999999
 31
0.0
  0
LINE
  5
249
330
1E
100
AcDbEntity
  8
0
100
AcDbLine
 10
28.2
 20
172.044
 30
0.0
 11
28.2
 21
170.929
 31
0.0
  0
LINE
  5
24A
330
1E
100
AcDbEntity
  8
0
100
AcDbLine
 10
28.2
 20
170.929
 30
0.0
 11
28.2
 21
172.044
 31
0.0
  0
LINE
  5
24B
330
1E
100
AcDbEntity
  8
0
100
AcDbLine
 10
28.2
 20
170.929
 30
0.0
 11
28.2
 21
168.0
 31
0.0
  0
LINE
  5
24C
330
1E
100
AcDbEntity
  8
0
100
AcDbLine
 10
29.0
 20
173.889
 30
0.0
 11
29.8
 21
173.9079999999999
 31
0.0
  0
LINE
  5
24D
330
1E
100
AcDbEntity
  8
0
100
AcDbLine
 10
28.2
 20
168.0
 30
0.0
 11
28.2
 21
165.071
 31
0.0
  0
LINE
  5
24E
330
1E
100
AcDbEntity
  8
0
100
AcDbLine
 10
28.2
 20
168.0
 30
0.0
 11
28.2
 21
170.929
 31
0.0
  0
LINE
  5
24F
330
1E
100
AcDbEntity
  8
0
100
AcDbLine
 10
28.2
 20
165.071
 30
0.0
 11
28.2
 21
168.0
 31
0.0
  0
LINE
  5
250
330
1E
100
AcDbEntity
  8
0
100
AcDbLine
 10
28.2
 20
165.071
 30
0.0
 11
28.2
 21
163.9559999999999
 31
0.0
  0
LINE
  5
252
330
1E
100
AcDbEntity
  8
0
100
AcDbLine
 10
29.0
 20
142.0
 30
0.0
 11
32.0
 21
142.0
 31
0.0
  0
LINE
  5
253
330
1E
100
AcDbEntity
  8
0
100
AcDbLine
 10
37.5
 20
141.5
 30
0.0
 11
39.39999999999999
 21
141.5
 31
0.0
  0
LINE
  5
254
330
1E
100
AcDbEntity
  8
0
100
AcDbLine
 10
41.0
 20
141.5
 30
0.0
 11
41.0
 21
140.0
 31
0.0
  0
LINE
  5
255
330
1E
100
AcDbEntity
  8
0
100
AcDbLine
 10
39.39999999999999
 20
141.5
 30
0.0
 11
40.6
 21
141.5
 31
0.0
  0
LINE
  5
256
330
1E
100
AcDbEntity
  8
0
100
AcDbLine
 10
40.6
 20
141.5
 30
0.0
 11
41.0
 21
141.5
 31
0.0
  0
LINE
  5
257
330
1E
100
AcDbEntity
  8
0
100
AcDbLine
 10
35.0
 20
141.5
 30
0.0
 11
37.5
 21
141.5
 31
0.0
  0
LINE
  5
258
330
1E
100
AcDbEntity
  8
0
100
AcDbLine
 10
29.8
 20
162.092
 30
0.0
 11
29.8
 21
162.476
 31
0.0
  0
LINE
  5
259
330
1E
100
AcDbEntity
  8
0
100
AcDbLine
 10
29.8
 20
162.092
 30
0.0
 11
30.3
 21
162.591
 31
0.0
  0
LINE
  5
25A
330
1E
100
AcDbEntity
  8
0
100
AcDbLine
 10
30.7
 20
153.0
 30
0.0
 11
32.2
 21
153.0
 31
0.0
  0
LINE
  5
25B
330
1E
100
AcDbEntity
  8
0
100
AcDbLine
 10
30.7
 20
161.0
 30
0.0
 11
32.2
 21
161.0
 31
0.0
  0
LINE
  5
25C
330
1E
100
AcDbEntity
  8
0
100
AcDbLine
 10
32.0
 20
153.0
 30
0.0
 11
33.2
 21
153.0
 31
0.0
  0
LINE
  5
25D
330
1E
100
AcDbEntity
  8
0
100
AcDbLine
 10
30.5
 20
153.0
 30
0.0
 11
32.0
 21
153.0
 31
0.0
  0
LINE
  5
25F
330
1E
100
AcDbEntity
  8
0
100
AcDbLine
 10
30.3
 20
162.591
 30
0.0
 11
30.8
 21
165.0509999999999
 31
0.0
  0
LINE
  5
260
330
1E
100
AcDbEntity
  8
0
100
AcDbLine
 10
29.8
 20
162.476
 30
0.0
 11
29.8
 21
162.092
 31
0.0
  0
LINE
  5
261
330
1E
100
AcDbEntity
  8
0
100
AcDbLine
 10
29.8
 20
162.476
 30
0.0
 11
29.8
 21
163.187
 31
0.0
  0
LINE
  5
262
330
1E
100
AcDbEntity
  8
0
100
AcDbLine
 10
29.8
 20
163.187
 30
0.0
 11
29.8
 21
162.476
 31
0.0
  0
LINE
  5
263
330
1E
100
AcDbEntity
  8
0
100
AcDbLine
 10
29.8
 20
163.187
 30
0.0
 11
29.8
 21
163.9559999999999
 31
0.0
  0
LINE
  5
264
330
1E
100
AcDbEntity
  8
0
100
AcDbLine
 10
29.8
 20
163.9559999999999
 30
0.0
 11
29.8
 21
163.187
 31
0.0
  0
LINE
  5
265
330
1E
100
AcDbEntity
  8
0
100
AcDbLine
 10
29.8
 20
163.9559999999999
 30
0.0
 11
29.8
 21
165.071
 31
0.0
  0
LINE
  5
26B
330
1E
100
AcDbEntity
  8
0
100
AcDbLine
 10
29.8
 20
165.071
 30
0.0
 11
29.8
 21
163.9559999999999
 31
0.0
  0
LINE
  5
26C
330
1E
100
AcDbEntity
  8
0
100
AcDbLine
 10
29.8
 20
165.071
 30
0.0
 11
29.8
 21
168.0
 31
0.0
  0
LINE
  5
26D
330
1E
100
AcDbEntity
  8
0
100
AcDbLine
 10
29.8
 20
172.8129999999999
 30
0.0
 11
29.8
 21
172.044
 31
0.0
  0
LINE
  5
26E
330
1E
100
AcDbEntity
  8
0
100
AcDbLine
 10
29.8
 20
172.8129999999999
 30
0.0
 11
29.8
 21
173.524
 31
0.0
  0
LINE
  5
26F
330
1E
100
AcDbEntity
  8
0
100
AcDbLine
 10
29.8
 20
172.044
 30
0.0
 11
29.8
 21
170.929
 31
0.0
  0
LINE
  5
270
330
1E
100
AcDbEntity
  8
0
100
AcDbLine
 10
29.8
 20
172.044
 30
0.0
 11
29.8
 21
172.8129999999999
 31
0.0
  0
LINE
  5
276
330
1E
100
AcDbEntity
  8
0
100
AcDbLine
 10
29.8
 20
170.929
 30
0.0
 11
29.8
 21
168.0
 31
0.0
  0
LINE
  5
277
330
1E
100
AcDbEntity
  8
0
100
AcDbLine
 10
29.8
 20
170.929
 30
0.0
 11
29.8
 21
172.044
 31
0.0
  0
LINE
  5
278
330
1E
100
AcDbEntity
  8
0
100
AcDbLine
 10
29.8
 20
168.0
 30
0.0
 11
29.8
 21
165.071
 31
0.0
  0
LINE
  5
279
330
1E
100
AcDbEntity
  8
0
100
AcDbLine
 10
29.8
 20
168.0
 30
0.0
 11
29.8
 21
170.929
 31
0.0
  0
LINE
  5
27A
330
1E
100
AcDbEntity
  8
0
100
AcDbLine
 10
30.3751856100164
 20
173.17140785887
 30
0.0
 11
31.1464
 21
172.7829999999999
 31
0.0
  0
LINE
  5
27B
330
1E
100
AcDbEntity
  8
0
100
AcDbLine
 10
29.8
 20
173.9079999999999
 30
0.0
 11
29.8
 21
173.524
 31
0.0
  0
LINE
  5
27C
330
1E
100
AcDbEntity
  8
0
100
AcDbLine
 10
29.8
 20
173.9079999999999
 30
0.0
 11
30.3
 21
173.409
 31
0.0
  0
LINE
  5
27D
330
1E
100
AcDbEntity
  8
0
100
AcDbLine
 10
29.8
 20
173.524
 30
0.0
 11
29.8
 21
172.8129999999999
 31
0.0
  0
LINE
  5
27E
330
1E
100
AcDbEntity
  8
0
100
AcDbLine
 10
29.8
 20
173.524
 30
0.0
 11
29.8
 21
173.9079999999999
 31
0.0
  0
LINE
  5
280
330
1E
100
AcDbEntity
  8
0
100
AcDbLine
 10
30.3
 20
173.409
 30
0.0
 11
30.8
 21
170.949
 31
0.0
  0
LINE
  5
281
330
1E
100
AcDbEntity
  8
0
100
AcDbLine
 10
30.2088176352705
 20
173.5
 30
0.0
 11
31.69999999999999
 21
173.5
 31
0.0
  0
LINE
  5
283
330
1E
100
AcDbEntity
  8
0
100
AcDbLine
 10
31.1
 20
163.0
 30
0.0
 11
33.0
 21
163.0
 31
0.0
  0
LINE
  5
284
330
1E
100
AcDbEntity
  8
0
100
AcDbLine
 10
30.7155294117647
 20
163.0
 30
0.0
 11
31.1
 21
163.0
 31
0.0
  0
LINE
  5
285
330
1E
100
AcDbEntity
  8
0
100
AcDbLine
 10
30.8
 20
170.949
 30
0.0
 11
31.0
 21
168.0
 31
0.0
  0
LINE
  5
286
330
1E
100
AcDbEntity
  8
0
100
AcDbLine
 10
30.8
 20
165.0509999999999
 30
0.0
 11
31.0
 21
168.0
 31
0.0
  0
LINE
  5
287
330
1E
100
AcDbEntity
  8
0
100
AcDbLine
 10
29.0
 20
174.0
 30
0.0
 11
33.5
 21
174.0
 31
0.0
  0
LINE
  5
288
330
1E
100
AcDbEntity
  8
0
100
AcDbLine
 10
31.69999999999999
 20
173.5
 30
0.0
 11
34.2
 21
173.5
 31
0.0
  0
LINE
  5
289
330
1E
100
AcDbEntity
  8
0
100
AcDbLine
 10
31.1464
 20
172.7829999999999
 30
0.0
 11
32.9902
 21
172.4479999999999
 31
0.0
  0
LINE
  5
28A
330
1E
100
AcDbEntity
  8
0
100
AcDbLine
 10
31.1464
 20
163.217
 30
0.0
 11
32.9902
 21
163.552
 31
0.0
  0
LINE
  5
28B
330
1E
100
AcDbEntity
  8
0
100
AcDbLine
 10
30.3751856100164
 20
162.82859214113
 30
0.0
 11
31.1464
 21
163.217
 31
0.0
  0
LINE
  5
28D
330
1E
100
AcDbEntity
  8
0
100
AcDbLine
 10
35.0
 20
142.0
 30
0.0
 11
35.0
 21
153.0
 31
0.0
  0
LINE
  5
28E
330
1E
100
AcDbEntity
  8
0
100
AcDbLine
 10
37.1
 20
142.0
 30
0.0
 11
39.0
 21
142.0
 31
0.0
  0
LINE
  5
28F
330
1E
100
AcDbEntity
  8
0
100
AcDbLine
 10
39.0
 20
142.0
 30
0.0
 11
40.1
 21
142.0
 31
0.0
  0
LINE
  5
290
330
1E
100
AcDbEntity
  8
0
100
AcDbLine
 10
40.49999999999999
 20
142.0
 30
0.0
 11
41.0
 21
141.5
 31
0.0
  0
LINE
  5
291
330
1E
100
AcDbEntity
  8
0
100
AcDbLine
 10
40.1
 20
142.0
 30
0.0
 11
40.49999999999999
 21
142.0
 31
0.0
  0
LINE
  5
292
330
1E
100
AcDbEntity
  8
0
100
AcDbLine
 10
32.2
 20
161.0
 30
0.0
 11
33.6
 21
161.0
 31
0.0
  0
LINE
  5
293
330
1E
100
AcDbEntity
  8
0
100
AcDbLine
 10
32.2
 20
153.0
 30
0.0
 11
33.6
 21
153.0
 31
0.0
  0
LINE
  5
294
330
1E
100
AcDbEntity
  8
0
100
AcDbLine
 10
33.6
 20
153.0
 30
0.0
 11
34.6
 21
153.0
 31
0.0
  0
LINE
  5
295
330
1E
100
AcDbEntity
  8
0
100
AcDbLine
 10
33.2
 20
153.0
 30
0.0
 11
34.2
 21
153.0
 31
0.0
  0
LINE
  5
296
330
1E
100
AcDbEntity
  8
0
100
AcDbLine
 10
35.0
 20
153.0
 30
0.0
 11
35.0
 21
142.0
 31
0.0
  0
LINE
  5
297
330
1E
100
AcDbEntity
  8
0
100
AcDbLine
 10
35.0
 20
153.0
 30
0.0
 11
35.29999999999999
 21
153.0
 31
0.0
  0
LINE
  5
298
330
1E
100
AcDbEntity
  8
0
100
AcDbLine
 10
35.5
 20
153.0
 30
0.0
 11
35.5
 21
161.0
 31
0.0
  0
LINE
  5
299
330
1E
100
AcDbEntity
  8
0
100
AcDbLine
 10
34.6
 20
153.0
 30
0.0
 11
35.29999999999999
 21
153.0
 31
0.0
  0
LINE
  5
29A
330
1E
100
AcDbEntity
  8
0
100
AcDbLine
 10
35.29999999999999
 20
153.0
 30
0.0
 11
35.5
 21
153.0
 31
0.0
  0
LINE
  5
29B
330
1E
100
AcDbEntity
  8
0
100
AcDbLine
 10
34.2
 20
153.0
 30
0.0
 11
34.79999999999999
 21
153.0
 31
0.0
  0
LINE
  5
29C
330
1E
100
AcDbEntity
  8
0
100
AcDbLine
 10
33.6
 20
161.0
 30
0.0
 11
34.6
 21
161.0
 31
0.0
  0
LINE
  5
29D
330
1E
100
AcDbEntity
  8
0
100
AcDbLine
 10
33.0
 20
163.0
 30
0.0
 11
34.6
 21
163.0
 31
0.0
  0
LINE
  5
29E
330
1E
100
AcDbEntity
  8
0
100
AcDbLine
 10
34.6
 20
163.0
 30
0.0
 11
35.89999999999999
 21
163.0
 31
0.0
  0
LINE
  5
29F
330
1E
100
AcDbEntity
  8
0
100
AcDbLine
 10
34.6
 20
161.0
 30
0.0
 11
35.29999999999999
 21
161.0
 31
0.0
  0
LINE
  5
2A0
330
1E
100
AcDbEntity
  8
0
100
AcDbLine
 10
37.0
 20
163.0
 30
0.0
 11
39.4664645953054
 21
163.8221548651019
 31
0.0
  0
LINE
  5
2A1
330
1E
100
AcDbEntity
  8
0
100
AcDbLine
 10
35.89999999999999
 20
163.0
 30
0.0
 11
36.7
 21
163.0
 31
0.0
  0
LINE
  5
2A2
330
1E
100
AcDbEntity
  8
0
100
AcDbLine
 10
35.5
 20
161.0
 30
0.0
 11
37.0
 21
163.0
 31
0.0
  0
LINE
  5
2A3
330
1E
100
AcDbEntity
  8
0
100
AcDbLine
 10
35.5
 20
161.0
 30
0.0
 11
35.5
 21
153.0
 31
0.0
  0
LINE
  5
2A4
330
1E
100
AcDbEntity
  8
0
100
AcDbLine
 10
36.7
 20
163.0
 30
0.0
 11
37.0
 21
163.0
 31
0.0
  0
LINE
  5
2A5
330
1E
100
AcDbEntity
  8
0
100
AcDbLine
 10
35.29999999999999
 20
161.0
 30
0.0
 11
35.5
 21
161.0
 31
0.0
  0
LINE
  5
2A6
330
1E
100
AcDbEntity
  8
0
100
AcDbLine
 10
34.79999999999999
 20
153.0
 30
0.0
 11
35.0
 21
153.0
 31
0.0
  0
LINE
  5
2A7
330
1E
100
AcDbEntity
  8
0
100
AcDbLine
 10
32.9902
 20
163.552
 30
0.0
 11
35.0
 21
163.857
 31
0.0
  0
LINE
  5
2A8
330
1E
100
AcDbEntity
  8
0
100
AcDbLine
 10
35.0
 20
172.1429999999999
 30
0.0
 11
37.5
 21
172.0
 31
0.0
  0
LINE
  5
2A9
330
1E
100
AcDbEntity
  8
0
100
AcDbLine
 10
37.5
 20
172.0
 30
0.0
 11
39.4223
 21
172.1429999999999
 31
0.0
  0
LINE
  5
2AA
330
1E
100
AcDbEntity
  8
0
100
AcDbLine
 10
37.5
 20
164.0
 30
0.0
 11
39.4223
 21
163.857
 31
0.0
  0
LINE
  5
2AB
330
1E
100
AcDbEntity
  8
0
100
AcDbLine
 10
35.0
 20
163.857
 30
0.0
 11
37.5
 21
164.0
 31
0.0
  0
LINE
  5
2AC
330
1E
100
AcDbEntity
  8
0
100
AcDbLine
 10
32.9902
 20
172.4479999999999
 30
0.0
 11
35.0
 21
172.1429999999999
 31
0.0
  0
LINE
  5
2AD
330
1E
100
AcDbEntity
  8
0
100
AcDbLine
 10
39.4223
 20
172.1429999999999
 30
0.0
 11
41.70399999999999
 21
172.4479999999999
 31
0.0
  0
LINE
  5
2AE
330
1E
100
AcDbEntity
  8
0
100
AcDbLine
 10
39.4223
 20
163.857
 30
0.0
 11
41.70399999999999
 21
163.552
 31
0.0
  0
LINE
  5
2AF
330
1E
100
AcDbEntity
  8
0
100
AcDbLine
 10
41.70399999999999
 20
163.552
 30
0.0
 11
44.4579
 21
163.217
 31
0.0
  0
LINE
  5
2B0
330
1E
100
AcDbEntity
  8
0
100
AcDbLine
 10
41.70399999999999
 20
163.552
 30
0.0
 11
43.38619498154439
 21
163.3473682708819
 31
0.0
  0
LINE
  5
2B1
330
1E
100
AcDbEntity
  8
0
100
AcDbLine
 10
44.1382
 20
163.243
 30
0.0
 11
44.4579
 21
163.217
 31
0.0
  0
LINE
  5
2B2
330
1E
100
AcDbEntity
  8
0
100
AcDbLine
 10
44.4579
 20
163.217
 30
0.0
 11
48.002
 21
162.69
 31
0.0
  0
LINE
  5
2B3
330
1E
100
AcDbEntity
  8
0
100
AcDbLine
 10
48.002
 20
162.69
 30
0.0
 11
51.9771
 21
162.212
 31
0.0
  0
LINE
  5
2B4
330
1E
100
AcDbEntity
  8
0
100
AcDbLine
 10
43.3861949815454
 20
172.652631729118
 30
0.0
 11
44.1382
 21
172.757
 31
0.0
  0
LINE
  5
2B5
330
1E
100
AcDbEntity
  8
0
100
AcDbLine
 10
44.1382
 20
172.757
 30
0.0
 11
44.4579
 21
172.7829999999999
 31
0.0
  0
LINE
  5
2B6
330
1E
100
AcDbEntity
  8
0
100
AcDbLine
 10
44.1382
 20
172.757
 30
0.0
 11
46.2000072860919
 21
173.0420475832429
 31
0.0
  0
LINE
  5
2B7
330
1E
100
AcDbEntity
  8
0
100
AcDbLine
 10
41.70399999999999
 20
172.4479999999999
 30
0.0
 11
44.4579
 21
172.7829999999999
 31
0.0
  0
LINE
  5
2B8
330
1E
100
AcDbEntity
  8
0
100
AcDbLine
 10
36.4
 20
173.5
 30
0.0
 11
38.1
 21
173.5
 31
0.0
  0
LINE
  5
2B9
330
1E
100
AcDbEntity
  8
0
100
AcDbLine
 10
38.1
 20
173.5
 30
0.0
 11
39.1
 21
173.5
 31
0.0
  0
LINE
  5
2BA
330
1E
100
AcDbEntity
  8
0
100
AcDbLine
 10
39.5
 20
173.5
 30
0.0
 11
39.9223699672633
 21
172.2328900982099
 31
0.0
  0
LINE
  5
2BB
330
1E
100
AcDbEntity
  8
0
100
AcDbLine
 10
33.5
 20
174.0
 30
0.0
 11
37.7
 21
174.0
 31
0.0
  0
LINE
  5
2BC
330
1E
100
AcDbEntity
  8
0
100
AcDbLine
 10
38.0
 20
174.0
 30
0.0
 11
39.5
 21
173.5
 31
0.0
  0
LINE
  5
2BD
330
1E
100
AcDbEntity
  8
0
100
AcDbLine
 10
37.7
 20
174.0
 30
0.0
 11
38.0
 21
174.0
 31
0.0
  0
LINE
  5
2BE
330
1E
100
AcDbEntity
  8
0
100
AcDbLine
 10
39.1
 20
173.5
 30
0.0
 11
39.5
 21
173.5
 31
0.0
  0
LINE
  5
2BF
330
1E
100
AcDbEntity
  8
0
100
AcDbLine
 10
34.2
 20
173.5
 30
0.0
 11
36.4
 21
173.5
 31
0.0
  0
LINE
  5
2C0
330
1E
100
AcDbEntity
  8
0
100
AcDbLine
 10
44.4579
 20
172.7829999999999
 30
0.0
 11
48.002
 21
173.31
 31
0.0
  0
LINE
  5
2C1
330
1E
100
AcDbEntity
  8
0
100
AcDbLine
 10
52.1036
 20
162.1929999999999
 30
0.0
 11
52.66004099626229
 21
162.1688146073919
 31
0.0
  0
LINE
  5
2C2
330
1E
100
AcDbEntity
  8
0
100
AcDbLine
 10
51.9771
 20
162.212
 30
0.0
 11
53.8748
 21
162.092
 31
0.0
  0
LINE
  5
2C3
330
1E
100
AcDbEntity
  8
0
100
AcDbLine
 10
53.9902
 20
162.1109999999999
 30
0.0
 11
54.262881034483
 21
162.191355368519
 31
0.0
  0
LINE
  5
2C4
330
1E
100
AcDbEntity
  8
0
100
AcDbLine
 10
53.8748
 20
162.092
 30
0.0
 11
55.37469999999999
 21
162.476
 31
0.0
  0
LINE
  5
2C7
330
1E
100
AcDbEntity
  8
0
100
AcDbLine
 10
55.37469999999999
 20
162.476
 30
0.0
 11
56.47079999999999
 21
163.187
 31
0.0
  0
LINE
  5
2C9
330
1E
100
AcDbEntity
  8
0
100
AcDbLine
 10
56.567
 20
163.283
 30
0.0
 11
56.7176394741649
 21
163.477332755633
 31
0.0
  0
LINE
  5
2CA
330
1E
100
AcDbEntity
  8
0
100
AcDbLine
 10
56.47079999999999
 20
163.187
 30
0.0
 11
57.1246
 21
163.9559999999999
 31
0.0
  0
LINE
  5
2CB
330
1E
100
AcDbEntity
  8
0
100
AcDbLine
 10
57.1246
 20
163.9559999999999
 30
0.0
 11
57.6438
 21
165.071
 31
0.0
  0
LINE
  5
2CF
330
1E
100
AcDbEntity
  8
0
100
AcDbLine
 10
52.1036
 20
173.807
 30
0.0
 11
52.6600409962619
 21
173.831185392608
 31
0.0
  0
LINE
  5
2D0
330
1E
100
AcDbEntity
  8
0
100
AcDbLine
 10
51.9771
 20
173.7879999999999
 30
0.0
 11
53.8748
 21
173.9079999999999
 31
0.0
  0
LINE
  5
2D1
330
1E
100
AcDbEntity
  8
0
100
AcDbLine
 10
53.9902
 20
173.889
 30
0.0
 11
54.2628810344825
 21
173.808644631481
 31
0.0
  0
LINE
  5
2D2
330
1E
100
AcDbEntity
  8
0
100
AcDbLine
 10
53.8748
 20
173.9079999999999
 30
0.0
 11
55.37469999999999
 21
173.524
 31
0.0
  0
LINE
  5
2D3
330
1E
100
AcDbEntity
  8
0
100
AcDbLine
 10
55.37469999999999
 20
173.524
 30
0.0
 11
56.47079999999999
 21
172.8129999999999
 31
0.0
  0
LINE
  5
2D4
330
1E
100
AcDbEntity
  8
0
100
AcDbLine
 10
56.567
 20
172.717
 30
0.0
 11
56.7176394741647
 21
172.5226672443669
 31
0.0
  0
LINE
  5
2D5
330
1E
100
AcDbEntity
  8
0
100
AcDbLine
 10
56.47079999999999
 20
172.8129999999999
 30
0.0
 11
57.1246
 21
172.044
 31
0.0
  0
LINE
  5
2D6
330
1E
100
AcDbEntity
  8
0
100
AcDbLine
 10
57.1246
 20
172.044
 30
0.0
 11
57.6438
 21
170.929
 31
0.0
  0
LINE
  5
2D7
330
1E
100
AcDbEntity
  8
0
100
AcDbLine
 10
57.6438
 20
170.929
 30
0.0
 11
58.0
 21
168.0
 31
0.0
  0
LINE
  5
2D8
330
1E
100
AcDbEntity
  8
0
100
AcDbLine
 10
57.6438
 20
165.071
 30
0.0
 11
58.0
 21
168.0
 31
0.0
  0
LINE
  5
2D9
330
1E
100
AcDbEntity
  8
0
100
AcDbLine
 10
51.4638321295059
 20
173.726280284245
 30
0.0
 11
52.1036
 21
173.807
 31
0.0
  0
LINE
  5
2DA
330
1E
100
AcDbEntity
  8
0
100
AcDbLine
 10
51.4638321295059
 20
162.2737197157549
 30
0.0
 11
52.1036
 21
162.1929999999999
 31
0.0
  0
LINE
  5
2DB
330
1E
100
AcDbEntity
  8
0
100
AcDbLine
 10
48.002
 20
173.31
 30
0.0
 11
51.9771
 21
173.7879999999999
 31
0.0
  0
LINE
  5
2DC
330
1E
100
AcDbEntity
  8
0
100
AcDbLine
 10
34.7
 20
142.0
 30
0.0
 11
37.1
 21
142.0
 31
0.0
  0
LINE
  5
2DD
330
1E
100
AcDbEntity
  8
0
100
AcDbLine
 10
32.0
 20
142.0
 30
0.0
 11
34.7
 21
142.0
 31
0.0
  0
LINE
  5
2DE
330
1E
100
AcDbEntity
  8
0
100
AcDbLine
 10
32.1
 20
141.5
 30
0.0
 11
35.0
 21
141.5
 31
0.0
  0
LINE
  5
2DF
330
1E
100
AcDbEntity
  8
0
100
AcDbLine
 10
29.0
 20
141.5
 30
0.0
 11
32.1
 21
141.5
 31
0.0
  0
LINE
  5
2E0
330
1E
100
AcDbEntity
  8
0
100
AcDbLine
 10
29.0
 20
140.0
 30
0.0
 11
32.1
 21
140.0
 31
0.0
  0
LINE
  5
2E1
330
1E
100
AcDbEntity
  8
0
100
AcDbLine
 10
26.0
 20
142.0
 30
0.0
 11
29.0
 21
142.0
 31
0.0
  0
LINE
  5
2E2
330
1E
100
AcDbEntity
  8
0
100
AcDbLine
 10
26.0
 20
139.5
 30
0.0
 11
29.0
 21
139.5
 31
0.0
  0
LINE
  5
2E3
330
1E
100
AcDbEntity
  8
0
100
AcDbLine
 10
25.89999999999999
 20
139.0
 30
0.0
 11
29.0
 21
139.0
 31
0.0
  0
LINE
  5
2E4
330
1E
100
AcDbEntity
  8
0
100
AcDbLine
 10
25.1
 20
121.0
 30
0.0
 11
32.9
 21
121.0
 31
0.0
  0
LINE
  5
2E5
330
1E
100
AcDbEntity
  8
0
100
AcDbLine
 10
24.8
 20
117.5
 30
0.0
 11
29.0
 21
117.5
 31
0.0
  0
LINE
  5
2E6
330
1E
100
AcDbEntity
  8
0
100
AcDbLine
 10
25.0
 20
117.0
 30
0.0
 11
29.0
 21
117.0
 31
0.0
  0
LINE
  5
2E7
330
1E
100
AcDbEntity
  8
0
100
AcDbLine
 10
17.0
 20
127.0
 30
0.0
 11
17.0
 21
139.0
 31
0.0
  0
LINE
  5
2E8
330
1E
100
AcDbEntity
  8
0
100
AcDbLine
 10
14.0
 20
70.0
 30
0.0
 11
14.0
 21
115.5
 31
0.0
  0
LINE
  5
2EA
330
1E
100
AcDbEntity
  8
0
100
AcDbLine
 10
13.5
 20
117.0
 30
0.0
 11
14.0
 21
115.5
 31
0.0
  0
LINE
  5
2EB
330
1E
100
AcDbEntity
  8
0
100
AcDbLine
 10
13.5
 20
117.0
 30
0.0
 11
14.1
 21
117.0
 31
0.0
  0
LINE
  5
2F0
330
1E
100
AcDbEntity
  8
0
100
AcDbLine
 10
44.5
 20
16.0
 30
0.0
 11
13.5
 21
16.0
 31
0.0
  0
ENDSEC
  0
SECTION
  2
OBJECTS
  0
DICTIONARY
  5
C
330
0
100
AcDbDictionary
281
     1
  3
ACAD_GROUP
350
D
  3
ACAD_LAYOUT
350
19
  3
ACAD_MLINESTYLE
350
16
  3
ACAD_PLOTSETTINGS
350
18
  3
ACAD_PLOTSTYLENAME
350
E
  3
AcDbVariableDictionary
350
2F1
  0
DICTIONARY
  5
D
102
{ACAD_REACTORS
330
C
102
}
330
C
100
AcDbDictionary
281
     1
  0
DICTIONARY
  5
19
102
{ACAD_REACTORS
330
C
102
}
330
C
100
AcDbDictionary
281
     1
  3
Layout1
350
1D
  3
Model
350
21
  0
DICTIONARY
  5
16
102
{ACAD_REACTORS
330
C
102
}
330
C
100
AcDbDictionary
281
     1
  3
Standard
350
17
  0
DICTIONARY
  5
18
102
{ACAD_REACTORS
330
C
102
}
330
C
100
AcDbDictionary
281
     1
  0
ACDBDICTIONARYWDFLT
  5
E
102
{ACAD_REACTORS
330
C
102
}
330
C
100
AcDbDictionary
281
     1
  3
Normal
350
F
100
AcDbDictionaryWithDefault
340
F
  0
DICTIONARY
  5
2F1
102
{ACAD_REACTORS
330
C
102
}
330
C
100
AcDbDictionary
281
     1
  3
DIMASSOC
350
2F2
  0
LAYOUT
  5
1D
102
{ACAD_REACTORS
330
19
102
}
330
19
100
AcDbPlotSettings
  1

  2
hp deskjet 980c series
  4

  6

 40
0.0
 41
0.0
 42
0.0
 43
0.0
 44
0.0
 45
0.0
 46
0.0
 47
0.0
 48
0.0
 49
0.0
140
0.0
141
0.0
142
1.0
143
1.0
 70
   688
 72
     0
 73
     0
 74
     5
  7

 75
    16
147
1.0
148
0.0
149
0.0
100
AcDbLayout
  1
Layout1
 70
     1
 71
     1
 10
0.0
 20
0.0
 11
12.0
 21
9.0
 12
0.0
 22
0.0
 32
0.0
 14
1.000000000000000E+20
 24
1.000000000000000E+20
 34
1.000000000000000E+20
 15
-1.000000000000000E+20
 25
-1.000000000000000E+20
 35
-1.000000000000000E+20
146
0.0
 13
0.0
 23
0.0
 33
0.0
 16
1.0
 26
0.0
 36
0.0
 17
0.0
 27
1.0
 37
0.0
 76
     0
330
1A
  0
LAYOUT
  5
21
102
{ACAD_REACTORS
330
19
102
}
330
19
100
AcDbPlotSettings
  1

  2
hp deskjet 980c series
  4

  6

 40
0.0
 41
0.0
 42
0.0
 43
0.0
 44
0.0
 45
0.0
 46
0.0
 47
0.0
 48
0.0
 49
0.0
140
0.0
141
0.0
142
1.0
143
1.0
 70
  1712
 72
     0
 73
     0
 74
     0
  7

 75
     0
147
1.0
148
0.0
149
0.0
100
AcDbLayout
  1
Model
 70
     1
 71
     0
 10
0.0
 20
0.0
 11
12.0
 21
9.0
 12
0.0
 22
0.0
 32
0.0
 14
0.0
 24
0.0
 34
0.0
 15
0.0
 25
0.0
 35
0.0
146
0.0
 13
0.0
 23
0.0
 33
0.0
 16
1.0
 26
0.0
 36
0.0
 17
0.0
 27
1.0
 37
0.0
 76
     0
330
1E
  0
MLINESTYLE
  5
17
102
{ACAD_REACTORS
330
16
102
}
330
16
100
AcDbMlineStyle
  2
STANDARD
 70
     0
  3

 62
   256
 51
90.0
 52
90.0
 71
     2
 49
0.5
 62
   256
  6
BYLAYER
 49
-0.5
 62
   256
  6
BYLAYER
  0
ACDBPLACEHOLDER
  5
F
102
{ACAD_REACTORS
330
E
102
}
330
E
  0
DICTIONARYVAR
  5
2F2
102
{ACAD_REACTORS
330
2F1
102
}
330
2F1
100
DictionaryVariables
280
     0
  1
1
  0
ENDSEC
  0
EOF
