  0
SECTION
  2
HEADER
  9
$ACADVER
  1
AC1015
  9
$ACADMAINTVER
 70
    13
  9
$DWGCODEPAGE
  3
ANSI_1252
  9
$INSBASE
 10
0.0
 20
0.0
 30
0.0
  9
$EXTMIN
 10
0.0
 20
-0.0000000000000029
 30
0.0
  9
$EXTMAX
 10
242.0
 20
265.0
 30
0.0
  9
$LIMMIN
 10
0.0
 20
0.0
  9
$LIMMAX
 10
12.0
 20
9.0
  9
$ORTHOMODE
 70
     0
  9
$REGENMODE
 70
     1
  9
$FILLMODE
 70
     1
  9
$QTEXTMODE
 70
     0
  9
$MIRRTEXT
 70
     1
  9
$LTSCALE
 40
1.0
  9
$ATTMODE
 70
     1
  9
$TEXTSIZE
 40
0.2
  9
$TRACEWID
 40
0.05
  9
$TEXTSTYLE
  7
Standard
  9
$CLAYER
  8
0
  9
$CELTYPE
  6
Continuous
  9
$CECOLOR
 62
   256
  9
$CELTSCALE
 40
1.0
  9
$DISPSILH
 70
     0
  9
$DIMSCALE
 40
1.0
  9
$DIMASZ
 40
0.18
  9
$DIMEXO
 40
0.0625
  9
$DIMDLI
 40
0.38
  9
$DIMRND
 40
0.0
  9
$DIMDLE
 40
0.0
  9
$DIMEXE
 40
0.18
  9
$DIMTP
 40
0.0
  9
$DIMTM
 40
0.0
  9
$DIMTXT
 40
0.18
  9
$DIMCEN
 40
0.09
  9
$DIMTSZ
 40
0.0
  9
$DIMTOL
 70
     0
  9
$DIMLIM
 70
     0
  9
$DIMTIH
 70
     1
  9
$DIMTOH
 70
     1
  9
$DIMSE1
 70
     0
  9
$DIMSE2
 70
     0
  9
$DIMTAD
 70
     0
  9
$DIMZIN
 70
     0
  9
$DIMBLK
  1

  9
$DIMASO
 70
     1
  9
$DIMSHO
 70
     1
  9
$DIMPOST
  1

  9
$DIMAPOST
  1

  9
$DIMALT
 70
     0
  9
$DIMALTD
 70
     2
  9
$DIMALTF
 40
25.4
  9
$DIMLFAC
 40
1.0
  9
$DIMTOFL
 70
     0
  9
$DIMTVP
 40
0.0
  9
$DIMTIX
 70
     0
  9
$DIMSOXD
 70
     0
  9
$DIMSAH
 70
     0
  9
$DIMBLK1
  1

  9
$DIMBLK2
  1

  9
$DIMSTYLE
  2
Standard
  9
$DIMCLRD
 70
     0
  9
$DIMCLRE
 70
     0
  9
$DIMCLRT
 70
     0
  9
$DIMTFAC
 40
1.0
  9
$DIMGAP
 40
0.09
  9
$DIMJUST
 70
     0
  9
$DIMSD1
 70
     0
  9
$DIMSD2
 70
     0
  9
$DIMTOLJ
 70
     1
  9
$DIMTZIN
 70
     0
  9
$DIMALTZ
 70
     0
  9
$DIMALTTZ
 70
     0
  9
$DIMUPT
 70
     0
  9
$DIMDEC
 70
     4
  9
$DIMTDEC
 70
     4
  9
$DIMALTU
 70
     2
  9
$DIMALTTD
 70
     2
  9
$DIMTXSTY
  7
Standard
  9
$DIMAUNIT
 70
     0
  9
$DIMADEC
 70
     0
  9
$DIMALTRND
 40
0.0
  9
$DIMAZIN
 70
     0
  9
$DIMDSEP
 70
    46
  9
$DIMATFIT
 70
     3
  9
$DIMFRAC
 70
     0
  9
$DIMLDRBLK
  1

  9
$DIMLUNIT
 70
     2
  9
$DIMLWD
 70
    -2
  9
$DIMLWE
 70
    -2
  9
$DIMTMOVE
 70
     0
  9
$LUNITS
 70
     2
  9
$LUPREC
 70
     4
  9
$SKETCHINC
 40
0.1
  9
$FILLETRAD
 40
0.0
  9
$AUNITS
 70
     0
  9
$AUPREC
 70
     0
  9
$MENU
  1
.
  9
$ELEVATION
 40
0.0
  9
$PELEVATION
 40
0.0
  9
$THICKNESS
 40
0.0
  9
$LIMCHECK
 70
     0
  9
$CHAMFERA
 40
0.0
  9
$CHAMFERB
 40
0.0
  9
$CHAMFERC
 40
0.0
  9
$CHAMFERD
 40
0.0
  9
$SKPOLY
 70
     0
  9
$TDCREATE
 40
2454781.465630243
  9
$TDUCREATE
 40
2454781.423963576
  9
$TDUPDATE
 40
2454781.467040104
  9
$TDUUPDATE
 40
2454781.425373437
  9
$TDINDWG
 40
0.0014098611
  9
$TDUSRTIMER
 40
0.0014098611
  9
$USRTIMER
 70
     1
  9
$ANGBASE
 50
0.0
  9
$ANGDIR
 70
     0
  9
$PDMODE
 70
     0
  9
$PDSIZE
 40
0.0
  9
$PLINEWID
 40
0.0
  9
$SPLFRAME
 70
     0
  9
$SPLINETYPE
 70
     6
  9
$SPLINESEGS
 70
     8
  9
$HANDSEED
  5
2EB
  9
$SURFTAB1
 70
     6
  9
$SURFTAB2
 70
     6
  9
$SURFTYPE
 70
     6
  9
$SURFU
 70
     6
  9
$SURFV
 70
     6
  9
$UCSBASE
  2

  9
$UCSNAME
  2

  9
$UCSORG
 10
0.0
 20
0.0
 30
0.0
  9
$UCSXDIR
 10
1.0
 20
0.0
 30
0.0
  9
$UCSYDIR
 10
0.0
 20
1.0
 30
0.0
  9
$UCSORTHOREF
  2

  9
$UCSORTHOVIEW
 70
     1
  9
$UCSORGTOP
 10
0.0
 20
0.0
 30
0.0
  9
$UCSORGBOTTOM
 10
0.0
 20
0.0
 30
0.0
  9
$UCSORGLEFT
 10
0.0
 20
0.0
 30
0.0
  9
$UCSORGRIGHT
 10
0.0
 20
0.0
 30
0.0
  9
$UCSORGFRONT
 10
0.0
 20
0.0
 30
0.0
  9
$UCSORGBACK
 10
0.0
 20
0.0
 30
0.0
  9
$PUCSBASE
  2

  9
$PUCSNAME
  2

  9
$PUCSORG
 10
0.0
 20
0.0
 30
0.0
  9
$PUCSXDIR
 10
1.0
 20
0.0
 30
0.0
  9
$PUCSYDIR
 10
0.0
 20
1.0
 30
0.0
  9
$PUCSORTHOREF
  2

  9
$PUCSORTHOVIEW
 70
     0
  9
$PUCSORGTOP
 10
0.0
 20
0.0
 30
0.0
  9
$PUCSORGBOTTOM
 10
0.0
 20
0.0
 30
0.0
  9
$PUCSORGLEFT
 10
0.0
 20
0.0
 30
0.0
  9
$PUCSORGRIGHT
 10
0.0
 20
0.0
 30
0.0
  9
$PUCSORGFRONT
 10
0.0
 20
0.0
 30
0.0
  9
$PUCSORGBACK
 10
0.0
 20
0.0
 30
0.0
  9
$USERI1
 70
     0
  9
$USERI2
 70
     0
  9
$USERI3
 70
     0
  9
$USERI4
 70
     0
  9
$USERI5
 70
     0
  9
$USERR1
 40
0.0
  9
$USERR2
 40
0.0
  9
$USERR3
 40
0.0
  9
$USERR4
 40
0.0
  9
$USERR5
 40
0.0
  9
$WORLDVIEW
 70
     1
  9
$SHADEDGE
 70
     3
  9
$SHADEDIF
 70
    70
  9
$TILEMODE
 70
     1
  9
$MAXACTVP
 70
    64
  9
$PINSBASE
 10
0.0
 20
0.0
 30
0.0
  9
$PLIMCHECK
 70
     0
  9
$PEXTMIN
 10
1.000000000000000E+20
 20
1.000000000000000E+20
 30
1.000000000000000E+20
  9
$PEXTMAX
 10
-1.000000000000000E+20
 20
-1.000000000000000E+20
 30
-1.000000000000000E+20
  9
$PLIMMIN
 10
0.0
 20
0.0
  9
$PLIMMAX
 10
12.0
 20
9.0
  9
$UNITMODE
 70
     0
  9
$VISRETAIN
 70
     1
  9
$PLINEGEN
 70
     0
  9
$PSLTSCALE
 70
     1
  9
$TREEDEPTH
 70
  3020
  9
$CMLSTYLE
  2
Standard
  9
$CMLJUST
 70
     0
  9
$CMLSCALE
 40
1.0
  9
$PROXYGRAPHICS
 70
     1
  9
$MEASUREMENT
 70
     0
  9
$CELWEIGHT
370
    -1
  9
$ENDCAPS
280
     0
  9
$JOINSTYLE
280
     0
  9
$LWDISPLAY
290
     0
  9
$INSUNITS
 70
     0
  9
$HYPERLINKBASE
  1

  9
$STYLESHEET
  1

  9
$XEDIT
290
     1
  9
$CEPSNTYPE
380
     0
  9
$PSTYLEMODE
290
     1
  9
$FINGERPRINTGUID
  2
{4A4B40E5-2E93-4C69-8694-9FADA8B6F1F8}
  9
$VERSIONGUID
  2
{1C59FB71-80B0-465E-A5E0-761E52272DF3}
  9
$EXTNAMES
290
     1
  9
$PSVPSCALE
 40
0.0
  9
$OLESTARTUP
290
     0
  0
ENDSEC
  0
SECTION
  2
CLASSES
  0
CLASS
  1
ACDBDICTIONARYWDFLT
  2
AcDbDictionaryWithDefault
  3
AutoCAD 2000
 90
        0
280
     0
281
     0
  0
CLASS
  1
ACDBPLACEHOLDER
  2
AcDbPlaceHolder
  3
AutoCAD 2000
 90
        0
280
     0
281
     0
  0
CLASS
  1
LAYOUT
  2
AcDbLayout
  3
AutoCAD 2000
 90
        0
280
     0
281
     0
  0
CLASS
  1
DICTIONARYVAR
  2
AcDbDictionaryVar
  3
AutoCAD 2000
 90
        0
280
     0
281
     0
  0
ENDSEC
  0
SECTION
  2
TABLES
  0
TABLE
  2
VPORT
  5
8
330
0
100
AcDbSymbolTable
 70
     2
  0
VPORT
  5
2EA
330
8
100
AcDbSymbolTableRecord
100
AcDbViewportTableRecord
  2
*Active
 70
     0
 10
0.0
 20
0.0
 11
1.0
 21
1.0
 12
121.0
 22
132.4999999999999
 13
0.0
 23
0.0
 14
1.0
 24
1.0
 15
0.0
 25
0.0
 16
0.0
 26
0.0
 36
1.0
 17
0.0
 27
0.0
 37
0.0
 40
267.0332480818414
 41
2.078104993597951
 42
50.0
 43
0.0
 44
0.0
 50
0.0
 51
0.0
 71
     0
 72
   100
 73
     1
 74
     3
 75
     0
 76
     0
 77
     0
 78
     0
281
     0
 65
     1
110
0.0
120
0.0
130
0.0
111
1.0
121
0.0
131
0.0
112
0.0
122
1.0
132
0.0
 79
     1
146
0.0
  0
ENDTAB
  0
TABLE
  2
LTYPE
  5
5
330
0
100
AcDbSymbolTable
 70
     1
  0
LTYPE
  5
13
330
5
100
AcDbSymbolTableRecord
100
AcDbLinetypeTableRecord
  2
ByBlock
 70
     0
  3

 72
    65
 73
     0
 40
0.0
  0
LTYPE
  5
14
330
5
100
AcDbSymbolTableRecord
100
AcDbLinetypeTableRecord
  2
ByLayer
 70
     0
  3

 72
    65
 73
     0
 40
0.0
  0
LTYPE
  5
15
330
5
100
AcDbSymbolTableRecord
100
AcDbLinetypeTableRecord
  2
Continuous
 70
     0
  3
Solid line
 72
    65
 73
     0
 40
0.0
  0
ENDTAB
  0
TABLE
  2
LAYER
  5
2
330
0
100
AcDbSymbolTable
 70
     1
  0
LAYER
  5
10
330
2
100
AcDbSymbolTableRecord
100
AcDbLayerTableRecord
  2
0
 70
     0
 62
     7
  6
Continuous
370
    -3
390
F
  0
ENDTAB
  0
TABLE
  2
STYLE
  5
3
330
0
100
AcDbSymbolTable
 70
     1
  0
STYLE
  5
11
330
3
100
AcDbSymbolTableRecord
100
AcDbTextStyleTableRecord
  2
Standard
 70
     0
 40
0.0
 41
1.0
 50
0.0
 71
     0
 42
0.2
  3
txt
  4

  0
ENDTAB
  0
TABLE
  2
VIEW
  5
6
330
0
100
AcDbSymbolTable
 70
     0
  0
ENDTAB
  0
TABLE
  2
UCS
  5
7
330
0
100
AcDbSymbolTable
 70
     0
  0
ENDTAB
  0
TABLE
  2
APPID
  5
9
330
0
100
AcDbSymbolTable
 70
     1
  0
APPID
  5
12
330
9
100
AcDbSymbolTableRecord
100
AcDbRegAppTableRecord
  2
ACAD
 70
     0
  0
ENDTAB
  0
TABLE
  2
DIMSTYLE
  5
A
330
0
100
AcDbSymbolTable
 70
     1
100
AcDbDimStyleTable
 71
     0
  0
DIMSTYLE
105
234
330
A
100
AcDbSymbolTableRecord
100
AcDbDimStyleTableRecord
  2
Standard
 70
     0
340
11
  0
ENDTAB
  0
TABLE
  2
BLOCK_RECORD
  5
1
330
0
100
AcDbSymbolTable
 70
     0
  0
BLOCK_RECORD
  5
1E
330
1
100
AcDbSymbolTableRecord
100
AcDbBlockTableRecord
  2
*Model_Space
340
21
  0
BLOCK_RECORD
  5
1A
330
1
100
AcDbSymbolTableRecord
100
AcDbBlockTableRecord
  2
*Paper_Space
340
1D
  0
ENDTAB
  0
ENDSEC
  0
SECTION
  2
BLOCKS
  0
BLOCK
  5
1F
330
1E
100
AcDbEntity
  8
0
100
AcDbBlockBegin
  2
*Model_Space
 70
     0
 10
0.0
 20
0.0
 30
0.0
  3
*Model_Space
  1

  0
ENDBLK
  5
20
330
1E
100
AcDbEntity
  8
0
100
AcDbBlockEnd
  0
BLOCK
  5
1B
330
1A
100
AcDbEntity
 67
     1
  8
0
100
AcDbBlockBegin
  2
*Paper_Space
 70
     0
 10
0.0
 20
0.0
 30
0.0
  3
*Paper_Space
  1

  0
ENDBLK
  5
1C
330
1A
100
AcDbEntity
 67
     1
  8
0
100
AcDbBlockEnd
  0
ENDSEC
  0
SECTION
  2
ENTITIES
  0
LINE
  5
22
330
1E
100
AcDbEntity
  8
0
100
AcDbLine
 10
36.0
 20
4.99999999999998
 30
0.0
 11
45.216
 21
6.29599999999998
 31
0.0
  0
LINE
  5
23
330
1E
100
AcDbEntity
  8
0
100
AcDbLine
 10
36.0
 20
4.99999999999998
 30
0.0
 11
45.216
 21
6.29599999999999
 31
0.0
  0
LINE
  5
24
330
1E
100
AcDbEntity
  8
0
100
AcDbLine
 10
36.0
 20
5.86399999999999
 30
0.0
 11
45.072
 21
7.15999999999999
 31
0.0
  0
LINE
  5
25
330
1E
100
AcDbEntity
  8
0
100
AcDbLine
 10
26.784
 20
6.29599999999998
 30
0.0
 11
36.0
 21
4.99999999999998
 31
0.0
  0
LINE
  5
26
330
1E
100
AcDbEntity
  8
0
100
AcDbLine
 10
18.576
 20
10.616
 30
0.0
 11
26.928
 21
7.15999999999999
 31
0.0
  0
LINE
  5
27
330
1E
100
AcDbEntity
  8
0
100
AcDbLine
 10
18.144
 20
9.751999999999981
 30
0.0
 11
26.784
 21
6.29599999999999
 31
0.0
  0
LINE
  5
28
330
1E
100
AcDbEntity
  8
0
100
AcDbLine
 10
18.144
 20
9.751999999999981
 30
0.0
 11
26.784
 21
6.29599999999998
 31
0.0
  0
LINE
  5
29
330
1E
100
AcDbEntity
  8
0
100
AcDbLine
 10
10.512
 20
15.512
 30
0.0
 11
18.144
 21
9.751999999999981
 31
0.0
  0
LINE
  5
2A
330
1E
100
AcDbEntity
  8
0
100
AcDbLine
 10
5.616
 20
23.576
 30
0.0
 11
11.232
 21
16.23199999999999
 31
0.0
  0
LINE
  5
2B
330
1E
100
AcDbEntity
  8
0
100
AcDbLine
 10
4.751999999999999
 20
23.144
 30
0.0
 11
10.512
 21
15.512
 31
0.0
  0
LINE
  5
2C
330
1E
100
AcDbEntity
  8
0
100
AcDbLine
 10
4.751999999999999
 20
23.144
 30
0.0
 11
10.512
 21
15.512
 31
0.0
  0
LINE
  5
2D
330
1E
100
AcDbEntity
  8
0
100
AcDbLine
 10
21.84
 20
20.84
 30
0.0
 11
26.08
 21
17.64
 31
0.0
  0
LINE
  5
2E
330
1E
100
AcDbEntity
  8
0
100
AcDbLine
 10
26.08
 20
17.64
 30
0.0
 11
30.88
 21
15.72
 31
0.0
  0
LINE
  5
2F
330
1E
100
AcDbEntity
  8
0
100
AcDbLine
 10
26.08
 20
17.64
 30
0.0
 11
30.88
 21
15.72
 31
0.0
  0
LINE
  5
30
330
1E
100
AcDbEntity
  8
0
100
AcDbLine
 10
21.84
 20
20.84
 30
0.0
 11
26.08
 21
17.64
 31
0.0
  0
LINE
  5
31
330
1E
100
AcDbEntity
  8
0
100
AcDbLine
 10
26.32
 20
18.12
 30
0.0
 11
30.96
 21
16.2
 31
0.0
  0
LINE
  5
32
330
1E
100
AcDbEntity
  8
0
100
AcDbLine
 10
22.23999999999999
 20
21.24
 30
0.0
 11
26.32
 21
18.12
 31
0.0
  0
LINE
  5
33
330
1E
100
AcDbEntity
  8
0
100
AcDbLine
 10
11.232
 20
16.23199999999999
 30
0.0
 11
18.576
 21
10.616
 31
0.0
  0
LINE
  5
34
330
1E
100
AcDbEntity
  8
0
100
AcDbLine
 10
10.512
 20
15.512
 30
0.0
 11
18.144
 21
9.751999999999981
 31
0.0
  0
LINE
  5
35
330
1E
100
AcDbEntity
  8
0
100
AcDbLine
 10
30.88
 20
15.72
 30
0.0
 11
36.0
 21
15.0
 31
0.0
  0
LINE
  5
36
330
1E
100
AcDbEntity
  8
0
100
AcDbLine
 10
36.0
 20
15.0
 30
0.0
 11
41.12
 21
15.72
 31
0.0
  0
LINE
  5
37
330
1E
100
AcDbEntity
  8
0
100
AcDbLine
 10
36.0
 20
15.48
 30
0.0
 11
41.04
 21
16.2
 31
0.0
  0
LINE
  5
38
330
1E
100
AcDbEntity
  8
0
100
AcDbLine
 10
36.0
 20
15.0
 30
0.0
 11
41.12
 21
15.72
 31
0.0
  0
LINE
  5
39
330
1E
100
AcDbEntity
  8
0
100
AcDbLine
 10
30.88
 20
15.72
 30
0.0
 11
36.0
 21
15.0
 31
0.0
  0
LINE
  5
3A
330
1E
100
AcDbEntity
  8
0
100
AcDbLine
 10
30.96
 20
16.2
 30
0.0
 11
36.0
 21
15.48
 31
0.0
  0
LINE
  5
3B
330
1E
100
AcDbEntity
  8
0
100
AcDbLine
 10
26.928
 20
7.15999999999999
 30
0.0
 11
36.0
 21
5.86399999999999
 31
0.0
  0
LINE
  5
3C
330
1E
100
AcDbEntity
  8
0
100
AcDbLine
 10
26.784
 20
6.29599999999999
 30
0.0
 11
36.0
 21
4.99999999999998
 31
0.0
  0
LINE
  5
3D
330
1E
100
AcDbEntity
  8
0
100
AcDbLine
 10
41.12
 20
15.72
 30
0.0
 11
45.92
 21
17.64
 31
0.0
  0
LINE
  5
3E
330
1E
100
AcDbEntity
  8
0
100
AcDbLine
 10
41.04
 20
16.2
 30
0.0
 11
45.68
 21
18.12
 31
0.0
  0
LINE
  5
3F
330
1E
100
AcDbEntity
  8
0
100
AcDbLine
 10
45.216
 20
6.29599999999999
 30
0.0
 11
53.856
 21
9.751999999999981
 31
0.0
  0
LINE
  5
40
330
1E
100
AcDbEntity
  8
0
100
AcDbLine
 10
45.072
 20
7.15999999999999
 30
0.0
 11
53.424
 21
10.616
 31
0.0
  0
LINE
  5
41
330
1E
100
AcDbEntity
  8
0
100
AcDbLine
 10
61.488
 20
15.512
 30
0.0
 11
67.248
 21
23.144
 31
0.0
  0
LINE
  5
42
330
1E
100
AcDbEntity
  8
0
100
AcDbLine
 10
53.856
 20
9.751999999999981
 30
0.0
 11
61.488
 21
15.512
 31
0.0
  0
LINE
  5
43
330
1E
100
AcDbEntity
  8
0
100
AcDbLine
 10
53.424
 20
10.616
 30
0.0
 11
60.768
 21
16.23199999999999
 31
0.0
  0
LINE
  5
44
330
1E
100
AcDbEntity
  8
0
100
AcDbLine
 10
60.768
 20
16.23199999999999
 30
0.0
 11
66.384
 21
23.576
 31
0.0
  0
LINE
  5
45
330
1E
100
AcDbEntity
  8
0
100
AcDbLine
 10
41.12
 20
15.72
 30
0.0
 11
45.92
 21
17.64
 31
0.0
  0
LINE
  5
46
330
1E
100
AcDbEntity
  8
0
100
AcDbLine
 10
45.92
 20
17.64
 30
0.0
 11
50.16
 21
20.84
 31
0.0
  0
LINE
  5
47
330
1E
100
AcDbEntity
  8
0
100
AcDbLine
 10
45.68
 20
18.12
 30
0.0
 11
49.75999999999999
 21
21.24
 31
0.0
  0
LINE
  5
48
330
1E
100
AcDbEntity
  8
0
100
AcDbLine
 10
67.248
 20
23.144
 30
0.0
 11
70.70399999999999
 21
31.784
 31
0.0
  0
LINE
  5
49
330
1E
100
AcDbEntity
  8
0
100
AcDbLine
 10
66.384
 20
23.576
 30
0.0
 11
69.84
 21
31.928
 31
0.0
  0
LINE
  5
4A
330
1E
100
AcDbEntity
  8
0
100
AcDbLine
 10
50.16
 20
20.84
 30
0.0
 11
53.36
 21
25.08
 31
0.0
  0
LINE
  5
4B
330
1E
100
AcDbEntity
  8
0
100
AcDbLine
 10
49.75999999999999
 20
21.24
 30
0.0
 11
52.88
 21
25.32
 31
0.0
  0
LINE
  5
4C
330
1E
100
AcDbEntity
  8
0
100
AcDbLine
 10
45.92
 20
17.64
 30
0.0
 11
50.16
 21
20.84
 31
0.0
  0
LINE
  5
4D
330
1E
100
AcDbEntity
  8
0
100
AcDbLine
 10
0.864
 20
41.0
 30
0.0
 11
2.16
 21
31.928
 31
0.0
  0
LINE
  5
4E
330
1E
100
AcDbEntity
  8
0
100
AcDbLine
 10
0.864
 20
41.0
 30
0.0
 11
2.16
 21
50.072
 31
0.0
  0
LINE
  5
4F
330
1E
100
AcDbEntity
  8
0
100
AcDbLine
 10
1.296
 20
31.784
 30
0.0
 11
4.751999999999999
 21
23.144
 31
0.0
  0
LINE
  5
50
330
1E
100
AcDbEntity
  8
0
100
AcDbLine
 10
2.16
 20
31.928
 30
0.0
 11
5.616
 21
23.576
 31
0.0
  0
LINE
  5
51
330
1E
100
AcDbEntity
  8
0
100
AcDbLine
 10
1.296
 20
31.784
 30
0.0
 11
4.751999999999999
 21
23.144
 31
0.0
  0
LINE
  5
52
330
1E
100
AcDbEntity
  8
0
100
AcDbLine
 10
0.864
 20
41.0
 30
0.0
 11
2.16
 21
50.072
 31
0.0
  0
LINE
  5
53
330
1E
100
AcDbEntity
  8
0
100
AcDbLine
 10
0.864
 20
41.0
 30
0.0
 11
2.16
 21
31.928
 31
0.0
  0
LINE
  5
54
330
1E
100
AcDbEntity
  8
0
100
AcDbLine
 10
16.0
 20
35.0
 30
0.0
 11
16.71999999999999
 21
40.11999999999999
 31
0.0
  0
LINE
  5
55
330
1E
100
AcDbEntity
  8
0
100
AcDbLine
 10
16.0
 20
35.0
 30
0.0
 11
16.71999999999999
 21
29.87999999999999
 31
0.0
  0
LINE
  5
56
330
1E
100
AcDbEntity
  8
0
100
AcDbLine
 10
16.71999999999999
 20
29.87999999999999
 30
0.0
 11
18.64
 21
25.08
 31
0.0
  0
LINE
  5
57
330
1E
100
AcDbEntity
  8
0
100
AcDbLine
 10
18.64
 20
25.08
 30
0.0
 11
21.84
 21
20.84
 31
0.0
  0
LINE
  5
58
330
1E
100
AcDbEntity
  8
0
100
AcDbLine
 10
18.64
 20
25.08
 30
0.0
 11
21.84
 21
20.84
 31
0.0
  0
LINE
  5
59
330
1E
100
AcDbEntity
  8
0
100
AcDbLine
 10
16.71999999999999
 20
29.87999999999999
 30
0.0
 11
18.64
 21
25.08
 31
0.0
  0
LINE
  5
5A
330
1E
100
AcDbEntity
  8
0
100
AcDbLine
 10
17.19999999999999
 20
29.96
 30
0.0
 11
19.12
 21
25.32
 31
0.0
  0
LINE
  5
5B
330
1E
100
AcDbEntity
  8
0
100
AcDbLine
 10
16.48
 20
35.0
 30
0.0
 11
17.19999999999999
 21
40.04
 31
0.0
  0
LINE
  5
5C
330
1E
100
AcDbEntity
  8
0
100
AcDbLine
 10
16.48
 20
35.0
 30
0.0
 11
17.19999999999999
 21
29.96
 31
0.0
  0
LINE
  5
5D
330
1E
100
AcDbEntity
  8
0
100
AcDbLine
 10
17.19999999999999
 20
40.04
 30
0.0
 11
19.12
 21
44.67999999999999
 31
0.0
  0
LINE
  5
5E
330
1E
100
AcDbEntity
  8
0
100
AcDbLine
 10
16.0
 20
35.0
 30
0.0
 11
16.71999999999999
 21
40.11999999999999
 31
0.0
  0
LINE
  5
5F
330
1E
100
AcDbEntity
  8
0
100
AcDbLine
 10
16.0
 20
35.0
 30
0.0
 11
16.71999999999999
 21
29.87999999999999
 31
0.0
  0
LINE
  5
60
330
1E
100
AcDbEntity
  8
0
100
AcDbLine
 10
16.71999999999999
 20
40.11999999999999
 30
0.0
 11
18.64
 21
44.91999999999999
 31
0.0
  0
LINE
  5
61
330
1E
100
AcDbEntity
  8
0
100
AcDbLine
 10
19.12
 20
25.32
 30
0.0
 11
22.23999999999999
 21
21.24
 31
0.0
  0
LINE
  5
62
330
1E
100
AcDbEntity
  8
0
100
AcDbLine
 10
19.12
 20
44.67999999999999
 30
0.0
 11
22.23999999999999
 21
48.76
 31
0.0
  0
LINE
  5
63
330
1E
100
AcDbEntity
  8
0
100
AcDbLine
 10
22.23999999999999
 20
48.76
 30
0.0
 11
26.32
 21
51.88
 31
0.0
  0
LINE
  5
64
330
1E
100
AcDbEntity
  8
0
100
AcDbLine
 10
18.64
 20
44.91999999999999
 30
0.0
 11
21.84
 21
49.16
 31
0.0
  0
LINE
  5
65
330
1E
100
AcDbEntity
  8
0
100
AcDbLine
 10
21.84
 20
49.16
 30
0.0
 11
26.08
 21
52.36
 31
0.0
  0
LINE
  5
66
330
1E
100
AcDbEntity
  8
0
100
AcDbLine
 10
21.84
 20
49.16
 30
0.0
 11
25.0
 21
51.6
 31
0.0
  0
LINE
  5
67
330
1E
100
AcDbEntity
  8
0
100
AcDbLine
 10
2.16
 20
50.072
 30
0.0
 11
5.616
 21
58.424
 31
0.0
  0
LINE
  5
68
330
1E
100
AcDbEntity
  8
0
100
AcDbLine
 10
1.296
 20
50.216
 30
0.0
 11
4.751999999999999
 21
58.856
 31
0.0
  0
LINE
  5
69
330
1E
100
AcDbEntity
  8
0
100
AcDbLine
 10
0.0
 20
41.0
 30
0.0
 11
1.296
 21
50.216
 31
0.0
  0
LINE
  5
6A
330
1E
100
AcDbEntity
  8
0
100
AcDbLine
 10
0.0
 20
41.0
 30
0.0
 11
1.296
 21
31.784
 31
0.0
  0
LINE
  5
6B
330
1E
100
AcDbEntity
  8
0
100
AcDbLine
 10
25.0
 20
51.6
 30
0.0
 11
25.264
 21
51.79999999999999
 31
0.0
  0
LINE
  5
6C
330
1E
100
AcDbEntity
  8
0
100
AcDbLine
 10
25.0
 20
51.6
 30
0.0
 11
25.0
 21
67.0
 31
0.0
  0
LINE
  5
6D
330
1E
100
AcDbEntity
  8
0
100
AcDbLine
 10
25.264
 20
51.79999999999999
 30
0.0
 11
26.08
 21
52.36
 31
0.0
  0
LINE
  5
6E
330
1E
100
AcDbEntity
  8
0
100
AcDbLine
 10
25.264
 20
51.79999999999999
 30
0.0
 11
25.4423622317596
 21
51.8787639484978
 31
0.0
  0
LINE
  5
6F
330
1E
100
AcDbEntity
  8
0
100
AcDbLine
 10
25.264
 20
51.79999999999999
 30
0.0
 11
25.264
 21
67.0
 31
0.0
  0
LINE
  5
70
330
1E
100
AcDbEntity
  8
0
100
AcDbLine
 10
26.32
 20
51.88
 30
0.0
 11
30.96
 21
53.79999999999999
 31
0.0
  0
LINE
  5
71
330
1E
100
AcDbEntity
  8
0
100
AcDbLine
 10
26.08
 20
52.36
 30
0.0
 11
30.88
 21
54.28
 31
0.0
  0
LINE
  5
72
330
1E
100
AcDbEntity
  8
0
100
AcDbLine
 10
1.296
 20
50.216
 30
0.0
 11
4.751999999999999
 21
58.856
 31
0.0
  0
LINE
  5
73
330
1E
100
AcDbEntity
  8
0
100
AcDbLine
 10
41.04
 20
53.79999999999999
 30
0.0
 11
45.68
 21
51.88
 31
0.0
  0
LINE
  5
74
330
1E
100
AcDbEntity
  8
0
100
AcDbLine
 10
41.12
 20
54.28
 30
0.0
 11
45.92
 21
52.36
 31
0.0
  0
LINE
  5
75
330
1E
100
AcDbEntity
  8
0
100
AcDbLine
 10
30.96
 20
53.79999999999999
 30
0.0
 11
36.0
 21
54.52
 31
0.0
  0
LINE
  5
76
330
1E
100
AcDbEntity
  8
0
100
AcDbLine
 10
36.0
 20
55.0
 30
0.0
 11
41.12
 21
54.28
 31
0.0
  0
LINE
  5
77
330
1E
100
AcDbEntity
  8
0
100
AcDbLine
 10
36.0
 20
54.52
 30
0.0
 11
41.04
 21
53.79999999999999
 31
0.0
  0
LINE
  5
78
330
1E
100
AcDbEntity
  8
0
100
AcDbLine
 10
30.88
 20
54.28
 30
0.0
 11
36.0
 21
55.0
 31
0.0
  0
LINE
  5
79
330
1E
100
AcDbEntity
  8
0
100
AcDbLine
 10
46.5576377682403
 20
51.8787639484978
 30
0.0
 11
46.736
 21
51.79999999999999
 31
0.0
  0
LINE
  5
7A
330
1E
100
AcDbEntity
  8
0
100
AcDbLine
 10
47.0
 20
51.6
 30
0.0
 11
47.0
 21
67.0
 31
0.0
  0
LINE
  5
7B
330
1E
100
AcDbEntity
  8
0
100
AcDbLine
 10
47.0
 20
51.6
 30
0.0
 11
50.16
 21
49.16
 31
0.0
  0
LINE
  5
7C
330
1E
100
AcDbEntity
  8
0
100
AcDbLine
 10
46.736
 20
51.79999999999999
 30
0.0
 11
46.736
 21
67.0
 31
0.0
  0
LINE
  5
7D
330
1E
100
AcDbEntity
  8
0
100
AcDbLine
 10
46.736
 20
51.79999999999999
 30
0.0
 11
47.0
 21
51.6
 31
0.0
  0
LINE
  5
7E
330
1E
100
AcDbEntity
  8
0
100
AcDbLine
 10
45.68
 20
51.88
 30
0.0
 11
49.75999999999999
 21
48.76
 31
0.0
  0
LINE
  5
7F
330
1E
100
AcDbEntity
  8
0
100
AcDbLine
 10
45.92
 20
52.36
 30
0.0
 11
46.736
 21
51.79999999999999
 31
0.0
  0
LINE
  5
80
330
1E
100
AcDbEntity
  8
0
100
AcDbLine
 10
45.92
 20
52.36
 30
0.0
 11
50.16
 21
49.16
 31
0.0
  0
LINE
  5
81
330
1E
100
AcDbEntity
  8
0
100
AcDbLine
 10
46.5576377682403
 20
51.8787639484978
 30
0.0
 11
46.736
 21
51.79999999999999
 31
0.0
  0
LINE
  5
82
330
1E
100
AcDbEntity
  8
0
100
AcDbLine
 10
5.616
 20
58.424
 30
0.0
 11
11.232
 21
65.768
 31
0.0
  0
LINE
  5
83
330
1E
100
AcDbEntity
  8
0
100
AcDbLine
 10
4.751999999999999
 20
58.856
 30
0.0
 11
10.512
 21
66.488
 31
0.0
  0
LINE
  5
84
330
1E
100
AcDbEntity
  8
0
100
AcDbLine
 10
11.232
 20
65.768
 30
0.0
 11
18.576
 21
71.384
 31
0.0
  0
LINE
  5
85
330
1E
100
AcDbEntity
  8
0
100
AcDbLine
 10
10.512
 20
66.488
 30
0.0
 11
18.144
 21
72.248
 31
0.0
  0
LINE
  5
86
330
1E
100
AcDbEntity
  8
0
100
AcDbLine
 10
25.264
 20
67.0
 30
0.0
 11
25.66
 21
69.77199999999999
 31
0.0
  0
LINE
  5
87
330
1E
100
AcDbEntity
  8
0
100
AcDbLine
 10
25.264
 20
67.0
 30
0.0
 11
25.264
 21
51.79999999999999
 31
0.0
  0
LINE
  5
88
330
1E
100
AcDbEntity
  8
0
100
AcDbLine
 10
25.0
 20
67.0
 30
0.0
 11
25.396
 21
69.816
 31
0.0
  0
LINE
  5
89
330
1E
100
AcDbEntity
  8
0
100
AcDbLine
 10
25.0
 20
67.0
 30
0.0
 11
25.396
 21
69.816
 31
0.0
  0
LINE
  5
8A
330
1E
100
AcDbEntity
  8
0
100
AcDbLine
 10
25.0
 20
67.0
 30
0.0
 11
25.0
 21
51.6
 31
0.0
  0
LINE
  5
8B
330
1E
100
AcDbEntity
  8
0
100
AcDbLine
 10
25.396
 20
69.816
 30
0.0
 11
26.45199999999999
 21
72.456
 31
0.0
  0
LINE
  5
8C
330
1E
100
AcDbEntity
  8
0
100
AcDbLine
 10
25.66
 20
69.77199999999999
 30
0.0
 11
26.71599999999999
 21
72.324
 31
0.0
  0
LINE
  5
8D
330
1E
100
AcDbEntity
  8
0
100
AcDbLine
 10
25.396
 20
69.816
 30
0.0
 11
26.45199999999999
 21
72.456
 31
0.0
  0
LINE
  5
8E
330
1E
100
AcDbEntity
  8
0
100
AcDbLine
 10
26.71599999999999
 20
72.324
 30
0.0
 11
28.43199999999999
 21
74.568
 31
0.0
  0
LINE
  5
8F
330
1E
100
AcDbEntity
  8
0
100
AcDbLine
 10
26.45199999999999
 20
72.456
 30
0.0
 11
28.212
 21
74.78799999999999
 31
0.0
  0
LINE
  5
90
330
1E
100
AcDbEntity
  8
0
100
AcDbLine
 10
18.576
 20
71.384
 30
0.0
 11
26.928
 21
74.84
 31
0.0
  0
LINE
  5
91
330
1E
100
AcDbEntity
  8
0
100
AcDbLine
 10
28.43199999999999
 20
74.568
 30
0.0
 11
30.676
 21
76.28399999999999
 31
0.0
  0
LINE
  5
93
330
1E
100
AcDbEntity
  8
0
100
AcDbLine
 10
28.212
 20
74.78799999999999
 30
0.0
 11
30.544
 21
76.548
 31
0.0
  0
LINE
  5
96
330
1E
100
AcDbEntity
  8
0
100
AcDbLine
 10
26.928
 20
74.84
 30
0.0
 11
28.6446
 21
75.1527
 31
0.0
  0
LINE
  5
98
330
1E
100
AcDbEntity
  8
0
100
AcDbLine
 10
18.144
 20
72.248
 30
0.0
 11
26.784
 21
75.70399999999999
 31
0.0
  0
LINE
  5
99
330
1E
100
AcDbEntity
  8
0
100
AcDbLine
 10
26.784
 20
75.70399999999999
 30
0.0
 11
30.0
 21
76.2
 31
0.0
  0
LINE
  5
9A
330
1E
100
AcDbEntity
  8
0
100
AcDbLine
 10
30.676
 20
76.28399999999999
 30
0.0
 11
33.228
 21
77.34
 31
0.0
  0
LINE
  5
9C
330
1E
100
AcDbEntity
  8
0
100
AcDbLine
 10
30.544
 20
76.548
 30
0.0
 11
33.184
 21
77.604
 31
0.0
  0
LINE
  5
9E
330
1E
100
AcDbEntity
  8
0
100
AcDbLine
 10
30.0
 20
76.2
 30
0.0
 11
30.199405907683
 21
76.2879289869306
 31
0.0
  0
LINE
  5
9F
330
1E
100
AcDbEntity
  8
0
100
AcDbLine
 10
31.0
 20
89.0
 30
0.0
 11
31.18
 21
89.0
 31
0.0
  0
LINE
  5
A0
330
1E
100
AcDbEntity
  8
0
100
AcDbLine
 10
31.0
 20
89.0
 30
0.0
 11
31.0
 21
76.7355951696377
 31
0.0
  0
LINE
  5
A2
330
1E
100
AcDbEntity
  8
0
100
AcDbLine
 10
33.228
 20
77.34
 30
0.0
 11
36.0
 21
77.736
 31
0.0
  0
LINE
  5
A3
330
1E
100
AcDbEntity
  8
0
100
AcDbLine
 10
33.184
 20
77.604
 30
0.0
 11
36.0
 21
78.0
 31
0.0
  0
LINE
  5
A4
330
1E
100
AcDbEntity
  8
0
100
AcDbLine
 10
34.71999999999999
 20
89.0
 30
0.0
 11
36.0
 21
89.0
 31
0.0
  0
LINE
  5
A5
330
1E
100
AcDbEntity
  8
0
100
AcDbLine
 10
33.52
 20
89.0
 30
0.0
 11
34.71999999999999
 21
89.0
 31
0.0
  0
LINE
  5
A6
330
1E
100
AcDbEntity
  8
0
100
AcDbLine
 10
32.46
 20
89.0
 30
0.0
 11
33.52
 21
89.0
 31
0.0
  0
LINE
  5
A7
330
1E
100
AcDbEntity
  8
0
100
AcDbLine
 10
31.66
 20
89.0
 30
0.0
 11
32.46
 21
89.0
 31
0.0
  0
LINE
  5
A8
330
1E
100
AcDbEntity
  8
0
100
AcDbLine
 10
31.18
 20
89.0
 30
0.0
 11
31.66
 21
89.0
 31
0.0
  0
LINE
  5
A9
330
1E
100
AcDbEntity
  8
0
100
AcDbLine
 10
31.0
 20
76.7355951696377
 30
0.0
 11
31.0
 21
89.0
 31
0.0
  0
LINE
  5
AA
330
1E
100
AcDbEntity
  8
0
100
AcDbLine
 10
36.0
 20
77.736
 30
0.0
 11
38.772
 21
77.34
 31
0.0
  0
LINE
  5
AB
330
1E
100
AcDbEntity
  8
0
100
AcDbLine
 10
36.0
 20
78.0
 30
0.0
 11
38.816
 21
77.604
 31
0.0
  0
LINE
  5
AC
330
1E
100
AcDbEntity
  8
0
100
AcDbLine
 10
36.0
 20
89.0
 30
0.0
 11
37.28
 21
89.0
 31
0.0
  0
LINE
  5
AD
330
1E
100
AcDbEntity
  8
0
100
AcDbLine
 10
37.28
 20
89.0
 30
0.0
 11
38.47999999999999
 21
89.0
 31
0.0
  0
LINE
  5
AF
330
1E
100
AcDbEntity
  8
0
100
AcDbLine
 10
38.816
 20
77.604
 30
0.0
 11
41.456
 21
76.548
 31
0.0
  0
LINE
  5
B1
330
1E
100
AcDbEntity
  8
0
100
AcDbLine
 10
38.772
 20
77.34
 30
0.0
 11
41.32399999999999
 21
76.28399999999999
 31
0.0
  0
LINE
  5
B2
330
1E
100
AcDbEntity
  8
0
100
AcDbLine
 10
38.47999999999999
 20
89.0
 30
0.0
 11
39.54
 21
89.0
 31
0.0
  0
LINE
  5
B3
330
1E
100
AcDbEntity
  8
0
100
AcDbLine
 10
39.54
 20
89.0
 30
0.0
 11
40.34
 21
89.0
 31
0.0
  0
LINE
  5
B4
330
1E
100
AcDbEntity
  8
0
100
AcDbLine
 10
43.788
 20
74.78799999999999
 30
0.0
 11
45.548
 21
72.456
 31
0.0
  0
LINE
  5
B6
330
1E
100
AcDbEntity
  8
0
100
AcDbLine
 10
43.3554
 20
75.1527
 30
0.0
 11
45.072
 21
74.84
 31
0.0
  0
LINE
  5
B9
330
1E
100
AcDbEntity
  8
0
100
AcDbLine
 10
42.0
 20
76.2
 30
0.0
 11
45.216
 21
75.70399999999999
 31
0.0
  0
LINE
  5
BA
330
1E
100
AcDbEntity
  8
0
100
AcDbLine
 10
43.568
 20
74.568
 30
0.0
 11
45.284
 21
72.324
 31
0.0
  0
LINE
  5
BB
330
1E
100
AcDbEntity
  8
0
100
AcDbLine
 10
41.32399999999999
 20
76.28399999999999
 30
0.0
 11
43.568
 21
74.568
 31
0.0
  0
LINE
  5
BC
330
1E
100
AcDbEntity
  8
0
100
AcDbLine
 10
41.456
 20
76.548
 30
0.0
 11
42.0
 21
76.2
 31
0.0
  0
LINE
  5
BD
330
1E
100
AcDbEntity
  8
0
100
AcDbLine
 10
41.456
 20
76.548
 30
0.0
 11
43.788
 21
74.78799999999999
 31
0.0
  0
LINE
  5
BE
330
1E
100
AcDbEntity
  8
0
100
AcDbLine
 10
41.0
 20
76.7355951696377
 30
0.0
 11
41.0
 21
89.0
 31
0.0
  0
LINE
  5
BF
330
1E
100
AcDbEntity
  8
0
100
AcDbLine
 10
41.0
 20
89.0
 30
0.0
 11
41.0
 21
76.7355951696377
 31
0.0
  0
LINE
  5
C0
330
1E
100
AcDbEntity
  8
0
100
AcDbLine
 10
40.34
 20
89.0
 30
0.0
 11
40.81999999999999
 21
89.0
 31
0.0
  0
LINE
  5
C1
330
1E
100
AcDbEntity
  8
0
100
AcDbLine
 10
40.81999999999999
 20
89.0
 30
0.0
 11
41.0
 21
89.0
 31
0.0
  0
LINE
  5
C2
330
1E
100
AcDbEntity
  8
0
100
AcDbLine
 10
45.216
 20
75.70399999999999
 30
0.0
 11
53.856
 21
72.248
 31
0.0
  0
LINE
  5
C3
330
1E
100
AcDbEntity
  8
0
100
AcDbLine
 10
45.072
 20
74.84
 30
0.0
 11
53.424
 21
71.384
 31
0.0
  0
LINE
  5
C4
330
1E
100
AcDbEntity
  8
0
100
AcDbLine
 10
47.0
 20
67.0
 30
0.0
 11
47.0
 21
51.6
 31
0.0
  0
LINE
  5
C5
330
1E
100
AcDbEntity
  8
0
100
AcDbLine
 10
46.736
 20
67.0
 30
0.0
 11
46.736
 21
51.79999999999999
 31
0.0
  0
LINE
  5
C6
330
1E
100
AcDbEntity
  8
0
100
AcDbLine
 10
45.548
 20
72.456
 30
0.0
 11
46.604
 21
69.816
 31
0.0
  0
LINE
  5
C7
330
1E
100
AcDbEntity
  8
0
100
AcDbLine
 10
46.604
 20
69.816
 30
0.0
 11
47.0
 21
67.0
 31
0.0
  0
LINE
  5
C8
330
1E
100
AcDbEntity
  8
0
100
AcDbLine
 10
46.34
 20
69.77199999999999
 30
0.0
 11
46.736
 21
67.0
 31
0.0
  0
LINE
  5
C9
330
1E
100
AcDbEntity
  8
0
100
AcDbLine
 10
45.284
 20
72.324
 30
0.0
 11
46.34
 21
69.77199999999999
 31
0.0
  0
LINE
  5
CA
330
1E
100
AcDbEntity
  8
0
100
AcDbLine
 10
53.36
 20
25.08
 30
0.0
 11
55.28
 21
29.87999999999999
 31
0.0
  0
LINE
  5
CB
330
1E
100
AcDbEntity
  8
0
100
AcDbLine
 10
49.75999999999999
 20
48.76
 30
0.0
 11
52.88
 21
44.67999999999999
 31
0.0
  0
LINE
  5
CC
330
1E
100
AcDbEntity
  8
0
100
AcDbLine
 10
52.88
 20
44.67999999999999
 30
0.0
 11
54.8
 21
40.04
 31
0.0
  0
LINE
  5
CD
330
1E
100
AcDbEntity
  8
0
100
AcDbLine
 10
53.36
 20
44.91999999999999
 30
0.0
 11
55.28
 21
40.11999999999999
 31
0.0
  0
LINE
  5
CE
330
1E
100
AcDbEntity
  8
0
100
AcDbLine
 10
50.16
 20
49.16
 30
0.0
 11
53.36
 21
44.91999999999999
 31
0.0
  0
LINE
  5
CF
330
1E
100
AcDbEntity
  8
0
100
AcDbLine
 10
52.88
 20
25.32
 30
0.0
 11
54.8
 21
29.96
 31
0.0
  0
LINE
  5
D0
330
1E
100
AcDbEntity
  8
0
100
AcDbLine
 10
55.28
 20
29.87999999999999
 30
0.0
 11
56.0
 21
35.0
 31
0.0
  0
LINE
  5
D1
330
1E
100
AcDbEntity
  8
0
100
AcDbLine
 10
54.8
 20
40.04
 30
0.0
 11
55.52
 21
35.0
 31
0.0
  0
LINE
  5
D2
330
1E
100
AcDbEntity
  8
0
100
AcDbLine
 10
70.70399999999999
 20
31.784
 30
0.0
 11
72.0
 21
41.0
 31
0.0
  0
LINE
  5
D3
330
1E
100
AcDbEntity
  8
0
100
AcDbLine
 10
69.84
 20
31.928
 30
0.0
 11
71.13600000000001
 21
41.0
 31
0.0
  0
LINE
  5
D4
330
1E
100
AcDbEntity
  8
0
100
AcDbLine
 10
55.28
 20
40.11999999999999
 30
0.0
 11
56.0
 21
35.0
 31
0.0
  0
LINE
  5
D5
330
1E
100
AcDbEntity
  8
0
100
AcDbLine
 10
54.8
 20
29.96
 30
0.0
 11
55.52
 21
35.0
 31
0.0
  0
LINE
  5
D6
330
1E
100
AcDbEntity
  8
0
100
AcDbLine
 10
61.488
 20
66.488
 30
0.0
 11
67.248
 21
58.856
 31
0.0
  0
LINE
  5
D7
330
1E
100
AcDbEntity
  8
0
100
AcDbLine
 10
53.856
 20
72.248
 30
0.0
 11
61.488
 21
66.488
 31
0.0
  0
LINE
  5
D8
330
1E
100
AcDbEntity
  8
0
100
AcDbLine
 10
60.768
 20
65.768
 30
0.0
 11
66.384
 21
58.424
 31
0.0
  0
LINE
  5
D9
330
1E
100
AcDbEntity
  8
0
100
AcDbLine
 10
53.424
 20
71.384
 30
0.0
 11
60.768
 21
65.768
 31
0.0
  0
LINE
  5
DA
330
1E
100
AcDbEntity
  8
0
100
AcDbLine
 10
66.384
 20
58.424
 30
0.0
 11
69.84
 21
50.072
 31
0.0
  0
LINE
  5
DB
330
1E
100
AcDbEntity
  8
0
100
AcDbLine
 10
70.70399999999999
 20
50.216
 30
0.0
 11
72.0
 21
41.0
 31
0.0
  0
LINE
  5
DC
330
1E
100
AcDbEntity
  8
0
100
AcDbLine
 10
69.84
 20
50.072
 30
0.0
 11
71.13600000000001
 21
41.0
 31
0.0
  0
LINE
  5
DD
330
1E
100
AcDbEntity
  8
0
100
AcDbLine
 10
67.248
 20
58.856
 30
0.0
 11
70.70399999999999
 21
50.216
 31
0.0
  0
LINE
  5
DE
330
1E
100
AcDbEntity
  8
0
100
AcDbLine
 10
102.8
 20
-0.0000000000000024
 30
0.0
 11
104.8
 21
-0.0000000000000025
 31
0.0
  0
LINE
  5
DF
330
1E
100
AcDbEntity
  8
0
100
AcDbLine
 10
101.0999999999999
 20
-0.0000000000000022
 30
0.0
 11
102.8
 21
-0.0000000000000024
 31
0.0
  0
LINE
  5
E0
330
1E
100
AcDbEntity
  8
0
100
AcDbLine
 10
99.8
 20
-0.0000000000000021
 30
0.0
 11
101.0999999999999
 21
-0.0000000000000022
 31
0.0
  0
LINE
  5
E1
330
1E
100
AcDbEntity
  8
0
100
AcDbLine
 10
98.8
 20
-0.0000000000000019
 30
0.0
 11
99.8
 21
-0.0000000000000021
 31
0.0
  0
LINE
  5
E2
330
1E
100
AcDbEntity
  8
0
100
AcDbLine
 10
98.2
 20
-0.0000000000000017
 30
0.0
 11
98.8
 21
-0.0000000000000019
 31
0.0
  0
LINE
  5
E3
330
1E
100
AcDbEntity
  8
0
100
AcDbLine
 10
104.8
 20
-0.0000000000000025
 30
0.0
 11
107.0
 21
-0.0000000000000026
 31
0.0
  0
LINE
  5
E4
330
1E
100
AcDbEntity
  8
0
100
AcDbLine
 10
107.0
 20
-0.0000000000000026
 30
0.0
 11
109.5999999999999
 21
-0.0000000000000027
 31
0.0
  0
LINE
  5
E5
330
1E
100
AcDbEntity
  8
0
100
AcDbLine
 10
109.5999999999999
 20
-0.0000000000000027
 30
0.0
 11
112.2
 21
-0.0000000000000028
 31
0.0
  0
LINE
  5
E6
330
1E
100
AcDbEntity
  8
0
100
AcDbLine
 10
112.2
 20
-0.0000000000000028
 30
0.0
 11
115.1
 21
-0.0000000000000029
 31
0.0
  0
LINE
  5
E7
330
1E
100
AcDbEntity
  8
0
100
AcDbLine
 10
115.1
 20
-0.0000000000000029
 30
0.0
 11
118.0
 21
-0.0000000000000029
 31
0.0
  0
LINE
  5
E8
330
1E
100
AcDbEntity
  8
0
100
AcDbLine
 10
135.0
 20
-0.0000000000000026
 30
0.0
 11
137.1999999999999
 21
-0.0000000000000025
 31
0.0
  0
LINE
  5
E9
330
1E
100
AcDbEntity
  8
0
100
AcDbLine
 10
132.4
 20
-0.0000000000000027
 30
0.0
 11
135.0
 21
-0.0000000000000026
 31
0.0
  0
LINE
  5
EA
330
1E
100
AcDbEntity
  8
0
100
AcDbLine
 10
129.8
 20
-0.0000000000000028
 30
0.0
 11
132.4
 21
-0.0000000000000027
 31
0.0
  0
LINE
  5
EB
330
1E
100
AcDbEntity
  8
0
100
AcDbLine
 10
126.9
 20
-0.0000000000000029
 30
0.0
 11
129.8
 21
-0.0000000000000028
 31
0.0
  0
LINE
  5
EC
330
1E
100
AcDbEntity
  8
0
100
AcDbLine
 10
124.0
 20
-0.0000000000000029
 30
0.0
 11
126.9
 21
-0.0000000000000029
 31
0.0
  0
LINE
  5
ED
330
1E
100
AcDbEntity
  8
0
100
AcDbLine
 10
121.0
 20
-0.0000000000000029
 30
0.0
 11
124.0
 21
-0.0000000000000029
 31
0.0
  0
LINE
  5
EE
330
1E
100
AcDbEntity
  8
0
100
AcDbLine
 10
137.1999999999999
 20
-0.0000000000000025
 30
0.0
 11
139.1999999999999
 21
-0.0000000000000024
 31
0.0
  0
LINE
  5
EF
330
1E
100
AcDbEntity
  8
0
100
AcDbLine
 10
139.1999999999999
 20
-0.0000000000000024
 30
0.0
 11
140.8999999999999
 21
-0.0000000000000022
 31
0.0
  0
LINE
  5
F0
330
1E
100
AcDbEntity
  8
0
100
AcDbLine
 10
140.8999999999999
 20
-0.0000000000000022
 30
0.0
 11
142.1999999999999
 21
-0.0000000000000021
 31
0.0
  0
LINE
  5
F1
330
1E
100
AcDbEntity
  8
0
100
AcDbLine
 10
142.1999999999999
 20
-0.0000000000000021
 30
0.0
 11
143.1999999999999
 21
-0.0000000000000019
 31
0.0
  0
LINE
  5
F2
330
1E
100
AcDbEntity
  8
0
100
AcDbLine
 10
143.1999999999999
 20
-0.0000000000000019
 30
0.0
 11
143.8
 21
-0.0000000000000017
 31
0.0
  0
LINE
  5
F3
330
1E
100
AcDbEntity
  8
0
100
AcDbLine
 10
144.0
 20
-0.0000000000000015
 30
0.0
 11
144.0
 21
115.0
 31
0.0
  0
LINE
  5
F4
330
1E
100
AcDbEntity
  8
0
100
AcDbLine
 10
143.8
 20
-0.0000000000000013
 30
0.0
 11
144.0
 21
-0.0000000000000015
 31
0.0
  0
LINE
  5
F5
330
1E
100
AcDbEntity
  8
0
100
AcDbLine
 10
143.8
 20
-0.0000000000000017
 30
0.0
 11
144.0
 21
-0.0000000000000015
 31
0.0
  0
LINE
  5
F6
330
1E
100
AcDbEntity
  8
0
100
AcDbLine
 10
118.0
 20
-0.0000000000000029
 30
0.0
 11
121.0
 21
-0.0000000000000029
 31
0.0
  0
LINE
  5
F7
330
1E
100
AcDbEntity
  8
0
100
AcDbLine
 10
142.1999999999999
 20
-0.000000000000001
 30
0.0
 11
143.1999999999999
 21
-0.0000000000000012
 31
0.0
  0
LINE
  5
F8
330
1E
100
AcDbEntity
  8
0
100
AcDbLine
 10
143.1999999999999
 20
-0.0000000000000012
 30
0.0
 11
143.8
 21
-0.0000000000000013
 31
0.0
  0
LINE
  5
F9
330
1E
100
AcDbEntity
  8
0
100
AcDbLine
 10
139.1999999999999
 20
-0.0000000000000007
 30
0.0
 11
140.8999999999999
 21
-0.0000000000000008
 31
0.0
  0
LINE
  5
FA
330
1E
100
AcDbEntity
  8
0
100
AcDbLine
 10
140.8999999999999
 20
-0.0000000000000008
 30
0.0
 11
142.1999999999999
 21
-0.000000000000001
 31
0.0
  0
LINE
  5
FB
330
1E
100
AcDbEntity
  8
0
100
AcDbLine
 10
104.8
 20
-0.0000000000000005
 30
0.0
 11
107.0
 21
-0.0000000000000004
 31
0.0
  0
LINE
  5
FC
330
1E
100
AcDbEntity
  8
0
100
AcDbLine
 10
107.0
 20
-0.0000000000000004
 30
0.0
 11
109.5999999999999
 21
-0.0000000000000003
 31
0.0
  0
LINE
  5
FD
330
1E
100
AcDbEntity
  8
0
100
AcDbLine
 10
109.5999999999999
 20
-0.0000000000000003
 30
0.0
 11
112.2
 21
-0.0000000000000002
 31
0.0
  0
LINE
  5
FE
330
1E
100
AcDbEntity
  8
0
100
AcDbLine
 10
112.2
 20
-0.0000000000000002
 30
0.0
 11
115.1
 21
-0.0000000000000002
 31
0.0
  0
LINE
  5
FF
330
1E
100
AcDbEntity
  8
0
100
AcDbLine
 10
115.1
 20
-0.0000000000000002
 30
0.0
 11
118.0
 21
-0.0000000000000001
 31
0.0
  0
LINE
  5
100
330
1E
100
AcDbEntity
  8
0
100
AcDbLine
 10
137.1999999999999
 20
-0.0000000000000005
 30
0.0
 11
139.1999999999999
 21
-0.0000000000000007
 31
0.0
  0
LINE
  5
101
330
1E
100
AcDbEntity
  8
0
100
AcDbLine
 10
135.0
 20
-0.0000000000000004
 30
0.0
 11
137.1999999999999
 21
-0.0000000000000005
 31
0.0
  0
LINE
  5
102
330
1E
100
AcDbEntity
  8
0
100
AcDbLine
 10
132.4
 20
-0.0000000000000003
 30
0.0
 11
135.0
 21
-0.0000000000000004
 31
0.0
  0
LINE
  5
103
330
1E
100
AcDbEntity
  8
0
100
AcDbLine
 10
129.8
 20
-0.0000000000000002
 30
0.0
 11
132.4
 21
-0.0000000000000003
 31
0.0
  0
LINE
  5
104
330
1E
100
AcDbEntity
  8
0
100
AcDbLine
 10
126.9
 20
-0.0000000000000002
 30
0.0
 11
129.8
 21
-0.0000000000000002
 31
0.0
  0
LINE
  5
105
330
1E
100
AcDbEntity
  8
0
100
AcDbLine
 10
124.0
 20
-0.0000000000000001
 30
0.0
 11
126.9
 21
-0.0000000000000002
 31
0.0
  0
LINE
  5
1C2
330
1E
100
AcDbEntity
  8
0
100
AcDbLine
 10
145.6999999999999
 20
90.29999999999999
 30
0.0
 11
148.6999999999999
 21
93.7
 31
0.0
  0
LINE
  5
1C3
330
1E
100
AcDbEntity
  8
0
100
AcDbLine
 10
144.0
 20
88.8
 30
0.0
 11
145.6999999999999
 21
90.29999999999999
 31
0.0
  0
LINE
  5
1C4
330
1E
100
AcDbEntity
  8
0
100
AcDbLine
 10
121.0
 20
-0.0000000000000001
 30
0.0
 11
124.0
 21
-0.0000000000000001
 31
0.0
  0
LINE
  5
1C5
330
1E
100
AcDbEntity
  8
0
100
AcDbLine
 10
118.0
 20
-0.0000000000000001
 30
0.0
 11
121.0
 21
-0.0000000000000001
 31
0.0
  0
LINE
  5
1C6
330
1E
100
AcDbEntity
  8
0
100
AcDbLine
 10
102.8
 20
-0.0000000000000007
 30
0.0
 11
104.8
 21
-0.0000000000000005
 31
0.0
  0
LINE
  5
1C7
330
1E
100
AcDbEntity
  8
0
100
AcDbLine
 10
101.0999999999999
 20
-0.0000000000000008
 30
0.0
 11
102.8
 21
-0.0000000000000007
 31
0.0
  0
LINE
  5
1C8
330
1E
100
AcDbEntity
  8
0
100
AcDbLine
 10
99.8
 20
-0.000000000000001
 30
0.0
 11
101.0999999999999
 21
-0.0000000000000008
 31
0.0
  0
LINE
  5
1C9
330
1E
100
AcDbEntity
  8
0
100
AcDbLine
 10
98.8
 20
-0.0000000000000012
 30
0.0
 11
99.8
 21
-0.000000000000001
 31
0.0
  0
LINE
  5
1CA
330
1E
100
AcDbEntity
  8
0
100
AcDbLine
 10
98.2
 20
-0.0000000000000013
 30
0.0
 11
98.8
 21
-0.0000000000000012
 31
0.0
  0
LINE
  5
1CB
330
1E
100
AcDbEntity
  8
0
100
AcDbLine
 10
98.0
 20
-0.0000000000000015
 30
0.0
 11
98.2
 21
-0.0000000000000013
 31
0.0
  0
LINE
  5
1CC
330
1E
100
AcDbEntity
  8
0
100
AcDbLine
 10
98.0
 20
-0.0000000000000015
 30
0.0
 11
98.2
 21
-0.0000000000000017
 31
0.0
  0
LINE
  5
1CD
330
1E
100
AcDbEntity
  8
0
100
AcDbLine
 10
98.0
 20
-0.0000000000000015
 30
0.0
 11
98.0
 21
115.0
 31
0.0
  0
LINE
  5
1CE
330
1E
100
AcDbEntity
  8
0
100
AcDbLine
 10
148.6999999999999
 20
93.7
 30
0.0
 11
151.3
 21
97.59999999999999
 31
0.0
  0
LINE
  5
1CF
330
1E
100
AcDbEntity
  8
0
100
AcDbLine
 10
151.3
 20
97.59999999999999
 30
0.0
 11
153.3
 21
101.6
 31
0.0
  0
LINE
  5
1D0
330
1E
100
AcDbEntity
  8
0
100
AcDbLine
 10
96.3
 20
90.29999999999999
 30
0.0
 11
98.0
 21
88.8
 31
0.0
  0
LINE
  5
1D1
330
1E
100
AcDbEntity
  8
0
100
AcDbLine
 10
93.3
 20
93.7
 30
0.0
 11
96.3
 21
90.29999999999999
 31
0.0
  0
LINE
  5
1D2
330
1E
100
AcDbEntity
  8
0
100
AcDbLine
 10
153.3
 20
101.6
 30
0.0
 11
154.6999999999999
 21
106.0
 31
0.0
  0
LINE
  5
1D3
330
1E
100
AcDbEntity
  8
0
100
AcDbLine
 10
154.6999999999999
 20
106.0
 30
0.0
 11
155.6
 21
110.4
 31
0.0
  0
LINE
  5
1D4
330
1E
100
AcDbEntity
  8
0
100
AcDbLine
 10
90.7
 20
97.59999999999999
 30
0.0
 11
93.3
 21
93.7
 31
0.0
  0
LINE
  5
1D5
330
1E
100
AcDbEntity
  8
0
100
AcDbLine
 10
88.7
 20
101.6
 30
0.0
 11
90.7
 21
97.59999999999999
 31
0.0
  0
LINE
  5
1D6
330
1E
100
AcDbEntity
  8
0
100
AcDbLine
 10
96.90000000000001
 20
115.0
 30
0.0
 11
98.0
 21
115.0
 31
0.0
  0
LINE
  5
1D7
330
1E
100
AcDbEntity
  8
0
100
AcDbLine
 10
96.3
 20
115.0
 30
0.0
 11
96.90000000000001
 21
115.0
 31
0.0
  0
LINE
  5
1D8
330
1E
100
AcDbEntity
  8
0
100
AcDbLine
 10
96.0
 20
115.0
 30
0.0
 11
96.3
 21
115.0
 31
0.0
  0
LINE
  5
1D9
330
1E
100
AcDbEntity
  8
0
100
AcDbLine
 10
96.0
 20
115.0
 30
0.0
 11
96.0
 21
265.0
 31
0.0
  0
LINE
  5
1DA
330
1E
100
AcDbEntity
  8
0
100
AcDbLine
 10
99.29999999999999
 20
115.0
 30
0.0
 11
101.2
 21
115.0
 31
0.0
  0
LINE
  5
1DB
330
1E
100
AcDbEntity
  8
0
100
AcDbLine
 10
103.4
 20
115.0
 30
0.0
 11
105.8
 21
115.0
 31
0.0
  0
LINE
  5
1DC
330
1E
100
AcDbEntity
  8
0
100
AcDbLine
 10
105.8
 20
115.0
 30
0.0
 11
108.6
 21
115.0
 31
0.0
  0
LINE
  5
1DD
330
1E
100
AcDbEntity
  8
0
100
AcDbLine
 10
108.6
 20
115.0
 30
0.0
 11
111.4999999999999
 21
115.0
 31
0.0
  0
LINE
  5
1DE
330
1E
100
AcDbEntity
  8
0
100
AcDbLine
 10
104.8
 20
115.0
 30
0.0
 11
107.0
 21
115.0
 31
0.0
  0
LINE
  5
1DF
330
1E
100
AcDbEntity
  8
0
100
AcDbLine
 10
107.0
 20
115.0
 30
0.0
 11
109.5999999999999
 21
115.0
 31
0.0
  0
LINE
  5
1E0
330
1E
100
AcDbEntity
  8
0
100
AcDbLine
 10
111.4999999999999
 20
115.0
 30
0.0
 11
114.5999999999999
 21
115.0
 31
0.0
  0
LINE
  5
1E1
330
1E
100
AcDbEntity
  8
0
100
AcDbLine
 10
114.5999999999999
 20
115.0
 30
0.0
 11
117.7
 21
115.0
 31
0.0
  0
LINE
  5
1E2
330
1E
100
AcDbEntity
  8
0
100
AcDbLine
 10
109.5999999999999
 20
115.0
 30
0.0
 11
112.2
 21
115.0
 31
0.0
  0
LINE
  5
1E3
330
1E
100
AcDbEntity
  8
0
100
AcDbLine
 10
112.2
 20
115.0
 30
0.0
 11
115.1
 21
115.0
 31
0.0
  0
LINE
  5
1E4
330
1E
100
AcDbEntity
  8
0
100
AcDbLine
 10
127.4
 20
115.0
 30
0.0
 11
130.4999999999999
 21
115.0
 31
0.0
  0
LINE
  5
1E5
330
1E
100
AcDbEntity
  8
0
100
AcDbLine
 10
124.3
 20
115.0
 30
0.0
 11
127.4
 21
115.0
 31
0.0
  0
LINE
  5
1E6
330
1E
100
AcDbEntity
  8
0
100
AcDbLine
 10
133.4
 20
115.0
 30
0.0
 11
136.1999999999999
 21
115.0
 31
0.0
  0
LINE
  5
1E7
330
1E
100
AcDbEntity
  8
0
100
AcDbLine
 10
130.4999999999999
 20
115.0
 30
0.0
 11
133.4
 21
115.0
 31
0.0
  0
LINE
  5
1E8
330
1E
100
AcDbEntity
  8
0
100
AcDbLine
 10
138.5999999999999
 20
115.0
 30
0.0
 11
140.8
 21
115.0
 31
0.0
  0
LINE
  5
1E9
330
1E
100
AcDbEntity
  8
0
100
AcDbLine
 10
137.1999999999999
 20
115.0
 30
0.0
 11
139.1999999999999
 21
115.0
 31
0.0
  0
LINE
  5
1EA
330
1E
100
AcDbEntity
  8
0
100
AcDbLine
 10
140.8
 20
115.0
 30
0.0
 11
142.6999999999999
 21
115.0
 31
0.0
  0
LINE
  5
1EB
330
1E
100
AcDbEntity
  8
0
100
AcDbLine
 10
139.1999999999999
 20
115.0
 30
0.0
 11
140.8999999999999
 21
115.0
 31
0.0
  0
LINE
  5
1EC
330
1E
100
AcDbEntity
  8
0
100
AcDbLine
 10
140.8999999999999
 20
115.0
 30
0.0
 11
142.1999999999999
 21
115.0
 31
0.0
  0
LINE
  5
1ED
330
1E
100
AcDbEntity
  8
0
100
AcDbLine
 10
142.6999999999999
 20
115.0
 30
0.0
 11
144.0
 21
115.0
 31
0.0
  0
LINE
  5
1EE
330
1E
100
AcDbEntity
  8
0
100
AcDbLine
 10
142.1999999999999
 20
115.0
 30
0.0
 11
143.1999999999999
 21
115.0
 31
0.0
  0
LINE
  5
1EF
330
1E
100
AcDbEntity
  8
0
100
AcDbLine
 10
143.1999999999999
 20
115.0
 30
0.0
 11
143.8
 21
115.0
 31
0.0
  0
LINE
  5
1F0
330
1E
100
AcDbEntity
  8
0
100
AcDbLine
 10
143.8
 20
115.0
 30
0.0
 11
144.0
 21
115.0
 31
0.0
  0
LINE
  5
1F1
330
1E
100
AcDbEntity
  8
0
100
AcDbLine
 10
136.1999999999999
 20
115.0
 30
0.0
 11
138.5999999999999
 21
115.0
 31
0.0
  0
LINE
  5
1F2
330
1E
100
AcDbEntity
  8
0
100
AcDbLine
 10
135.0
 20
115.0
 30
0.0
 11
137.1999999999999
 21
115.0
 31
0.0
  0
LINE
  5
1F3
330
1E
100
AcDbEntity
  8
0
100
AcDbLine
 10
132.4
 20
115.0
 30
0.0
 11
135.0
 21
115.0
 31
0.0
  0
LINE
  5
1F4
330
1E
100
AcDbEntity
  8
0
100
AcDbLine
 10
129.8
 20
115.0
 30
0.0
 11
132.4
 21
115.0
 31
0.0
  0
LINE
  5
1F5
330
1E
100
AcDbEntity
  8
0
100
AcDbLine
 10
126.9
 20
115.0
 30
0.0
 11
129.8
 21
115.0
 31
0.0
  0
LINE
  5
1F6
330
1E
100
AcDbEntity
  8
0
100
AcDbLine
 10
124.0
 20
115.0
 30
0.0
 11
126.9
 21
115.0
 31
0.0
  0
LINE
  5
1F7
330
1E
100
AcDbEntity
  8
0
100
AcDbLine
 10
121.0
 20
115.0
 30
0.0
 11
124.0
 21
115.0
 31
0.0
  0
LINE
  5
1F8
330
1E
100
AcDbEntity
  8
0
100
AcDbLine
 10
121.0
 20
115.0
 30
0.0
 11
124.3
 21
115.0
 31
0.0
  0
LINE
  5
1F9
330
1E
100
AcDbEntity
  8
0
100
AcDbLine
 10
155.6
 20
110.4
 30
0.0
 11
156.0
 21
115.0
 31
0.0
  0
LINE
  5
1FA
330
1E
100
AcDbEntity
  8
0
100
AcDbLine
 10
146.0
 20
115.0
 30
0.0
 11
146.0
 21
265.0
 31
0.0
  0
LINE
  5
1FB
330
1E
100
AcDbEntity
  8
0
100
AcDbLine
 10
145.1
 20
115.0
 30
0.0
 11
145.6999999999999
 21
115.0
 31
0.0
  0
LINE
  5
1FC
330
1E
100
AcDbEntity
  8
0
100
AcDbLine
 10
145.6999999999999
 20
115.0
 30
0.0
 11
146.0
 21
115.0
 31
0.0
  0
LINE
  5
1FD
330
1E
100
AcDbEntity
  8
0
100
AcDbLine
 10
144.0
 20
115.0
 30
0.0
 11
144.0
 21
0.0
 31
0.0
  0
LINE
  5
1FE
330
1E
100
AcDbEntity
  8
0
100
AcDbLine
 10
144.0
 20
115.0
 30
0.0
 11
145.1
 21
115.0
 31
0.0
  0
LINE
  5
1FF
330
1E
100
AcDbEntity
  8
0
100
AcDbLine
 10
117.7
 20
115.0
 30
0.0
 11
121.0
 21
115.0
 31
0.0
  0
LINE
  5
200
330
1E
100
AcDbEntity
  8
0
100
AcDbLine
 10
115.1
 20
115.0
 30
0.0
 11
118.0
 21
115.0
 31
0.0
  0
LINE
  5
201
330
1E
100
AcDbEntity
  8
0
100
AcDbLine
 10
118.0
 20
115.0
 30
0.0
 11
121.0
 21
115.0
 31
0.0
  0
LINE
  5
202
330
1E
100
AcDbEntity
  8
0
100
AcDbLine
 10
101.2
 20
115.0
 30
0.0
 11
103.4
 21
115.0
 31
0.0
  0
LINE
  5
203
330
1E
100
AcDbEntity
  8
0
100
AcDbLine
 10
102.8
 20
115.0
 30
0.0
 11
104.8
 21
115.0
 31
0.0
  0
LINE
  5
204
330
1E
100
AcDbEntity
  8
0
100
AcDbLine
 10
101.0999999999999
 20
115.0
 30
0.0
 11
102.8
 21
115.0
 31
0.0
  0
LINE
  5
205
330
1E
100
AcDbEntity
  8
0
100
AcDbLine
 10
99.8
 20
115.0
 30
0.0
 11
101.0999999999999
 21
115.0
 31
0.0
  0
LINE
  5
206
330
1E
100
AcDbEntity
  8
0
100
AcDbLine
 10
98.8
 20
115.0
 30
0.0
 11
99.8
 21
115.0
 31
0.0
  0
LINE
  5
207
330
1E
100
AcDbEntity
  8
0
100
AcDbLine
 10
155.6
 20
119.5999999999999
 30
0.0
 11
156.0
 21
115.0
 31
0.0
  0
LINE
  5
208
330
1E
100
AcDbEntity
  8
0
100
AcDbLine
 10
98.2
 20
115.0
 30
0.0
 11
98.8
 21
115.0
 31
0.0
  0
LINE
  5
209
330
1E
100
AcDbEntity
  8
0
100
AcDbLine
 10
98.0
 20
115.0
 30
0.0
 11
98.0
 21
0.0
 31
0.0
  0
LINE
  5
20A
330
1E
100
AcDbEntity
  8
0
100
AcDbLine
 10
98.0
 20
115.0
 30
0.0
 11
98.2
 21
115.0
 31
0.0
  0
LINE
  5
20B
330
1E
100
AcDbEntity
  8
0
100
AcDbLine
 10
98.0
 20
115.0
 30
0.0
 11
99.29999999999999
 21
115.0
 31
0.0
  0
LINE
  5
20C
330
1E
100
AcDbEntity
  8
0
100
AcDbLine
 10
87.3
 20
106.0
 30
0.0
 11
88.7
 21
101.6
 31
0.0
  0
LINE
  5
20D
330
1E
100
AcDbEntity
  8
0
100
AcDbLine
 10
86.4
 20
110.4
 30
0.0
 11
87.3
 21
106.0
 31
0.0
  0
LINE
  5
20E
330
1E
100
AcDbEntity
  8
0
100
AcDbLine
 10
153.3
 20
128.4
 30
0.0
 11
154.6999999999999
 21
124.0
 31
0.0
  0
LINE
  5
20F
330
1E
100
AcDbEntity
  8
0
100
AcDbLine
 10
154.6999999999999
 20
124.0
 30
0.0
 11
155.6
 21
119.5999999999999
 31
0.0
  0
LINE
  5
210
330
1E
100
AcDbEntity
  8
0
100
AcDbLine
 10
148.6999999999999
 20
136.3
 30
0.0
 11
151.3
 21
132.4
 31
0.0
  0
LINE
  5
211
330
1E
100
AcDbEntity
  8
0
100
AcDbLine
 10
151.3
 20
132.4
 30
0.0
 11
153.3
 21
128.4
 31
0.0
  0
LINE
  5
212
330
1E
100
AcDbEntity
  8
0
100
AcDbLine
 10
103.4
 20
265.0
 30
0.0
 11
105.8
 21
265.0
 31
0.0
  0
LINE
  5
213
330
1E
100
AcDbEntity
  8
0
100
AcDbLine
 10
105.8
 20
265.0
 30
0.0
 11
108.6
 21
265.0
 31
0.0
  0
LINE
  5
214
330
1E
100
AcDbEntity
  8
0
100
AcDbLine
 10
108.6
 20
265.0
 30
0.0
 11
111.4999999999999
 21
265.0
 31
0.0
  0
LINE
  5
215
330
1E
100
AcDbEntity
  8
0
100
AcDbLine
 10
111.4999999999999
 20
265.0
 30
0.0
 11
114.5999999999999
 21
265.0
 31
0.0
  0
LINE
  5
216
330
1E
100
AcDbEntity
  8
0
100
AcDbLine
 10
114.5999999999999
 20
265.0
 30
0.0
 11
117.7
 21
265.0
 31
0.0
  0
LINE
  5
217
330
1E
100
AcDbEntity
  8
0
100
AcDbLine
 10
138.5999999999999
 20
265.0
 30
0.0
 11
140.8
 21
265.0
 31
0.0
  0
LINE
  5
218
330
1E
100
AcDbEntity
  8
0
100
AcDbLine
 10
140.8
 20
265.0
 30
0.0
 11
142.6999999999999
 21
265.0
 31
0.0
  0
LINE
  5
219
330
1E
100
AcDbEntity
  8
0
100
AcDbLine
 10
142.6999999999999
 20
265.0
 30
0.0
 11
144.0
 21
265.0
 31
0.0
  0
LINE
  5
21A
330
1E
100
AcDbEntity
  8
0
100
AcDbLine
 10
144.0
 20
265.0
 30
0.0
 11
145.1
 21
265.0
 31
0.0
  0
LINE
  5
21B
330
1E
100
AcDbEntity
  8
0
100
AcDbLine
 10
145.1
 20
265.0
 30
0.0
 11
145.6999999999999
 21
265.0
 31
0.0
  0
LINE
  5
21C
330
1E
100
AcDbEntity
  8
0
100
AcDbLine
 10
146.0
 20
139.36
 30
0.0
 11
148.6999999999999
 21
136.3
 31
0.0
  0
LINE
  5
21D
330
1E
100
AcDbEntity
  8
0
100
AcDbLine
 10
145.6999999999999
 20
265.0
 30
0.0
 11
146.0
 21
265.0
 31
0.0
  0
LINE
  5
21E
330
1E
100
AcDbEntity
  8
0
100
AcDbLine
 10
136.1999999999999
 20
265.0
 30
0.0
 11
138.5999999999999
 21
265.0
 31
0.0
  0
LINE
  5
21F
330
1E
100
AcDbEntity
  8
0
100
AcDbLine
 10
133.4
 20
265.0
 30
0.0
 11
136.1999999999999
 21
265.0
 31
0.0
  0
LINE
  5
220
330
1E
100
AcDbEntity
  8
0
100
AcDbLine
 10
130.4999999999999
 20
265.0
 30
0.0
 11
133.4
 21
265.0
 31
0.0
  0
LINE
  5
221
330
1E
100
AcDbEntity
  8
0
100
AcDbLine
 10
127.4
 20
265.0
 30
0.0
 11
130.4999999999999
 21
265.0
 31
0.0
  0
LINE
  5
222
330
1E
100
AcDbEntity
  8
0
100
AcDbLine
 10
124.3
 20
265.0
 30
0.0
 11
127.4
 21
265.0
 31
0.0
  0
LINE
  5
223
330
1E
100
AcDbEntity
  8
0
100
AcDbLine
 10
121.0
 20
265.0
 30
0.0
 11
124.3
 21
265.0
 31
0.0
  0
LINE
  5
224
330
1E
100
AcDbEntity
  8
0
100
AcDbLine
 10
146.0
 20
265.0
 30
0.0
 11
146.0
 21
115.0
 31
0.0
  0
LINE
  5
225
330
1E
100
AcDbEntity
  8
0
100
AcDbLine
 10
117.7
 20
265.0
 30
0.0
 11
121.0
 21
265.0
 31
0.0
  0
LINE
  5
226
330
1E
100
AcDbEntity
  8
0
100
AcDbLine
 10
101.2
 20
265.0
 30
0.0
 11
103.4
 21
265.0
 31
0.0
  0
LINE
  5
227
330
1E
100
AcDbEntity
  8
0
100
AcDbLine
 10
99.29999999999999
 20
265.0
 30
0.0
 11
101.2
 21
265.0
 31
0.0
  0
LINE
  5
228
330
1E
100
AcDbEntity
  8
0
100
AcDbLine
 10
98.0
 20
265.0
 30
0.0
 11
99.29999999999999
 21
265.0
 31
0.0
  0
LINE
  5
229
330
1E
100
AcDbEntity
  8
0
100
AcDbLine
 10
96.90000000000001
 20
265.0
 30
0.0
 11
98.0
 21
265.0
 31
0.0
  0
LINE
  5
22A
330
1E
100
AcDbEntity
  8
0
100
AcDbLine
 10
96.3
 20
265.0
 30
0.0
 11
96.90000000000001
 21
265.0
 31
0.0
  0
LINE
  5
22B
330
1E
100
AcDbEntity
  8
0
100
AcDbLine
 10
96.0
 20
265.0
 30
0.0
 11
96.0
 21
115.0
 31
0.0
  0
LINE
  5
22C
330
1E
100
AcDbEntity
  8
0
100
AcDbLine
 10
96.0
 20
265.0
 30
0.0
 11
96.3
 21
265.0
 31
0.0
  0
LINE
  5
22D
330
1E
100
AcDbEntity
  8
0
100
AcDbLine
 10
93.3
 20
136.3
 30
0.0
 11
96.0
 21
139.36
 31
0.0
  0
LINE
  5
22E
330
1E
100
AcDbEntity
  8
0
100
AcDbLine
 10
90.7
 20
132.4
 30
0.0
 11
93.3
 21
136.3
 31
0.0
  0
LINE
  5
22F
330
1E
100
AcDbEntity
  8
0
100
AcDbLine
 10
88.7
 20
128.4
 30
0.0
 11
90.7
 21
132.4
 31
0.0
  0
LINE
  5
230
330
1E
100
AcDbEntity
  8
0
100
AcDbLine
 10
87.3
 20
124.0
 30
0.0
 11
88.7
 21
128.4
 31
0.0
  0
LINE
  5
231
330
1E
100
AcDbEntity
  8
0
100
AcDbLine
 10
86.4
 20
119.5999999999999
 30
0.0
 11
87.3
 21
124.0
 31
0.0
  0
LINE
  5
232
330
1E
100
AcDbEntity
  8
0
100
AcDbLine
 10
86.0
 20
115.0
 30
0.0
 11
86.4
 21
119.5999999999999
 31
0.0
  0
LINE
  5
233
330
1E
100
AcDbEntity
  8
0
100
AcDbLine
 10
86.0
 20
115.0
 30
0.0
 11
86.4
 21
110.4
 31
0.0
  0
LINE
  5
238
330
1E
100
AcDbEntity
  8
0
100
AcDbLine
 10
200.5439999999999
 20
76.548
 30
0.0
 11
198.2119999999999
 21
74.78799999999999
 31
0.0
  0
LINE
  5
239
330
1E
100
AcDbEntity
  8
0
100
AcDbLine
 10
200.5439999999999
 20
76.548
 30
0.0
 11
200.0
 21
76.2
 31
0.0
  0
LINE
  5
23A
330
1E
100
AcDbEntity
  8
0
100
AcDbLine
 10
200.6759999999999
 20
76.28399999999999
 30
0.0
 11
198.4319999999999
 21
74.568
 31
0.0
  0
LINE
  5
23B
330
1E
100
AcDbEntity
  8
0
100
AcDbLine
 10
200.8799999999999
 20
54.28
 30
0.0
 11
196.0799999999999
 21
52.36
 31
0.0
  0
LINE
  5
23C
330
1E
100
AcDbEntity
  8
0
100
AcDbLine
 10
200.96
 20
53.79999999999999
 30
0.0
 11
196.32
 21
51.88
 31
0.0
  0
LINE
  5
23D
330
1E
100
AcDbEntity
  8
0
100
AcDbLine
 10
200.8799999999999
 20
15.72
 30
0.0
 11
196.0799999999999
 21
17.64
 31
0.0
  0
LINE
  5
23E
330
1E
100
AcDbEntity
  8
0
100
AcDbLine
 10
200.96
 20
16.2
 30
0.0
 11
196.32
 21
18.12
 31
0.0
  0
LINE
  5
23F
330
1E
100
AcDbEntity
  8
0
100
AcDbLine
 10
200.8799999999999
 20
15.72
 30
0.0
 11
196.0799999999999
 21
17.64
 31
0.0
  0
LINE
  5
240
330
1E
100
AcDbEntity
  8
0
100
AcDbLine
 10
206.0
 20
5.86399999999999
 30
0.0
 11
196.9279999999999
 21
7.15999999999999
 31
0.0
  0
LINE
  5
241
330
1E
100
AcDbEntity
  8
0
100
AcDbLine
 10
206.0
 20
4.99999999999998
 30
0.0
 11
196.7839999999999
 21
6.29599999999999
 31
0.0
  0
LINE
  5
242
330
1E
100
AcDbEntity
  8
0
100
AcDbLine
 10
206.0
 20
4.99999999999998
 30
0.0
 11
196.7839999999999
 21
6.29599999999998
 31
0.0
  0
LINE
  5
243
330
1E
100
AcDbEntity
  8
0
100
AcDbLine
 10
242.0
 20
41.0
 30
0.0
 11
240.704
 21
50.216
 31
0.0
  0
LINE
  5
244
330
1E
100
AcDbEntity
  8
0
100
AcDbLine
 10
220.16
 20
49.16
 30
0.0
 11
217.0
 21
51.6
 31
0.0
  0
LINE
  5
245
330
1E
100
AcDbEntity
  8
0
100
AcDbLine
 10
220.16
 20
49.16
 30
0.0
 11
215.92
 21
52.36
 31
0.0
  0
LINE
  5
246
330
1E
100
AcDbEntity
  8
0
100
AcDbLine
 10
219.7599999999999
 20
48.76
 30
0.0
 11
215.68
 21
51.88
 31
0.0
  0
LINE
  5
247
330
1E
100
AcDbEntity
  8
0
100
AcDbLine
 10
241.136
 20
41.0
 30
0.0
 11
239.84
 21
50.072
 31
0.0
  0
LINE
  5
248
330
1E
100
AcDbEntity
  8
0
100
AcDbLine
 10
241.136
 20
41.0
 30
0.0
 11
239.84
 21
50.072
 31
0.0
  0
LINE
  5
249
330
1E
100
AcDbEntity
  8
0
100
AcDbLine
 10
237.2479999999999
 20
23.144
 30
0.0
 11
231.488
 21
15.512
 31
0.0
  0
LINE
  5
24A
330
1E
100
AcDbEntity
  8
0
100
AcDbLine
 10
237.2479999999999
 20
23.144
 30
0.0
 11
231.488
 21
15.512
 31
0.0
  0
LINE
  5
24B
330
1E
100
AcDbEntity
  8
0
100
AcDbLine
 10
236.3839999999999
 20
23.576
 30
0.0
 11
230.7679999999999
 21
16.23199999999999
 31
0.0
  0
LINE
  5
24C
330
1E
100
AcDbEntity
  8
0
100
AcDbLine
 10
240.704
 20
31.784
 30
0.0
 11
237.2479999999999
 21
23.144
 31
0.0
  0
LINE
  5
24D
330
1E
100
AcDbEntity
  8
0
100
AcDbLine
 10
239.84
 20
31.928
 30
0.0
 11
236.3839999999999
 21
23.576
 31
0.0
  0
LINE
  5
24E
330
1E
100
AcDbEntity
  8
0
100
AcDbLine
 10
240.704
 20
31.784
 30
0.0
 11
237.2479999999999
 21
23.144
 31
0.0
  0
LINE
  5
24F
330
1E
100
AcDbEntity
  8
0
100
AcDbLine
 10
242.0
 20
41.0
 30
0.0
 11
240.704
 21
31.784
 31
0.0
  0
LINE
  5
250
330
1E
100
AcDbEntity
  8
0
100
AcDbLine
 10
241.136
 20
41.0
 30
0.0
 11
239.84
 21
31.928
 31
0.0
  0
LINE
  5
251
330
1E
100
AcDbEntity
  8
0
100
AcDbLine
 10
241.136
 20
41.0
 30
0.0
 11
239.84
 21
31.928
 31
0.0
  0
LINE
  5
252
330
1E
100
AcDbEntity
  8
0
100
AcDbLine
 10
223.856
 20
9.751999999999981
 30
0.0
 11
215.216
 21
6.29599999999998
 31
0.0
  0
LINE
  5
253
330
1E
100
AcDbEntity
  8
0
100
AcDbLine
 10
223.856
 20
9.751999999999981
 30
0.0
 11
215.216
 21
6.29599999999999
 31
0.0
  0
LINE
  5
254
330
1E
100
AcDbEntity
  8
0
100
AcDbLine
 10
223.424
 20
10.616
 30
0.0
 11
215.072
 21
7.15999999999999
 31
0.0
  0
LINE
  5
255
330
1E
100
AcDbEntity
  8
0
100
AcDbLine
 10
215.216
 20
6.29599999999999
 30
0.0
 11
206.0
 21
4.99999999999998
 31
0.0
  0
LINE
  5
256
330
1E
100
AcDbEntity
  8
0
100
AcDbLine
 10
215.072
 20
7.15999999999999
 30
0.0
 11
206.0
 21
5.86399999999999
 31
0.0
  0
LINE
  5
257
330
1E
100
AcDbEntity
  8
0
100
AcDbLine
 10
215.216
 20
6.29599999999998
 30
0.0
 11
206.0
 21
4.99999999999998
 31
0.0
  0
LINE
  5
258
330
1E
100
AcDbEntity
  8
0
100
AcDbLine
 10
219.7599999999999
 20
21.24
 30
0.0
 11
215.68
 21
18.12
 31
0.0
  0
LINE
  5
259
330
1E
100
AcDbEntity
  8
0
100
AcDbLine
 10
220.16
 20
20.84
 30
0.0
 11
215.92
 21
17.64
 31
0.0
  0
LINE
  5
25A
330
1E
100
AcDbEntity
  8
0
100
AcDbLine
 10
220.16
 20
20.84
 30
0.0
 11
215.92
 21
17.64
 31
0.0
  0
LINE
  5
25B
330
1E
100
AcDbEntity
  8
0
100
AcDbLine
 10
224.8
 20
29.96
 30
0.0
 11
222.88
 21
25.32
 31
0.0
  0
LINE
  5
25C
330
1E
100
AcDbEntity
  8
0
100
AcDbLine
 10
225.28
 20
29.87999999999999
 30
0.0
 11
223.36
 21
25.08
 31
0.0
  0
LINE
  5
25D
330
1E
100
AcDbEntity
  8
0
100
AcDbLine
 10
225.28
 20
29.87999999999999
 30
0.0
 11
223.36
 21
25.08
 31
0.0
  0
LINE
  5
25E
330
1E
100
AcDbEntity
  8
0
100
AcDbLine
 10
231.488
 20
15.512
 30
0.0
 11
223.856
 21
9.751999999999981
 31
0.0
  0
LINE
  5
25F
330
1E
100
AcDbEntity
  8
0
100
AcDbLine
 10
231.488
 20
15.512
 30
0.0
 11
223.856
 21
9.751999999999981
 31
0.0
  0
LINE
  5
260
330
1E
100
AcDbEntity
  8
0
100
AcDbLine
 10
230.7679999999999
 20
16.23199999999999
 30
0.0
 11
223.424
 21
10.616
 31
0.0
  0
LINE
  5
261
330
1E
100
AcDbEntity
  8
0
100
AcDbLine
 10
222.88
 20
25.32
 30
0.0
 11
219.7599999999999
 21
21.24
 31
0.0
  0
LINE
  5
262
330
1E
100
AcDbEntity
  8
0
100
AcDbLine
 10
223.36
 20
25.08
 30
0.0
 11
220.16
 21
20.84
 31
0.0
  0
LINE
  5
263
330
1E
100
AcDbEntity
  8
0
100
AcDbLine
 10
223.36
 20
25.08
 30
0.0
 11
220.16
 21
20.84
 31
0.0
  0
LINE
  5
264
330
1E
100
AcDbEntity
  8
0
100
AcDbLine
 10
226.0
 20
35.0
 30
0.0
 11
225.28
 21
40.11999999999999
 31
0.0
  0
LINE
  5
265
330
1E
100
AcDbEntity
  8
0
100
AcDbLine
 10
225.52
 20
35.0
 30
0.0
 11
224.8
 21
40.04
 31
0.0
  0
LINE
  5
266
330
1E
100
AcDbEntity
  8
0
100
AcDbLine
 10
226.0
 20
35.0
 30
0.0
 11
225.28
 21
40.11999999999999
 31
0.0
  0
LINE
  5
267
330
1E
100
AcDbEntity
  8
0
100
AcDbLine
 10
226.0
 20
35.0
 30
0.0
 11
225.28
 21
29.87999999999999
 31
0.0
  0
LINE
  5
268
330
1E
100
AcDbEntity
  8
0
100
AcDbLine
 10
225.52
 20
35.0
 30
0.0
 11
224.8
 21
29.96
 31
0.0
  0
LINE
  5
269
330
1E
100
AcDbEntity
  8
0
100
AcDbLine
 10
226.0
 20
35.0
 30
0.0
 11
225.28
 21
29.87999999999999
 31
0.0
  0
LINE
  5
26A
330
1E
100
AcDbEntity
  8
0
100
AcDbLine
 10
223.36
 20
44.91999999999999
 30
0.0
 11
220.16
 21
49.16
 31
0.0
  0
LINE
  5
26B
330
1E
100
AcDbEntity
  8
0
100
AcDbLine
 10
222.88
 20
44.67999999999999
 30
0.0
 11
219.7599999999999
 21
48.76
 31
0.0
  0
LINE
  5
26C
330
1E
100
AcDbEntity
  8
0
100
AcDbLine
 10
225.28
 20
40.11999999999999
 30
0.0
 11
223.36
 21
44.91999999999999
 31
0.0
  0
LINE
  5
26D
330
1E
100
AcDbEntity
  8
0
100
AcDbLine
 10
224.8
 20
40.04
 30
0.0
 11
222.88
 21
44.67999999999999
 31
0.0
  0
LINE
  5
26E
330
1E
100
AcDbEntity
  8
0
100
AcDbLine
 10
211.12
 20
15.72
 30
0.0
 11
206.0
 21
15.0
 31
0.0
  0
LINE
  5
26F
330
1E
100
AcDbEntity
  8
0
100
AcDbLine
 10
211.12
 20
15.72
 30
0.0
 11
206.0
 21
15.0
 31
0.0
  0
LINE
  5
270
330
1E
100
AcDbEntity
  8
0
100
AcDbLine
 10
211.0399999999999
 20
16.2
 30
0.0
 11
206.0
 21
15.48
 31
0.0
  0
LINE
  5
271
330
1E
100
AcDbEntity
  8
0
100
AcDbLine
 10
215.68
 20
18.12
 30
0.0
 11
211.0399999999999
 21
16.2
 31
0.0
  0
LINE
  5
272
330
1E
100
AcDbEntity
  8
0
100
AcDbLine
 10
215.92
 20
17.64
 30
0.0
 11
211.12
 21
15.72
 31
0.0
  0
LINE
  5
273
330
1E
100
AcDbEntity
  8
0
100
AcDbLine
 10
215.92
 20
17.64
 30
0.0
 11
211.12
 21
15.72
 31
0.0
  0
LINE
  5
274
330
1E
100
AcDbEntity
  8
0
100
AcDbLine
 10
206.0
 20
15.0
 30
0.0
 11
200.8799999999999
 21
15.72
 31
0.0
  0
LINE
  5
275
330
1E
100
AcDbEntity
  8
0
100
AcDbLine
 10
206.0
 20
15.48
 30
0.0
 11
200.96
 21
16.2
 31
0.0
  0
LINE
  5
276
330
1E
100
AcDbEntity
  8
0
100
AcDbLine
 10
206.0
 20
15.0
 30
0.0
 11
200.8799999999999
 21
15.72
 31
0.0
  0
LINE
  5
277
330
1E
100
AcDbEntity
  8
0
100
AcDbLine
 10
237.2479999999999
 20
58.856
 30
0.0
 11
231.488
 21
66.488
 31
0.0
  0
LINE
  5
278
330
1E
100
AcDbEntity
  8
0
100
AcDbLine
 10
236.3839999999999
 20
58.424
 30
0.0
 11
230.7679999999999
 21
65.768
 31
0.0
  0
LINE
  5
279
330
1E
100
AcDbEntity
  8
0
100
AcDbLine
 10
240.704
 20
50.216
 30
0.0
 11
237.2479999999999
 21
58.856
 31
0.0
  0
LINE
  5
27A
330
1E
100
AcDbEntity
  8
0
100
AcDbLine
 10
240.704
 20
50.216
 30
0.0
 11
237.2479999999999
 21
58.856
 31
0.0
  0
LINE
  5
27B
330
1E
100
AcDbEntity
  8
0
100
AcDbLine
 10
239.84
 20
50.072
 30
0.0
 11
236.3839999999999
 21
58.424
 31
0.0
  0
LINE
  5
27C
330
1E
100
AcDbEntity
  8
0
100
AcDbLine
 10
223.856
 20
72.248
 30
0.0
 11
215.216
 21
75.70399999999999
 31
0.0
  0
LINE
  5
27D
330
1E
100
AcDbEntity
  8
0
100
AcDbLine
 10
223.424
 20
71.384
 30
0.0
 11
215.072
 21
74.84
 31
0.0
  0
LINE
  5
27E
330
1E
100
AcDbEntity
  8
0
100
AcDbLine
 10
231.488
 20
66.488
 30
0.0
 11
223.856
 21
72.248
 31
0.0
  0
LINE
  5
27F
330
1E
100
AcDbEntity
  8
0
100
AcDbLine
 10
230.7679999999999
 20
65.768
 30
0.0
 11
223.424
 21
71.384
 31
0.0
  0
LINE
  5
280
330
1E
100
AcDbEntity
  8
0
100
AcDbLine
 10
216.6039999999999
 20
69.816
 30
0.0
 11
215.548
 21
72.456
 31
0.0
  0
LINE
  5
281
330
1E
100
AcDbEntity
  8
0
100
AcDbLine
 10
216.34
 20
69.77199999999999
 30
0.0
 11
215.2839999999999
 21
72.324
 31
0.0
  0
LINE
  5
282
330
1E
100
AcDbEntity
  8
0
100
AcDbLine
 10
216.6039999999999
 20
69.816
 30
0.0
 11
215.548
 21
72.456
 31
0.0
  0
LINE
  5
283
330
1E
100
AcDbEntity
  8
0
100
AcDbLine
 10
211.12
 20
54.28
 30
0.0
 11
206.0
 21
55.0
 31
0.0
  0
LINE
  5
284
330
1E
100
AcDbEntity
  8
0
100
AcDbLine
 10
211.0399999999999
 20
53.79999999999999
 30
0.0
 11
206.0
 21
54.52
 31
0.0
  0
LINE
  5
285
330
1E
100
AcDbEntity
  8
0
100
AcDbLine
 10
217.0
 20
67.0
 30
0.0
 11
217.0
 21
51.6
 31
0.0
  0
LINE
  5
286
330
1E
100
AcDbEntity
  8
0
100
AcDbLine
 10
216.7359999999999
 20
67.0
 30
0.0
 11
216.7359999999999
 21
51.79999999999999
 31
0.0
  0
LINE
  5
287
330
1E
100
AcDbEntity
  8
0
100
AcDbLine
 10
216.7359999999999
 20
51.79999999999999
 30
0.0
 11
216.7359999999999
 21
67.0
 31
0.0
  0
LINE
  5
288
330
1E
100
AcDbEntity
  8
0
100
AcDbLine
 10
217.0
 20
51.6
 30
0.0
 11
217.0
 21
67.0
 31
0.0
  0
LINE
  5
289
330
1E
100
AcDbEntity
  8
0
100
AcDbLine
 10
215.92
 20
52.36
 30
0.0
 11
211.12
 21
54.28
 31
0.0
  0
LINE
  5
28A
330
1E
100
AcDbEntity
  8
0
100
AcDbLine
 10
215.68
 20
51.88
 30
0.0
 11
211.0399999999999
 21
53.79999999999999
 31
0.0
  0
LINE
  5
28B
330
1E
100
AcDbEntity
  8
0
100
AcDbLine
 10
216.7359999999999
 20
51.79999999999999
 30
0.0
 11
216.5576377682404
 21
51.8787639484978
 31
0.0
  0
LINE
  5
28C
330
1E
100
AcDbEntity
  8
0
100
AcDbLine
 10
216.7359999999999
 20
51.79999999999999
 30
0.0
 11
215.92
 21
52.36
 31
0.0
  0
LINE
  5
28D
330
1E
100
AcDbEntity
  8
0
100
AcDbLine
 10
217.0
 20
51.6
 30
0.0
 11
216.7359999999999
 21
51.79999999999999
 31
0.0
  0
LINE
  5
28E
330
1E
100
AcDbEntity
  8
0
100
AcDbLine
 10
217.0
 20
67.0
 30
0.0
 11
216.6039999999999
 21
69.816
 31
0.0
  0
LINE
  5
28F
330
1E
100
AcDbEntity
  8
0
100
AcDbLine
 10
217.0
 20
67.0
 30
0.0
 11
216.6039999999999
 21
69.816
 31
0.0
  0
LINE
  5
290
330
1E
100
AcDbEntity
  8
0
100
AcDbLine
 10
216.7359999999999
 20
67.0
 30
0.0
 11
216.34
 21
69.77199999999999
 31
0.0
  0
LINE
  5
291
330
1E
100
AcDbEntity
  8
0
100
AcDbLine
 10
206.0
 20
54.52
 30
0.0
 11
200.96
 21
53.79999999999999
 31
0.0
  0
LINE
  5
292
330
1E
100
AcDbEntity
  8
0
100
AcDbLine
 10
206.0
 20
55.0
 30
0.0
 11
200.8799999999999
 21
54.28
 31
0.0
  0
LINE
  5
293
330
1E
100
AcDbEntity
  8
0
100
AcDbLine
 10
209.54
 20
89.0
 30
0.0
 11
208.4799999999999
 21
89.0
 31
0.0
  0
LINE
  5
294
330
1E
100
AcDbEntity
  8
0
100
AcDbLine
 10
211.4559999999999
 20
76.548
 30
0.0
 11
208.816
 21
77.604
 31
0.0
  0
LINE
  5
295
330
1E
100
AcDbEntity
  8
0
100
AcDbLine
 10
211.324
 20
76.28399999999999
 30
0.0
 11
208.772
 21
77.34
 31
0.0
  0
LINE
  5
296
330
1E
100
AcDbEntity
  8
0
100
AcDbLine
 10
211.0
 20
76.7355951696377
 30
0.0
 11
211.0
 21
89.0
 31
0.0
  0
LINE
  5
297
330
1E
100
AcDbEntity
  8
0
100
AcDbLine
 10
211.0
 20
89.0
 30
0.0
 11
211.0
 21
76.7355951696377
 31
0.0
  0
LINE
  5
298
330
1E
100
AcDbEntity
  8
0
100
AcDbLine
 10
215.216
 20
75.70399999999999
 30
0.0
 11
212.0
 21
76.2
 31
0.0
  0
LINE
  5
299
330
1E
100
AcDbEntity
  8
0
100
AcDbLine
 10
215.072
 20
74.84
 30
0.0
 11
213.3554
 21
75.1527
 31
0.0
  0
LINE
  5
29A
330
1E
100
AcDbEntity
  8
0
100
AcDbLine
 10
213.788
 20
74.78799999999999
 30
0.0
 11
211.4559999999999
 21
76.548
 31
0.0
  0
LINE
  5
29B
330
1E
100
AcDbEntity
  8
0
100
AcDbLine
 10
213.568
 20
74.568
 30
0.0
 11
211.324
 21
76.28399999999999
 31
0.0
  0
LINE
  5
29C
330
1E
100
AcDbEntity
  8
0
100
AcDbLine
 10
215.548
 20
72.456
 30
0.0
 11
213.788
 21
74.78799999999999
 31
0.0
  0
LINE
  5
29D
330
1E
100
AcDbEntity
  8
0
100
AcDbLine
 10
215.2839999999999
 20
72.324
 30
0.0
 11
213.568
 21
74.568
 31
0.0
  0
LINE
  5
29E
330
1E
100
AcDbEntity
  8
0
100
AcDbLine
 10
212.0
 20
76.2
 30
0.0
 11
211.800594092317
 21
76.2879289869306
 31
0.0
  0
LINE
  5
29F
330
1E
100
AcDbEntity
  8
0
100
AcDbLine
 10
210.82
 20
89.0
 30
0.0
 11
210.34
 21
89.0
 31
0.0
  0
LINE
  5
2A0
330
1E
100
AcDbEntity
  8
0
100
AcDbLine
 10
210.34
 20
89.0
 30
0.0
 11
209.54
 21
89.0
 31
0.0
  0
LINE
  5
2A1
330
1E
100
AcDbEntity
  8
0
100
AcDbLine
 10
211.0
 20
89.0
 30
0.0
 11
210.82
 21
89.0
 31
0.0
  0
LINE
  5
2A2
330
1E
100
AcDbEntity
  8
0
100
AcDbLine
 10
201.0
 20
89.0
 30
0.0
 11
201.0
 21
76.7355951696377
 31
0.0
  0
LINE
  5
2A3
330
1E
100
AcDbEntity
  8
0
100
AcDbLine
 10
201.0
 20
76.7355951696377
 30
0.0
 11
201.0
 21
89.0
 31
0.0
  0
LINE
  5
2A4
330
1E
100
AcDbEntity
  8
0
100
AcDbLine
 10
206.0
 20
78.0
 30
0.0
 11
203.1839999999999
 21
77.604
 31
0.0
  0
LINE
  5
2A5
330
1E
100
AcDbEntity
  8
0
100
AcDbLine
 10
206.0
 20
77.736
 30
0.0
 11
203.228
 21
77.34
 31
0.0
  0
LINE
  5
2A6
330
1E
100
AcDbEntity
  8
0
100
AcDbLine
 10
208.816
 20
77.604
 30
0.0
 11
206.0
 21
78.0
 31
0.0
  0
LINE
  5
2A7
330
1E
100
AcDbEntity
  8
0
100
AcDbLine
 10
208.772
 20
77.34
 30
0.0
 11
206.0
 21
77.736
 31
0.0
  0
LINE
  5
2A8
330
1E
100
AcDbEntity
  8
0
100
AcDbLine
 10
203.228
 20
77.34
 30
0.0
 11
200.6759999999999
 21
76.28399999999999
 31
0.0
  0
LINE
  5
2A9
330
1E
100
AcDbEntity
  8
0
100
AcDbLine
 10
203.1839999999999
 20
77.604
 30
0.0
 11
200.5439999999999
 21
76.548
 31
0.0
  0
LINE
  5
2AA
330
1E
100
AcDbEntity
  8
0
100
AcDbLine
 10
204.72
 20
89.0
 30
0.0
 11
203.52
 21
89.0
 31
0.0
  0
LINE
  5
2AB
330
1E
100
AcDbEntity
  8
0
100
AcDbLine
 10
207.2799999999999
 20
89.0
 30
0.0
 11
206.0
 21
89.0
 31
0.0
  0
LINE
  5
2AC
330
1E
100
AcDbEntity
  8
0
100
AcDbLine
 10
208.4799999999999
 20
89.0
 30
0.0
 11
207.2799999999999
 21
89.0
 31
0.0
  0
LINE
  5
2AD
330
1E
100
AcDbEntity
  8
0
100
AcDbLine
 10
206.0
 20
89.0
 30
0.0
 11
204.72
 21
89.0
 31
0.0
  0
LINE
  5
2AE
330
1E
100
AcDbEntity
  8
0
100
AcDbLine
 10
203.52
 20
89.0
 30
0.0
 11
202.4599999999999
 21
89.0
 31
0.0
  0
LINE
  5
2AF
330
1E
100
AcDbEntity
  8
0
100
AcDbLine
 10
201.18
 20
89.0
 30
0.0
 11
201.0
 21
89.0
 31
0.0
  0
LINE
  5
2B0
330
1E
100
AcDbEntity
  8
0
100
AcDbLine
 10
201.6599999999999
 20
89.0
 30
0.0
 11
201.18
 21
89.0
 31
0.0
  0
LINE
  5
2B1
330
1E
100
AcDbEntity
  8
0
100
AcDbLine
 10
202.4599999999999
 20
89.0
 30
0.0
 11
201.6599999999999
 21
89.0
 31
0.0
  0
LINE
  5
2B2
330
1E
100
AcDbEntity
  8
0
100
AcDbLine
 10
172.16
 20
50.072
 30
0.0
 11
170.8639999999999
 21
41.0
 31
0.0
  0
LINE
  5
2B3
330
1E
100
AcDbEntity
  8
0
100
AcDbLine
 10
171.2959999999999
 20
50.216
 30
0.0
 11
170.0
 21
41.0
 31
0.0
  0
LINE
  5
2B4
330
1E
100
AcDbEntity
  8
0
100
AcDbLine
 10
196.0799999999999
 20
52.36
 30
0.0
 11
191.84
 21
49.16
 31
0.0
  0
LINE
  5
2B5
330
1E
100
AcDbEntity
  8
0
100
AcDbLine
 10
196.32
 20
51.88
 30
0.0
 11
192.24
 21
48.76
 31
0.0
  0
LINE
  5
2B6
330
1E
100
AcDbEntity
  8
0
100
AcDbLine
 10
195.0
 20
51.6
 30
0.0
 11
191.84
 21
49.16
 31
0.0
  0
LINE
  5
2B7
330
1E
100
AcDbEntity
  8
0
100
AcDbLine
 10
196.9279999999999
 20
7.15999999999999
 30
0.0
 11
188.5759999999999
 21
10.616
 31
0.0
  0
LINE
  5
2B8
330
1E
100
AcDbEntity
  8
0
100
AcDbLine
 10
196.7839999999999
 20
6.29599999999999
 30
0.0
 11
188.1439999999999
 21
9.751999999999981
 31
0.0
  0
LINE
  5
2B9
330
1E
100
AcDbEntity
  8
0
100
AcDbLine
 10
188.5759999999999
 20
10.616
 30
0.0
 11
181.2319999999999
 21
16.23199999999999
 31
0.0
  0
LINE
  5
2BA
330
1E
100
AcDbEntity
  8
0
100
AcDbLine
 10
188.1439999999999
 20
9.751999999999981
 30
0.0
 11
180.512
 21
15.512
 31
0.0
  0
LINE
  5
2BB
330
1E
100
AcDbEntity
  8
0
100
AcDbLine
 10
189.1199999999999
 20
25.32
 30
0.0
 11
187.1999999999999
 21
29.96
 31
0.0
  0
LINE
  5
2BC
330
1E
100
AcDbEntity
  8
0
100
AcDbLine
 10
188.6399999999999
 20
25.08
 30
0.0
 11
186.72
 21
29.87999999999999
 31
0.0
  0
LINE
  5
2BD
330
1E
100
AcDbEntity
  8
0
100
AcDbLine
 10
192.24
 20
21.24
 30
0.0
 11
189.1199999999999
 21
25.32
 31
0.0
  0
LINE
  5
2BE
330
1E
100
AcDbEntity
  8
0
100
AcDbLine
 10
191.84
 20
20.84
 30
0.0
 11
188.6399999999999
 21
25.08
 31
0.0
  0
LINE
  5
2BF
330
1E
100
AcDbEntity
  8
0
100
AcDbLine
 10
196.0799999999999
 20
17.64
 30
0.0
 11
191.84
 21
20.84
 31
0.0
  0
LINE
  5
2C0
330
1E
100
AcDbEntity
  8
0
100
AcDbLine
 10
196.32
 20
18.12
 30
0.0
 11
192.24
 21
21.24
 31
0.0
  0
LINE
  5
2C1
330
1E
100
AcDbEntity
  8
0
100
AcDbLine
 10
196.0799999999999
 20
17.64
 30
0.0
 11
191.84
 21
20.84
 31
0.0
  0
LINE
  5
2C2
330
1E
100
AcDbEntity
  8
0
100
AcDbLine
 10
191.84
 20
49.16
 30
0.0
 11
188.6399999999999
 21
44.91999999999999
 31
0.0
  0
LINE
  5
2C3
330
1E
100
AcDbEntity
  8
0
100
AcDbLine
 10
192.24
 20
48.76
 30
0.0
 11
189.1199999999999
 21
44.67999999999999
 31
0.0
  0
LINE
  5
2C4
330
1E
100
AcDbEntity
  8
0
100
AcDbLine
 10
186.72
 20
40.11999999999999
 30
0.0
 11
186.0
 21
35.0
 31
0.0
  0
LINE
  5
2C5
330
1E
100
AcDbEntity
  8
0
100
AcDbLine
 10
187.1999999999999
 20
40.04
 30
0.0
 11
186.4799999999999
 21
35.0
 31
0.0
  0
LINE
  5
2C6
330
1E
100
AcDbEntity
  8
0
100
AcDbLine
 10
187.1999999999999
 20
29.96
 30
0.0
 11
186.4799999999999
 21
35.0
 31
0.0
  0
LINE
  5
2C7
330
1E
100
AcDbEntity
  8
0
100
AcDbLine
 10
186.72
 20
29.87999999999999
 30
0.0
 11
186.0
 21
35.0
 31
0.0
  0
LINE
  5
2C8
330
1E
100
AcDbEntity
  8
0
100
AcDbLine
 10
188.6399999999999
 20
44.91999999999999
 30
0.0
 11
186.72
 21
40.11999999999999
 31
0.0
  0
LINE
  5
2C9
330
1E
100
AcDbEntity
  8
0
100
AcDbLine
 10
189.1199999999999
 20
44.67999999999999
 30
0.0
 11
187.1999999999999
 21
40.04
 31
0.0
  0
LINE
  5
2CA
330
1E
100
AcDbEntity
  8
0
100
AcDbLine
 10
175.6159999999999
 20
23.576
 30
0.0
 11
172.16
 21
31.928
 31
0.0
  0
LINE
  5
2CB
330
1E
100
AcDbEntity
  8
0
100
AcDbLine
 10
174.752
 20
23.144
 30
0.0
 11
171.2959999999999
 21
31.784
 31
0.0
  0
LINE
  5
2CC
330
1E
100
AcDbEntity
  8
0
100
AcDbLine
 10
181.2319999999999
 20
16.23199999999999
 30
0.0
 11
175.6159999999999
 21
23.576
 31
0.0
  0
LINE
  5
2CD
330
1E
100
AcDbEntity
  8
0
100
AcDbLine
 10
180.512
 20
15.512
 30
0.0
 11
174.752
 21
23.144
 31
0.0
  0
LINE
  5
2CE
330
1E
100
AcDbEntity
  8
0
100
AcDbLine
 10
172.16
 20
31.928
 30
0.0
 11
170.8639999999999
 21
41.0
 31
0.0
  0
LINE
  5
2CF
330
1E
100
AcDbEntity
  8
0
100
AcDbLine
 10
171.2959999999999
 20
31.784
 30
0.0
 11
170.0
 21
41.0
 31
0.0
  0
LINE
  5
2D0
330
1E
100
AcDbEntity
  8
0
100
AcDbLine
 10
188.5759999999999
 20
71.384
 30
0.0
 11
181.2319999999999
 21
65.768
 31
0.0
  0
LINE
  5
2D1
330
1E
100
AcDbEntity
  8
0
100
AcDbLine
 10
188.1439999999999
 20
72.248
 30
0.0
 11
180.512
 21
66.488
 31
0.0
  0
LINE
  5
2D2
330
1E
100
AcDbEntity
  8
0
100
AcDbLine
 10
196.7159999999999
 20
72.324
 30
0.0
 11
195.66
 21
69.77199999999999
 31
0.0
  0
LINE
  5
2D3
330
1E
100
AcDbEntity
  8
0
100
AcDbLine
 10
196.452
 20
72.456
 30
0.0
 11
195.396
 21
69.816
 31
0.0
  0
LINE
  5
2D4
330
1E
100
AcDbEntity
  8
0
100
AcDbLine
 10
195.264
 20
67.0
 30
0.0
 11
195.264
 21
51.79999999999999
 31
0.0
  0
LINE
  5
2D5
330
1E
100
AcDbEntity
  8
0
100
AcDbLine
 10
195.0
 20
67.0
 30
0.0
 11
195.0
 21
51.6
 31
0.0
  0
LINE
  5
2D6
330
1E
100
AcDbEntity
  8
0
100
AcDbLine
 10
195.264
 20
51.79999999999999
 30
0.0
 11
195.264
 21
67.0
 31
0.0
  0
LINE
  5
2D7
330
1E
100
AcDbEntity
  8
0
100
AcDbLine
 10
195.0
 20
51.6
 30
0.0
 11
195.0
 21
67.0
 31
0.0
  0
LINE
  5
2D8
330
1E
100
AcDbEntity
  8
0
100
AcDbLine
 10
196.0799999999999
 20
52.36
 30
0.0
 11
195.264
 21
51.79999999999999
 31
0.0
  0
LINE
  5
2D9
330
1E
100
AcDbEntity
  8
0
100
AcDbLine
 10
195.4423622317597
 20
51.8787639484978
 30
0.0
 11
195.264
 21
51.79999999999999
 31
0.0
  0
LINE
  5
2DA
330
1E
100
AcDbEntity
  8
0
100
AcDbLine
 10
195.264
 20
51.79999999999999
 30
0.0
 11
195.0
 21
51.6
 31
0.0
  0
LINE
  5
2DB
330
1E
100
AcDbEntity
  8
0
100
AcDbLine
 10
195.4423622317597
 20
51.8787639484978
 30
0.0
 11
195.264
 21
51.79999999999999
 31
0.0
  0
LINE
  5
2DC
330
1E
100
AcDbEntity
  8
0
100
AcDbLine
 10
195.66
 20
69.77199999999999
 30
0.0
 11
195.264
 21
67.0
 31
0.0
  0
LINE
  5
2DD
330
1E
100
AcDbEntity
  8
0
100
AcDbLine
 10
195.396
 20
69.816
 30
0.0
 11
195.0
 21
67.0
 31
0.0
  0
LINE
  5
2DE
330
1E
100
AcDbEntity
  8
0
100
AcDbLine
 10
196.9279999999999
 20
74.84
 30
0.0
 11
188.5759999999999
 21
71.384
 31
0.0
  0
LINE
  5
2DF
330
1E
100
AcDbEntity
  8
0
100
AcDbLine
 10
196.7839999999999
 20
75.70399999999999
 30
0.0
 11
188.1439999999999
 21
72.248
 31
0.0
  0
LINE
  5
2E0
330
1E
100
AcDbEntity
  8
0
100
AcDbLine
 10
198.4319999999999
 20
74.568
 30
0.0
 11
196.7159999999999
 21
72.324
 31
0.0
  0
LINE
  5
2E1
330
1E
100
AcDbEntity
  8
0
100
AcDbLine
 10
198.6445999999999
 20
75.1527
 30
0.0
 11
196.9279999999999
 21
74.84
 31
0.0
  0
LINE
  5
2E2
330
1E
100
AcDbEntity
  8
0
100
AcDbLine
 10
198.2119999999999
 20
74.78799999999999
 30
0.0
 11
196.452
 21
72.456
 31
0.0
  0
LINE
  5
2E3
330
1E
100
AcDbEntity
  8
0
100
AcDbLine
 10
200.0
 20
76.2
 30
0.0
 11
196.7839999999999
 21
75.70399999999999
 31
0.0
  0
LINE
  5
2E4
330
1E
100
AcDbEntity
  8
0
100
AcDbLine
 10
174.752
 20
58.856
 30
0.0
 11
171.2959999999999
 21
50.216
 31
0.0
  0
LINE
  5
2E5
330
1E
100
AcDbEntity
  8
0
100
AcDbLine
 10
175.6159999999999
 20
58.424
 30
0.0
 11
172.16
 21
50.072
 31
0.0
  0
LINE
  5
2E6
330
1E
100
AcDbEntity
  8
0
100
AcDbLine
 10
181.2319999999999
 20
65.768
 30
0.0
 11
175.6159999999999
 21
58.424
 31
0.0
  0
LINE
  5
2E7
330
1E
100
AcDbEntity
  8
0
100
AcDbLine
 10
180.512
 20
66.488
 30
0.0
 11
174.752
 21
58.856
 31
0.0
  0
ENDSEC
  0
SECTION
  2
OBJECTS
  0
DICTIONARY
  5
C
330
0
100
AcDbDictionary
281
     1
  3
ACAD_GROUP
350
D
  3
ACAD_LAYOUT
350
19
  3
ACAD_MLINESTYLE
350
16
  3
ACAD_PLOTSETTINGS
350
18
  3
ACAD_PLOTSTYLENAME
350
E
  3
AcDbVariableDictionary
350
2E8
  0
DICTIONARY
  5
D
102
{ACAD_REACTORS
330
C
102
}
330
C
100
AcDbDictionary
281
     1
  0
DICTIONARY
  5
19
102
{ACAD_REACTORS
330
C
102
}
330
C
100
AcDbDictionary
281
     1
  3
Layout1
350
1D
  3
Model
350
21
  0
DICTIONARY
  5
16
102
{ACAD_REACTORS
330
C
102
}
330
C
100
AcDbDictionary
281
     1
  3
Standard
350
17
  0
DICTIONARY
  5
18
102
{ACAD_REACTORS
330
C
102
}
330
C
100
AcDbDictionary
281
     1
  0
ACDBDICTIONARYWDFLT
  5
E
102
{ACAD_REACTORS
330
C
102
}
330
C
100
AcDbDictionary
281
     1
  3
Normal
350
F
100
AcDbDictionaryWithDefault
340
F
  0
DICTIONARY
  5
2E8
102
{ACAD_REACTORS
330
C
102
}
330
C
100
AcDbDictionary
281
     1
  3
DIMASSOC
350
2E9
  0
LAYOUT
  5
1D
102
{ACAD_REACTORS
330
19
102
}
330
19
100
AcDbPlotSettings
  1

  2
hp deskjet 980c series
  4

  6

 40
0.0
 41
0.0
 42
0.0
 43
0.0
 44
0.0
 45
0.0
 46
0.0
 47
0.0
 48
0.0
 49
0.0
140
0.0
141
0.0
142
1.0
143
1.0
 70
   688
 72
     0
 73
     0
 74
     5
  7

 75
    16
147
1.0
148
0.0
149
0.0
100
AcDbLayout
  1
Layout1
 70
     1
 71
     1
 10
0.0
 20
0.0
 11
12.0
 21
9.0
 12
0.0
 22
0.0
 32
0.0
 14
1.000000000000000E+20
 24
1.000000000000000E+20
 34
1.000000000000000E+20
 15
-1.000000000000000E+20
 25
-1.000000000000000E+20
 35
-1.000000000000000E+20
146
0.0
 13
0.0
 23
0.0
 33
0.0
 16
1.0
 26
0.0
 36
0.0
 17
0.0
 27
1.0
 37
0.0
 76
     0
330
1A
  0
LAYOUT
  5
21
102
{ACAD_REACTORS
330
19
102
}
330
19
100
AcDbPlotSettings
  1

  2
hp deskjet 980c series
  4

  6

 40
0.0
 41
0.0
 42
0.0
 43
0.0
 44
0.0
 45
0.0
 46
0.0
 47
0.0
 48
0.0
 49
0.0
140
0.0
141
0.0
142
1.0
143
1.0
 70
  1712
 72
     0
 73
     0
 74
     0
  7

 75
     0
147
1.0
148
0.0
149
0.0
100
AcDbLayout
  1
Model
 70
     1
 71
     0
 10
0.0
 20
0.0
 11
12.0
 21
9.0
 12
0.0
 22
0.0
 32
0.0
 14
0.0
 24
0.0
 34
0.0
 15
0.0
 25
0.0
 35
0.0
146
0.0
 13
0.0
 23
0.0
 33
0.0
 16
1.0
 26
0.0
 36
0.0
 17
0.0
 27
1.0
 37
0.0
 76
     0
330
1E
  0
MLINESTYLE
  5
17
102
{ACAD_REACTORS
330
16
102
}
330
16
100
AcDbMlineStyle
  2
STANDARD
 70
     0
  3

 62
   256
 51
90.0
 52
90.0
 71
     2
 49
0.5
 62
   256
  6
BYLAYER
 49
-0.5
 62
   256
  6
BYLAYER
  0
ACDBPLACEHOLDER
  5
F
102
{ACAD_REACTORS
330
E
102
}
330
E
  0
DICTIONARYVAR
  5
2E9
102
{ACAD_REACTORS
330
2E8
102
}
330
2E8
100
DictionaryVariables
280
     0
  1
1
  0
ENDSEC
  0
EOF
