  0
SECTION
  2
HEADER
  9
$ACADVER
  1
AC1015
  9
$ACADMAINTVER
 70
    13
  9
$DWGCODEPAGE
  3
ANSI_1252
  9
$INSBASE
 10
0.0
 20
0.0
 30
0.0
  9
$EXTMIN
 10
0.000000000000007
 20
-0.0000000000000029
 30
0.0
  9
$EXTMAX
 10
245.0
 20
265.0
 30
0.0
  9
$LIMMIN
 10
0.0
 20
0.0
  9
$LIMMAX
 10
12.0
 20
9.0
  9
$ORTHOMODE
 70
     0
  9
$REGENMODE
 70
     1
  9
$FILLMODE
 70
     1
  9
$QTEXTMODE
 70
     0
  9
$MIRRTEXT
 70
     1
  9
$LTSCALE
 40
1.0
  9
$ATTMODE
 70
     1
  9
$TEXTSIZE
 40
0.2
  9
$TRACEWID
 40
0.05
  9
$TEXTSTYLE
  7
Standard
  9
$CLAYER
  8
0
  9
$CELTYPE
  6
Continuous
  9
$CECOLOR
 62
   256
  9
$CELTSCALE
 40
1.0
  9
$DISPSILH
 70
     0
  9
$DIMSCALE
 40
1.0
  9
$DIMASZ
 40
0.18
  9
$DIMEXO
 40
0.0625
  9
$DIMDLI
 40
0.38
  9
$DIMRND
 40
0.0
  9
$DIMDLE
 40
0.0
  9
$DIMEXE
 40
0.18
  9
$DIMTP
 40
0.0
  9
$DIMTM
 40
0.0
  9
$DIMTXT
 40
0.18
  9
$DIMCEN
 40
0.09
  9
$DIMTSZ
 40
0.0
  9
$DIMTOL
 70
     0
  9
$DIMLIM
 70
     0
  9
$DIMTIH
 70
     1
  9
$DIMTOH
 70
     1
  9
$DIMSE1
 70
     0
  9
$DIMSE2
 70
     0
  9
$DIMTAD
 70
     0
  9
$DIMZIN
 70
     0
  9
$DIMBLK
  1

  9
$DIMASO
 70
     1
  9
$DIMSHO
 70
     1
  9
$DIMPOST
  1

  9
$DIMAPOST
  1

  9
$DIMALT
 70
     0
  9
$DIMALTD
 70
     2
  9
$DIMALTF
 40
25.4
  9
$DIMLFAC
 40
1.0
  9
$DIMTOFL
 70
     0
  9
$DIMTVP
 40
0.0
  9
$DIMTIX
 70
     0
  9
$DIMSOXD
 70
     0
  9
$DIMSAH
 70
     0
  9
$DIMBLK1
  1

  9
$DIMBLK2
  1

  9
$DIMSTYLE
  2
Standard
  9
$DIMCLRD
 70
     0
  9
$DIMCLRE
 70
     0
  9
$DIMCLRT
 70
     0
  9
$DIMTFAC
 40
1.0
  9
$DIMGAP
 40
0.09
  9
$DIMJUST
 70
     0
  9
$DIMSD1
 70
     0
  9
$DIMSD2
 70
     0
  9
$DIMTOLJ
 70
     1
  9
$DIMTZIN
 70
     0
  9
$DIMALTZ
 70
     0
  9
$DIMALTTZ
 70
     0
  9
$DIMUPT
 70
     0
  9
$DIMDEC
 70
     4
  9
$DIMTDEC
 70
     4
  9
$DIMALTU
 70
     2
  9
$DIMALTTD
 70
     2
  9
$DIMTXSTY
  7
Standard
  9
$DIMAUNIT
 70
     0
  9
$DIMADEC
 70
     0
  9
$DIMALTRND
 40
0.0
  9
$DIMAZIN
 70
     0
  9
$DIMDSEP
 70
    46
  9
$DIMATFIT
 70
     3
  9
$DIMFRAC
 70
     0
  9
$DIMLDRBLK
  1

  9
$DIMLUNIT
 70
     2
  9
$DIMLWD
 70
    -2
  9
$DIMLWE
 70
    -2
  9
$DIMTMOVE
 70
     0
  9
$LUNITS
 70
     2
  9
$LUPREC
 70
     4
  9
$SKETCHINC
 40
0.1
  9
$FILLETRAD
 40
0.0
  9
$AUNITS
 70
     0
  9
$AUPREC
 70
     0
  9
$MENU
  1
.
  9
$ELEVATION
 40
0.0
  9
$PELEVATION
 40
0.0
  9
$THICKNESS
 40
0.0
  9
$LIMCHECK
 70
     0
  9
$CHAMFERA
 40
0.0
  9
$CHAMFERB
 40
0.0
  9
$CHAMFERC
 40
0.0
  9
$CHAMFERD
 40
0.0
  9
$SKPOLY
 70
     0
  9
$TDCREATE
 40
2454781.465632593
  9
$TDUCREATE
 40
2454781.423965926
  9
$TDUPDATE
 40
2454781.466472974
  9
$TDUUPDATE
 40
2454781.424806308
  9
$TDINDWG
 40
0.0008403819
  9
$TDUSRTIMER
 40
0.0008403819
  9
$USRTIMER
 70
     1
  9
$ANGBASE
 50
0.0
  9
$ANGDIR
 70
     0
  9
$PDMODE
 70
     0
  9
$PDSIZE
 40
0.0
  9
$PLINEWID
 40
0.0
  9
$SPLFRAME
 70
     0
  9
$SPLINETYPE
 70
     6
  9
$SPLINESEGS
 70
     8
  9
$HANDSEED
  5
1C1
  9
$SURFTAB1
 70
     6
  9
$SURFTAB2
 70
     6
  9
$SURFTYPE
 70
     6
  9
$SURFU
 70
     6
  9
$SURFV
 70
     6
  9
$UCSBASE
  2

  9
$UCSNAME
  2

  9
$UCSORG
 10
0.0
 20
0.0
 30
0.0
  9
$UCSXDIR
 10
1.0
 20
0.0
 30
0.0
  9
$UCSYDIR
 10
0.0
 20
1.0
 30
0.0
  9
$UCSORTHOREF
  2

  9
$UCSORTHOVIEW
 70
     1
  9
$UCSORGTOP
 10
0.0
 20
0.0
 30
0.0
  9
$UCSORGBOTTOM
 10
0.0
 20
0.0
 30
0.0
  9
$UCSORGLEFT
 10
0.0
 20
0.0
 30
0.0
  9
$UCSORGRIGHT
 10
0.0
 20
0.0
 30
0.0
  9
$UCSORGFRONT
 10
0.0
 20
0.0
 30
0.0
  9
$UCSORGBACK
 10
0.0
 20
0.0
 30
0.0
  9
$PUCSBASE
  2

  9
$PUCSNAME
  2

  9
$PUCSORG
 10
0.0
 20
0.0
 30
0.0
  9
$PUCSXDIR
 10
1.0
 20
0.0
 30
0.0
  9
$PUCSYDIR
 10
0.0
 20
1.0
 30
0.0
  9
$PUCSORTHOREF
  2

  9
$PUCSORTHOVIEW
 70
     0
  9
$PUCSORGTOP
 10
0.0
 20
0.0
 30
0.0
  9
$PUCSORGBOTTOM
 10
0.0
 20
0.0
 30
0.0
  9
$PUCSORGLEFT
 10
0.0
 20
0.0
 30
0.0
  9
$PUCSORGRIGHT
 10
0.0
 20
0.0
 30
0.0
  9
$PUCSORGFRONT
 10
0.0
 20
0.0
 30
0.0
  9
$PUCSORGBACK
 10
0.0
 20
0.0
 30
0.0
  9
$USERI1
 70
     0
  9
$USERI2
 70
     0
  9
$USERI3
 70
     0
  9
$USERI4
 70
     0
  9
$USERI5
 70
     0
  9
$USERR1
 40
0.0
  9
$USERR2
 40
0.0
  9
$USERR3
 40
0.0
  9
$USERR4
 40
0.0
  9
$USERR5
 40
0.0
  9
$WORLDVIEW
 70
     1
  9
$SHADEDGE
 70
     3
  9
$SHADEDIF
 70
    70
  9
$TILEMODE
 70
     1
  9
$MAXACTVP
 70
    64
  9
$PINSBASE
 10
0.0
 20
0.0
 30
0.0
  9
$PLIMCHECK
 70
     0
  9
$PEXTMIN
 10
1.000000000000000E+20
 20
1.000000000000000E+20
 30
1.000000000000000E+20
  9
$PEXTMAX
 10
-1.000000000000000E+20
 20
-1.000000000000000E+20
 30
-1.000000000000000E+20
  9
$PLIMMIN
 10
0.0
 20
0.0
  9
$PLIMMAX
 10
12.0
 20
9.0
  9
$UNITMODE
 70
     0
  9
$VISRETAIN
 70
     1
  9
$PLINEGEN
 70
     0
  9
$PSLTSCALE
 70
     1
  9
$TREEDEPTH
 70
  3020
  9
$CMLSTYLE
  2
Standard
  9
$CMLJUST
 70
     0
  9
$CMLSCALE
 40
1.0
  9
$PROXYGRAPHICS
 70
     1
  9
$MEASUREMENT
 70
     0
  9
$CELWEIGHT
370
    -1
  9
$ENDCAPS
280
     0
  9
$JOINSTYLE
280
     0
  9
$LWDISPLAY
290
     0
  9
$INSUNITS
 70
     0
  9
$HYPERLINKBASE
  1

  9
$STYLESHEET
  1

  9
$XEDIT
290
     1
  9
$CEPSNTYPE
380
     0
  9
$PSTYLEMODE
290
     1
  9
$FINGERPRINTGUID
  2
{4E19ACD7-E9B0-42B3-A67E-88E2F26257F6}
  9
$VERSIONGUID
  2
{1FE4A618-F52B-4056-8608-1E067B418CDF}
  9
$EXTNAMES
290
     1
  9
$PSVPSCALE
 40
0.0
  9
$OLESTARTUP
290
     0
  0
ENDSEC
  0
SECTION
  2
CLASSES
  0
CLASS
  1
ACDBDICTIONARYWDFLT
  2
AcDbDictionaryWithDefault
  3
AutoCAD 2000
 90
        0
280
     0
281
     0
  0
CLASS
  1
ACDBPLACEHOLDER
  2
AcDbPlaceHolder
  3
AutoCAD 2000
 90
        0
280
     0
281
     0
  0
CLASS
  1
LAYOUT
  2
AcDbLayout
  3
AutoCAD 2000
 90
        0
280
     0
281
     0
  0
CLASS
  1
DICTIONARYVAR
  2
AcDbDictionaryVar
  3
AutoCAD 2000
 90
        0
280
     0
281
     0
  0
ENDSEC
  0
SECTION
  2
TABLES
  0
TABLE
  2
VPORT
  5
8
330
0
100
AcDbSymbolTable
 70
     2
  0
VPORT
  5
1C0
330
8
100
AcDbSymbolTableRecord
100
AcDbViewportTableRecord
  2
*Active
 70
     0
 10
0.0
 20
0.0
 11
1.0
 21
1.0
 12
122.5
 22
132.4999999999999
 13
0.0
 23
0.0
 14
1.0
 24
1.0
 15
0.0
 25
0.0
 16
0.0
 26
0.0
 36
1.0
 17
0.0
 27
0.0
 37
0.0
 40
267.0332480818414
 41
2.078104993597951
 42
50.0
 43
0.0
 44
0.0
 50
0.0
 51
0.0
 71
     0
 72
   100
 73
     1
 74
     3
 75
     0
 76
     0
 77
     0
 78
     0
281
     0
 65
     1
110
0.0
120
0.0
130
0.0
111
1.0
121
0.0
131
0.0
112
0.0
122
1.0
132
0.0
 79
     1
146
0.0
  0
ENDTAB
  0
TABLE
  2
LTYPE
  5
5
330
0
100
AcDbSymbolTable
 70
     1
  0
LTYPE
  5
13
330
5
100
AcDbSymbolTableRecord
100
AcDbLinetypeTableRecord
  2
ByBlock
 70
     0
  3

 72
    65
 73
     0
 40
0.0
  0
LTYPE
  5
14
330
5
100
AcDbSymbolTableRecord
100
AcDbLinetypeTableRecord
  2
ByLayer
 70
     0
  3

 72
    65
 73
     0
 40
0.0
  0
LTYPE
  5
15
330
5
100
AcDbSymbolTableRecord
100
AcDbLinetypeTableRecord
  2
Continuous
 70
     0
  3
Solid line
 72
    65
 73
     0
 40
0.0
  0
ENDTAB
  0
TABLE
  2
LAYER
  5
2
330
0
100
AcDbSymbolTable
 70
     1
  0
LAYER
  5
10
330
2
100
AcDbSymbolTableRecord
100
AcDbLayerTableRecord
  2
0
 70
     0
 62
     7
  6
Continuous
370
    -3
390
F
  0
ENDTAB
  0
TABLE
  2
STYLE
  5
3
330
0
100
AcDbSymbolTable
 70
     1
  0
STYLE
  5
11
330
3
100
AcDbSymbolTableRecord
100
AcDbTextStyleTableRecord
  2
Standard
 70
     0
 40
0.0
 41
1.0
 50
0.0
 71
     0
 42
0.2
  3
txt
  4

  0
ENDTAB
  0
TABLE
  2
VIEW
  5
6
330
0
100
AcDbSymbolTable
 70
     0
  0
ENDTAB
  0
TABLE
  2
UCS
  5
7
330
0
100
AcDbSymbolTable
 70
     0
  0
ENDTAB
  0
TABLE
  2
APPID
  5
9
330
0
100
AcDbSymbolTable
 70
     1
  0
APPID
  5
12
330
9
100
AcDbSymbolTableRecord
100
AcDbRegAppTableRecord
  2
ACAD
 70
     0
  0
ENDTAB
  0
TABLE
  2
DIMSTYLE
  5
A
330
0
100
AcDbSymbolTable
 70
     1
100
AcDbDimStyleTable
 71
     0
  0
DIMSTYLE
105
1B8
330
A
100
AcDbSymbolTableRecord
100
AcDbDimStyleTableRecord
  2
Standard
 70
     0
340
11
  0
ENDTAB
  0
TABLE
  2
BLOCK_RECORD
  5
1
330
0
100
AcDbSymbolTable
 70
     0
  0
BLOCK_RECORD
  5
1E
330
1
100
AcDbSymbolTableRecord
100
AcDbBlockTableRecord
  2
*Model_Space
340
21
  0
BLOCK_RECORD
  5
1A
330
1
100
AcDbSymbolTableRecord
100
AcDbBlockTableRecord
  2
*Paper_Space
340
1D
  0
ENDTAB
  0
ENDSEC
  0
SECTION
  2
BLOCKS
  0
BLOCK
  5
1F
330
1E
100
AcDbEntity
  8
0
100
AcDbBlockBegin
  2
*Model_Space
 70
     0
 10
0.0
 20
0.0
 30
0.0
  3
*Model_Space
  1

  0
ENDBLK
  5
20
330
1E
100
AcDbEntity
  8
0
100
AcDbBlockEnd
  0
BLOCK
  5
1B
330
1A
100
AcDbEntity
 67
     1
  8
0
100
AcDbBlockBegin
  2
*Paper_Space
 70
     0
 10
0.0
 20
0.0
 30
0.0
  3
*Paper_Space
  1

  0
ENDBLK
  5
1C
330
1A
100
AcDbEntity
 67
     1
  8
0
100
AcDbBlockEnd
  0
ENDSEC
  0
SECTION
  2
ENTITIES
  0
LINE
  5
22
330
1E
100
AcDbEntity
  8
0
100
AcDbLine
 10
2.0
 20
0.0
 30
0.0
 11
2.00000000000001
 21
115.0
 31
0.0
  0
LINE
  5
23
330
1E
100
AcDbEntity
  8
0
100
AcDbLine
 10
6.799999999999999
 20
-0.0000000000000004
 30
0.0
 11
8.8
 21
-0.0000000000000005
 31
0.0
  0
LINE
  5
24
330
1E
100
AcDbEntity
  8
0
100
AcDbLine
 10
5.099999999999999
 20
-0.0000000000000003
 30
0.0
 11
6.799999999999999
 21
-0.0000000000000004
 31
0.0
  0
LINE
  5
25
330
1E
100
AcDbEntity
  8
0
100
AcDbLine
 10
3.799999999999999
 20
-0.0000000000000002
 30
0.0
 11
5.099999999999999
 21
-0.0000000000000003
 31
0.0
  0
LINE
  5
26
330
1E
100
AcDbEntity
  8
0
100
AcDbLine
 10
2.799999999999999
 20
-0.0000000000000002
 30
0.0
 11
3.799999999999999
 21
-0.0000000000000002
 31
0.0
  0
LINE
  5
27
330
1E
100
AcDbEntity
  8
0
100
AcDbLine
 10
2.2
 20
-0.0000000000000001
 30
0.0
 11
2.799999999999999
 21
-0.0000000000000002
 31
0.0
  0
LINE
  5
28
330
1E
100
AcDbEntity
  8
0
100
AcDbLine
 10
2.0
 20
-0.0000000000000001
 30
0.0
 11
2.2
 21
-0.0000000000000001
 31
0.0
  0
LINE
  5
29
330
1E
100
AcDbEntity
  8
0
100
AcDbLine
 10
2.0
 20
-0.0000000000000001
 30
0.0
 11
2.00000000000001
 21
115.0
 31
0.0
  0
LINE
  5
2A
330
1E
100
AcDbEntity
  8
0
100
AcDbLine
 10
8.8
 20
-0.0000000000000005
 30
0.0
 11
11.0
 21
-0.0000000000000007
 31
0.0
  0
LINE
  5
2B
330
1E
100
AcDbEntity
  8
0
100
AcDbLine
 10
11.0
 20
-0.0000000000000007
 30
0.0
 11
13.6
 21
-0.0000000000000008
 31
0.0
  0
LINE
  5
2C
330
1E
100
AcDbEntity
  8
0
100
AcDbLine
 10
13.6
 20
-0.0000000000000008
 30
0.0
 11
16.2
 21
-0.000000000000001
 31
0.0
  0
LINE
  5
2D
330
1E
100
AcDbEntity
  8
0
100
AcDbLine
 10
16.2
 20
-0.000000000000001
 30
0.0
 11
19.1
 21
-0.0000000000000012
 31
0.0
  0
LINE
  5
2E
330
1E
100
AcDbEntity
  8
0
100
AcDbLine
 10
19.1
 20
-0.0000000000000012
 30
0.0
 11
22.0
 21
-0.0000000000000013
 31
0.0
  0
LINE
  5
2F
330
1E
100
AcDbEntity
  8
0
100
AcDbLine
 10
48.0
 20
-0.0000000000000029
 30
0.0
 11
48.0
 21
97.0096618357488
 31
0.0
  0
LINE
  5
30
330
1E
100
AcDbEntity
  8
0
100
AcDbLine
 10
39.0
 20
-0.0000000000000024
 30
0.0
 11
41.2
 21
-0.0000000000000025
 31
0.0
  0
LINE
  5
31
330
1E
100
AcDbEntity
  8
0
100
AcDbLine
 10
36.4
 20
-0.0000000000000022
 30
0.0
 11
39.0
 21
-0.0000000000000024
 31
0.0
  0
LINE
  5
32
330
1E
100
AcDbEntity
  8
0
100
AcDbLine
 10
33.79999999999999
 20
-0.0000000000000021
 30
0.0
 11
36.4
 21
-0.0000000000000022
 31
0.0
  0
LINE
  5
33
330
1E
100
AcDbEntity
  8
0
100
AcDbLine
 10
30.89999999999999
 20
-0.0000000000000019
 30
0.0
 11
33.79999999999999
 21
-0.0000000000000021
 31
0.0
  0
LINE
  5
34
330
1E
100
AcDbEntity
  8
0
100
AcDbLine
 10
28.0
 20
-0.0000000000000017
 30
0.0
 11
30.89999999999999
 21
-0.0000000000000019
 31
0.0
  0
LINE
  5
35
330
1E
100
AcDbEntity
  8
0
100
AcDbLine
 10
25.0
 20
-0.0000000000000015
 30
0.0
 11
28.0
 21
-0.0000000000000017
 31
0.0
  0
LINE
  5
36
330
1E
100
AcDbEntity
  8
0
100
AcDbLine
 10
41.2
 20
-0.0000000000000025
 30
0.0
 11
43.2
 21
-0.0000000000000026
 31
0.0
  0
LINE
  5
37
330
1E
100
AcDbEntity
  8
0
100
AcDbLine
 10
43.2
 20
-0.0000000000000026
 30
0.0
 11
44.9
 21
-0.0000000000000027
 31
0.0
  0
LINE
  5
38
330
1E
100
AcDbEntity
  8
0
100
AcDbLine
 10
44.9
 20
-0.0000000000000027
 30
0.0
 11
46.2
 21
-0.0000000000000028
 31
0.0
  0
LINE
  5
39
330
1E
100
AcDbEntity
  8
0
100
AcDbLine
 10
46.2
 20
-0.0000000000000028
 30
0.0
 11
47.2
 21
-0.0000000000000029
 31
0.0
  0
LINE
  5
3A
330
1E
100
AcDbEntity
  8
0
100
AcDbLine
 10
160.0
 20
15.48
 30
0.0
 11
160.0
 21
16.2
 31
0.0
  0
LINE
  5
3B
330
1E
100
AcDbEntity
  8
0
100
AcDbLine
 10
160.0
 20
15.48
 30
0.0
 11
160.461538
 21
15.0
 31
0.0
  0
LINE
  5
3C
330
1E
100
AcDbEntity
  8
0
100
AcDbLine
 10
160.0
 20
16.2
 30
0.0
 11
160.0
 21
15.48
 31
0.0
  0
LINE
  5
3D
330
1E
100
AcDbEntity
  8
0
100
AcDbLine
 10
160.0
 20
16.2
 30
0.0
 11
160.0
 21
18.12
 31
0.0
  0
LINE
  5
3E
330
1E
100
AcDbEntity
  8
0
100
AcDbLine
 10
160.0
 20
18.12
 30
0.0
 11
160.0
 21
16.2
 31
0.0
  0
LINE
  5
3F
330
1E
100
AcDbEntity
  8
0
100
AcDbLine
 10
160.0
 20
18.12
 30
0.0
 11
160.0
 21
21.24
 31
0.0
  0
LINE
  5
40
330
1E
100
AcDbEntity
  8
0
100
AcDbLine
 10
160.0
 20
21.24
 30
0.0
 11
160.0
 21
18.12
 31
0.0
  0
LINE
  5
41
330
1E
100
AcDbEntity
  8
0
100
AcDbLine
 10
160.0
 20
21.24
 30
0.0
 11
160.0
 21
25.32
 31
0.0
  0
LINE
  5
42
330
1E
100
AcDbEntity
  8
0
100
AcDbLine
 10
160.0
 20
25.32
 30
0.0
 11
160.0
 21
21.24
 31
0.0
  0
LINE
  5
43
330
1E
100
AcDbEntity
  8
0
100
AcDbLine
 10
160.0
 20
25.32
 30
0.0
 11
160.0
 21
29.96
 31
0.0
  0
LINE
  5
44
330
1E
100
AcDbEntity
  8
0
100
AcDbLine
 10
160.0
 20
29.96
 30
0.0
 11
160.0
 21
25.32
 31
0.0
  0
LINE
  5
45
330
1E
100
AcDbEntity
  8
0
100
AcDbLine
 10
160.0
 20
29.96
 30
0.0
 11
160.0
 21
35.0
 31
0.0
  0
LINE
  5
46
330
1E
100
AcDbEntity
  8
0
100
AcDbLine
 10
160.0
 20
35.0
 30
0.0
 11
160.0
 21
40.04
 31
0.0
  0
LINE
  5
47
330
1E
100
AcDbEntity
  8
0
100
AcDbLine
 10
160.0
 20
35.0
 30
0.0
 11
160.0
 21
29.96
 31
0.0
  0
LINE
  5
48
330
1E
100
AcDbEntity
  8
0
100
AcDbLine
 10
160.0
 20
40.04
 30
0.0
 11
160.0
 21
44.67999999999999
 31
0.0
  0
LINE
  5
49
330
1E
100
AcDbEntity
  8
0
100
AcDbLine
 10
160.0
 20
40.04
 30
0.0
 11
160.0
 21
35.0
 31
0.0
  0
LINE
  5
4A
330
1E
100
AcDbEntity
  8
0
100
AcDbLine
 10
160.461538
 20
15.72
 30
0.0
 11
160.461538
 21
15.0
 31
0.0
  0
LINE
  5
4B
330
1E
100
AcDbEntity
  8
0
100
AcDbLine
 10
160.461538
 20
15.72
 30
0.0
 11
160.461538
 21
17.64
 31
0.0
  0
LINE
  5
4C
330
1E
100
AcDbEntity
  8
0
100
AcDbLine
 10
160.461538
 20
20.84
 30
0.0
 11
160.461538
 21
17.64
 31
0.0
  0
LINE
  5
4D
330
1E
100
AcDbEntity
  8
0
100
AcDbLine
 10
160.461538
 20
20.84
 30
0.0
 11
160.461538
 21
25.08
 31
0.0
  0
LINE
  5
4E
330
1E
100
AcDbEntity
  8
0
100
AcDbLine
 10
160.461538
 20
17.64
 30
0.0
 11
160.461538
 21
15.72
 31
0.0
  0
LINE
  5
4F
330
1E
100
AcDbEntity
  8
0
100
AcDbLine
 10
160.461538
 20
17.64
 30
0.0
 11
160.461538
 21
20.84
 31
0.0
  0
LINE
  5
50
330
1E
100
AcDbEntity
  8
0
100
AcDbLine
 10
160.461538
 20
25.08
 30
0.0
 11
160.461538
 21
20.84
 31
0.0
  0
LINE
  5
51
330
1E
100
AcDbEntity
  8
0
100
AcDbLine
 10
160.461538
 20
25.08
 30
0.0
 11
160.461538
 21
29.87999999999999
 31
0.0
  0
LINE
  5
52
330
1E
100
AcDbEntity
  8
0
100
AcDbLine
 10
160.461538
 20
44.91999999999999
 30
0.0
 11
160.461538
 21
40.11999999999999
 31
0.0
  0
LINE
  5
53
330
1E
100
AcDbEntity
  8
0
100
AcDbLine
 10
160.461538
 20
44.91999999999999
 30
0.0
 11
160.461538
 21
49.16
 31
0.0
  0
LINE
  5
54
330
1E
100
AcDbEntity
  8
0
100
AcDbLine
 10
160.461538
 20
40.11999999999999
 30
0.0
 11
160.461538
 21
35.0
 31
0.0
  0
LINE
  5
55
330
1E
100
AcDbEntity
  8
0
100
AcDbLine
 10
160.461538
 20
40.11999999999999
 30
0.0
 11
160.461538
 21
44.91999999999999
 31
0.0
  0
LINE
  5
56
330
1E
100
AcDbEntity
  8
0
100
AcDbLine
 10
160.461538
 20
35.0
 30
0.0
 11
160.461538
 21
29.87999999999999
 31
0.0
  0
LINE
  5
57
330
1E
100
AcDbEntity
  8
0
100
AcDbLine
 10
160.461538
 20
35.0
 30
0.0
 11
160.461538
 21
40.11999999999999
 31
0.0
  0
LINE
  5
58
330
1E
100
AcDbEntity
  8
0
100
AcDbLine
 10
160.461538
 20
29.87999999999999
 30
0.0
 11
160.461538
 21
35.0
 31
0.0
  0
LINE
  5
59
330
1E
100
AcDbEntity
  8
0
100
AcDbLine
 10
160.461538
 20
29.87999999999999
 30
0.0
 11
160.461538
 21
25.08
 31
0.0
  0
LINE
  5
5A
330
1E
100
AcDbEntity
  8
0
100
AcDbLine
 10
160.461538
 20
15.0
 30
0.0
 11
190.0
 21
15.0
 31
0.0
  0
LINE
  5
5B
330
1E
100
AcDbEntity
  8
0
100
AcDbLine
 10
160.461538
 20
15.0
 30
0.0
 11
160.461538
 21
15.72
 31
0.0
  0
LINE
  5
5C
330
1E
100
AcDbEntity
  8
0
100
AcDbLine
 10
190.0
 20
15.0
 30
0.0
 11
232.0
 21
15.0
 31
0.0
  0
LINE
  5
5D
330
1E
100
AcDbEntity
  8
0
100
AcDbLine
 10
160.0
 20
44.67999999999999
 30
0.0
 11
160.0
 21
48.76
 31
0.0
  0
LINE
  5
5E
330
1E
100
AcDbEntity
  8
0
100
AcDbLine
 10
160.0
 20
44.67999999999999
 30
0.0
 11
160.0
 21
40.04
 31
0.0
  0
LINE
  5
5F
330
1E
100
AcDbEntity
  8
0
100
AcDbLine
 10
160.461538
 20
49.16
 30
0.0
 11
160.461538
 21
44.91999999999999
 31
0.0
  0
LINE
  5
60
330
1E
100
AcDbEntity
  8
0
100
AcDbLine
 10
160.461538
 20
49.16
 30
0.0
 11
160.461538
 21
52.36
 31
0.0
  0
LINE
  5
61
330
1E
100
AcDbEntity
  8
0
100
AcDbLine
 10
160.0
 20
48.76
 30
0.0
 11
160.0
 21
51.88
 31
0.0
  0
LINE
  5
62
330
1E
100
AcDbEntity
  8
0
100
AcDbLine
 10
160.0
 20
48.76
 30
0.0
 11
160.0
 21
44.67999999999999
 31
0.0
  0
LINE
  5
63
330
1E
100
AcDbEntity
  8
0
100
AcDbLine
 10
160.0
 20
51.88
 30
0.0
 11
160.0
 21
53.79999999999999
 31
0.0
  0
LINE
  5
64
330
1E
100
AcDbEntity
  8
0
100
AcDbLine
 10
160.0
 20
51.88
 30
0.0
 11
160.0
 21
48.76
 31
0.0
  0
LINE
  5
65
330
1E
100
AcDbEntity
  8
0
100
AcDbLine
 10
160.0
 20
53.79999999999999
 30
0.0
 11
160.0
 21
54.52
 31
0.0
  0
LINE
  5
66
330
1E
100
AcDbEntity
  8
0
100
AcDbLine
 10
160.0
 20
53.79999999999999
 30
0.0
 11
160.0
 21
51.88
 31
0.0
  0
LINE
  5
67
330
1E
100
AcDbEntity
  8
0
100
AcDbLine
 10
160.461538
 20
52.36
 30
0.0
 11
160.461538
 21
49.16
 31
0.0
  0
LINE
  5
68
330
1E
100
AcDbEntity
  8
0
100
AcDbLine
 10
160.461538
 20
52.36
 30
0.0
 11
160.461538
 21
54.28
 31
0.0
  0
LINE
  5
69
330
1E
100
AcDbEntity
  8
0
100
AcDbLine
 10
160.461538
 20
54.28
 30
0.0
 11
160.461538
 21
55.0
 31
0.0
  0
LINE
  5
6A
330
1E
100
AcDbEntity
  8
0
100
AcDbLine
 10
160.461538
 20
54.28
 30
0.0
 11
160.461538
 21
52.36
 31
0.0
  0
LINE
  5
6B
330
1E
100
AcDbEntity
  8
0
100
AcDbLine
 10
190.0
 20
54.28
 30
0.0
 11
190.0
 21
51.79999999999999
 31
0.0
  0
LINE
  5
6C
330
1E
100
AcDbEntity
  8
0
100
AcDbLine
 10
190.0
 20
54.28
 30
0.0
 11
190.0
 21
55.0
 31
0.0
  0
LINE
  5
6D
330
1E
100
AcDbEntity
  8
0
100
AcDbLine
 10
190.0
 20
51.79999999999999
 30
0.0
 11
190.0
 21
67.0
 31
0.0
  0
LINE
  5
6E
330
1E
100
AcDbEntity
  8
0
100
AcDbLine
 10
190.0
 20
51.79999999999999
 30
0.0
 11
190.4614999999999
 21
51.6
 31
0.0
  0
LINE
  5
6F
330
1E
100
AcDbEntity
  8
0
100
AcDbLine
 10
190.0
 20
51.79999999999999
 30
0.0
 11
190.0
 21
54.28
 31
0.0
  0
LINE
  5
70
330
1E
100
AcDbEntity
  8
0
100
AcDbLine
 10
160.461538
 20
55.0
 30
0.0
 11
190.0
 21
55.0
 31
0.0
  0
LINE
  5
71
330
1E
100
AcDbEntity
  8
0
100
AcDbLine
 10
160.461538
 20
55.0
 30
0.0
 11
160.461538
 21
54.28
 31
0.0
  0
LINE
  5
72
330
1E
100
AcDbEntity
  8
0
100
AcDbLine
 10
190.0
 20
55.0
 30
0.0
 11
190.0
 21
67.0
 31
0.0
  0
LINE
  5
73
330
1E
100
AcDbEntity
  8
0
100
AcDbLine
 10
190.0
 20
55.0
 30
0.0
 11
190.0
 21
54.28
 31
0.0
  0
LINE
  5
74
330
1E
100
AcDbEntity
  8
0
100
AcDbLine
 10
190.0
 20
67.0
 30
0.0
 11
190.0
 21
69.77199999999999
 31
0.0
  0
LINE
  5
75
330
1E
100
AcDbEntity
  8
0
100
AcDbLine
 10
190.0
 20
67.0
 30
0.0
 11
190.0
 21
55.0
 31
0.0
  0
LINE
  5
76
330
1E
100
AcDbEntity
  8
0
100
AcDbLine
 10
190.0
 20
67.0
 30
0.0
 11
190.0
 21
51.79999999999999
 31
0.0
  0
LINE
  5
77
330
1E
100
AcDbEntity
  8
0
100
AcDbLine
 10
190.4614999999999
 20
69.816
 30
0.0
 11
190.4614999999999
 21
67.0
 31
0.0
  0
LINE
  5
78
330
1E
100
AcDbEntity
  8
0
100
AcDbLine
 10
190.4614999999999
 20
69.816
 30
0.0
 11
190.4614999999999
 21
72.456
 31
0.0
  0
LINE
  5
79
330
1E
100
AcDbEntity
  8
0
100
AcDbLine
 10
190.4614999999999
 20
67.0
 30
0.0
 11
190.4614999999999
 21
51.6
 31
0.0
  0
LINE
  5
7A
330
1E
100
AcDbEntity
  8
0
100
AcDbLine
 10
190.4614999999999
 20
67.0
 30
0.0
 11
190.4614999999999
 21
69.816
 31
0.0
  0
LINE
  5
7B
330
1E
100
AcDbEntity
  8
0
100
AcDbLine
 10
190.4614999999999
 20
51.6
 30
0.0
 11
190.4614999999999
 21
67.0
 31
0.0
  0
LINE
  5
7C
330
1E
100
AcDbEntity
  8
0
100
AcDbLine
 10
190.4614999999999
 20
51.6
 30
0.0
 11
196.0
 21
51.6
 31
0.0
  0
LINE
  5
7D
330
1E
100
AcDbEntity
  8
0
100
AcDbLine
 10
190.0
 20
69.77199999999999
 30
0.0
 11
190.0
 21
72.324
 31
0.0
  0
LINE
  5
7E
330
1E
100
AcDbEntity
  8
0
100
AcDbLine
 10
190.0
 20
69.77199999999999
 30
0.0
 11
190.0
 21
67.0
 31
0.0
  0
LINE
  5
7F
330
1E
100
AcDbEntity
  8
0
100
AcDbLine
 10
190.4614999999999
 20
72.456
 30
0.0
 11
190.4614999999999
 21
69.816
 31
0.0
  0
LINE
  5
80
330
1E
100
AcDbEntity
  8
0
100
AcDbLine
 10
190.4614999999999
 20
72.456
 30
0.0
 11
190.4614999999999
 21
74.78799999999999
 31
0.0
  0
LINE
  5
81
330
1E
100
AcDbEntity
  8
0
100
AcDbLine
 10
190.0
 20
72.324
 30
0.0
 11
190.0
 21
74.568
 31
0.0
  0
LINE
  5
82
330
1E
100
AcDbEntity
  8
0
100
AcDbLine
 10
190.0
 20
72.324
 30
0.0
 11
190.0
 21
69.77199999999999
 31
0.0
  0
LINE
  5
83
330
1E
100
AcDbEntity
  8
0
100
AcDbLine
 10
160.0
 20
54.52
 30
0.0
 11
160.461538
 21
55.0
 31
0.0
  0
LINE
  5
84
330
1E
100
AcDbEntity
  8
0
100
AcDbLine
 10
160.0
 20
54.52
 30
0.0
 11
160.0
 21
53.79999999999999
 31
0.0
  0
LINE
  5
85
330
1E
100
AcDbEntity
  8
0
100
AcDbLine
 10
190.0
 20
74.568
 30
0.0
 11
190.0
 21
76.28399999999999
 31
0.0
  0
LINE
  5
86
330
1E
100
AcDbEntity
  8
0
100
AcDbLine
 10
190.0
 20
74.568
 30
0.0
 11
190.0
 21
72.324
 31
0.0
  0
LINE
  5
87
330
1E
100
AcDbEntity
  8
0
100
AcDbLine
 10
190.0
 20
76.28399999999999
 30
0.0
 11
190.0
 21
77.34
 31
0.0
  0
LINE
  5
88
330
1E
100
AcDbEntity
  8
0
100
AcDbLine
 10
190.0
 20
76.28399999999999
 30
0.0
 11
190.0
 21
74.568
 31
0.0
  0
LINE
  5
89
330
1E
100
AcDbEntity
  8
0
100
AcDbLine
 10
190.0
 20
77.34
 30
0.0
 11
190.0
 21
77.736
 31
0.0
  0
LINE
  5
8A
330
1E
100
AcDbEntity
  8
0
100
AcDbLine
 10
190.0
 20
77.34
 30
0.0
 11
190.0
 21
76.28399999999999
 31
0.0
  0
LINE
  5
8B
330
1E
100
AcDbEntity
  8
0
100
AcDbLine
 10
190.4614999999999
 20
74.78799999999999
 30
0.0
 11
190.4614999999999
 21
72.456
 31
0.0
  0
LINE
  5
8C
330
1E
100
AcDbEntity
  8
0
100
AcDbLine
 10
190.4614999999999
 20
74.78799999999999
 30
0.0
 11
190.4614999999999
 21
76.548
 31
0.0
  0
LINE
  5
8D
330
1E
100
AcDbEntity
  8
0
100
AcDbLine
 10
190.4614999999999
 20
77.604
 30
0.0
 11
190.4614999999999
 21
76.548
 31
0.0
  0
LINE
  5
8E
330
1E
100
AcDbEntity
  8
0
100
AcDbLine
 10
190.4614999999999
 20
77.604
 30
0.0
 11
190.4614999999999
 21
78.0
 31
0.0
  0
LINE
  5
8F
330
1E
100
AcDbEntity
  8
0
100
AcDbLine
 10
190.4614999999999
 20
76.548
 30
0.0
 11
190.4614999999999
 21
77.604
 31
0.0
  0
LINE
  5
90
330
1E
100
AcDbEntity
  8
0
100
AcDbLine
 10
190.4614999999999
 20
76.548
 30
0.0
 11
190.4614999999999
 21
74.78799999999999
 31
0.0
  0
LINE
  5
91
330
1E
100
AcDbEntity
  8
0
100
AcDbLine
 10
190.4614999999999
 20
78.0
 30
0.0
 11
196.0
 21
78.0
 31
0.0
  0
LINE
  5
92
330
1E
100
AcDbEntity
  8
0
100
AcDbLine
 10
190.4614999999999
 20
78.0
 30
0.0
 11
190.4614999999999
 21
77.604
 31
0.0
  0
LINE
  5
93
330
1E
100
AcDbEntity
  8
0
100
AcDbLine
 10
190.0
 20
77.736
 30
0.0
 11
190.4614999999999
 21
78.0
 31
0.0
  0
LINE
  5
94
330
1E
100
AcDbEntity
  8
0
100
AcDbLine
 10
190.0
 20
77.736
 30
0.0
 11
190.0
 21
77.34
 31
0.0
  0
LINE
  5
95
330
1E
100
AcDbEntity
  8
0
100
AcDbLine
 10
196.0
 20
51.6
 30
0.0
 11
232.0
 21
51.6
 31
0.0
  0
LINE
  5
96
330
1E
100
AcDbEntity
  8
0
100
AcDbLine
 10
196.0
 20
78.0
 30
0.0
 11
197.0
 21
78.0
 31
0.0
  0
LINE
  5
97
330
1E
100
AcDbEntity
  8
0
100
AcDbLine
 10
197.0795580853859
 20
77.95026591856999
 30
0.0
 11
198.6943
 21
77.1314
 31
0.0
  0
LINE
  5
98
330
1E
100
AcDbEntity
  8
0
100
AcDbLine
 10
198.6943
 20
77.1314
 30
0.0
 11
200.7919
 21
76.5432
 31
0.0
  0
LINE
  5
99
330
1E
100
AcDbEntity
  8
0
100
AcDbLine
 10
200.7919
 20
76.5432
 30
0.0
 11
205.0
 21
76.2
 31
0.0
  0
LINE
  5
9A
330
1E
100
AcDbEntity
  8
0
100
AcDbLine
 10
205.0
 20
76.2
 30
0.0
 11
232.6
 21
76.2
 31
0.0
  0
LINE
  5
9B
330
1E
100
AcDbEntity
  8
0
100
AcDbLine
 10
207.0
 20
76.2
 30
0.0
 11
207.0
 21
89.0
 31
0.0
  0
LINE
  5
9C
330
1E
100
AcDbEntity
  8
0
100
AcDbLine
 10
197.0
 20
78.0
 30
0.0
 11
197.0
 21
89.0
 31
0.0
  0
LINE
  5
9D
330
1E
100
AcDbEntity
  8
0
100
AcDbLine
 10
197.0
 20
78.0
 30
0.0
 11
197.0795580853859
 21
77.95026591856999
 31
0.0
  0
LINE
  5
9E
330
1E
100
AcDbEntity
  8
0
100
AcDbLine
 10
48.0
 20
0.0
 30
0.0
 11
48.0
 21
97.0096618357488
 31
0.0
  0
LINE
  5
9F
330
1E
100
AcDbEntity
  8
0
100
AcDbLine
 10
47.2
 20
-0.0000000000000029
 30
0.0
 11
47.8
 21
-0.0000000000000029
 31
0.0
  0
LINE
  5
A0
330
1E
100
AcDbEntity
  8
0
100
AcDbLine
 10
47.8
 20
-0.0000000000000029
 30
0.0
 11
48.0
 21
-0.0000000000000029
 31
0.0
  0
LINE
  5
A1
330
1E
100
AcDbEntity
  8
0
100
AcDbLine
 10
22.0
 20
-0.0000000000000013
 30
0.0
 11
25.0
 21
-0.0000000000000015
 31
0.0
  0
LINE
  5
A2
330
1E
100
AcDbEntity
  8
0
100
AcDbLine
 10
197.18
 20
89.0
 30
0.0
 11
197.6599999999999
 21
89.0
 31
0.0
  0
LINE
  5
A3
330
1E
100
AcDbEntity
  8
0
100
AcDbLine
 10
197.6599999999999
 20
89.0
 30
0.0
 11
198.46
 21
89.0
 31
0.0
  0
LINE
  5
A4
330
1E
100
AcDbEntity
  8
0
100
AcDbLine
 10
198.46
 20
89.0
 30
0.0
 11
199.52
 21
89.0
 31
0.0
  0
LINE
  5
A5
330
1E
100
AcDbEntity
  8
0
100
AcDbLine
 10
199.52
 20
89.0
 30
0.0
 11
200.72
 21
89.0
 31
0.0
  0
LINE
  5
A6
330
1E
100
AcDbEntity
  8
0
100
AcDbLine
 10
206.82
 20
89.0
 30
0.0
 11
207.0
 21
89.0
 31
0.0
  0
LINE
  5
A7
330
1E
100
AcDbEntity
  8
0
100
AcDbLine
 10
207.0
 20
89.0
 30
0.0
 11
207.0
 21
76.2
 31
0.0
  0
LINE
  5
A8
330
1E
100
AcDbEntity
  8
0
100
AcDbLine
 10
206.34
 20
89.0
 30
0.0
 11
206.82
 21
89.0
 31
0.0
  0
LINE
  5
A9
330
1E
100
AcDbEntity
  8
0
100
AcDbLine
 10
205.54
 20
89.0
 30
0.0
 11
206.34
 21
89.0
 31
0.0
  0
LINE
  5
AA
330
1E
100
AcDbEntity
  8
0
100
AcDbLine
 10
204.4799999999999
 20
89.0
 30
0.0
 11
205.54
 21
89.0
 31
0.0
  0
LINE
  5
AB
330
1E
100
AcDbEntity
  8
0
100
AcDbLine
 10
203.2799999999999
 20
89.0
 30
0.0
 11
204.4799999999999
 21
89.0
 31
0.0
  0
LINE
  5
AC
330
1E
100
AcDbEntity
  8
0
100
AcDbLine
 10
202.0
 20
89.0
 30
0.0
 11
203.2799999999999
 21
89.0
 31
0.0
  0
LINE
  5
AD
330
1E
100
AcDbEntity
  8
0
100
AcDbLine
 10
200.72
 20
89.0
 30
0.0
 11
202.0
 21
89.0
 31
0.0
  0
LINE
  5
AE
330
1E
100
AcDbEntity
  8
0
100
AcDbLine
 10
197.0
 20
89.0
 30
0.0
 11
197.0
 21
78.0
 31
0.0
  0
LINE
  5
AF
330
1E
100
AcDbEntity
  8
0
100
AcDbLine
 10
197.0
 20
89.0
 30
0.0
 11
197.18
 21
89.0
 31
0.0
  0
LINE
  5
B0
330
1E
100
AcDbEntity
  8
0
100
AcDbLine
 10
228.5
 20
87.3
 30
0.0
 11
228.5
 21
84.7
 31
0.0
  0
LINE
  5
B1
330
1E
100
AcDbEntity
  8
0
100
AcDbLine
 10
228.5
 20
87.3
 30
0.0
 11
228.5
 21
90.29999999999999
 31
0.0
  0
LINE
  5
B2
330
1E
100
AcDbEntity
  8
0
100
AcDbLine
 10
228.5
 20
84.7
 30
0.0
 11
228.5
 21
82.70000000000001
 31
0.0
  0
LINE
  5
B3
330
1E
100
AcDbEntity
  8
0
100
AcDbLine
 10
228.5
 20
84.7
 30
0.0
 11
228.5
 21
87.3
 31
0.0
  0
LINE
  5
B4
330
1E
100
AcDbEntity
  8
0
100
AcDbLine
 10
228.5
 20
82.70000000000001
 30
0.0
 11
228.5
 21
81.3
 31
0.0
  0
LINE
  5
B5
330
1E
100
AcDbEntity
  8
0
100
AcDbLine
 10
228.5
 20
82.70000000000001
 30
0.0
 11
228.5
 21
84.7
 31
0.0
  0
LINE
  5
B6
330
1E
100
AcDbEntity
  8
0
100
AcDbLine
 10
228.5
 20
81.3
 30
0.0
 11
228.5
 21
80.4
 31
0.0
  0
LINE
  5
B7
330
1E
100
AcDbEntity
  8
0
100
AcDbLine
 10
228.5
 20
81.3
 30
0.0
 11
228.5
 21
82.70000000000001
 31
0.0
  0
LINE
  5
B8
330
1E
100
AcDbEntity
  8
0
100
AcDbLine
 10
228.5
 20
80.4
 30
0.0
 11
228.5
 21
80.0
 31
0.0
  0
LINE
  5
B9
330
1E
100
AcDbEntity
  8
0
100
AcDbLine
 10
228.5
 20
80.4
 30
0.0
 11
228.5
 21
81.3
 31
0.0
  0
LINE
  5
BA
330
1E
100
AcDbEntity
  8
0
100
AcDbLine
 10
228.5
 20
80.0
 30
0.0
 11
245.0
 21
80.0
 31
0.0
  0
LINE
  5
BB
330
1E
100
AcDbEntity
  8
0
100
AcDbLine
 10
228.5
 20
80.0
 30
0.0
 11
228.5
 21
80.4
 31
0.0
  0
LINE
  5
BC
330
1E
100
AcDbEntity
  8
0
100
AcDbLine
 10
228.5
 20
90.29999999999999
 30
0.0
 11
228.5
 21
93.7
 31
0.0
  0
LINE
  5
BD
330
1E
100
AcDbEntity
  8
0
100
AcDbLine
 10
228.5
 20
90.29999999999999
 30
0.0
 11
228.5
 21
87.3
 31
0.0
  0
LINE
  5
BE
330
1E
100
AcDbEntity
  8
0
100
AcDbLine
 10
228.5
 20
93.7
 30
0.0
 11
228.5
 21
90.29999999999999
 31
0.0
  0
LINE
  5
BF
330
1E
100
AcDbEntity
  8
0
100
AcDbLine
 10
228.5
 20
93.7
 30
0.0
 11
228.5
 21
97.0
 31
0.0
  0
LINE
  5
C0
330
1E
100
AcDbEntity
  8
0
100
AcDbLine
 10
228.5
 20
93.7
 30
0.0
 11
228.5
 21
97.59999999999999
 31
0.0
  0
LINE
  5
C1
330
1E
100
AcDbEntity
  8
0
100
AcDbLine
 10
228.5
 20
97.0
 30
0.0
 11
228.5
 21
93.7
 31
0.0
  0
LINE
  5
C2
330
1E
100
AcDbEntity
  8
0
100
AcDbLine
 10
228.5
 20
97.0
 30
0.0
 11
228.5
 21
97.2
 31
0.0
  0
LINE
  5
C3
330
1E
100
AcDbEntity
  8
0
100
AcDbLine
 10
0.9000000000000071
 20
115.0
 30
0.0
 11
2.00000000000001
 21
115.0
 31
0.0
  0
LINE
  5
C4
330
1E
100
AcDbEntity
  8
0
100
AcDbLine
 10
0.300000000000007
 20
115.0
 30
0.0
 11
0.9000000000000071
 21
115.0
 31
0.0
  0
LINE
  5
C5
330
1E
100
AcDbEntity
  8
0
100
AcDbLine
 10
0.0000000000000071
 20
115.0
 30
0.0
 11
0.300000000000007
 21
115.0
 31
0.0
  0
LINE
  5
C6
330
1E
100
AcDbEntity
  8
0
100
AcDbLine
 10
3.300000000000009
 20
115.0
 30
0.0
 11
5.200000000000009
 21
115.0
 31
0.0
  0
LINE
  5
C7
330
1E
100
AcDbEntity
  8
0
100
AcDbLine
 10
5.200000000000009
 20
115.0
 30
0.0
 11
7.400000000000009
 21
115.0
 31
0.0
  0
LINE
  5
C8
330
1E
100
AcDbEntity
  8
0
100
AcDbLine
 10
7.400000000000009
 20
115.0
 30
0.0
 11
9.800000000000009
 21
115.0
 31
0.0
  0
LINE
  5
C9
330
1E
100
AcDbEntity
  8
0
100
AcDbLine
 10
9.800000000000009
 20
115.0
 30
0.0
 11
12.6
 21
115.0
 31
0.0
  0
LINE
  5
CA
330
1E
100
AcDbEntity
  8
0
100
AcDbLine
 10
12.6
 20
115.0
 30
0.0
 11
15.5
 21
115.0
 31
0.0
  0
LINE
  5
CB
330
1E
100
AcDbEntity
  8
0
100
AcDbLine
 10
8.800000000000009
 20
115.0
 30
0.0
 11
11.0
 21
115.0
 31
0.0
  0
LINE
  5
CC
330
1E
100
AcDbEntity
  8
0
100
AcDbLine
 10
11.0
 20
115.0
 30
0.0
 11
13.6
 21
115.0
 31
0.0
  0
LINE
  5
CD
330
1E
100
AcDbEntity
  8
0
100
AcDbLine
 10
15.5
 20
115.0
 30
0.0
 11
18.6
 21
115.0
 31
0.0
  0
LINE
  5
CE
330
1E
100
AcDbEntity
  8
0
100
AcDbLine
 10
18.6
 20
115.0
 30
0.0
 11
21.69999999999999
 21
115.0
 31
0.0
  0
LINE
  5
CF
330
1E
100
AcDbEntity
  8
0
100
AcDbLine
 10
13.6
 20
115.0
 30
0.0
 11
16.2
 21
115.0
 31
0.0
  0
LINE
  5
D0
330
1E
100
AcDbEntity
  8
0
100
AcDbLine
 10
16.2
 20
115.0
 30
0.0
 11
19.1
 21
115.0
 31
0.0
  0
LINE
  5
D1
330
1E
100
AcDbEntity
  8
0
100
AcDbLine
 10
21.69999999999999
 20
115.0
 30
0.0
 11
25.0
 21
115.0
 31
0.0
  0
LINE
  5
D2
330
1E
100
AcDbEntity
  8
0
100
AcDbLine
 10
19.1
 20
115.0
 30
0.0
 11
22.0
 21
115.0
 31
0.0
  0
LINE
  5
D3
330
1E
100
AcDbEntity
  8
0
100
AcDbLine
 10
22.0
 20
115.0
 30
0.0
 11
25.0
 21
115.0
 31
0.0
  0
LINE
  5
D4
330
1E
100
AcDbEntity
  8
0
100
AcDbLine
 10
6.800000000000009
 20
115.0
 30
0.0
 11
8.800000000000009
 21
115.0
 31
0.0
  0
LINE
  5
D5
330
1E
100
AcDbEntity
  8
0
100
AcDbLine
 10
5.100000000000009
 20
115.0
 30
0.0
 11
6.800000000000009
 21
115.0
 31
0.0
  0
LINE
  5
D6
330
1E
100
AcDbEntity
  8
0
100
AcDbLine
 10
3.800000000000009
 20
115.0
 30
0.0
 11
5.100000000000009
 21
115.0
 31
0.0
  0
LINE
  5
D7
330
1E
100
AcDbEntity
  8
0
100
AcDbLine
 10
2.800000000000009
 20
115.0
 30
0.0
 11
3.800000000000009
 21
115.0
 31
0.0
  0
LINE
  5
D8
330
1E
100
AcDbEntity
  8
0
100
AcDbLine
 10
2.200000000000009
 20
115.0
 30
0.0
 11
2.800000000000009
 21
115.0
 31
0.0
  0
LINE
  5
D9
330
1E
100
AcDbEntity
  8
0
100
AcDbLine
 10
2.00000000000001
 20
115.0
 30
0.0
 11
2.200000000000009
 21
115.0
 31
0.0
  0
LINE
  5
DA
330
1E
100
AcDbEntity
  8
0
100
AcDbLine
 10
2.00000000000001
 20
115.0
 30
0.0
 11
3.300000000000009
 21
115.0
 31
0.0
  0
LINE
  5
DB
330
1E
100
AcDbEntity
  8
0
100
AcDbLine
 10
31.4
 20
115.0
 30
0.0
 11
34.5
 21
115.0
 31
0.0
  0
LINE
  5
DC
330
1E
100
AcDbEntity
  8
0
100
AcDbLine
 10
28.3
 20
115.0
 30
0.0
 11
31.4
 21
115.0
 31
0.0
  0
LINE
  5
DD
330
1E
100
AcDbEntity
  8
0
100
AcDbLine
 10
228.5
 20
97.59999999999999
 30
0.0
 11
228.5
 21
101.6
 31
0.0
  0
LINE
  5
DE
330
1E
100
AcDbEntity
  8
0
100
AcDbLine
 10
228.5
 20
97.59999999999999
 30
0.0
 11
228.5
 21
93.7
 31
0.0
  0
LINE
  5
DF
330
1E
100
AcDbEntity
  8
0
100
AcDbLine
 10
228.5
 20
102.0
 30
0.0
 11
228.5
 21
103.7
 31
0.0
  0
LINE
  5
E0
330
1E
100
AcDbEntity
  8
0
100
AcDbLine
 10
228.5
 20
103.7
 30
0.0
 11
228.5
 21
105.8
 31
0.0
  0
LINE
  5
E1
330
1E
100
AcDbEntity
  8
0
100
AcDbLine
 10
228.5
 20
105.8
 30
0.0
 11
228.5
 21
107.9
 31
0.0
  0
LINE
  5
E2
330
1E
100
AcDbEntity
  8
0
100
AcDbLine
 10
228.5
 20
101.6
 30
0.0
 11
228.5
 21
106.0
 31
0.0
  0
LINE
  5
E3
330
1E
100
AcDbEntity
  8
0
100
AcDbLine
 10
228.5
 20
101.6
 30
0.0
 11
228.5
 21
97.59999999999999
 31
0.0
  0
LINE
  5
E4
330
1E
100
AcDbEntity
  8
0
100
AcDbLine
 10
228.5
 20
107.9
 30
0.0
 11
228.5
 21
110.34
 31
0.0
  0
LINE
  5
E5
330
1E
100
AcDbEntity
  8
0
100
AcDbLine
 10
228.5
 20
110.34
 30
0.0
 11
228.5
 21
112.5999999999999
 31
0.0
  0
LINE
  5
E6
330
1E
100
AcDbEntity
  8
0
100
AcDbLine
 10
228.5
 20
112.5999999999999
 30
0.0
 11
228.5
 21
115.0
 31
0.0
  0
LINE
  5
E7
330
1E
100
AcDbEntity
  8
0
100
AcDbLine
 10
228.5
 20
115.0
 30
0.0
 11
228.5
 21
110.4
 31
0.0
  0
LINE
  5
E8
330
1E
100
AcDbEntity
  8
0
100
AcDbLine
 10
228.5
 20
115.0
 30
0.0
 11
228.5
 21
119.5999999999999
 31
0.0
  0
LINE
  5
E9
330
1E
100
AcDbEntity
  8
0
100
AcDbLine
 10
228.5
 20
115.0
 30
0.0
 11
228.5
 21
117.4
 31
0.0
  0
LINE
  5
EA
330
1E
100
AcDbEntity
  8
0
100
AcDbLine
 10
228.5
 20
106.0
 30
0.0
 11
228.5
 21
110.4
 31
0.0
  0
LINE
  5
EB
330
1E
100
AcDbEntity
  8
0
100
AcDbLine
 10
228.5
 20
106.0
 30
0.0
 11
228.5
 21
101.6
 31
0.0
  0
LINE
  5
EC
330
1E
100
AcDbEntity
  8
0
100
AcDbLine
 10
228.5
 20
110.4
 30
0.0
 11
228.5
 21
115.0
 31
0.0
  0
LINE
  5
ED
330
1E
100
AcDbEntity
  8
0
100
AcDbLine
 10
228.5
 20
110.4
 30
0.0
 11
228.5
 21
106.0
 31
0.0
  0
LINE
  5
EE
330
1E
100
AcDbEntity
  8
0
100
AcDbLine
 10
228.5
 20
100.6
 30
0.0
 11
228.5
 21
102.0
 31
0.0
  0
LINE
  5
EF
330
1E
100
AcDbEntity
  8
0
100
AcDbLine
 10
228.5
 20
99.20000000000001
 30
0.0
 11
228.5
 21
100.6
 31
0.0
  0
LINE
  5
F0
330
1E
100
AcDbEntity
  8
0
100
AcDbLine
 10
228.5
 20
98.2
 30
0.0
 11
228.5
 21
99.20000000000001
 31
0.0
  0
LINE
  5
F1
330
1E
100
AcDbEntity
  8
0
100
AcDbLine
 10
228.5
 20
97.5
 30
0.0
 11
228.5
 21
98.2
 31
0.0
  0
LINE
  5
F2
330
1E
100
AcDbEntity
  8
0
100
AcDbLine
 10
228.5
 20
97.2
 30
0.0
 11
228.5
 21
97.5
 31
0.0
  0
LINE
  5
F3
330
1E
100
AcDbEntity
  8
0
100
AcDbLine
 10
40.2
 20
115.0
 30
0.0
 11
42.6
 21
115.0
 31
0.0
  0
LINE
  5
F4
330
1E
100
AcDbEntity
  8
0
100
AcDbLine
 10
37.4
 20
115.0
 30
0.0
 11
40.2
 21
115.0
 31
0.0
  0
LINE
  5
F5
330
1E
100
AcDbEntity
  8
0
100
AcDbLine
 10
34.5
 20
115.0
 30
0.0
 11
37.4
 21
115.0
 31
0.0
  0
LINE
  5
F6
330
1E
100
AcDbEntity
  8
0
100
AcDbLine
 10
36.4
 20
115.0
 30
0.0
 11
39.0
 21
115.0
 31
0.0
  0
LINE
  5
F7
330
1E
100
AcDbEntity
  8
0
100
AcDbLine
 10
33.79999999999999
 20
115.0
 30
0.0
 11
36.4
 21
115.0
 31
0.0
  0
LINE
  5
F8
330
1E
100
AcDbEntity
  8
0
100
AcDbLine
 10
30.89999999999999
 20
115.0
 30
0.0
 11
33.79999999999999
 21
115.0
 31
0.0
  0
LINE
  5
F9
330
1E
100
AcDbEntity
  8
0
100
AcDbLine
 10
28.0
 20
115.0
 30
0.0
 11
30.89999999999999
 21
115.0
 31
0.0
  0
LINE
  5
FA
330
1E
100
AcDbEntity
  8
0
100
AcDbLine
 10
25.0
 20
115.0
 30
0.0
 11
28.0
 21
115.0
 31
0.0
  0
LINE
  5
FB
330
1E
100
AcDbEntity
  8
0
100
AcDbLine
 10
25.0
 20
115.0
 30
0.0
 11
28.3
 21
115.0
 31
0.0
  0
LINE
  5
FC
330
1E
100
AcDbEntity
  8
0
100
AcDbLine
 10
0.9000000000000071
 20
115.0
 30
0.0
 11
2.00000000000001
 21
115.0
 31
0.0
  0
LINE
  5
FD
330
1E
100
AcDbEntity
  8
0
100
AcDbLine
 10
228.5
 20
122.0999999999999
 30
0.0
 11
228.5
 21
124.1999999999999
 31
0.0
  0
LINE
  5
FE
330
1E
100
AcDbEntity
  8
0
100
AcDbLine
 10
228.5
 20
119.6599999999999
 30
0.0
 11
228.5
 21
122.0999999999999
 31
0.0
  0
LINE
  5
FF
330
1E
100
AcDbEntity
  8
0
100
AcDbLine
 10
228.5
 20
117.4
 30
0.0
 11
228.5
 21
119.6599999999999
 31
0.0
  0
LINE
  5
100
330
1E
100
AcDbEntity
  8
0
100
AcDbLine
 10
228.5
 20
128.0
 30
0.0
 11
228.5
 21
129.4
 31
0.0
  0
LINE
  5
101
330
1E
100
AcDbEntity
  8
0
100
AcDbLine
 10
228.5
 20
129.4
 30
0.0
 11
228.5
 21
130.8
 31
0.0
  0
LINE
  5
102
330
1E
100
AcDbEntity
  8
0
100
AcDbLine
 10
228.5
 20
130.8
 30
0.0
 11
228.5
 21
131.8
 31
0.0
  0
LINE
  5
103
330
1E
100
AcDbEntity
  8
0
100
AcDbLine
 10
228.5
 20
131.8
 30
0.0
 11
228.5
 21
132.4999999999999
 31
0.0
  0
LINE
  5
104
330
1E
100
AcDbEntity
  8
0
100
AcDbLine
 10
228.5
 20
126.2999999999999
 30
0.0
 11
228.5
 21
128.0
 31
0.0
  0
LINE
  5
105
330
1E
100
AcDbEntity
  8
0
100
AcDbLine
 10
228.5
 20
124.1999999999999
 30
0.0
 11
228.5
 21
126.2999999999999
 31
0.0
  0
LINE
  5
106
330
1E
100
AcDbEntity
  8
0
100
AcDbLine
 10
50.0
 20
133.0
 30
0.0
 11
228.5
 21
133.0
 31
0.0
  0
LINE
  5
107
330
1E
100
AcDbEntity
  8
0
100
AcDbLine
 10
228.5
 20
132.4999999999999
 30
0.0
 11
228.5
 21
132.8
 31
0.0
  0
LINE
  5
108
330
1E
100
AcDbEntity
  8
0
100
AcDbLine
 10
228.5
 20
132.8
 30
0.0
 11
228.5
 21
133.0
 31
0.0
  0
LINE
  5
109
330
1E
100
AcDbEntity
  8
0
100
AcDbLine
 10
228.5
 20
132.4
 30
0.0
 11
228.5
 21
136.3
 31
0.0
  0
LINE
  5
10A
330
1E
100
AcDbEntity
  8
0
100
AcDbLine
 10
228.5
 20
132.4
 30
0.0
 11
228.5
 21
128.4
 31
0.0
  0
LINE
  5
10B
330
1E
100
AcDbEntity
  8
0
100
AcDbLine
 10
228.5
 20
128.4
 30
0.0
 11
228.5
 21
132.4
 31
0.0
  0
LINE
  5
10C
330
1E
100
AcDbEntity
  8
0
100
AcDbLine
 10
228.5
 20
128.4
 30
0.0
 11
228.5
 21
124.0
 31
0.0
  0
LINE
  5
10D
330
1E
100
AcDbEntity
  8
0
100
AcDbLine
 10
228.5
 20
124.0
 30
0.0
 11
228.5
 21
128.4
 31
0.0
  0
LINE
  5
10E
330
1E
100
AcDbEntity
  8
0
100
AcDbLine
 10
228.5
 20
124.0
 30
0.0
 11
228.5
 21
119.5999999999999
 31
0.0
  0
LINE
  5
10F
330
1E
100
AcDbEntity
  8
0
100
AcDbLine
 10
228.5
 20
119.5999999999999
 30
0.0
 11
228.5
 21
124.0
 31
0.0
  0
LINE
  5
110
330
1E
100
AcDbEntity
  8
0
100
AcDbLine
 10
228.5
 20
119.5999999999999
 30
0.0
 11
228.5
 21
115.0
 31
0.0
  0
LINE
  5
111
330
1E
100
AcDbEntity
  8
0
100
AcDbLine
 10
0.300000000000007
 20
115.0
 30
0.0
 11
0.9000000000000071
 21
115.0
 31
0.0
  0
LINE
  5
112
330
1E
100
AcDbEntity
  8
0
100
AcDbLine
 10
0.000000000000007
 20
115.0
 30
0.0
 11
0.300000000000007
 21
115.0
 31
0.0
  0
LINE
  5
113
330
1E
100
AcDbEntity
  8
0
100
AcDbLine
 10
0.000000000000007
 20
115.0
 30
0.0
 11
0.0000000000000162
 21
265.0
 31
0.0
  0
LINE
  5
114
330
1E
100
AcDbEntity
  8
0
100
AcDbLine
 10
47.9686956521739
 20
97.0
 30
0.0
 11
228.5
 21
97.0
 31
0.0
  0
LINE
  5
115
330
1E
100
AcDbEntity
  8
0
100
AcDbLine
 10
50.0
 20
133.0
 30
0.0
 11
50.0
 21
265.0
 31
0.0
  0
LINE
  5
116
330
1E
100
AcDbEntity
  8
0
100
AcDbLine
 10
50.0
 20
133.0
 30
0.0
 11
228.5
 21
133.0
 31
0.0
  0
LINE
  5
117
330
1E
100
AcDbEntity
  8
0
100
AcDbLine
 10
50.0
 20
133.0
 30
0.0
 11
50.0
 21
265.0
 31
0.0
  0
LINE
  5
118
330
1E
100
AcDbEntity
  8
0
100
AcDbLine
 10
228.5
 20
133.0
 30
0.0
 11
228.5
 21
136.3
 31
0.0
  0
LINE
  5
119
330
1E
100
AcDbEntity
  8
0
100
AcDbLine
 10
228.5
 20
142.6999999999999
 30
0.0
 11
228.5
 21
139.7
 31
0.0
  0
LINE
  5
11A
330
1E
100
AcDbEntity
  8
0
100
AcDbLine
 10
228.5
 20
142.6999999999999
 30
0.0
 11
228.5
 21
145.3
 31
0.0
  0
LINE
  5
11B
330
1E
100
AcDbEntity
  8
0
100
AcDbLine
 10
228.5
 20
145.3
 30
0.0
 11
228.5
 21
142.6999999999999
 31
0.0
  0
LINE
  5
11C
330
1E
100
AcDbEntity
  8
0
100
AcDbLine
 10
228.5
 20
145.3
 30
0.0
 11
228.5
 21
147.3
 31
0.0
  0
LINE
  5
11D
330
1E
100
AcDbEntity
  8
0
100
AcDbLine
 10
228.5
 20
147.3
 30
0.0
 11
228.5
 21
145.3
 31
0.0
  0
LINE
  5
11E
330
1E
100
AcDbEntity
  8
0
100
AcDbLine
 10
228.5
 20
147.3
 30
0.0
 11
228.5
 21
148.6999999999999
 31
0.0
  0
LINE
  5
11F
330
1E
100
AcDbEntity
  8
0
100
AcDbLine
 10
228.5
 20
148.6999999999999
 30
0.0
 11
228.5
 21
147.3
 31
0.0
  0
LINE
  5
120
330
1E
100
AcDbEntity
  8
0
100
AcDbLine
 10
228.5
 20
148.6999999999999
 30
0.0
 11
228.5
 21
149.5999999999999
 31
0.0
  0
LINE
  5
121
330
1E
100
AcDbEntity
  8
0
100
AcDbLine
 10
0.300000000000016
 20
265.0
 30
0.0
 11
0.9000000000000159
 21
265.0
 31
0.0
  0
LINE
  5
122
330
1E
100
AcDbEntity
  8
0
100
AcDbLine
 10
0.0000000000000162
 20
265.0
 30
0.0
 11
0.300000000000016
 21
265.0
 31
0.0
  0
LINE
  5
123
330
1E
100
AcDbEntity
  8
0
100
AcDbLine
 10
7.400000000000019
 20
265.0
 30
0.0
 11
9.800000000000018
 21
265.0
 31
0.0
  0
LINE
  5
124
330
1E
100
AcDbEntity
  8
0
100
AcDbLine
 10
9.800000000000018
 20
265.0
 30
0.0
 11
12.6
 21
265.0
 31
0.0
  0
LINE
  5
125
330
1E
100
AcDbEntity
  8
0
100
AcDbLine
 10
12.6
 20
265.0
 30
0.0
 11
15.5
 21
265.0
 31
0.0
  0
LINE
  5
126
330
1E
100
AcDbEntity
  8
0
100
AcDbLine
 10
15.5
 20
265.0
 30
0.0
 11
18.6
 21
265.0
 31
0.0
  0
LINE
  5
127
330
1E
100
AcDbEntity
  8
0
100
AcDbLine
 10
18.6
 20
265.0
 30
0.0
 11
21.69999999999999
 21
265.0
 31
0.0
  0
LINE
  5
128
330
1E
100
AcDbEntity
  8
0
100
AcDbLine
 10
21.69999999999999
 20
265.0
 30
0.0
 11
25.0
 21
265.0
 31
0.0
  0
LINE
  5
129
330
1E
100
AcDbEntity
  8
0
100
AcDbLine
 10
5.200000000000019
 20
265.0
 30
0.0
 11
7.400000000000019
 21
265.0
 31
0.0
  0
LINE
  5
12A
330
1E
100
AcDbEntity
  8
0
100
AcDbLine
 10
3.30000000000002
 20
265.0
 30
0.0
 11
5.200000000000019
 21
265.0
 31
0.0
  0
LINE
  5
12B
330
1E
100
AcDbEntity
  8
0
100
AcDbLine
 10
2.000000000000019
 20
265.0
 30
0.0
 11
3.30000000000002
 21
265.0
 31
0.0
  0
LINE
  5
12C
330
1E
100
AcDbEntity
  8
0
100
AcDbLine
 10
0.9000000000000159
 20
265.0
 30
0.0
 11
2.000000000000019
 21
265.0
 31
0.0
  0
LINE
  5
12D
330
1E
100
AcDbEntity
  8
0
100
AcDbLine
 10
0.300000000000016
 20
265.0
 30
0.0
 11
0.9000000000000159
 21
265.0
 31
0.0
  0
LINE
  5
12E
330
1E
100
AcDbEntity
  8
0
100
AcDbLine
 10
0.0000000000000162
 20
265.0
 30
0.0
 11
0.300000000000016
 21
265.0
 31
0.0
  0
LINE
  5
12F
330
1E
100
AcDbEntity
  8
0
100
AcDbLine
 10
42.6
 20
265.0
 30
0.0
 11
44.79999999999999
 21
265.0
 31
0.0
  0
LINE
  5
130
330
1E
100
AcDbEntity
  8
0
100
AcDbLine
 10
44.79999999999999
 20
265.0
 30
0.0
 11
46.7
 21
265.0
 31
0.0
  0
LINE
  5
131
330
1E
100
AcDbEntity
  8
0
100
AcDbLine
 10
46.7
 20
265.0
 30
0.0
 11
48.0
 21
265.0
 31
0.0
  0
LINE
  5
132
330
1E
100
AcDbEntity
  8
0
100
AcDbLine
 10
48.0
 20
265.0
 30
0.0
 11
49.1
 21
265.0
 31
0.0
  0
LINE
  5
133
330
1E
100
AcDbEntity
  8
0
100
AcDbLine
 10
49.1
 20
265.0
 30
0.0
 11
49.7
 21
265.0
 31
0.0
  0
LINE
  5
134
330
1E
100
AcDbEntity
  8
0
100
AcDbLine
 10
49.7
 20
265.0
 30
0.0
 11
50.0
 21
265.0
 31
0.0
  0
LINE
  5
135
330
1E
100
AcDbEntity
  8
0
100
AcDbLine
 10
40.2
 20
265.0
 30
0.0
 11
42.6
 21
265.0
 31
0.0
  0
LINE
  5
136
330
1E
100
AcDbEntity
  8
0
100
AcDbLine
 10
37.4
 20
265.0
 30
0.0
 11
40.2
 21
265.0
 31
0.0
  0
LINE
  5
137
330
1E
100
AcDbEntity
  8
0
100
AcDbLine
 10
34.5
 20
265.0
 30
0.0
 11
37.4
 21
265.0
 31
0.0
  0
LINE
  5
138
330
1E
100
AcDbEntity
  8
0
100
AcDbLine
 10
31.4
 20
265.0
 30
0.0
 11
34.5
 21
265.0
 31
0.0
  0
LINE
  5
139
330
1E
100
AcDbEntity
  8
0
100
AcDbLine
 10
28.3
 20
265.0
 30
0.0
 11
31.4
 21
265.0
 31
0.0
  0
LINE
  5
13A
330
1E
100
AcDbEntity
  8
0
100
AcDbLine
 10
25.0
 20
265.0
 30
0.0
 11
28.3
 21
265.0
 31
0.0
  0
LINE
  5
13B
330
1E
100
AcDbEntity
  8
0
100
AcDbLine
 10
228.5
 20
149.5999999999999
 30
0.0
 11
228.5
 21
148.6999999999999
 31
0.0
  0
LINE
  5
13C
330
1E
100
AcDbEntity
  8
0
100
AcDbLine
 10
228.5
 20
149.5999999999999
 30
0.0
 11
228.5
 21
150.0
 31
0.0
  0
LINE
  5
13D
330
1E
100
AcDbEntity
  8
0
100
AcDbLine
 10
228.5
 20
150.0
 30
0.0
 11
228.5
 21
149.5999999999999
 31
0.0
  0
LINE
  5
13E
330
1E
100
AcDbEntity
  8
0
100
AcDbLine
 10
228.5
 20
150.0
 30
0.0
 11
245.0
 21
150.0
 31
0.0
  0
LINE
  5
13F
330
1E
100
AcDbEntity
  8
0
100
AcDbLine
 10
228.5
 20
139.7
 30
0.0
 11
228.5
 21
136.3
 31
0.0
  0
LINE
  5
140
330
1E
100
AcDbEntity
  8
0
100
AcDbLine
 10
228.5
 20
139.7
 30
0.0
 11
228.5
 21
142.6999999999999
 31
0.0
  0
LINE
  5
141
330
1E
100
AcDbEntity
  8
0
100
AcDbLine
 10
232.0
 20
7.15999999999999
 30
0.0
 11
232.0
 21
10.616
 31
0.0
  0
LINE
  5
142
330
1E
100
AcDbEntity
  8
0
100
AcDbLine
 10
232.0
 20
7.15999999999999
 30
0.0
 11
232.0
 21
5.86399999999999
 31
0.0
  0
LINE
  5
143
330
1E
100
AcDbEntity
  8
0
100
AcDbLine
 10
232.0
 20
16.23199999999999
 30
0.0
 11
232.0
 21
23.576
 31
0.0
  0
LINE
  5
144
330
1E
100
AcDbEntity
  8
0
100
AcDbLine
 10
232.0
 20
16.23199999999999
 30
0.0
 11
232.0
 21
10.616
 31
0.0
  0
LINE
  5
145
330
1E
100
AcDbEntity
  8
0
100
AcDbLine
 10
232.0
 20
15.72
 30
0.0
 11
232.0
 21
17.64
 31
0.0
  0
LINE
  5
146
330
1E
100
AcDbEntity
  8
0
100
AcDbLine
 10
232.0
 20
15.72
 30
0.0
 11
232.0
 21
15.0
 31
0.0
  0
LINE
  5
147
330
1E
100
AcDbEntity
  8
0
100
AcDbLine
 10
232.0
 20
23.576
 30
0.0
 11
232.0
 21
31.928
 31
0.0
  0
LINE
  5
148
330
1E
100
AcDbEntity
  8
0
100
AcDbLine
 10
232.0
 20
23.576
 30
0.0
 11
232.0
 21
16.23199999999999
 31
0.0
  0
LINE
  5
149
330
1E
100
AcDbEntity
  8
0
100
AcDbLine
 10
232.0
 20
31.928
 30
0.0
 11
232.0
 21
41.0
 31
0.0
  0
LINE
  5
14A
330
1E
100
AcDbEntity
  8
0
100
AcDbLine
 10
232.0
 20
31.928
 30
0.0
 11
232.0
 21
23.576
 31
0.0
  0
LINE
  5
14B
330
1E
100
AcDbEntity
  8
0
100
AcDbLine
 10
232.0
 20
41.0
 30
0.0
 11
232.0
 21
31.928
 31
0.0
  0
LINE
  5
14C
330
1E
100
AcDbEntity
  8
0
100
AcDbLine
 10
232.0
 20
41.0
 30
0.0
 11
232.0
 21
50.072
 31
0.0
  0
LINE
  5
14D
330
1E
100
AcDbEntity
  8
0
100
AcDbLine
 10
232.0
 20
40.11999999999999
 30
0.0
 11
232.0
 21
44.91999999999999
 31
0.0
  0
LINE
  5
14E
330
1E
100
AcDbEntity
  8
0
100
AcDbLine
 10
232.0
 20
40.11999999999999
 30
0.0
 11
232.0
 21
35.0
 31
0.0
  0
LINE
  5
14F
330
1E
100
AcDbEntity
  8
0
100
AcDbLine
 10
232.0
 20
35.0
 30
0.0
 11
232.0
 21
40.11999999999999
 31
0.0
  0
LINE
  5
150
330
1E
100
AcDbEntity
  8
0
100
AcDbLine
 10
232.0
 20
35.0
 30
0.0
 11
232.0
 21
29.87999999999999
 31
0.0
  0
LINE
  5
151
330
1E
100
AcDbEntity
  8
0
100
AcDbLine
 10
232.0
 20
29.87999999999999
 30
0.0
 11
232.0
 21
35.0
 31
0.0
  0
LINE
  5
152
330
1E
100
AcDbEntity
  8
0
100
AcDbLine
 10
232.0
 20
29.87999999999999
 30
0.0
 11
232.0
 21
25.08
 31
0.0
  0
LINE
  5
153
330
1E
100
AcDbEntity
  8
0
100
AcDbLine
 10
232.0
 20
25.08
 30
0.0
 11
232.0
 21
29.87999999999999
 31
0.0
  0
LINE
  5
154
330
1E
100
AcDbEntity
  8
0
100
AcDbLine
 10
232.0
 20
25.08
 30
0.0
 11
232.0
 21
20.84
 31
0.0
  0
LINE
  5
155
330
1E
100
AcDbEntity
  8
0
100
AcDbLine
 10
232.0
 20
17.64
 30
0.0
 11
232.0
 21
20.84
 31
0.0
  0
LINE
  5
156
330
1E
100
AcDbEntity
  8
0
100
AcDbLine
 10
232.0
 20
17.64
 30
0.0
 11
232.0
 21
15.72
 31
0.0
  0
LINE
  5
157
330
1E
100
AcDbEntity
  8
0
100
AcDbLine
 10
232.0
 20
20.84
 30
0.0
 11
232.0
 21
25.08
 31
0.0
  0
LINE
  5
158
330
1E
100
AcDbEntity
  8
0
100
AcDbLine
 10
232.0
 20
20.84
 30
0.0
 11
232.0
 21
17.64
 31
0.0
  0
LINE
  5
159
330
1E
100
AcDbEntity
  8
0
100
AcDbLine
 10
232.0
 20
50.072
 30
0.0
 11
232.0
 21
58.424
 31
0.0
  0
LINE
  5
15A
330
1E
100
AcDbEntity
  8
0
100
AcDbLine
 10
232.0
 20
50.072
 30
0.0
 11
232.0
 21
41.0
 31
0.0
  0
LINE
  5
15B
330
1E
100
AcDbEntity
  8
0
100
AcDbLine
 10
232.0
 20
49.16
 30
0.0
 11
232.0
 21
51.6
 31
0.0
  0
LINE
  5
15C
330
1E
100
AcDbEntity
  8
0
100
AcDbLine
 10
232.0
 20
49.16
 30
0.0
 11
232.0
 21
44.91999999999999
 31
0.0
  0
LINE
  5
15D
330
1E
100
AcDbEntity
  8
0
100
AcDbLine
 10
232.0
 20
44.91999999999999
 30
0.0
 11
232.0
 21
49.16
 31
0.0
  0
LINE
  5
15E
330
1E
100
AcDbEntity
  8
0
100
AcDbLine
 10
232.0
 20
44.91999999999999
 30
0.0
 11
232.0
 21
40.11999999999999
 31
0.0
  0
LINE
  5
15F
330
1E
100
AcDbEntity
  8
0
100
AcDbLine
 10
232.0
 20
65.768
 30
0.0
 11
232.0
 21
71.384
 31
0.0
  0
LINE
  5
160
330
1E
100
AcDbEntity
  8
0
100
AcDbLine
 10
232.0
 20
65.768
 30
0.0
 11
232.0
 21
58.424
 31
0.0
  0
LINE
  5
161
330
1E
100
AcDbEntity
  8
0
100
AcDbLine
 10
232.0
 20
58.424
 30
0.0
 11
232.0
 21
50.072
 31
0.0
  0
LINE
  5
162
330
1E
100
AcDbEntity
  8
0
100
AcDbLine
 10
232.0
 20
58.424
 30
0.0
 11
232.0
 21
65.768
 31
0.0
  0
LINE
  5
163
330
1E
100
AcDbEntity
  8
0
100
AcDbLine
 10
232.0
 20
71.384
 30
0.0
 11
232.0
 21
74.84
 31
0.0
  0
LINE
  5
164
330
1E
100
AcDbEntity
  8
0
100
AcDbLine
 10
232.0
 20
71.384
 30
0.0
 11
232.0
 21
65.768
 31
0.0
  0
LINE
  5
165
330
1E
100
AcDbEntity
  8
0
100
AcDbLine
 10
232.0
 20
74.84
 30
0.0
 11
232.0
 21
75.1527
 31
0.0
  0
LINE
  5
166
330
1E
100
AcDbEntity
  8
0
100
AcDbLine
 10
232.0
 20
74.84
 30
0.0
 11
232.0
 21
71.384
 31
0.0
  0
LINE
  5
167
330
1E
100
AcDbEntity
  8
0
100
AcDbLine
 10
232.0
 20
75.1527
 30
0.0
 11
232.6
 21
76.2
 31
0.0
  0
LINE
  5
168
330
1E
100
AcDbEntity
  8
0
100
AcDbLine
 10
232.0
 20
75.1527
 30
0.0
 11
232.0
 21
72.456
 31
0.0
  0
LINE
  5
169
330
1E
100
AcDbEntity
  8
0
100
AcDbLine
 10
232.0
 20
75.1527
 30
0.0
 11
232.0
 21
74.84
 31
0.0
  0
LINE
  5
16A
330
1E
100
AcDbEntity
  8
0
100
AcDbLine
 10
232.0
 20
72.456
 30
0.0
 11
232.0
 21
75.1527
 31
0.0
  0
LINE
  5
16B
330
1E
100
AcDbEntity
  8
0
100
AcDbLine
 10
232.0
 20
72.456
 30
0.0
 11
232.0
 21
69.816
 31
0.0
  0
LINE
  5
16C
330
1E
100
AcDbEntity
  8
0
100
AcDbLine
 10
232.0
 20
69.816
 30
0.0
 11
232.0
 21
72.456
 31
0.0
  0
LINE
  5
16D
330
1E
100
AcDbEntity
  8
0
100
AcDbLine
 10
232.0
 20
67.0
 30
0.0
 11
232.0
 21
69.816
 31
0.0
  0
LINE
  5
16E
330
1E
100
AcDbEntity
  8
0
100
AcDbLine
 10
232.0
 20
51.6
 30
0.0
 11
232.0
 21
67.0
 31
0.0
  0
LINE
  5
16F
330
1E
100
AcDbEntity
  8
0
100
AcDbLine
 10
232.0
 20
51.6
 30
0.0
 11
232.0
 21
49.16
 31
0.0
  0
LINE
  5
170
330
1E
100
AcDbEntity
  8
0
100
AcDbLine
 10
232.0
 20
15.0
 30
0.0
 11
232.0
 21
10.616
 31
0.0
  0
LINE
  5
171
330
1E
100
AcDbEntity
  8
0
100
AcDbLine
 10
232.0
 20
15.0
 30
0.0
 11
232.0
 21
15.72
 31
0.0
  0
LINE
  5
172
330
1E
100
AcDbEntity
  8
0
100
AcDbLine
 10
232.0
 20
10.616
 30
0.0
 11
232.0
 21
15.0
 31
0.0
  0
LINE
  5
173
330
1E
100
AcDbEntity
  8
0
100
AcDbLine
 10
232.0
 20
10.616
 30
0.0
 11
232.0
 21
7.15999999999999
 31
0.0
  0
LINE
  5
174
330
1E
100
AcDbEntity
  8
0
100
AcDbLine
 10
232.0
 20
10.616
 30
0.0
 11
232.0
 21
16.23199999999999
 31
0.0
  0
LINE
  5
175
330
1E
100
AcDbEntity
  8
0
100
AcDbLine
 10
245.0
 20
4.99999999999998
 30
0.0
 11
245.0
 21
6.29599999999998
 31
0.0
  0
LINE
  5
176
330
1E
100
AcDbEntity
  8
0
100
AcDbLine
 10
232.6
 20
23.144
 30
0.0
 11
232.6
 21
15.512
 31
0.0
  0
LINE
  5
177
330
1E
100
AcDbEntity
  8
0
100
AcDbLine
 10
232.6
 20
23.144
 30
0.0
 11
232.6
 21
31.784
 31
0.0
  0
LINE
  5
178
330
1E
100
AcDbEntity
  8
0
100
AcDbLine
 10
232.6
 20
15.512
 30
0.0
 11
232.6
 21
9.751999999999981
 31
0.0
  0
LINE
  5
179
330
1E
100
AcDbEntity
  8
0
100
AcDbLine
 10
232.6
 20
15.512
 30
0.0
 11
232.6
 21
23.144
 31
0.0
  0
LINE
  5
17A
330
1E
100
AcDbEntity
  8
0
100
AcDbLine
 10
232.6
 20
6.29599999999999
 30
0.0
 11
232.6
 21
9.751999999999981
 31
0.0
  0
LINE
  5
17B
330
1E
100
AcDbEntity
  8
0
100
AcDbLine
 10
232.6
 20
6.29599999999999
 30
0.0
 11
232.6
 21
4.99999999999998
 31
0.0
  0
LINE
  5
17C
330
1E
100
AcDbEntity
  8
0
100
AcDbLine
 10
232.6
 20
9.751999999999981
 30
0.0
 11
232.6
 21
6.29599999999999
 31
0.0
  0
LINE
  5
17D
330
1E
100
AcDbEntity
  8
0
100
AcDbLine
 10
232.6
 20
9.751999999999981
 30
0.0
 11
232.6
 21
15.512
 31
0.0
  0
LINE
  5
17E
330
1E
100
AcDbEntity
  8
0
100
AcDbLine
 10
232.6
 20
76.2
 30
0.0
 11
232.6
 21
75.70399999999999
 31
0.0
  0
LINE
  5
17F
330
1E
100
AcDbEntity
  8
0
100
AcDbLine
 10
232.6
 20
76.2
 30
0.0
 11
245.0
 21
76.2
 31
0.0
  0
LINE
  5
180
330
1E
100
AcDbEntity
  8
0
100
AcDbLine
 10
232.6
 20
75.70399999999999
 30
0.0
 11
232.6
 21
72.248
 31
0.0
  0
LINE
  5
181
330
1E
100
AcDbEntity
  8
0
100
AcDbLine
 10
232.6
 20
75.70399999999999
 30
0.0
 11
232.6
 21
76.2
 31
0.0
  0
LINE
  5
182
330
1E
100
AcDbEntity
  8
0
100
AcDbLine
 10
232.6
 20
72.248
 30
0.0
 11
232.6
 21
66.488
 31
0.0
  0
LINE
  5
183
330
1E
100
AcDbEntity
  8
0
100
AcDbLine
 10
232.6
 20
72.248
 30
0.0
 11
232.6
 21
75.70399999999999
 31
0.0
  0
LINE
  5
184
330
1E
100
AcDbEntity
  8
0
100
AcDbLine
 10
232.6
 20
66.488
 30
0.0
 11
232.6
 21
72.248
 31
0.0
  0
LINE
  5
185
330
1E
100
AcDbEntity
  8
0
100
AcDbLine
 10
232.6
 20
66.488
 30
0.0
 11
232.6
 21
58.856
 31
0.0
  0
LINE
  5
186
330
1E
100
AcDbEntity
  8
0
100
AcDbLine
 10
232.6
 20
50.216
 30
0.0
 11
232.6
 21
58.856
 31
0.0
  0
LINE
  5
187
330
1E
100
AcDbEntity
  8
0
100
AcDbLine
 10
232.6
 20
50.216
 30
0.0
 11
232.6
 21
41.0
 31
0.0
  0
LINE
  5
188
330
1E
100
AcDbEntity
  8
0
100
AcDbLine
 10
232.6
 20
58.856
 30
0.0
 11
232.6
 21
50.216
 31
0.0
  0
LINE
  5
189
330
1E
100
AcDbEntity
  8
0
100
AcDbLine
 10
232.6
 20
58.856
 30
0.0
 11
232.6
 21
66.488
 31
0.0
  0
LINE
  5
18A
330
1E
100
AcDbEntity
  8
0
100
AcDbLine
 10
232.6
 20
41.0
 30
0.0
 11
232.6
 21
31.784
 31
0.0
  0
LINE
  5
18B
330
1E
100
AcDbEntity
  8
0
100
AcDbLine
 10
232.6
 20
41.0
 30
0.0
 11
232.6
 21
50.216
 31
0.0
  0
LINE
  5
18C
330
1E
100
AcDbEntity
  8
0
100
AcDbLine
 10
245.0
 20
23.144
 30
0.0
 11
245.0
 21
31.784
 31
0.0
  0
LINE
  5
18D
330
1E
100
AcDbEntity
  8
0
100
AcDbLine
 10
245.0
 20
15.512
 30
0.0
 11
245.0
 21
23.144
 31
0.0
  0
LINE
  5
18E
330
1E
100
AcDbEntity
  8
0
100
AcDbLine
 10
245.0
 20
9.751999999999981
 30
0.0
 11
245.0
 21
15.512
 31
0.0
  0
LINE
  5
18F
330
1E
100
AcDbEntity
  8
0
100
AcDbLine
 10
245.0
 20
6.29599999999998
 30
0.0
 11
245.0
 21
9.751999999999981
 31
0.0
  0
LINE
  5
190
330
1E
100
AcDbEntity
  8
0
100
AcDbLine
 10
245.0
 20
75.70399999999999
 30
0.0
 11
245.0
 21
76.2
 31
0.0
  0
LINE
  5
191
330
1E
100
AcDbEntity
  8
0
100
AcDbLine
 10
245.0
 20
72.248
 30
0.0
 11
245.0
 21
75.70399999999999
 31
0.0
  0
LINE
  5
192
330
1E
100
AcDbEntity
  8
0
100
AcDbLine
 10
245.0
 20
58.856
 30
0.0
 11
245.0
 21
66.488
 31
0.0
  0
LINE
  5
193
330
1E
100
AcDbEntity
  8
0
100
AcDbLine
 10
245.0
 20
66.488
 30
0.0
 11
245.0
 21
72.248
 31
0.0
  0
LINE
  5
194
330
1E
100
AcDbEntity
  8
0
100
AcDbLine
 10
245.0
 20
41.0
 30
0.0
 11
245.0
 21
50.216
 31
0.0
  0
LINE
  5
195
330
1E
100
AcDbEntity
  8
0
100
AcDbLine
 10
245.0
 20
50.216
 30
0.0
 11
245.0
 21
58.856
 31
0.0
  0
LINE
  5
196
330
1E
100
AcDbEntity
  8
0
100
AcDbLine
 10
245.0
 20
31.784
 30
0.0
 11
245.0
 21
41.0
 31
0.0
  0
LINE
  5
197
330
1E
100
AcDbEntity
  8
0
100
AcDbLine
 10
232.6
 20
31.784
 30
0.0
 11
232.6
 21
41.0
 31
0.0
  0
LINE
  5
198
330
1E
100
AcDbEntity
  8
0
100
AcDbLine
 10
232.6
 20
31.784
 30
0.0
 11
232.6
 21
23.144
 31
0.0
  0
LINE
  5
199
330
1E
100
AcDbEntity
  8
0
100
AcDbLine
 10
232.6
 20
4.99999999999998
 30
0.0
 11
245.0
 21
4.99999999999998
 31
0.0
  0
LINE
  5
19A
330
1E
100
AcDbEntity
  8
0
100
AcDbLine
 10
232.6
 20
4.99999999999998
 30
0.0
 11
232.6
 21
6.29599999999999
 31
0.0
  0
LINE
  5
19B
330
1E
100
AcDbEntity
  8
0
100
AcDbLine
 10
232.0
 20
5.86399999999999
 30
0.0
 11
232.6
 21
4.99999999999998
 31
0.0
  0
LINE
  5
19C
330
1E
100
AcDbEntity
  8
0
100
AcDbLine
 10
232.0
 20
5.86399999999999
 30
0.0
 11
232.0
 21
7.15999999999999
 31
0.0
  0
LINE
  5
19D
330
1E
100
AcDbEntity
  8
0
100
AcDbLine
 10
245.0
 20
93.7
 30
0.0
 11
245.0
 21
90.29999999999999
 31
0.0
  0
LINE
  5
19E
330
1E
100
AcDbEntity
  8
0
100
AcDbLine
 10
245.0
 20
97.59999999999999
 30
0.0
 11
245.0
 21
93.7
 31
0.0
  0
LINE
  5
19F
330
1E
100
AcDbEntity
  8
0
100
AcDbLine
 10
245.0
 20
101.6
 30
0.0
 11
245.0
 21
97.59999999999999
 31
0.0
  0
LINE
  5
1A0
330
1E
100
AcDbEntity
  8
0
100
AcDbLine
 10
245.0
 20
106.0
 30
0.0
 11
245.0
 21
101.6
 31
0.0
  0
LINE
  5
1A1
330
1E
100
AcDbEntity
  8
0
100
AcDbLine
 10
245.0
 20
110.4
 30
0.0
 11
245.0
 21
106.0
 31
0.0
  0
LINE
  5
1A2
330
1E
100
AcDbEntity
  8
0
100
AcDbLine
 10
245.0
 20
142.6999999999999
 30
0.0
 11
245.0
 21
139.7
 31
0.0
  0
LINE
  5
1A3
330
1E
100
AcDbEntity
  8
0
100
AcDbLine
 10
245.0
 20
145.3
 30
0.0
 11
245.0
 21
142.6999999999999
 31
0.0
  0
LINE
  5
1A4
330
1E
100
AcDbEntity
  8
0
100
AcDbLine
 10
245.0
 20
147.3
 30
0.0
 11
245.0
 21
145.3
 31
0.0
  0
LINE
  5
1A5
330
1E
100
AcDbEntity
  8
0
100
AcDbLine
 10
245.0
 20
148.6999999999999
 30
0.0
 11
245.0
 21
147.3
 31
0.0
  0
LINE
  5
1A6
330
1E
100
AcDbEntity
  8
0
100
AcDbLine
 10
245.0
 20
149.5999999999999
 30
0.0
 11
245.0
 21
148.6999999999999
 31
0.0
  0
LINE
  5
1A7
330
1E
100
AcDbEntity
  8
0
100
AcDbLine
 10
245.0
 20
150.0
 30
0.0
 11
245.0
 21
149.5999999999999
 31
0.0
  0
LINE
  5
1A8
330
1E
100
AcDbEntity
  8
0
100
AcDbLine
 10
245.0
 20
139.7
 30
0.0
 11
245.0
 21
136.3
 31
0.0
  0
LINE
  5
1A9
330
1E
100
AcDbEntity
  8
0
100
AcDbLine
 10
245.0
 20
136.3
 30
0.0
 11
245.0
 21
132.4
 31
0.0
  0
LINE
  5
1AA
330
1E
100
AcDbEntity
  8
0
100
AcDbLine
 10
245.0
 20
132.4
 30
0.0
 11
245.0
 21
128.4
 31
0.0
  0
LINE
  5
1AB
330
1E
100
AcDbEntity
  8
0
100
AcDbLine
 10
245.0
 20
128.4
 30
0.0
 11
245.0
 21
124.0
 31
0.0
  0
LINE
  5
1AC
330
1E
100
AcDbEntity
  8
0
100
AcDbLine
 10
245.0
 20
124.0
 30
0.0
 11
245.0
 21
119.5999999999999
 31
0.0
  0
LINE
  5
1AD
330
1E
100
AcDbEntity
  8
0
100
AcDbLine
 10
245.0
 20
119.5999999999999
 30
0.0
 11
245.0
 21
115.0
 31
0.0
  0
LINE
  5
1AE
330
1E
100
AcDbEntity
  8
0
100
AcDbLine
 10
245.0
 20
115.0
 30
0.0
 11
245.0
 21
110.4
 31
0.0
  0
LINE
  5
1AF
330
1E
100
AcDbEntity
  8
0
100
AcDbLine
 10
245.0
 20
90.29999999999999
 30
0.0
 11
245.0
 21
87.3
 31
0.0
  0
LINE
  5
1B0
330
1E
100
AcDbEntity
  8
0
100
AcDbLine
 10
245.0
 20
87.3
 30
0.0
 11
245.0
 21
84.7
 31
0.0
  0
LINE
  5
1B1
330
1E
100
AcDbEntity
  8
0
100
AcDbLine
 10
245.0
 20
84.7
 30
0.0
 11
245.0
 21
82.70000000000001
 31
0.0
  0
LINE
  5
1B2
330
1E
100
AcDbEntity
  8
0
100
AcDbLine
 10
245.0
 20
82.70000000000001
 30
0.0
 11
245.0
 21
81.3
 31
0.0
  0
LINE
  5
1B3
330
1E
100
AcDbEntity
  8
0
100
AcDbLine
 10
245.0
 20
81.3
 30
0.0
 11
245.0
 21
80.4
 31
0.0
  0
LINE
  5
1B4
330
1E
100
AcDbEntity
  8
0
100
AcDbLine
 10
245.0
 20
80.4
 30
0.0
 11
245.0
 21
80.0
 31
0.0
  0
LINE
  5
1B5
330
1E
100
AcDbEntity
  8
0
100
AcDbLine
 10
228.5
 20
136.3
 30
0.0
 11
228.5
 21
133.0
 31
0.0
  0
LINE
  5
1B6
330
1E
100
AcDbEntity
  8
0
100
AcDbLine
 10
228.5
 20
136.3
 30
0.0
 11
228.5
 21
139.7
 31
0.0
  0
LINE
  5
1B7
330
1E
100
AcDbEntity
  8
0
100
AcDbLine
 10
228.5
 20
136.3
 30
0.0
 11
228.5
 21
132.4
 31
0.0
  0
LINE
  5
1BC
330
1E
100
AcDbEntity
  8
0
100
AcDbLine
 10
50.0
 20
133.0
 30
0.0
 11
42.6
 21
115.0
 31
0.0
  0
LINE
  5
1BD
330
1E
100
AcDbEntity
  8
0
100
AcDbLine
 10
42.6
 20
115.0
 30
0.0
 11
47.9686956521739
 21
97.0
 31
0.0
  0
ENDSEC
  0
SECTION
  2
OBJECTS
  0
DICTIONARY
  5
C
330
0
100
AcDbDictionary
281
     1
  3
ACAD_GROUP
350
D
  3
ACAD_LAYOUT
350
19
  3
ACAD_MLINESTYLE
350
16
  3
ACAD_PLOTSETTINGS
350
18
  3
ACAD_PLOTSTYLENAME
350
E
  3
AcDbVariableDictionary
350
1BE
  0
DICTIONARY
  5
D
102
{ACAD_REACTORS
330
C
102
}
330
C
100
AcDbDictionary
281
     1
  0
DICTIONARY
  5
19
102
{ACAD_REACTORS
330
C
102
}
330
C
100
AcDbDictionary
281
     1
  3
Layout1
350
1D
  3
Model
350
21
  0
DICTIONARY
  5
16
102
{ACAD_REACTORS
330
C
102
}
330
C
100
AcDbDictionary
281
     1
  3
Standard
350
17
  0
DICTIONARY
  5
18
102
{ACAD_REACTORS
330
C
102
}
330
C
100
AcDbDictionary
281
     1
  0
ACDBDICTIONARYWDFLT
  5
E
102
{ACAD_REACTORS
330
C
102
}
330
C
100
AcDbDictionary
281
     1
  3
Normal
350
F
100
AcDbDictionaryWithDefault
340
F
  0
DICTIONARY
  5
1BE
102
{ACAD_REACTORS
330
C
102
}
330
C
100
AcDbDictionary
281
     1
  3
DIMASSOC
350
1BF
  0
LAYOUT
  5
1D
102
{ACAD_REACTORS
330
19
102
}
330
19
100
AcDbPlotSettings
  1

  2
hp deskjet 980c series
  4

  6

 40
0.0
 41
0.0
 42
0.0
 43
0.0
 44
0.0
 45
0.0
 46
0.0
 47
0.0
 48
0.0
 49
0.0
140
0.0
141
0.0
142
1.0
143
1.0
 70
   688
 72
     0
 73
     0
 74
     5
  7

 75
    16
147
1.0
148
0.0
149
0.0
100
AcDbLayout
  1
Layout1
 70
     1
 71
     1
 10
0.0
 20
0.0
 11
12.0
 21
9.0
 12
0.0
 22
0.0
 32
0.0
 14
1.000000000000000E+20
 24
1.000000000000000E+20
 34
1.000000000000000E+20
 15
-1.000000000000000E+20
 25
-1.000000000000000E+20
 35
-1.000000000000000E+20
146
0.0
 13
0.0
 23
0.0
 33
0.0
 16
1.0
 26
0.0
 36
0.0
 17
0.0
 27
1.0
 37
0.0
 76
     0
330
1A
  0
LAYOUT
  5
21
102
{ACAD_REACTORS
330
19
102
}
330
19
100
AcDbPlotSettings
  1

  2
hp deskjet 980c series
  4

  6

 40
0.0
 41
0.0
 42
0.0
 43
0.0
 44
0.0
 45
0.0
 46
0.0
 47
0.0
 48
0.0
 49
0.0
140
0.0
141
0.0
142
1.0
143
1.0
 70
  1712
 72
     0
 73
     0
 74
     0
  7

 75
     0
147
1.0
148
0.0
149
0.0
100
AcDbLayout
  1
Model
 70
     1
 71
     0
 10
0.0
 20
0.0
 11
12.0
 21
9.0
 12
0.0
 22
0.0
 32
0.0
 14
0.0
 24
0.0
 34
0.0
 15
0.0
 25
0.0
 35
0.0
146
0.0
 13
0.0
 23
0.0
 33
0.0
 16
1.0
 26
0.0
 36
0.0
 17
0.0
 27
1.0
 37
0.0
 76
     0
330
1E
  0
MLINESTYLE
  5
17
102
{ACAD_REACTORS
330
16
102
}
330
16
100
AcDbMlineStyle
  2
STANDARD
 70
     0
  3

 62
   256
 51
90.0
 52
90.0
 71
     2
 49
0.5
 62
   256
  6
BYLAYER
 49
-0.5
 62
   256
  6
BYLAYER
  0
ACDBPLACEHOLDER
  5
F
102
{ACAD_REACTORS
330
E
102
}
330
E
  0
DICTIONARYVAR
  5
1BF
102
{ACAD_REACTORS
330
1BE
102
}
330
1BE
100
DictionaryVariables
280
     0
  1
1
  0
ENDSEC
  0
EOF
