  0
SECTION
  2
HEADER
  9
$ACADVER
  1
AC1014
  9
$ACADMAINTVER
 70
     9
  9
$DWGCODEPAGE
  3
ANSI_1252
  9
$INSBASE
 10
0.0
 20
0.0
 30
0.0
  9
$EXTMIN
 10
0.0000000000000072
 20
-0.0220000000000312
 30
0.0
  9
$EXTMAX
 10
170.0
 20
265.022
 30
0.0
  9
$LIMMIN
 10
0.0
 20
0.0
  9
$LIMMAX
 10
12.0
 20
9.0
  9
$ORTHOMODE
 70
     0
  9
$REGENMODE
 70
     1
  9
$FILLMODE
 70
     1
  9
$QTEXTMODE
 70
     0
  9
$MIRRTEXT
 70
     1
  9
$DRAGMODE
 70
     2
  9
$LTSCALE
 40
1.0
  9
$OSMODE
 70
    37
  9
$ATTMODE
 70
     1
  9
$TEXTSIZE
 40
0.2
  9
$TRACEWID
 40
0.05
  9
$TEXTSTYLE
  7
STANDARD
  9
$CLAYER
  8
0
  9
$CELTYPE
  6
CONTINUOUS
  9
$CECOLOR
 62
   256
  9
$CELTSCALE
 40
1.0
  9
$DELOBJ
 70
     1
  9
$DISPSILH
 70
     0
  9
$DIMSCALE
 40
1.0
  9
$DIMASZ
 40
0.18
  9
$DIMEXO
 40
0.0625
  9
$DIMDLI
 40
0.38
  9
$DIMRND
 40
0.0
  9
$DIMDLE
 40
0.0
  9
$DIMEXE
 40
0.18
  9
$DIMTP
 40
0.0
  9
$DIMTM
 40
0.0
  9
$DIMTXT
 40
0.18
  9
$DIMCEN
 40
0.09
  9
$DIMTSZ
 40
0.0
  9
$DIMTOL
 70
     0
  9
$DIMLIM
 70
     0
  9
$DIMTIH
 70
     1
  9
$DIMTOH
 70
     1
  9
$DIMSE1
 70
     0
  9
$DIMSE2
 70
     0
  9
$DIMTAD
 70
     0
  9
$DIMZIN
 70
     0
  9
$DIMBLK
  1

  9
$DIMASO
 70
     1
  9
$DIMSHO
 70
     1
  9
$DIMPOST
  1

  9
$DIMAPOST
  1

  9
$DIMALT
 70
     0
  9
$DIMALTD
 70
     2
  9
$DIMALTF
 40
25.4
  9
$DIMLFAC
 40
1.0
  9
$DIMTOFL
 70
     0
  9
$DIMTVP
 40
0.0
  9
$DIMTIX
 70
     0
  9
$DIMSOXD
 70
     0
  9
$DIMSAH
 70
     0
  9
$DIMBLK1
  1

  9
$DIMBLK2
  1

  9
$DIMSTYLE
  2
STANDARD
  9
$DIMCLRD
 70
     0
  9
$DIMCLRE
 70
     0
  9
$DIMCLRT
 70
     0
  9
$DIMTFAC
 40
1.0
  9
$DIMGAP
 40
0.09
  9
$DIMJUST
 70
     0
  9
$DIMSD1
 70
     0
  9
$DIMSD2
 70
     0
  9
$DIMTOLJ
 70
     1
  9
$DIMTZIN
 70
     0
  9
$DIMALTZ
 70
     0
  9
$DIMALTTZ
 70
     0
  9
$DIMFIT
 70
     3
  9
$DIMUPT
 70
     0
  9
$DIMUNIT
 70
     2
  9
$DIMDEC
 70
     4
  9
$DIMTDEC
 70
     4
  9
$DIMALTU
 70
     2
  9
$DIMALTTD
 70
     2
  9
$DIMTXSTY
  7
STANDARD
  9
$DIMAUNIT
 70
     0
  9
$LUNITS
 70
     2
  9
$LUPREC
 70
     4
  9
$SKETCHINC
 40
0.1
  9
$FILLETRAD
 40
0.0
  9
$AUNITS
 70
     0
  9
$AUPREC
 70
     0
  9
$MENU
  1
.
  9
$ELEVATION
 40
0.0
  9
$PELEVATION
 40
0.0
  9
$THICKNESS
 40
0.0
  9
$LIMCHECK
 70
     0
  9
$BLIPMODE
 70
     0
  9
$CHAMFERA
 40
0.0
  9
$CHAMFERB
 40
0.0
  9
$CHAMFERC
 40
0.0
  9
$CHAMFERD
 40
0.0
  9
$SKPOLY
 70
     0
  9
$TDCREATE
 40
2455233.455483032
  9
$TDUPDATE
 40
2455233.456609699
  9
$TDINDWG
 40
0.0011266667
  9
$TDUSRTIMER
 40
0.0011266667
  9
$USRTIMER
 70
     1
  9
$ANGBASE
 50
0.0
  9
$ANGDIR
 70
     0
  9
$PDMODE
 70
     0
  9
$PDSIZE
 40
0.0
  9
$PLINEWID
 40
0.0
  9
$COORDS
 70
     1
  9
$SPLFRAME
 70
     0
  9
$SPLINETYPE
 70
     6
  9
$SPLINESEGS
 70
     8
  9
$ATTDIA
 70
     0
  9
$ATTREQ
 70
     1
  9
$HANDLING
 70
 22529
  9
$HANDSEED
  5
280
  9
$SURFTAB1
 70
     6
  9
$SURFTAB2
 70
     6
  9
$SURFTYPE
 70
     6
  9
$SURFU
 70
     6
  9
$SURFV
 70
     6
  9
$UCSNAME
  2

  9
$UCSORG
 10
0.0
 20
0.0
 30
0.0
  9
$UCSXDIR
 10
1.0
 20
0.0
 30
0.0
  9
$UCSYDIR
 10
0.0
 20
1.0
 30
0.0
  9
$PUCSNAME
  2

  9
$PUCSORG
 10
0.0
 20
0.0
 30
0.0
  9
$PUCSXDIR
 10
1.0
 20
0.0
 30
0.0
  9
$PUCSYDIR
 10
0.0
 20
1.0
 30
0.0
  9
$USERI1
 70
     0
  9
$USERI2
 70
     0
  9
$USERI3
 70
     0
  9
$USERI4
 70
     0
  9
$USERI5
 70
     0
  9
$USERR1
 40
0.0
  9
$USERR2
 40
0.0
  9
$USERR3
 40
0.0
  9
$USERR4
 40
0.0
  9
$USERR5
 40
0.0
  9
$WORLDVIEW
 70
     1
  9
$SHADEDGE
 70
     3
  9
$SHADEDIF
 70
    70
  9
$TILEMODE
 70
     1
  9
$MAXACTVP
 70
    64
  9
$PINSBASE
 10
0.0
 20
0.0
 30
0.0
  9
$PLIMCHECK
 70
     0
  9
$PEXTMIN
 10
1.000000000000000E+20
 20
1.000000000000000E+20
 30
1.000000000000000E+20
  9
$PEXTMAX
 10
-1.000000000000000E+20
 20
-1.000000000000000E+20
 30
-1.000000000000000E+20
  9
$PLIMMIN
 10
0.0
 20
0.0
  9
$PLIMMAX
 10
12.0
 20
9.0
  9
$UNITMODE
 70
     0
  9
$VISRETAIN
 70
     1
  9
$PLINEGEN
 70
     0
  9
$PSLTSCALE
 70
     1
  9
$TREEDEPTH
 70
  3020
  9
$PICKSTYLE
 70
     1
  9
$CMLSTYLE
  2
STANDARD
  9
$CMLJUST
 70
     0
  9
$CMLSCALE
 40
1.0
  9
$PROXYGRAPHICS
 70
     1
  9
$MEASUREMENT
 70
     0
  0
ENDSEC
  0
SECTION
  2
CLASSES
  0
CLASS
  1
ACDBDICTIONARYWDFLT
  2
AcDbDictionaryWithDefault
  3
AutoCAD 2000
 90
        0
280
     0
281
     0
  0
CLASS
  1
ACDBPLACEHOLDER
  2
AcDbPlaceHolder
  3
AutoCAD 2000
 90
        0
280
     0
281
     0
  0
CLASS
  1
LAYOUT
  2
AcDbLayout
  3
AutoCAD 2000
 90
        0
280
     0
281
     0
  0
CLASS
  1
DICTIONARYVAR
  2
AcDbDictionaryVar
  3
AutoCAD 2000
 90
        0
280
     0
281
     0
  0
CLASS
  1
LONG_TRANSACTION
  2
AcDbLongTransaction
  3
AutoCAD 2000
 90
        0
280
     0
281
     0
  0
CLASS
  1
LWPOLYLINE
  2
AcDbPolyline
  3
AutoCAD 2000
 90
        0
280
     0
281
     1
  0
CLASS
  1
HATCH
  2
AcDbHatch
  3
AutoCAD 2000
 90
        0
280
     0
281
     1
  0
CLASS
  1
XRECORD
  2
AcDbXrecord
  3
AutoCAD 2000
 90
        0
280
     0
281
     0
  0
ENDSEC
  0
SECTION
  2
TABLES
  0
TABLE
  2
VPORT
  5
8
330
0
100
AcDbSymbolTable
 70
     3
  0
VPORT
  5
25B
330
8
100
AcDbSymbolTableRecord
100
AcDbViewportTableRecord
  2
*ACTIVE
 70
     0
 10
0.0
 20
0.0
 11
1.0
 21
1.0
 12
85.00000000000001
 22
132.4999999999999
 13
0.0
 23
0.0
 14
1.0
 24
1.0
 15
0.0
 25
0.0
 16
0.0
 26
0.0
 36
1.0
 17
0.0
 27
0.0
 37
0.0
 40
266.7838949671772
 41
2.041621029572836
 42
50.0
 43
0.0
 44
0.0
 50
0.0
 51
0.0
 71
     0
 72
   100
 73
     1
 74
     3
 75
     0
 76
     0
 77
     0
 78
     0
  0
ENDTAB
  0
TABLE
  2
LTYPE
  5
5
330
0
100
AcDbSymbolTable
 70
     1
  0
LTYPE
  5
13
330
5
100
AcDbSymbolTableRecord
100
AcDbLinetypeTableRecord
  2
BYBLOCK
 70
     0
  3

 72
    65
 73
     0
 40
0.0
  0
LTYPE
  5
14
330
5
100
AcDbSymbolTableRecord
100
AcDbLinetypeTableRecord
  2
BYLAYER
 70
     0
  3

 72
    65
 73
     0
 40
0.0
  0
LTYPE
  5
15
330
5
100
AcDbSymbolTableRecord
100
AcDbLinetypeTableRecord
  2
CONTINUOUS
 70
     0
  3
Solid line
 72
    65
 73
     0
 40
0.0
  0
ENDTAB
  0
TABLE
  2
LAYER
  5
2
330
0
100
AcDbSymbolTable
 70
     1
  0
LAYER
  5
10
330
2
100
AcDbSymbolTableRecord
100
AcDbLayerTableRecord
  2
0
 70
     0
 62
     7
  6
CONTINUOUS
  0
ENDTAB
  0
TABLE
  2
STYLE
  5
3
330
0
100
AcDbSymbolTable
 70
     1
  0
STYLE
  5
11
330
3
100
AcDbSymbolTableRecord
100
AcDbTextStyleTableRecord
  2
STANDARD
 70
     0
 40
0.0
 41
1.0
 50
0.0
 71
     0
 42
0.2
  3
txt
  4

  0
ENDTAB
  0
TABLE
  2
VIEW
  5
6
330
0
100
AcDbSymbolTable
 70
     0
  0
ENDTAB
  0
TABLE
  2
UCS
  5
7
330
0
100
AcDbSymbolTable
 70
     0
  0
ENDTAB
  0
TABLE
  2
APPID
  5
9
330
0
100
AcDbSymbolTable
 70
     1
  0
APPID
  5
12
330
9
100
AcDbSymbolTableRecord
100
AcDbRegAppTableRecord
  2
ACAD
 70
     0
  0
ENDTAB
  0
TABLE
  2
DIMSTYLE
  5
A
330
0
100
AcDbSymbolTable
 70
     1
  0
DIMSTYLE
105
251
330
A
100
AcDbSymbolTableRecord
100
AcDbDimStyleTableRecord
  2
STANDARD
 70
     0
  3

  4

  5

  6

  7

 40
1.0
 41
0.18
 42
0.0625
 43
0.38
 44
0.18
 45
0.0
 46
0.0
 47
0.0
 48
0.0
140
0.18
141
0.09
142
0.0
143
25.4
144
1.0
145
0.0
146
1.0
147
0.09
 71
     0
 72
     0
 73
     1
 74
     1
 75
     0
 76
     0
 77
     0
 78
     0
170
     0
171
     2
172
     0
173
     0
174
     0
175
     0
176
     0
177
     0
178
     0
270
     2
271
     4
272
     4
273
     2
274
     2
340
11
275
     0
280
     0
281
     0
282
     0
283
     1
284
     0
285
     0
286
     0
287
     3
288
     0
  0
ENDTAB
  0
TABLE
  2
BLOCK_RECORD
  5
1
330
0
100
AcDbSymbolTable
 70
     0
  0
BLOCK_RECORD
  5
1E
102
{ACAD_XDICTIONARY
360
27E
102
}
330
1
100
AcDbSymbolTableRecord
100
AcDbBlockTableRecord
  2
*MODEL_SPACE
  0
BLOCK_RECORD
  5
1A
102
{ACAD_XDICTIONARY
360
27C
102
}
330
1
100
AcDbSymbolTableRecord
100
AcDbBlockTableRecord
  2
*PAPER_SPACE
  0
ENDTAB
  0
ENDSEC
  0
SECTION
  2
BLOCKS
  0
BLOCK
  5
1F
330
1E
100
AcDbEntity
  8
0
100
AcDbBlockBegin
  2
*MODEL_SPACE
 70
     0
 10
0.0
 20
0.0
 30
0.0
  3
*MODEL_SPACE
  1

  0
ENDBLK
  5
20
330
1E
100
AcDbEntity
  8
0
100
AcDbBlockEnd
  0
BLOCK
  5
1B
330
1A
100
AcDbEntity
 67
     1
  8
0
100
AcDbBlockBegin
  2
*PAPER_SPACE
 70
     0
 10
0.0
 20
0.0
 30
0.0
  3
*PAPER_SPACE
  1

  0
ENDBLK
  5
1C
330
1A
100
AcDbEntity
 67
     1
  8
0
100
AcDbBlockEnd
  0
ENDSEC
  0
SECTION
  2
ENTITIES
  0
LINE
  5
22
330
1E
100
AcDbEntity
  8
0
100
AcDbLine
 10
140.6999999999999
 20
-0.0220000000000306
 30
0.0
 11
145.8
 21
-0.0220000000000309
 31
0.0
  0
LINE
  5
23
330
1E
100
AcDbEntity
  8
0
100
AcDbLine
 10
145.8
 20
-0.0220000000000309
 30
0.0
 11
148.9
 21
-0.0220000000000311
 31
0.0
  0
LINE
  5
24
330
1E
100
AcDbEntity
  8
0
100
AcDbLine
 10
91.2
 20
-0.0220000000000276
 30
0.0
 11
96.3
 21
-0.0220000000000279
 31
0.0
  0
LINE
  5
25
330
1E
100
AcDbEntity
  8
0
100
AcDbLine
 10
88.1
 20
-0.0220000000000274
 30
0.0
 11
91.2
 21
-0.0220000000000276
 31
0.0
  0
LINE
  5
26
330
1E
100
AcDbEntity
  8
0
100
AcDbLine
 10
14.5
 20
112.978
 30
0.0
 11
25.2842
 21
112.135
 31
0.0
  0
LINE
  5
27
330
1E
100
AcDbEntity
  8
0
100
AcDbLine
 10
9.13923000000001
 20
113.547
 30
0.0
 11
11.73259999999999
 21
113.3199999999999
 31
0.0
  0
LINE
  5
28
330
1E
100
AcDbEntity
  8
0
100
AcDbLine
 10
11.73259999999999
 20
113.3199999999999
 30
0.0
 11
14.5087
 21
113.0779999999999
 31
0.0
  0
LINE
  5
29
330
1E
100
AcDbEntity
  8
0
100
AcDbLine
 10
11.7179
 20
113.5729999999999
 30
0.0
 11
14.5305
 21
113.327
 31
0.0
  0
LINE
  5
2A
330
1E
100
AcDbEntity
  8
0
100
AcDbLine
 10
14.5087
 20
113.0779999999999
 30
0.0
 11
17.2848
 21
112.8349999999999
 31
0.0
  0
LINE
  5
2B
330
1E
100
AcDbEntity
  8
0
100
AcDbLine
 10
19.8782
 20
112.6079999999999
 30
0.0
 11
22.1064
 21
112.413
 31
0.0
  0
LINE
  5
2C
330
1E
100
AcDbEntity
  8
0
100
AcDbLine
 10
17.2848
 20
112.8349999999999
 30
0.0
 11
19.8782
 21
112.6079999999999
 31
0.0
  0
LINE
  5
2D
330
1E
100
AcDbEntity
  8
0
100
AcDbLine
 10
23.82309999999999
 20
112.263
 30
0.0
 11
24.8824
 21
112.17
 31
0.0
  0
LINE
  5
2E
330
1E
100
AcDbEntity
  8
0
100
AcDbLine
 10
22.1064
 20
112.413
 30
0.0
 11
23.82309999999999
 21
112.263
 31
0.0
  0
LINE
  5
2F
330
1E
100
AcDbEntity
  8
0
100
AcDbLine
 10
25.2842
 20
112.135
 30
0.0
 11
25.4886
 21
112.368
 31
0.0
  0
LINE
  5
30
330
1E
100
AcDbEntity
  8
0
100
AcDbLine
 10
24.8824
 20
112.17
 30
0.0
 11
25.2842
 21
112.135
 31
0.0
  0
LINE
  5
31
330
1E
100
AcDbEntity
  8
0
100
AcDbLine
 10
25.4886
 20
112.368
 30
0.0
 11
25.891975
 21
116.978
 31
0.0
  0
LINE
  5
32
330
1E
100
AcDbEntity
  8
0
100
AcDbLine
 10
25.0868
 20
112.4029999999999
 30
0.0
 11
25.4886
 21
112.368
 31
0.0
  0
LINE
  5
33
330
1E
100
AcDbEntity
  8
0
100
AcDbLine
 10
24.0276
 20
112.496
 30
0.0
 11
25.0868
 21
112.4029999999999
 31
0.0
  0
LINE
  5
34
330
1E
100
AcDbEntity
  8
0
100
AcDbLine
 10
22.2743
 20
112.6489999999999
 30
0.0
 11
24.0276
 21
112.496
 31
0.0
  0
LINE
  5
35
330
1E
100
AcDbEntity
  8
0
100
AcDbLine
 10
19.973
 20
112.851
 30
0.0
 11
22.2743
 21
112.6489999999999
 31
0.0
  0
LINE
  5
36
330
1E
100
AcDbEntity
  8
0
100
AcDbLine
 10
17.34309999999999
 20
113.081
 30
0.0
 11
19.973
 21
112.851
 31
0.0
  0
LINE
  5
37
330
1E
100
AcDbEntity
  8
0
100
AcDbLine
 10
14.5305
 20
113.327
 30
0.0
 11
17.34309999999999
 21
113.081
 31
0.0
  0
LINE
  5
38
330
1E
100
AcDbEntity
  8
0
100
AcDbLine
 10
4.135040000000009
 20
113.985
 30
0.0
 11
5.194290000000009
 21
113.8929999999999
 31
0.0
  0
LINE
  5
39
330
1E
100
AcDbEntity
  8
0
100
AcDbLine
 10
5.194290000000009
 20
113.8929999999999
 30
0.0
 11
6.911040000000009
 21
113.742
 31
0.0
  0
LINE
  5
3A
330
1E
100
AcDbEntity
  8
0
100
AcDbLine
 10
6.911040000000009
 20
113.742
 30
0.0
 11
9.13923000000001
 21
113.547
 31
0.0
  0
LINE
  5
3B
330
1E
100
AcDbEntity
  8
0
100
AcDbLine
 10
3.733180000000009
 20
114.0199999999999
 30
0.0
 11
14.5
 21
112.978
 31
0.0
  0
LINE
  5
3C
330
1E
100
AcDbEntity
  8
0
100
AcDbLine
 10
3.733180000000009
 20
114.0199999999999
 30
0.0
 11
4.135040000000009
 21
113.985
 31
0.0
  0
LINE
  5
3D
330
1E
100
AcDbEntity
  8
0
100
AcDbLine
 10
3.733180000000009
 20
114.0199999999999
 30
0.0
 11
14.5
 21
112.978
 31
0.0
  0
LINE
  5
3E
330
1E
100
AcDbEntity
  8
0
100
AcDbLine
 10
0.5000000000000071
 20
116.978
 30
0.0
 11
0.5000000000000071
 21
117.4779999999999
 31
0.0
  0
LINE
  5
3F
330
1E
100
AcDbEntity
  8
0
100
AcDbLine
 10
0.5000000000000071
 20
116.978
 30
0.0
 11
72.5
 21
116.978
 31
0.0
  0
LINE
  5
40
330
1E
100
AcDbEntity
  8
0
100
AcDbLine
 10
0.5000000000000071
 20
116.978
 30
0.0
 11
3.80793501402979
 21
116.978
 31
0.0
  0
LINE
  5
41
330
1E
100
AcDbEntity
  8
0
100
AcDbLine
 10
3.572360000000009
 20
114.2849999999999
 30
0.0
 11
3.974130000000009
 21
114.25
 31
0.0
  0
LINE
  5
42
330
1E
100
AcDbEntity
  8
0
100
AcDbLine
 10
3.572360000000009
 20
114.2849999999999
 30
0.0
 11
3.80793501402979
 21
116.978
 31
0.0
  0
LINE
  5
43
330
1E
100
AcDbEntity
  8
0
100
AcDbLine
 10
3.572360000000009
 20
114.2849999999999
 30
0.0
 11
3.733180000000009
 21
114.0199999999999
 31
0.0
  0
LINE
  5
44
330
1E
100
AcDbEntity
  8
0
100
AcDbLine
 10
3.974130000000009
 20
114.25
 30
0.0
 11
5.033480000000009
 21
114.1579999999999
 31
0.0
  0
LINE
  5
45
330
1E
100
AcDbEntity
  8
0
100
AcDbLine
 10
5.033480000000009
 20
114.1579999999999
 30
0.0
 11
6.786780000000009
 21
114.0039999999999
 31
0.0
  0
LINE
  5
46
330
1E
100
AcDbEntity
  8
0
100
AcDbLine
 10
6.786780000000009
 20
114.0039999999999
 30
0.0
 11
9.08799000000001
 21
113.803
 31
0.0
  0
LINE
  5
47
330
1E
100
AcDbEntity
  8
0
100
AcDbLine
 10
9.08799000000001
 20
113.803
 30
0.0
 11
11.7179
 21
113.5729999999999
 31
0.0
  0
LINE
  5
48
330
1E
100
AcDbEntity
  8
0
100
AcDbLine
 10
0.500000000000008
 20
116.978
 30
0.0
 11
3.80793501402979
 21
116.978
 31
0.0
  0
LINE
  5
49
330
1E
100
AcDbEntity
  8
0
100
AcDbLine
 10
0.500000000000008
 20
116.978
 30
0.0
 11
72.5
 21
116.978
 31
0.0
  0
LINE
  5
4A
330
1E
100
AcDbEntity
  8
0
100
AcDbLine
 10
25.891975
 20
116.978
 30
0.0
 11
72.5
 21
116.978
 31
0.0
  0
LINE
  5
4B
330
1E
100
AcDbEntity
  8
0
100
AcDbLine
 10
0.0000000000000072
 20
117.4779999999999
 30
0.0
 11
0.0000000000000085
 21
139.4779999999999
 31
0.0
  0
LINE
  5
4C
330
1E
100
AcDbEntity
  8
0
100
AcDbLine
 10
0.0000000000000072
 20
117.4779999999999
 30
0.0
 11
0.5000000000000071
 21
117.4779999999999
 31
0.0
  0
LINE
  5
4D
330
1E
100
AcDbEntity
  8
0
100
AcDbLine
 10
0.0000000000000072
 20
117.4779999999999
 30
0.0
 11
0.5000000000000071
 21
116.978
 31
0.0
  0
LINE
  5
4E
330
1E
100
AcDbEntity
  8
0
100
AcDbLine
 10
0.500000000000008
 20
117.4779999999999
 30
0.0
 11
72.5
 21
117.4779999999999
 31
0.0
  0
LINE
  5
4F
330
1E
100
AcDbEntity
  8
0
100
AcDbLine
 10
0.5000000000000071
 20
117.4779999999999
 30
0.0
 11
72.5
 21
117.4779999999999
 31
0.0
  0
LINE
  5
50
330
1E
100
AcDbEntity
  8
0
100
AcDbLine
 10
0.5000000000000071
 20
117.4779999999999
 30
0.0
 11
0.500000000000009
 21
139.4779999999999
 31
0.0
  0
LINE
  5
51
330
1E
100
AcDbEntity
  8
0
100
AcDbLine
 10
0.0000000000000086
 20
139.4779999999999
 30
0.0
 11
0.500000000000009
 21
139.9779999999999
 31
0.0
  0
LINE
  5
52
330
1E
100
AcDbEntity
  8
0
100
AcDbLine
 10
0.0000000000000086
 20
139.4779999999999
 30
0.0
 11
0.500000000000009
 21
139.4779999999999
 31
0.0
  0
LINE
  5
53
330
1E
100
AcDbEntity
  8
0
100
AcDbLine
 10
0.5000000000000171
 20
139.4779999999999
 30
0.0
 11
139.0
 21
139.4779999999999
 31
0.0
  0
LINE
  5
54
330
1E
100
AcDbEntity
  8
0
100
AcDbLine
 10
72.5
 20
117.4779999999999
 30
0.0
 11
79.1
 21
116.5779999999999
 31
0.0
  0
LINE
  5
55
330
1E
100
AcDbEntity
  8
0
100
AcDbLine
 10
0.500000000000009
 20
139.4779999999999
 30
0.0
 11
139.0
 21
139.4779999999999
 31
0.0
  0
LINE
  5
56
330
1E
100
AcDbEntity
  8
0
100
AcDbLine
 10
0.500000000000009
 20
139.4779999999999
 30
0.0
 11
0.500000000000009
 21
139.9779999999999
 31
0.0
  0
LINE
  5
57
330
1E
100
AcDbEntity
  8
0
100
AcDbLine
 10
0.5000000000000171
 20
139.9779999999999
 30
0.0
 11
139.0
 21
139.9779999999999
 31
0.0
  0
LINE
  5
58
330
1E
100
AcDbEntity
  8
0
100
AcDbLine
 10
0.500000000000009
 20
139.9779999999999
 30
0.0
 11
0.500000000000009
 21
139.4779999999999
 31
0.0
  0
LINE
  5
59
330
1E
100
AcDbEntity
  8
0
100
AcDbLine
 10
0.500000000000009
 20
139.9779999999999
 30
0.0
 11
139.0
 21
139.9779999999999
 31
0.0
  0
LINE
  5
5A
330
1E
100
AcDbEntity
  8
0
100
AcDbLine
 10
0.0000000000000085
 20
139.4779999999999
 30
0.0
 11
0.500000000000009
 21
139.9779999999999
 31
0.0
  0
LINE
  5
5B
330
1E
100
AcDbEntity
  8
0
100
AcDbLine
 10
0.0000000000000085
 20
139.4779999999999
 30
0.0
 11
0.500000000000009
 21
139.4779999999999
 31
0.0
  0
LINE
  5
5C
330
1E
100
AcDbEntity
  8
0
100
AcDbLine
 10
0.0000000000000072
 20
117.4779999999999
 30
0.0
 11
0.5000000000000071
 21
116.978
 31
0.0
  0
LINE
  5
5D
330
1E
100
AcDbEntity
  8
0
100
AcDbLine
 10
0.0000000000000072
 20
117.4779999999999
 30
0.0
 11
0.5000000000000071
 21
117.4779999999999
 31
0.0
  0
LINE
  5
5E
330
1E
100
AcDbEntity
  8
0
100
AcDbLine
 10
72.5
 20
116.978
 30
0.0
 11
78.9
 21
116.0779999999999
 31
0.0
  0
LINE
  5
5F
330
1E
100
AcDbEntity
  8
0
100
AcDbLine
 10
79.1
 20
116.5779999999999
 30
0.0
 11
85.20000000000001
 21
114.0779999999999
 31
0.0
  0
LINE
  5
60
330
1E
100
AcDbEntity
  8
0
100
AcDbLine
 10
85.20000000000001
 20
114.0779999999999
 30
0.0
 11
90.5
 21
109.9779999999999
 31
0.0
  0
LINE
  5
61
330
1E
100
AcDbEntity
  8
0
100
AcDbLine
 10
78.9
 20
116.0779999999999
 30
0.0
 11
84.9
 21
113.6779999999999
 31
0.0
  0
LINE
  5
62
330
1E
100
AcDbEntity
  8
0
100
AcDbLine
 10
84.9
 20
113.6779999999999
 30
0.0
 11
90.09999999999999
 21
109.678
 31
0.0
  0
LINE
  5
63
330
1E
100
AcDbEntity
  8
0
100
AcDbLine
 10
87.5
 20
7.97799999999997
 30
0.0
 11
88.59999999999999
 21
7.97799999999997
 31
0.0
  0
LINE
  5
64
330
1E
100
AcDbEntity
  8
0
100
AcDbLine
 10
96.3
 20
7.47799999999997
 30
0.0
 11
102.8
 21
7.47799999999997
 31
0.0
  0
LINE
  5
65
330
1E
100
AcDbEntity
  8
0
100
AcDbLine
 10
91.69999999999999
 20
7.97799999999997
 30
0.0
 11
96.6
 21
7.97799999999997
 31
0.0
  0
LINE
  5
66
330
1E
100
AcDbEntity
  8
0
100
AcDbLine
 10
88.59999999999999
 20
7.97799999999997
 30
0.0
 11
91.69999999999999
 21
7.97799999999997
 31
0.0
  0
LINE
  5
67
330
1E
100
AcDbEntity
  8
0
100
AcDbLine
 10
91.2
 20
7.47799999999997
 30
0.0
 11
96.3
 21
7.47799999999997
 31
0.0
  0
LINE
  5
68
330
1E
100
AcDbEntity
  8
0
100
AcDbLine
 10
88.1
 20
7.47799999999997
 30
0.0
 11
91.2
 21
7.47799999999997
 31
0.0
  0
LINE
  5
69
330
1E
100
AcDbEntity
  8
0
100
AcDbLine
 10
90.5
 20
109.9779999999999
 30
0.0
 11
94.59999999999999
 21
104.678
 31
0.0
  0
LINE
  5
6A
330
1E
100
AcDbEntity
  8
0
100
AcDbLine
 10
94.59999999999999
 20
104.678
 30
0.0
 11
97.1
 21
98.57799999999999
 31
0.0
  0
LINE
  5
6B
330
1E
100
AcDbEntity
  8
0
100
AcDbLine
 10
90.09999999999999
 20
109.678
 30
0.0
 11
94.1
 21
104.478
 31
0.0
  0
LINE
  5
6C
330
1E
100
AcDbEntity
  8
0
100
AcDbLine
 10
94.1
 20
104.478
 30
0.0
 11
96.6
 21
98.47799999999999
 31
0.0
  0
LINE
  5
6D
330
1E
100
AcDbEntity
  8
0
100
AcDbLine
 10
87.0
 20
7.47799999999997
 30
0.0
 11
87.5
 21
7.97799999999997
 31
0.0
  0
LINE
  5
6E
330
1E
100
AcDbEntity
  8
0
100
AcDbLine
 10
87.0
 20
7.47799999999997
 30
0.0
 11
87.0
 21
-0.0220000000000275
 31
0.0
  0
LINE
  5
6F
330
1E
100
AcDbEntity
  8
0
100
AcDbLine
 10
87.0
 20
7.47799999999997
 30
0.0
 11
88.1
 21
7.47799999999997
 31
0.0
  0
LINE
  5
70
330
1E
100
AcDbEntity
  8
0
100
AcDbLine
 10
87.0
 20
-0.0220000000000273
 30
0.0
 11
87.0
 21
7.47799999999997
 31
0.0
  0
LINE
  5
71
330
1E
100
AcDbEntity
  8
0
100
AcDbLine
 10
87.0
 20
-0.0220000000000273
 30
0.0
 11
88.1
 21
-0.0220000000000274
 31
0.0
  0
LINE
  5
72
330
1E
100
AcDbEntity
  8
0
100
AcDbLine
 10
110.4
 20
-0.0220000000000288
 30
0.0
 11
118.5
 21
-0.0220000000000293
 31
0.0
  0
LINE
  5
73
330
1E
100
AcDbEntity
  8
0
100
AcDbLine
 10
96.3672
 20
226.59
 30
0.0
 11
110.419
 21
146.8979999999999
 31
0.0
  0
LINE
  5
74
330
1E
100
AcDbEntity
  8
0
100
AcDbLine
 10
96.3672
 20
226.59
 30
0.0
 11
96.7331
 21
227.2019999999999
 31
0.0
  0
LINE
  5
75
330
1E
100
AcDbEntity
  8
0
100
AcDbLine
 10
96.6
 20
98.47799999999999
 30
0.0
 11
97.5
 21
91.97799999999999
 31
0.0
  0
LINE
  5
76
330
1E
100
AcDbEntity
  8
0
100
AcDbLine
 10
110.4999999999999
 20
7.97799999999997
 30
0.0
 11
118.5
 21
7.97799999999997
 31
0.0
  0
LINE
  5
77
330
1E
100
AcDbEntity
  8
0
100
AcDbLine
 10
103.0999999999999
 20
7.97799999999997
 30
0.0
 11
110.4999999999999
 21
7.97799999999997
 31
0.0
  0
LINE
  5
78
330
1E
100
AcDbEntity
  8
0
100
AcDbLine
 10
110.4
 20
7.47799999999997
 30
0.0
 11
118.5
 21
7.47799999999997
 31
0.0
  0
LINE
  5
79
330
1E
100
AcDbEntity
  8
0
100
AcDbLine
 10
102.8
 20
7.47799999999997
 30
0.0
 11
110.4
 21
7.47799999999997
 31
0.0
  0
LINE
  5
7A
330
1E
100
AcDbEntity
  8
0
100
AcDbLine
 10
98.0
 20
7.97799999999997
 30
0.0
 11
98.0
 21
91.97799999999999
 31
0.0
  0
LINE
  5
7B
330
1E
100
AcDbEntity
  8
0
100
AcDbLine
 10
118.5
 20
7.47799999999997
 30
0.0
 11
126.6
 21
7.47799999999997
 31
0.0
  0
LINE
  5
7C
330
1E
100
AcDbEntity
  8
0
100
AcDbLine
 10
118.5
 20
7.97799999999997
 30
0.0
 11
126.5
 21
7.97799999999997
 31
0.0
  0
LINE
  5
7D
330
1E
100
AcDbEntity
  8
0
100
AcDbLine
 10
126.5
 20
7.97799999999997
 30
0.0
 11
133.9
 21
7.97799999999997
 31
0.0
  0
LINE
  5
7E
330
1E
100
AcDbEntity
  8
0
100
AcDbLine
 10
126.6
 20
7.47799999999997
 30
0.0
 11
134.1999999999999
 21
7.47799999999997
 31
0.0
  0
LINE
  5
7F
330
1E
100
AcDbEntity
  8
0
100
AcDbLine
 10
110.4999999999999
 20
7.97799999999997
 30
0.0
 11
118.5
 21
7.97799999999997
 31
0.0
  0
LINE
  5
80
330
1E
100
AcDbEntity
  8
0
100
AcDbLine
 10
97.5
 20
91.97799999999999
 30
0.0
 11
97.5
 21
7.977999999999981
 31
0.0
  0
LINE
  5
81
330
1E
100
AcDbEntity
  8
0
100
AcDbLine
 10
106.7769984526889
 20
139.9779999999999
 30
0.0
 11
107.8755112157939
 21
161.3228927675419
 31
0.0
  0
LINE
  5
82
330
1E
100
AcDbEntity
  8
0
100
AcDbLine
 10
97.1
 20
98.57799999999999
 30
0.0
 11
98.0
 21
91.97799999999999
 31
0.0
  0
LINE
  5
83
330
1E
100
AcDbEntity
  8
0
100
AcDbLine
 10
98.0
 20
91.97799999999999
 30
0.0
 11
98.0
 21
7.977999999999981
 31
0.0
  0
LINE
  5
84
330
1E
100
AcDbEntity
  8
0
100
AcDbLine
 10
118.5
 20
141.2779999999999
 30
0.0
 11
119.7
 21
141.2779999999999
 31
0.0
  0
LINE
  5
85
330
1E
100
AcDbEntity
  8
0
100
AcDbLine
 10
119.7
 20
141.2779999999999
 30
0.0
 11
120.7
 21
141.2779999999999
 31
0.0
  0
LINE
  5
86
330
1E
100
AcDbEntity
  8
0
100
AcDbLine
 10
120.7
 20
141.2779999999999
 30
0.0
 11
121.7
 21
141.2779999999999
 31
0.0
  0
LINE
  5
87
330
1E
100
AcDbEntity
  8
0
100
AcDbLine
 10
121.7
 20
141.2779999999999
 30
0.0
 11
122.3999999999999
 21
141.2779999999999
 31
0.0
  0
LINE
  5
88
330
1E
100
AcDbEntity
  8
0
100
AcDbLine
 10
122.3999999999999
 20
141.2779999999999
 30
0.0
 11
122.7999999999999
 21
141.2779999999999
 31
0.0
  0
LINE
  5
89
330
1E
100
AcDbEntity
  8
0
100
AcDbLine
 10
122.7999999999999
 20
141.2779999999999
 30
0.0
 11
123.0
 21
141.2779999999999
 31
0.0
  0
LINE
  5
8A
330
1E
100
AcDbEntity
  8
0
100
AcDbLine
 10
117.3
 20
141.2779999999999
 30
0.0
 11
118.5
 21
141.2779999999999
 31
0.0
  0
LINE
  5
8B
330
1E
100
AcDbEntity
  8
0
100
AcDbLine
 10
116.3
 20
141.2779999999999
 30
0.0
 11
117.3
 21
141.2779999999999
 31
0.0
  0
LINE
  5
8C
330
1E
100
AcDbEntity
  8
0
100
AcDbLine
 10
115.3
 20
141.2779999999999
 30
0.0
 11
116.3
 21
141.2779999999999
 31
0.0
  0
LINE
  5
8D
330
1E
100
AcDbEntity
  8
0
100
AcDbLine
 10
114.5999999999999
 20
141.2779999999999
 30
0.0
 11
115.3
 21
141.2779999999999
 31
0.0
  0
LINE
  5
8E
330
1E
100
AcDbEntity
  8
0
100
AcDbLine
 10
114.2
 20
141.2779999999999
 30
0.0
 11
114.5999999999999
 21
141.2779999999999
 31
0.0
  0
LINE
  5
8F
330
1E
100
AcDbEntity
  8
0
100
AcDbLine
 10
114.0
 20
141.2779999999999
 30
0.0
 11
114.2
 21
141.2779999999999
 31
0.0
  0
LINE
  5
90
330
1E
100
AcDbEntity
  8
0
100
AcDbLine
 10
111.6999999999999
 20
140.7779999999999
 30
0.0
 11
114.0
 21
141.2779999999999
 31
0.0
  0
LINE
  5
91
330
1E
100
AcDbEntity
  8
0
100
AcDbLine
 10
110.2999999999999
 20
139.9779999999999
 30
0.0
 11
111.6999999999999
 21
140.7779999999999
 31
0.0
  0
LINE
  5
92
330
1E
100
AcDbEntity
  8
0
100
AcDbLine
 10
107.427
 20
163.3869999999999
 30
0.0
 11
107.4332817400779
 21
163.8309096321949
 31
0.0
  0
LINE
  5
93
330
1E
100
AcDbEntity
  8
0
100
AcDbLine
 10
107.4179999999999
 20
162.746
 30
0.0
 11
107.427
 21
163.3869999999999
 31
0.0
  0
LINE
  5
94
330
1E
100
AcDbEntity
  8
0
100
AcDbLine
 10
107.412
 20
162.363
 30
0.0
 11
107.4179999999999
 21
162.746
 31
0.0
  0
LINE
  5
95
330
1E
100
AcDbEntity
  8
0
100
AcDbLine
 10
107.41
 20
162.2179999999999
 30
0.0
 11
107.412
 21
162.363
 31
0.0
  0
LINE
  5
96
330
1E
100
AcDbEntity
  8
0
100
AcDbLine
 10
107.41
 20
162.2179999999999
 30
0.0
 11
107.7187090518169
 21
162.2121651776
 31
0.0
  0
LINE
  5
97
330
1E
100
AcDbEntity
  8
0
100
AcDbLine
 10
96.82680000000001
 20
226.6709999999999
 30
0.0
 11
109.6949999999999
 21
228.94
 31
0.0
  0
LINE
  5
98
330
1E
100
AcDbEntity
  8
0
100
AcDbLine
 10
96.82680000000001
 20
226.6709999999999
 30
0.0
 11
110.8789999999999
 21
146.9789999999999
 31
0.0
  0
LINE
  5
9C
330
1E
100
AcDbEntity
  8
0
100
AcDbLine
 10
102.255
 20
232.264
 30
0.0
 11
102.4329999999999
 21
231.884
 31
0.0
  0
LINE
  5
12A
330
1E
100
AcDbEntity
  8
0
100
AcDbLine
 10
101.9329999999999
 20
257.115
 30
0.0
 11
102.1009999999999
 21
257.5
 31
0.0
  0
LINE
  5
12B
330
1E
100
AcDbEntity
  8
0
100
AcDbLine
 10
102.1229999999999
 20
255.779
 30
0.0
 11
102.15
 21
253.7529999999999
 31
0.0
  0
LINE
  5
12C
330
1E
100
AcDbEntity
  8
0
100
AcDbLine
 10
102.107
 20
257.0409999999999
 30
0.0
 11
102.1229999999999
 21
255.779
 31
0.0
  0
LINE
  5
12D
330
1E
100
AcDbEntity
  8
0
100
AcDbLine
 10
102.1009999999999
 20
257.5
 30
0.0
 11
102.107
 21
257.0409999999999
 31
0.0
  0
LINE
  5
12E
330
1E
100
AcDbEntity
  8
0
100
AcDbLine
 10
102.1009999999999
 20
257.5
 30
0.0
 11
102.444
 21
257.695
 31
0.0
  0
LINE
  5
130
330
1E
100
AcDbEntity
  8
0
100
AcDbLine
 10
102.15
 20
253.7529999999999
 30
0.0
 11
102.184
 21
251.0769999999999
 31
0.0
  0
LINE
  5
131
330
1E
100
AcDbEntity
  8
0
100
AcDbLine
 10
102.184
 20
251.0769999999999
 30
0.0
 11
102.2239999999999
 21
247.98
 31
0.0
  0
LINE
  5
132
330
1E
100
AcDbEntity
  8
0
100
AcDbLine
 10
102.2239999999999
 20
247.98
 30
0.0
 11
102.267
 21
244.6919999999999
 31
0.0
  0
LINE
  5
133
330
1E
100
AcDbEntity
  8
0
100
AcDbLine
 10
101.9329999999999
 20
257.115
 30
0.0
 11
102.194460447399
 21
236.962752629164
 31
0.0
  0
LINE
  5
134
330
1E
100
AcDbEntity
  8
0
100
AcDbLine
 10
102.3499999999999
 20
238.307
 30
0.0
 11
102.384
 21
235.63
 31
0.0
  0
LINE
  5
135
330
1E
100
AcDbEntity
  8
0
100
AcDbLine
 10
102.309
 20
241.404
 30
0.0
 11
102.3499999999999
 21
238.307
 31
0.0
  0
LINE
  5
136
330
1E
100
AcDbEntity
  8
0
100
AcDbLine
 10
102.267
 20
244.6919999999999
 30
0.0
 11
102.309
 21
241.404
 31
0.0
  0
LINE
  5
137
330
1E
100
AcDbEntity
  8
0
100
AcDbLine
 10
102.194460447399
 20
236.962752629164
 30
0.0
 11
102.255
 21
232.264
 31
0.0
  0
LINE
  5
138
330
1E
100
AcDbEntity
  8
0
100
AcDbLine
 10
102.384
 20
235.63
 30
0.0
 11
102.411
 21
233.6049999999999
 31
0.0
  0
LINE
  5
139
330
1E
100
AcDbEntity
  8
0
100
AcDbLine
 10
102.411
 20
233.6049999999999
 30
0.0
 11
102.427
 21
232.342
 31
0.0
  0
LINE
  5
13A
330
1E
100
AcDbEntity
  8
0
100
AcDbLine
 10
102.444
 20
257.695
 30
0.0
 11
102.7932167134709
 21
257.6994511979699
 31
0.0
  0
LINE
  5
13B
330
1E
100
AcDbEntity
  8
0
100
AcDbLine
 10
102.427
 20
232.342
 30
0.0
 11
102.4329999999999
 21
231.884
 31
0.0
  0
LINE
  5
13C
330
1E
100
AcDbEntity
  8
0
100
AcDbLine
 10
102.4329999999999
 20
231.884
 30
0.0
 11
102.78
 21
231.6969999999999
 31
0.0
  0
LINE
  5
13D
330
1E
100
AcDbEntity
  8
0
100
AcDbLine
 10
102.786553146973
 20
257.699366262592
 30
0.0
 11
103.002
 21
259.113
 31
0.0
  0
LINE
  5
13E
330
1E
100
AcDbEntity
  8
0
100
AcDbLine
 10
103.002
 20
259.113
 30
0.0
 11
103.287
 21
260.291
 31
0.0
  0
LINE
  5
13F
330
1E
100
AcDbEntity
  8
0
100
AcDbLine
 10
103.287
 20
260.291
 30
0.0
 11
103.586
 21
261.102
 31
0.0
  0
LINE
  5
140
330
1E
100
AcDbEntity
  8
0
100
AcDbLine
 10
103.123913191442
 20
231.701776572103
 30
0.0
 11
103.376
 21
230.295
 31
0.0
  0
LINE
  5
141
330
1E
100
AcDbEntity
  8
0
100
AcDbLine
 10
103.586
 20
261.102
 30
0.0
 11
103.7207782410419
 21
261.29379980456
 31
0.0
  0
LINE
  5
142
330
1E
100
AcDbEntity
  8
0
100
AcDbLine
 10
103.376
 20
230.295
 30
0.0
 11
103.6909999999999
 21
229.125
 31
0.0
  0
LINE
  5
143
330
1E
100
AcDbEntity
  8
0
100
AcDbLine
 10
103.6909999999999
 20
229.125
 30
0.0
 11
103.949134055815
 21
228.4744050756259
 31
0.0
  0
LINE
  5
144
330
1E
100
AcDbEntity
  8
0
100
AcDbLine
 10
102.78
 20
231.6969999999999
 30
0.0
 11
103.1306354518759
 21
231.701869936832
 31
0.0
  0
LINE
  5
145
330
1E
100
AcDbEntity
  8
0
100
AcDbLine
 10
103.723
 20
261.1329999999999
 30
0.0
 11
103.7449999999999
 21
259.434
 31
0.0
  0
LINE
  5
146
330
1E
100
AcDbEntity
  8
0
100
AcDbLine
 10
104.126
 20
229.9929999999999
 30
0.0
 11
104.145216264507
 21
228.50898030014
 31
0.0
  0
LINE
  5
147
330
1E
100
AcDbEntity
  8
0
100
AcDbLine
 10
103.78
 20
256.733
 30
0.0
 11
103.825
 21
253.2129999999999
 31
0.0
  0
LINE
  5
148
330
1E
100
AcDbEntity
  8
0
100
AcDbLine
 10
103.825
 20
253.2129999999999
 30
0.0
 11
103.8789999999999
 21
249.113
 31
0.0
  0
LINE
  5
149
330
1E
100
AcDbEntity
  8
0
100
AcDbLine
 10
104.046
 20
236.214
 30
0.0
 11
104.091
 21
232.694
 31
0.0
  0
LINE
  5
14A
330
1E
100
AcDbEntity
  8
0
100
AcDbLine
 10
103.993
 20
240.314
 30
0.0
 11
104.046
 21
236.214
 31
0.0
  0
LINE
  5
14B
330
1E
100
AcDbEntity
  8
0
100
AcDbLine
 10
103.936
 20
244.713
 30
0.0
 11
103.993
 21
240.314
 31
0.0
  0
LINE
  5
14C
330
1E
100
AcDbEntity
  8
0
100
AcDbLine
 10
103.8789999999999
 20
249.113
 30
0.0
 11
103.936
 21
244.713
 31
0.0
  0
LINE
  5
14D
330
1E
100
AcDbEntity
  8
0
100
AcDbLine
 10
104.091
 20
232.694
 30
0.0
 11
104.126
 21
229.9929999999999
 31
0.0
  0
LINE
  5
14E
330
1E
100
AcDbEntity
  8
0
100
AcDbLine
 10
103.7449999999999
 20
259.434
 30
0.0
 11
103.78
 21
256.733
 31
0.0
  0
LINE
  5
14F
330
1E
100
AcDbEntity
  8
0
100
AcDbLine
 10
103.715
 20
261.7119999999999
 30
0.0
 11
103.7207782410419
 21
261.29379980456
 31
0.0
  0
LINE
  5
150
330
1E
100
AcDbEntity
  8
0
100
AcDbLine
 10
103.715
 20
261.7119999999999
 30
0.0
 11
104.6229999999999
 21
262.724
 31
0.0
  0
LINE
  5
151
330
1E
100
AcDbEntity
  8
0
100
AcDbLine
 10
103.715
 20
261.7119999999999
 30
0.0
 11
103.723
 21
261.1329999999999
 31
0.0
  0
LINE
  5
152
330
1E
100
AcDbEntity
  8
0
100
AcDbLine
 10
105.0579999999999
 20
229.138
 30
0.0
 11
105.063974050592
 21
228.670985088538
 31
0.0
  0
LINE
  5
153
330
1E
100
AcDbEntity
  8
0
100
AcDbLine
 10
104.631
 20
262.1109999999999
 30
0.0
 11
104.654
 21
260.312
 31
0.0
  0
LINE
  5
154
330
1E
100
AcDbEntity
  8
0
100
AcDbLine
 10
104.856
 20
244.7259999999999
 30
0.0
 11
104.916
 21
240.0659999999999
 31
0.0
  0
LINE
  5
155
330
1E
100
AcDbEntity
  8
0
100
AcDbLine
 10
104.796
 20
249.384
 30
0.0
 11
104.856
 21
244.7259999999999
 31
0.0
  0
LINE
  5
156
330
1E
100
AcDbEntity
  8
0
100
AcDbLine
 10
104.7389999999999
 20
253.724
 30
0.0
 11
104.796
 21
249.384
 31
0.0
  0
LINE
  5
157
330
1E
100
AcDbEntity
  8
0
100
AcDbLine
 10
104.691
 20
257.452
 30
0.0
 11
104.7389999999999
 21
253.724
 31
0.0
  0
LINE
  5
158
330
1E
100
AcDbEntity
  8
0
100
AcDbLine
 10
104.916
 20
240.0659999999999
 30
0.0
 11
104.973
 21
235.726
 31
0.0
  0
LINE
  5
159
330
1E
100
AcDbEntity
  8
0
100
AcDbLine
 10
104.973
 20
235.726
 30
0.0
 11
105.021
 21
231.998
 31
0.0
  0
LINE
  5
15A
330
1E
100
AcDbEntity
  8
0
100
AcDbLine
 10
104.654
 20
260.312
 30
0.0
 11
104.691
 21
257.452
 31
0.0
  0
LINE
  5
15B
330
1E
100
AcDbEntity
  8
0
100
AcDbLine
 10
105.021
 20
231.998
 30
0.0
 11
105.0579999999999
 21
229.138
 31
0.0
  0
LINE
  5
15C
330
1E
100
AcDbEntity
  8
0
100
AcDbLine
 10
104.6229999999999
 20
262.724
 30
0.0
 11
116.577
 21
263.879
 31
0.0
  0
LINE
  5
15D
330
1E
100
AcDbEntity
  8
0
100
AcDbLine
 10
104.6229999999999
 20
262.724
 30
0.0
 11
104.631
 21
262.1109999999999
 31
0.0
  0
LINE
  5
15E
330
1E
100
AcDbEntity
  8
0
100
AcDbLine
 10
96.7331
 20
227.2019999999999
 30
0.0
 11
109.6009999999999
 21
229.4709999999999
 31
0.0
  0
LINE
  5
15F
330
1E
100
AcDbEntity
  8
0
100
AcDbLine
 10
96.7331
 20
227.2019999999999
 30
0.0
 11
96.82680000000001
 21
226.6709999999999
 31
0.0
  0
LINE
  5
160
330
1E
100
AcDbEntity
  8
0
100
AcDbLine
 10
109.6949999999999
 20
228.94
 30
0.0
 11
123.747
 21
149.248
 31
0.0
  0
LINE
  5
161
330
1E
100
AcDbEntity
  8
0
100
AcDbLine
 10
110.1539999999999
 20
229.021
 30
0.0
 11
124.206
 21
149.329
 31
0.0
  0
LINE
  5
162
330
1E
100
AcDbEntity
  8
0
100
AcDbLine
 10
110.8789999999999
 20
146.9789999999999
 30
0.0
 11
123.747
 21
149.248
 31
0.0
  0
LINE
  5
163
330
1E
100
AcDbEntity
  8
0
100
AcDbLine
 10
110.8789999999999
 20
146.9789999999999
 30
0.0
 11
110.972
 21
146.4479999999999
 31
0.0
  0
LINE
  5
164
330
1E
100
AcDbEntity
  8
0
100
AcDbLine
 10
109.6009999999999
 20
229.4709999999999
 30
0.0
 11
110.1539999999999
 21
229.021
 31
0.0
  0
LINE
  5
165
330
1E
100
AcDbEntity
  8
0
100
AcDbLine
 10
109.6009999999999
 20
229.4709999999999
 30
0.0
 11
109.6949999999999
 21
228.94
 31
0.0
  0
LINE
  5
166
330
1E
100
AcDbEntity
  8
0
100
AcDbLine
 10
110.419
 20
146.8979999999999
 30
0.0
 11
110.972
 21
146.4479999999999
 31
0.0
  0
LINE
  5
167
330
1E
100
AcDbEntity
  8
0
100
AcDbLine
 10
116.6679999999999
 20
147.452
 30
0.0
 11
117.406
 21
147.5819999999999
 31
0.0
  0
LINE
  5
168
330
1E
100
AcDbEntity
  8
0
100
AcDbLine
 10
115.929
 20
147.3219999999999
 30
0.0
 11
116.6679999999999
 21
147.452
 31
0.0
  0
LINE
  5
169
330
1E
100
AcDbEntity
  8
0
100
AcDbLine
 10
115.2639999999999
 20
147.2039999999999
 30
0.0
 11
115.929
 21
147.3219999999999
 31
0.0
  0
LINE
  5
16A
330
1E
100
AcDbEntity
  8
0
100
AcDbLine
 10
114.8209999999999
 20
147.126
 30
0.0
 11
115.2639999999999
 21
147.2039999999999
 31
0.0
  0
LINE
  5
16B
330
1E
100
AcDbEntity
  8
0
100
AcDbLine
 10
114.526
 20
147.0739999999999
 30
0.0
 11
114.8209999999999
 21
147.126
 31
0.0
  0
LINE
  5
16C
330
1E
100
AcDbEntity
  8
0
100
AcDbLine
 10
114.452
 20
147.061
 30
0.0
 11
115.4713449876689
 21
141.2779999999999
 31
0.0
  0
LINE
  5
16D
330
1E
100
AcDbEntity
  8
0
100
AcDbLine
 10
114.452
 20
147.061
 30
0.0
 11
114.526
 21
147.0739999999999
 31
0.0
  0
LINE
  5
16E
330
1E
100
AcDbEntity
  8
0
100
AcDbLine
 10
117.406
 20
147.5819999999999
 30
0.0
 11
118.1449999999999
 21
147.712
 31
0.0
  0
LINE
  5
16F
330
1E
100
AcDbEntity
  8
0
100
AcDbLine
 10
118.1449999999999
 20
147.712
 30
0.0
 11
118.830153763609
 21
147.833619435004
 31
0.0
  0
LINE
  5
170
330
1E
100
AcDbEntity
  8
0
100
AcDbLine
 10
118.1449999999999
 20
147.712
 30
0.0
 11
118.830153763609
 21
147.833619435004
 31
0.0
  0
LINE
  5
171
330
1E
100
AcDbEntity
  8
0
100
AcDbLine
 10
119.0430075098559
 20
147.8711516972229
 30
0.0
 11
119.5479999999999
 21
147.96
 31
0.0
  0
LINE
  5
172
330
1E
100
AcDbEntity
  8
0
100
AcDbLine
 10
119.043007509855
 20
147.8711516972229
 30
0.0
 11
119.5479999999999
 21
147.96
 31
0.0
  0
LINE
  5
173
330
1E
100
AcDbEntity
  8
0
100
AcDbLine
 10
119.5479999999999
 20
147.96
 30
0.0
 11
119.991
 21
148.0379999999999
 31
0.0
  0
LINE
  5
174
330
1E
100
AcDbEntity
  8
0
100
AcDbLine
 10
119.991
 20
148.0379999999999
 30
0.0
 11
120.287
 21
148.09
 31
0.0
  0
LINE
  5
175
330
1E
100
AcDbEntity
  8
0
100
AcDbLine
 10
120.361
 20
148.1029999999999
 30
0.0
 11
121.563839425587
 21
141.2779999999999
 31
0.0
  0
LINE
  5
176
330
1E
100
AcDbEntity
  8
0
100
AcDbLine
 10
120.287
 20
148.09
 30
0.0
 11
120.361
 21
148.1029999999999
 31
0.0
  0
LINE
  5
177
330
1E
100
AcDbEntity
  8
0
100
AcDbLine
 10
123.84
 20
148.717
 30
0.0
 11
124.206
 21
149.329
 31
0.0
  0
LINE
  5
178
330
1E
100
AcDbEntity
  8
0
100
AcDbLine
 10
116.577
 20
263.879
 30
0.0
 11
127.611
 21
265.022
 31
0.0
  0
LINE
  5
179
330
1E
100
AcDbEntity
  8
0
100
AcDbLine
 10
123.747
 20
149.248
 30
0.0
 11
123.84
 21
148.717
 31
0.0
  0
LINE
  5
17A
330
1E
100
AcDbEntity
  8
0
100
AcDbLine
 10
110.972
 20
146.4479999999999
 30
0.0
 11
123.84
 21
148.717
 31
0.0
  0
LINE
  5
17B
330
1E
100
AcDbEntity
  8
0
100
AcDbLine
 10
123.0
 20
141.2779999999999
 30
0.0
 11
125.2999999999999
 21
140.7779999999999
 31
0.0
  0
LINE
  5
17C
330
1E
100
AcDbEntity
  8
0
100
AcDbLine
 10
125.2999999999999
 20
140.7779999999999
 30
0.0
 11
126.7
 21
139.9779999999999
 31
0.0
  0
LINE
  5
17D
330
1E
100
AcDbEntity
  8
0
100
AcDbLine
 10
97.5
 20
7.97799999999997
 30
0.0
 11
97.5
 21
91.97799999999999
 31
0.0
  0
LINE
  5
17E
330
1E
100
AcDbEntity
  8
0
100
AcDbLine
 10
97.5
 20
7.97799999999997
 30
0.0
 11
98.0
 21
7.97799999999997
 31
0.0
  0
LINE
  5
17F
330
1E
100
AcDbEntity
  8
0
100
AcDbLine
 10
96.6
 20
7.97799999999997
 30
0.0
 11
97.5
 21
7.97799999999997
 31
0.0
  0
LINE
  5
180
330
1E
100
AcDbEntity
  8
0
100
AcDbLine
 10
96.6
 20
7.97799999999997
 30
0.0
 11
103.0999999999999
 21
7.97799999999997
 31
0.0
  0
LINE
  5
181
330
1E
100
AcDbEntity
  8
0
100
AcDbLine
 10
102.8
 20
-0.0220000000000283
 30
0.0
 11
110.4
 21
-0.0220000000000288
 31
0.0
  0
LINE
  5
182
330
1E
100
AcDbEntity
  8
0
100
AcDbLine
 10
96.3
 20
-0.0220000000000279
 30
0.0
 11
102.8
 21
-0.0220000000000283
 31
0.0
  0
LINE
  5
183
330
1E
100
AcDbEntity
  8
0
100
AcDbLine
 10
118.5
 20
-0.0220000000000293
 30
0.0
 11
126.6
 21
-0.0220000000000298
 31
0.0
  0
LINE
  5
184
330
1E
100
AcDbEntity
  8
0
100
AcDbLine
 10
133.9
 20
7.97799999999997
 30
0.0
 11
140.4
 21
7.97799999999997
 31
0.0
  0
LINE
  5
185
330
1E
100
AcDbEntity
  8
0
100
AcDbLine
 10
134.1999999999999
 20
7.47799999999997
 30
0.0
 11
140.6999999999999
 21
7.47799999999997
 31
0.0
  0
LINE
  5
186
330
1E
100
AcDbEntity
  8
0
100
AcDbLine
 10
139.5
 20
69.97800000000001
 30
0.0
 11
142.0
 21
69.97800000000001
 31
0.0
  0
LINE
  5
187
330
1E
100
AcDbEntity
  8
0
100
AcDbLine
 10
139.5
 20
89.97799999999999
 30
0.0
 11
142.0
 21
89.97799999999999
 31
0.0
  0
LINE
  5
188
330
1E
100
AcDbEntity
  8
0
100
AcDbLine
 10
139.0
 20
7.97799999999997
 30
0.0
 11
139.0
 21
139.4779999999999
 31
0.0
  0
LINE
  5
189
330
1E
100
AcDbEntity
  8
0
100
AcDbLine
 10
139.5
 20
7.97799999999997
 30
0.0
 11
139.5
 21
139.4779999999999
 31
0.0
  0
LINE
  5
18A
330
1E
100
AcDbEntity
  8
0
100
AcDbLine
 10
139.0
 20
139.4779999999999
 30
0.0
 11
139.0
 21
7.977999999999981
 31
0.0
  0
LINE
  5
18B
330
1E
100
AcDbEntity
  8
0
100
AcDbLine
 10
139.0
 20
139.4779999999999
 30
0.0
 11
139.5
 21
139.4779999999999
 31
0.0
  0
LINE
  5
18C
330
1E
100
AcDbEntity
  8
0
100
AcDbLine
 10
139.0
 20
139.4779999999999
 30
0.0
 11
139.0
 21
139.9779999999999
 31
0.0
  0
LINE
  5
18D
330
1E
100
AcDbEntity
  8
0
100
AcDbLine
 10
145.8
 20
7.47799999999997
 30
0.0
 11
148.9
 21
7.47799999999997
 31
0.0
  0
LINE
  5
18E
330
1E
100
AcDbEntity
  8
0
100
AcDbLine
 10
140.4
 20
7.97799999999997
 30
0.0
 11
145.3
 21
7.97799999999997
 31
0.0
  0
LINE
  5
18F
330
1E
100
AcDbEntity
  8
0
100
AcDbLine
 10
145.3
 20
7.97799999999997
 30
0.0
 11
148.3999999999999
 21
7.97799999999997
 31
0.0
  0
LINE
  5
190
330
1E
100
AcDbEntity
  8
0
100
AcDbLine
 10
142.0
 20
69.97800000000001
 30
0.0
 11
142.0
 21
66.906
 31
0.0
  0
LINE
  5
191
330
1E
100
AcDbEntity
  8
0
100
AcDbLine
 10
142.0
 20
70.78199999999999
 30
0.0
 11
142.0
 21
75.19
 31
0.0
  0
LINE
  5
192
330
1E
100
AcDbEntity
  8
0
100
AcDbLine
 10
142.0
 20
70.78199999999999
 30
0.0
 11
142.0
 21
66.906
 31
0.0
  0
LINE
  5
193
330
1E
100
AcDbEntity
  8
0
100
AcDbLine
 10
142.0
 20
66.906
 30
0.0
 11
142.0
 21
70.78199999999999
 31
0.0
  0
LINE
  5
194
330
1E
100
AcDbEntity
  8
0
100
AcDbLine
 10
142.0
 20
66.906
 30
0.0
 11
142.0
 21
63.942
 31
0.0
  0
LINE
  5
195
330
1E
100
AcDbEntity
  8
0
100
AcDbLine
 10
142.0
 20
66.906
 30
0.0
 11
142.0
 21
69.97800000000001
 31
0.0
  0
LINE
  5
196
330
1E
100
AcDbEntity
  8
0
100
AcDbLine
 10
142.0
 20
63.942
 30
0.0
 11
142.0
 21
66.906
 31
0.0
  0
LINE
  5
197
330
1E
100
AcDbEntity
  8
0
100
AcDbLine
 10
142.0
 20
63.942
 30
0.0
 11
142.0
 21
62.118
 31
0.0
  0
LINE
  5
198
330
1E
100
AcDbEntity
  8
0
100
AcDbLine
 10
142.0
 20
62.118
 30
0.0
 11
142.0
 21
63.942
 31
0.0
  0
LINE
  5
199
330
1E
100
AcDbEntity
  8
0
100
AcDbLine
 10
142.0
 20
62.118
 30
0.0
 11
142.0
 21
61.43399999999999
 31
0.0
  0
LINE
  5
19A
330
1E
100
AcDbEntity
  8
0
100
AcDbLine
 10
142.0
 20
61.43399999999999
 30
0.0
 11
142.0
 21
62.118
 31
0.0
  0
LINE
  5
19B
330
1E
100
AcDbEntity
  8
0
100
AcDbLine
 10
142.0
 20
61.43399999999999
 30
0.0
 11
142.4429999999999
 21
60.978
 31
0.0
  0
LINE
  5
19C
330
1E
100
AcDbEntity
  8
0
100
AcDbLine
 10
142.0
 20
75.19
 30
0.0
 11
142.0
 21
79.97800000000001
 31
0.0
  0
LINE
  5
19D
330
1E
100
AcDbEntity
  8
0
100
AcDbLine
 10
142.0
 20
75.19
 30
0.0
 11
142.0
 21
70.78199999999999
 31
0.0
  0
LINE
  5
19E
330
1E
100
AcDbEntity
  8
0
100
AcDbLine
 10
142.0
 20
79.97800000000001
 30
0.0
 11
142.0
 21
77.41800000000001
 31
0.0
  0
LINE
  5
19F
330
1E
100
AcDbEntity
  8
0
100
AcDbLine
 10
142.0
 20
79.97800000000001
 30
0.0
 11
142.0
 21
75.19
 31
0.0
  0
LINE
  5
1A0
330
1E
100
AcDbEntity
  8
0
100
AcDbLine
 10
142.0
 20
79.97800000000001
 30
0.0
 11
142.0
 21
84.76600000000001
 31
0.0
  0
LINE
  5
1A1
330
1E
100
AcDbEntity
  8
0
100
AcDbLine
 10
142.0
 20
77.41800000000001
 30
0.0
 11
142.0
 21
75.018
 31
0.0
  0
LINE
  5
1A2
330
1E
100
AcDbEntity
  8
0
100
AcDbLine
 10
142.0
 20
75.018
 30
0.0
 11
142.0
 21
72.89799999999999
 31
0.0
  0
LINE
  5
1A3
330
1E
100
AcDbEntity
  8
0
100
AcDbLine
 10
142.0
 20
72.89799999999999
 30
0.0
 11
142.0
 21
71.298
 31
0.0
  0
LINE
  5
1A4
330
1E
100
AcDbEntity
  8
0
100
AcDbLine
 10
142.0
 20
71.298
 30
0.0
 11
142.0
 21
70.33800000000001
 31
0.0
  0
LINE
  5
1A5
330
1E
100
AcDbEntity
  8
0
100
AcDbLine
 10
142.0
 20
70.33800000000001
 30
0.0
 11
142.0
 21
69.97800000000001
 31
0.0
  0
LINE
  5
1A6
330
1E
100
AcDbEntity
  8
0
100
AcDbLine
 10
142.0
 20
84.76600000000001
 30
0.0
 11
142.0
 21
89.17399999999998
 31
0.0
  0
LINE
  5
1A7
330
1E
100
AcDbEntity
  8
0
100
AcDbLine
 10
142.0
 20
84.76600000000001
 30
0.0
 11
142.0
 21
79.97800000000001
 31
0.0
  0
LINE
  5
1A8
330
1E
100
AcDbEntity
  8
0
100
AcDbLine
 10
142.0
 20
82.538
 30
0.0
 11
142.0
 21
79.97800000000001
 31
0.0
  0
LINE
  5
1A9
330
1E
100
AcDbEntity
  8
0
100
AcDbLine
 10
142.0
 20
84.93799999999998
 30
0.0
 11
142.0
 21
82.538
 31
0.0
  0
LINE
  5
1AA
330
1E
100
AcDbEntity
  8
0
100
AcDbLine
 10
142.0
 20
89.17399999999998
 30
0.0
 11
142.0
 21
93.04999999999999
 31
0.0
  0
LINE
  5
1AB
330
1E
100
AcDbEntity
  8
0
100
AcDbLine
 10
142.0
 20
89.17399999999998
 30
0.0
 11
142.0
 21
84.76600000000001
 31
0.0
  0
LINE
  5
1AC
330
1E
100
AcDbEntity
  8
0
100
AcDbLine
 10
142.0
 20
87.05799999999999
 30
0.0
 11
142.0
 21
84.93799999999998
 31
0.0
  0
LINE
  5
1AD
330
1E
100
AcDbEntity
  8
0
100
AcDbLine
 10
142.0
 20
88.65799999999998
 30
0.0
 11
142.0
 21
87.05799999999999
 31
0.0
  0
LINE
  5
1AE
330
1E
100
AcDbEntity
  8
0
100
AcDbLine
 10
142.0
 20
93.04999999999999
 30
0.0
 11
142.0
 21
96.01399999999999
 31
0.0
  0
LINE
  5
1AF
330
1E
100
AcDbEntity
  8
0
100
AcDbLine
 10
142.0
 20
93.04999999999999
 30
0.0
 11
142.0
 21
89.17399999999998
 31
0.0
  0
LINE
  5
1B0
330
1E
100
AcDbEntity
  8
0
100
AcDbLine
 10
142.0
 20
93.04999999999999
 30
0.0
 11
142.0
 21
89.97799999999999
 31
0.0
  0
LINE
  5
1B1
330
1E
100
AcDbEntity
  8
0
100
AcDbLine
 10
142.0
 20
96.01399999999999
 30
0.0
 11
142.0
 21
97.83799999999999
 31
0.0
  0
LINE
  5
1B2
330
1E
100
AcDbEntity
  8
0
100
AcDbLine
 10
142.0
 20
96.01399999999999
 30
0.0
 11
142.0
 21
93.04999999999999
 31
0.0
  0
LINE
  5
1B3
330
1E
100
AcDbEntity
  8
0
100
AcDbLine
 10
142.0
 20
97.83799999999999
 30
0.0
 11
142.0
 21
98.52200000000001
 31
0.0
  0
LINE
  5
1B4
330
1E
100
AcDbEntity
  8
0
100
AcDbLine
 10
142.0
 20
97.83799999999999
 30
0.0
 11
142.0
 21
96.01399999999999
 31
0.0
  0
LINE
  5
1B5
330
1E
100
AcDbEntity
  8
0
100
AcDbLine
 10
142.0
 20
98.52200000000001
 30
0.0
 11
142.4429999999999
 21
98.978
 31
0.0
  0
LINE
  5
1B6
330
1E
100
AcDbEntity
  8
0
100
AcDbLine
 10
142.0
 20
98.52200000000001
 30
0.0
 11
142.0
 21
97.83799999999999
 31
0.0
  0
LINE
  5
1B7
330
1E
100
AcDbEntity
  8
0
100
AcDbLine
 10
142.0
 20
89.618
 30
0.0
 11
142.0
 21
88.65799999999998
 31
0.0
  0
LINE
  5
1B8
330
1E
100
AcDbEntity
  8
0
100
AcDbLine
 10
142.4429999999999
 20
84.84200000000001
 30
0.0
 11
142.4429999999999
 21
89.402
 31
0.0
  0
LINE
  5
1B9
330
1E
100
AcDbEntity
  8
0
100
AcDbLine
 10
142.4429999999999
 20
84.84200000000001
 30
0.0
 11
142.4429999999999
 21
79.97800000000001
 31
0.0
  0
LINE
  5
1BA
330
1E
100
AcDbEntity
  8
0
100
AcDbLine
 10
142.4429999999999
 20
89.402
 30
0.0
 11
142.4429999999999
 21
93.43000000000001
 31
0.0
  0
LINE
  5
1BB
330
1E
100
AcDbEntity
  8
0
100
AcDbLine
 10
142.4429999999999
 20
89.402
 30
0.0
 11
142.4429999999999
 21
84.84200000000001
 31
0.0
  0
LINE
  5
1BC
330
1E
100
AcDbEntity
  8
0
100
AcDbLine
 10
142.4429999999999
 20
93.43000000000001
 30
0.0
 11
142.4429999999999
 21
96.47
 31
0.0
  0
LINE
  5
1BD
330
1E
100
AcDbEntity
  8
0
100
AcDbLine
 10
142.4429999999999
 20
93.43000000000001
 30
0.0
 11
142.4429999999999
 21
89.402
 31
0.0
  0
LINE
  5
1BE
330
1E
100
AcDbEntity
  8
0
100
AcDbLine
 10
142.4429999999999
 20
96.47
 30
0.0
 11
142.4429999999999
 21
98.29399999999999
 31
0.0
  0
LINE
  5
1BF
330
1E
100
AcDbEntity
  8
0
100
AcDbLine
 10
142.4429999999999
 20
96.47
 30
0.0
 11
142.4429999999999
 21
93.43000000000001
 31
0.0
  0
LINE
  5
1C0
330
1E
100
AcDbEntity
  8
0
100
AcDbLine
 10
142.4429999999999
 20
98.978
 30
0.0
 11
160.0
 21
98.978
 31
0.0
  0
LINE
  5
1C1
330
1E
100
AcDbEntity
  8
0
100
AcDbLine
 10
142.4429999999999
 20
98.978
 30
0.0
 11
142.4429999999999
 21
98.29399999999999
 31
0.0
  0
LINE
  5
1C2
330
1E
100
AcDbEntity
  8
0
100
AcDbLine
 10
142.4429999999999
 20
98.29399999999999
 30
0.0
 11
142.4429999999999
 21
98.978
 31
0.0
  0
LINE
  5
1C3
330
1E
100
AcDbEntity
  8
0
100
AcDbLine
 10
142.4429999999999
 20
98.29399999999999
 30
0.0
 11
142.4429999999999
 21
96.47
 31
0.0
  0
LINE
  5
1C4
330
1E
100
AcDbEntity
  8
0
100
AcDbLine
 10
142.4429999999999
 20
79.97800000000001
 30
0.0
 11
142.4429999999999
 21
75.11399999999999
 31
0.0
  0
LINE
  5
1C5
330
1E
100
AcDbEntity
  8
0
100
AcDbLine
 10
142.4429999999999
 20
79.97800000000001
 30
0.0
 11
142.4429999999999
 21
84.84200000000001
 31
0.0
  0
LINE
  5
1C6
330
1E
100
AcDbEntity
  8
0
100
AcDbLine
 10
142.4429999999999
 20
75.11399999999999
 30
0.0
 11
142.4429999999999
 21
79.97800000000001
 31
0.0
  0
LINE
  5
1C7
330
1E
100
AcDbEntity
  8
0
100
AcDbLine
 10
142.4429999999999
 20
75.11399999999999
 30
0.0
 11
142.4429999999999
 21
70.5539999999999
 31
0.0
  0
LINE
  5
1C8
330
1E
100
AcDbEntity
  8
0
100
AcDbLine
 10
142.4429999999999
 20
70.5539999999999
 30
0.0
 11
142.4429999999999
 21
75.11399999999999
 31
0.0
  0
LINE
  5
1C9
330
1E
100
AcDbEntity
  8
0
100
AcDbLine
 10
142.4429999999999
 20
70.5539999999999
 30
0.0
 11
142.4429999999999
 21
66.52600000000001
 31
0.0
  0
LINE
  5
1CA
330
1E
100
AcDbEntity
  8
0
100
AcDbLine
 10
142.4429999999999
 20
66.52600000000001
 30
0.0
 11
142.4429999999999
 21
70.5539999999999
 31
0.0
  0
LINE
  5
1CB
330
1E
100
AcDbEntity
  8
0
100
AcDbLine
 10
142.4429999999999
 20
66.52600000000001
 30
0.0
 11
142.4429999999999
 21
63.48600000000001
 31
0.0
  0
LINE
  5
1CC
330
1E
100
AcDbEntity
  8
0
100
AcDbLine
 10
142.4429999999999
 20
63.48600000000001
 30
0.0
 11
142.4429999999999
 21
66.52600000000001
 31
0.0
  0
LINE
  5
1CD
330
1E
100
AcDbEntity
  8
0
100
AcDbLine
 10
142.4429999999999
 20
63.48600000000001
 30
0.0
 11
142.4429999999999
 21
61.66199999999999
 31
0.0
  0
LINE
  5
1CE
330
1E
100
AcDbEntity
  8
0
100
AcDbLine
 10
142.4429999999999
 20
61.66199999999999
 30
0.0
 11
142.4429999999999
 21
63.48600000000001
 31
0.0
  0
LINE
  5
1CF
330
1E
100
AcDbEntity
  8
0
100
AcDbLine
 10
142.4429999999999
 20
61.66199999999999
 30
0.0
 11
142.4429999999999
 21
60.978
 31
0.0
  0
LINE
  5
1D0
330
1E
100
AcDbEntity
  8
0
100
AcDbLine
 10
142.4429999999999
 20
60.978
 30
0.0
 11
142.4429999999999
 21
61.66199999999999
 31
0.0
  0
LINE
  5
1D1
330
1E
100
AcDbEntity
  8
0
100
AcDbLine
 10
142.4429999999999
 20
60.978
 30
0.0
 11
160.0
 21
60.978
 31
0.0
  0
LINE
  5
1D2
330
1E
100
AcDbEntity
  8
0
100
AcDbLine
 10
142.0
 20
89.97799999999999
 30
0.0
 11
142.0
 21
89.618
 31
0.0
  0
LINE
  5
1D3
330
1E
100
AcDbEntity
  8
0
100
AcDbLine
 10
142.0
 20
89.97799999999999
 30
0.0
 11
142.0
 21
93.04999999999999
 31
0.0
  0
LINE
  5
1D4
330
1E
100
AcDbEntity
  8
0
100
AcDbLine
 10
148.3999999999999
 20
7.97799999999997
 30
0.0
 11
149.5
 21
7.97799999999997
 31
0.0
  0
LINE
  5
1D5
330
1E
100
AcDbEntity
  8
0
100
AcDbLine
 10
140.6999999999999
 20
7.47799999999997
 30
0.0
 11
145.8
 21
7.47799999999997
 31
0.0
  0
LINE
  5
1D6
330
1E
100
AcDbEntity
  8
0
100
AcDbLine
 10
148.9
 20
7.47799999999997
 30
0.0
 11
150.0
 21
7.47799999999997
 31
0.0
  0
LINE
  5
1D7
330
1E
100
AcDbEntity
  8
0
100
AcDbLine
 10
139.5
 20
139.4779999999999
 30
0.0
 11
139.5
 21
7.977999999999981
 31
0.0
  0
LINE
  5
1D8
330
1E
100
AcDbEntity
  8
0
100
AcDbLine
 10
127.936
 20
139.9799999999999
 30
0.0
 11
129.466
 21
169.709
 31
0.0
  0
LINE
  5
1D9
330
1E
100
AcDbEntity
  8
0
100
AcDbLine
 10
129.466
 20
169.709
 30
0.0
 11
130.242
 21
197.159
 31
0.0
  0
LINE
  5
1DA
330
1E
100
AcDbEntity
  8
0
100
AcDbLine
 10
130.3489999999999
 20
233.6349999999999
 30
0.0
 11
130.428
 21
234.6209999999999
 31
0.0
  0
LINE
  5
1DC
330
1E
100
AcDbEntity
  8
0
100
AcDbLine
 10
130.242
 20
197.159
 30
0.0
 11
130.59
 21
224.034
 31
0.0
  0
LINE
  5
1DD
330
1E
100
AcDbEntity
  8
0
100
AcDbLine
 10
130.428
 20
234.6209999999999
 30
0.0
 11
130.455757872077
 21
235.010549385199
 31
0.0
  0
LINE
  5
1DE
330
1E
100
AcDbEntity
  8
0
100
AcDbLine
 10
130.522
 20
229.291
 30
0.0
 11
130.59
 21
224.034
 31
0.0
  0
LINE
  5
1DF
330
1E
100
AcDbEntity
  8
0
100
AcDbLine
 10
130.484
 20
254.5399999999999
 30
0.0
 11
130.5279999999999
 21
253.058
 31
0.0
  0
LINE
  5
1E0
330
1E
100
AcDbEntity
  8
0
100
AcDbLine
 10
130.369
 20
256.309
 30
0.0
 11
130.484
 21
254.5399999999999
 31
0.0
  0
LINE
  5
1E1
330
1E
100
AcDbEntity
  8
0
100
AcDbLine
 10
130.144
 20
258.336
 30
0.0
 11
130.369
 21
256.309
 31
0.0
  0
LINE
  5
1E2
330
1E
100
AcDbEntity
  8
0
100
AcDbLine
 10
129.8539999999999
 20
260.247
 30
0.0
 11
130.144
 21
258.336
 31
0.0
  0
LINE
  5
1E3
330
1E
100
AcDbEntity
  8
0
100
AcDbLine
 10
129.461
 20
261.999
 30
0.0
 11
129.8539999999999
 21
260.247
 31
0.0
  0
LINE
  5
1E4
330
1E
100
AcDbEntity
  8
0
100
AcDbLine
 10
128.992
 20
263.374
 30
0.0
 11
129.461
 21
261.999
 31
0.0
  0
LINE
  5
1E5
330
1E
100
AcDbEntity
  8
0
100
AcDbLine
 10
128.5169999999999
 20
264.318
 30
0.0
 11
128.992
 21
263.374
 31
0.0
  0
LINE
  5
1E6
330
1E
100
AcDbEntity
  8
0
100
AcDbLine
 10
127.993
 20
264.873
 30
0.0
 11
128.5169999999999
 21
264.318
 31
0.0
  0
LINE
  5
1E7
330
1E
100
AcDbEntity
  8
0
100
AcDbLine
 10
127.611
 20
265.022
 30
0.0
 11
127.993
 21
264.873
 31
0.0
  0
LINE
  5
1EA
330
1E
100
AcDbEntity
  8
0
100
AcDbLine
 10
130.5579999999999
 20
250.7159999999999
 30
0.0
 11
130.58
 21
249.058
 31
0.0
  0
LINE
  5
1EC
330
1E
100
AcDbEntity
  8
0
100
AcDbLine
 10
130.5279999999999
 20
253.058
 30
0.0
 11
130.532
 21
252.7859999999999
 31
0.0
  0
LINE
  5
1ED
330
1E
100
AcDbEntity
  8
0
100
AcDbLine
 10
139.0
 20
139.9779999999999
 30
0.0
 11
139.5
 21
139.4779999999999
 31
0.0
  0
LINE
  5
1EE
330
1E
100
AcDbEntity
  8
0
100
AcDbLine
 10
139.0
 20
139.9779999999999
 30
0.0
 11
139.0
 21
139.4779999999999
 31
0.0
  0
LINE
  5
1EF
330
1E
100
AcDbEntity
  8
0
100
AcDbLine
 10
126.6
 20
-0.0220000000000298
 30
0.0
 11
134.1999999999999
 21
-0.0220000000000302
 31
0.0
  0
LINE
  5
1F0
330
1E
100
AcDbEntity
  8
0
100
AcDbLine
 10
134.1999999999999
 20
-0.0220000000000302
 30
0.0
 11
140.6999999999999
 21
-0.0220000000000306
 31
0.0
  0
LINE
  5
1F1
330
1E
100
AcDbEntity
  8
0
100
AcDbLine
 10
150.0
 20
-0.0220000000000312
 30
0.0
 11
150.0
 21
7.47799999999997
 31
0.0
  0
LINE
  5
1F2
330
1E
100
AcDbEntity
  8
0
100
AcDbLine
 10
160.5999999999999
 20
49.978
 30
0.0
 11
160.5999999999999
 21
51.058
 31
0.0
  0
LINE
  5
1F3
330
1E
100
AcDbEntity
  8
0
100
AcDbLine
 10
160.5999999999999
 20
49.978
 30
0.0
 11
170.0
 21
49.978
 31
0.0
  0
LINE
  5
1F4
330
1E
100
AcDbEntity
  8
0
100
AcDbLine
 10
160.0
 20
51.778
 30
0.0
 11
160.0
 21
54.658
 31
0.0
  0
LINE
  5
1F5
330
1E
100
AcDbEntity
  8
0
100
AcDbLine
 10
160.0
 20
51.778
 30
0.0
 11
160.0
 21
50.698
 31
0.0
  0
LINE
  5
1F6
330
1E
100
AcDbEntity
  8
0
100
AcDbLine
 10
160.0
 20
50.698
 30
0.0
 11
160.0
 21
51.778
 31
0.0
  0
LINE
  5
1F7
330
1E
100
AcDbEntity
  8
0
100
AcDbLine
 10
160.0
 20
50.698
 30
0.0
 11
160.5999999999999
 21
49.978
 31
0.0
  0
LINE
  5
1F8
330
1E
100
AcDbEntity
  8
0
100
AcDbLine
 10
160.5999999999999
 20
53.938
 30
0.0
 11
160.5999999999999
 21
58.738
 31
0.0
  0
LINE
  5
1F9
330
1E
100
AcDbEntity
  8
0
100
AcDbLine
 10
160.5999999999999
 20
53.938
 30
0.0
 11
160.5999999999999
 21
51.058
 31
0.0
  0
LINE
  5
1FA
330
1E
100
AcDbEntity
  8
0
100
AcDbLine
 10
160.5999999999999
 20
51.058
 30
0.0
 11
160.5999999999999
 21
53.938
 31
0.0
  0
LINE
  5
1FB
330
1E
100
AcDbEntity
  8
0
100
AcDbLine
 10
160.5999999999999
 20
51.058
 30
0.0
 11
160.5999999999999
 21
49.978
 31
0.0
  0
LINE
  5
1FC
330
1E
100
AcDbEntity
  8
0
100
AcDbLine
 10
160.0
 20
63.48600000000001
 30
0.0
 11
160.0
 21
61.66199999999999
 31
0.0
  0
LINE
  5
1FD
330
1E
100
AcDbEntity
  8
0
100
AcDbLine
 10
160.0
 20
61.66199999999999
 30
0.0
 11
160.0
 21
60.978
 31
0.0
  0
LINE
  5
1FE
330
1E
100
AcDbEntity
  8
0
100
AcDbLine
 10
160.0
 20
60.978
 30
0.0
 11
160.0
 21
59.338
 31
0.0
  0
LINE
  5
1FF
330
1E
100
AcDbEntity
  8
0
100
AcDbLine
 10
160.0
 20
59.338
 30
0.0
 11
160.0
 21
65.45799999999999
 31
0.0
  0
LINE
  5
200
330
1E
100
AcDbEntity
  8
0
100
AcDbLine
 10
160.0
 20
59.338
 30
0.0
 11
160.0
 21
54.658
 31
0.0
  0
LINE
  5
201
330
1E
100
AcDbEntity
  8
0
100
AcDbLine
 10
160.0
 20
59.338
 30
0.0
 11
160.0
 21
60.978
 31
0.0
  0
LINE
  5
202
330
1E
100
AcDbEntity
  8
0
100
AcDbLine
 10
160.0
 20
54.658
 30
0.0
 11
160.0
 21
59.338
 31
0.0
  0
LINE
  5
203
330
1E
100
AcDbEntity
  8
0
100
AcDbLine
 10
160.0
 20
54.658
 30
0.0
 11
160.0
 21
51.778
 31
0.0
  0
LINE
  5
204
330
1E
100
AcDbEntity
  8
0
100
AcDbLine
 10
160.5999999999999
 20
65.098
 30
0.0
 11
160.5999999999999
 21
72.298
 31
0.0
  0
LINE
  5
205
330
1E
100
AcDbEntity
  8
0
100
AcDbLine
 10
160.5999999999999
 20
65.098
 30
0.0
 11
160.5999999999999
 21
58.738
 31
0.0
  0
LINE
  5
206
330
1E
100
AcDbEntity
  8
0
100
AcDbLine
 10
160.5999999999999
 20
58.738
 30
0.0
 11
160.5999999999999
 21
65.098
 31
0.0
  0
LINE
  5
207
330
1E
100
AcDbEntity
  8
0
100
AcDbLine
 10
160.5999999999999
 20
58.738
 30
0.0
 11
160.5999999999999
 21
53.938
 31
0.0
  0
LINE
  5
208
330
1E
100
AcDbEntity
  8
0
100
AcDbLine
 10
160.0
 20
70.5539999999999
 30
0.0
 11
160.0
 21
66.52600000000001
 31
0.0
  0
LINE
  5
209
330
1E
100
AcDbEntity
  8
0
100
AcDbLine
 10
160.0
 20
66.52600000000001
 30
0.0
 11
160.0
 21
63.48600000000001
 31
0.0
  0
LINE
  5
20A
330
1E
100
AcDbEntity
  8
0
100
AcDbLine
 10
160.0
 20
65.45799999999999
 30
0.0
 11
160.0
 21
72.41800000000001
 31
0.0
  0
LINE
  5
20B
330
1E
100
AcDbEntity
  8
0
100
AcDbLine
 10
160.0
 20
65.45799999999999
 30
0.0
 11
160.0
 21
59.338
 31
0.0
  0
LINE
  5
20C
330
1E
100
AcDbEntity
  8
0
100
AcDbLine
 10
160.0
 20
75.11399999999999
 30
0.0
 11
160.0
 21
70.5539999999999
 31
0.0
  0
LINE
  5
20D
330
1E
100
AcDbEntity
  8
0
100
AcDbLine
 10
160.0
 20
84.84200000000001
 30
0.0
 11
160.0
 21
79.97800000000001
 31
0.0
  0
LINE
  5
20E
330
1E
100
AcDbEntity
  8
0
100
AcDbLine
 10
160.0
 20
87.538
 30
0.0
 11
160.0
 21
94.49799999999999
 31
0.0
  0
LINE
  5
20F
330
1E
100
AcDbEntity
  8
0
100
AcDbLine
 10
160.0
 20
87.538
 30
0.0
 11
160.0
 21
79.97800000000001
 31
0.0
  0
LINE
  5
210
330
1E
100
AcDbEntity
  8
0
100
AcDbLine
 10
160.0
 20
89.402
 30
0.0
 11
160.0
 21
84.84200000000001
 31
0.0
  0
LINE
  5
211
330
1E
100
AcDbEntity
  8
0
100
AcDbLine
 10
160.0
 20
93.43000000000001
 30
0.0
 11
160.0
 21
89.402
 31
0.0
  0
LINE
  5
212
330
1E
100
AcDbEntity
  8
0
100
AcDbLine
 10
160.0
 20
96.47
 30
0.0
 11
160.0
 21
93.43000000000001
 31
0.0
  0
LINE
  5
213
330
1E
100
AcDbEntity
  8
0
100
AcDbLine
 10
160.0
 20
98.29399999999999
 30
0.0
 11
160.0
 21
96.47
 31
0.0
  0
LINE
  5
214
330
1E
100
AcDbEntity
  8
0
100
AcDbLine
 10
160.0
 20
98.978
 30
0.0
 11
160.0
 21
100.618
 31
0.0
  0
LINE
  5
215
330
1E
100
AcDbEntity
  8
0
100
AcDbLine
 10
160.0
 20
98.978
 30
0.0
 11
160.0
 21
98.29399999999999
 31
0.0
  0
LINE
  5
216
330
1E
100
AcDbEntity
  8
0
100
AcDbLine
 10
160.0
 20
94.49799999999999
 30
0.0
 11
160.0
 21
100.618
 31
0.0
  0
LINE
  5
217
330
1E
100
AcDbEntity
  8
0
100
AcDbLine
 10
160.0
 20
94.49799999999999
 30
0.0
 11
160.0
 21
87.538
 31
0.0
  0
LINE
  5
218
330
1E
100
AcDbEntity
  8
0
100
AcDbLine
 10
160.0
 20
100.618
 30
0.0
 11
160.0
 21
105.2979999999999
 31
0.0
  0
LINE
  5
219
330
1E
100
AcDbEntity
  8
0
100
AcDbLine
 10
160.0
 20
100.618
 30
0.0
 11
160.0
 21
94.49799999999999
 31
0.0
  0
LINE
  5
21A
330
1E
100
AcDbEntity
  8
0
100
AcDbLine
 10
160.0
 20
100.618
 30
0.0
 11
160.0
 21
98.978
 31
0.0
  0
LINE
  5
21B
330
1E
100
AcDbEntity
  8
0
100
AcDbLine
 10
160.5999999999999
 20
87.65799999999998
 30
0.0
 11
160.5999999999999
 21
94.85799999999999
 31
0.0
  0
LINE
  5
21C
330
1E
100
AcDbEntity
  8
0
100
AcDbLine
 10
160.5999999999999
 20
87.65799999999998
 30
0.0
 11
160.5999999999999
 21
79.97800000000001
 31
0.0
  0
LINE
  5
21D
330
1E
100
AcDbEntity
  8
0
100
AcDbLine
 10
160.5999999999999
 20
94.85799999999999
 30
0.0
 11
160.5999999999999
 21
101.2179999999999
 31
0.0
  0
LINE
  5
21E
330
1E
100
AcDbEntity
  8
0
100
AcDbLine
 10
160.5999999999999
 20
94.85799999999999
 30
0.0
 11
160.5999999999999
 21
87.65799999999998
 31
0.0
  0
LINE
  5
21F
330
1E
100
AcDbEntity
  8
0
100
AcDbLine
 10
160.0
 20
105.2979999999999
 30
0.0
 11
160.0
 21
108.1779999999999
 31
0.0
  0
LINE
  5
220
330
1E
100
AcDbEntity
  8
0
100
AcDbLine
 10
160.0
 20
105.2979999999999
 30
0.0
 11
160.0
 21
100.618
 31
0.0
  0
LINE
  5
221
330
1E
100
AcDbEntity
  8
0
100
AcDbLine
 10
160.0
 20
108.1779999999999
 30
0.0
 11
160.0
 21
109.2579999999999
 31
0.0
  0
LINE
  5
222
330
1E
100
AcDbEntity
  8
0
100
AcDbLine
 10
160.0
 20
108.1779999999999
 30
0.0
 11
160.0
 21
105.2979999999999
 31
0.0
  0
LINE
  5
223
330
1E
100
AcDbEntity
  8
0
100
AcDbLine
 10
160.0
 20
109.2579999999999
 30
0.0
 11
160.5999999999999
 21
109.9779999999999
 31
0.0
  0
LINE
  5
224
330
1E
100
AcDbEntity
  8
0
100
AcDbLine
 10
160.0
 20
109.2579999999999
 30
0.0
 11
160.0
 21
108.1779999999999
 31
0.0
  0
LINE
  5
225
330
1E
100
AcDbEntity
  8
0
100
AcDbLine
 10
160.5999999999999
 20
101.2179999999999
 30
0.0
 11
160.5999999999999
 21
106.0179999999999
 31
0.0
  0
LINE
  5
226
330
1E
100
AcDbEntity
  8
0
100
AcDbLine
 10
160.5999999999999
 20
101.2179999999999
 30
0.0
 11
160.5999999999999
 21
94.85799999999999
 31
0.0
  0
LINE
  5
227
330
1E
100
AcDbEntity
  8
0
100
AcDbLine
 10
160.5999999999999
 20
106.0179999999999
 30
0.0
 11
160.5999999999999
 21
108.898
 31
0.0
  0
LINE
  5
228
330
1E
100
AcDbEntity
  8
0
100
AcDbLine
 10
160.5999999999999
 20
106.0179999999999
 30
0.0
 11
160.5999999999999
 21
101.2179999999999
 31
0.0
  0
LINE
  5
229
330
1E
100
AcDbEntity
  8
0
100
AcDbLine
 10
160.5999999999999
 20
109.9779999999999
 30
0.0
 11
170.0
 21
109.9779999999999
 31
0.0
  0
LINE
  5
22A
330
1E
100
AcDbEntity
  8
0
100
AcDbLine
 10
160.5999999999999
 20
109.9779999999999
 30
0.0
 11
160.5999999999999
 21
108.898
 31
0.0
  0
LINE
  5
22B
330
1E
100
AcDbEntity
  8
0
100
AcDbLine
 10
160.5999999999999
 20
108.898
 30
0.0
 11
160.5999999999999
 21
109.9779999999999
 31
0.0
  0
LINE
  5
22C
330
1E
100
AcDbEntity
  8
0
100
AcDbLine
 10
160.5999999999999
 20
108.898
 30
0.0
 11
160.5999999999999
 21
106.0179999999999
 31
0.0
  0
LINE
  5
22D
330
1E
100
AcDbEntity
  8
0
100
AcDbLine
 10
160.0
 20
79.97800000000001
 30
0.0
 11
160.0
 21
72.41800000000001
 31
0.0
  0
LINE
  5
22E
330
1E
100
AcDbEntity
  8
0
100
AcDbLine
 10
160.0
 20
79.97800000000001
 30
0.0
 11
160.0
 21
87.538
 31
0.0
  0
LINE
  5
22F
330
1E
100
AcDbEntity
  8
0
100
AcDbLine
 10
160.0
 20
79.97800000000001
 30
0.0
 11
160.0
 21
75.11399999999999
 31
0.0
  0
LINE
  5
230
330
1E
100
AcDbEntity
  8
0
100
AcDbLine
 10
170.0
 20
87.65799999999998
 30
0.0
 11
170.0
 21
94.85799999999999
 31
0.0
  0
LINE
  5
231
330
1E
100
AcDbEntity
  8
0
100
AcDbLine
 10
170.0
 20
87.65799999999998
 30
0.0
 11
170.0
 21
79.97800000000001
 31
0.0
  0
LINE
  5
232
330
1E
100
AcDbEntity
  8
0
100
AcDbLine
 10
170.0
 20
94.85799999999999
 30
0.0
 11
170.0
 21
101.2179999999999
 31
0.0
  0
LINE
  5
233
330
1E
100
AcDbEntity
  8
0
100
AcDbLine
 10
170.0
 20
94.85799999999999
 30
0.0
 11
170.0
 21
87.65799999999998
 31
0.0
  0
LINE
  5
234
330
1E
100
AcDbEntity
  8
0
100
AcDbLine
 10
170.0
 20
101.2179999999999
 30
0.0
 11
170.0
 21
106.0179999999999
 31
0.0
  0
LINE
  5
235
330
1E
100
AcDbEntity
  8
0
100
AcDbLine
 10
170.0
 20
101.2179999999999
 30
0.0
 11
170.0
 21
94.85799999999999
 31
0.0
  0
LINE
  5
236
330
1E
100
AcDbEntity
  8
0
100
AcDbLine
 10
170.0
 20
106.0179999999999
 30
0.0
 11
170.0
 21
108.898
 31
0.0
  0
LINE
  5
237
330
1E
100
AcDbEntity
  8
0
100
AcDbLine
 10
170.0
 20
106.0179999999999
 30
0.0
 11
170.0
 21
101.2179999999999
 31
0.0
  0
LINE
  5
238
330
1E
100
AcDbEntity
  8
0
100
AcDbLine
 10
170.0
 20
109.9779999999999
 30
0.0
 11
170.0
 21
108.898
 31
0.0
  0
LINE
  5
239
330
1E
100
AcDbEntity
  8
0
100
AcDbLine
 10
170.0
 20
108.898
 30
0.0
 11
170.0
 21
109.9779999999999
 31
0.0
  0
LINE
  5
23A
330
1E
100
AcDbEntity
  8
0
100
AcDbLine
 10
170.0
 20
108.898
 30
0.0
 11
170.0
 21
106.0179999999999
 31
0.0
  0
LINE
  5
23B
330
1E
100
AcDbEntity
  8
0
100
AcDbLine
 10
160.5999999999999
 20
79.97800000000001
 30
0.0
 11
160.5999999999999
 21
72.298
 31
0.0
  0
LINE
  5
23C
330
1E
100
AcDbEntity
  8
0
100
AcDbLine
 10
160.5999999999999
 20
79.97800000000001
 30
0.0
 11
160.5999999999999
 21
87.65799999999998
 31
0.0
  0
LINE
  5
23D
330
1E
100
AcDbEntity
  8
0
100
AcDbLine
 10
160.0
 20
72.41800000000001
 30
0.0
 11
160.0
 21
79.97800000000001
 31
0.0
  0
LINE
  5
23E
330
1E
100
AcDbEntity
  8
0
100
AcDbLine
 10
160.0
 20
72.41800000000001
 30
0.0
 11
160.0
 21
65.45799999999999
 31
0.0
  0
LINE
  5
23F
330
1E
100
AcDbEntity
  8
0
100
AcDbLine
 10
170.0
 20
79.97800000000001
 30
0.0
 11
170.0
 21
72.298
 31
0.0
  0
LINE
  5
240
330
1E
100
AcDbEntity
  8
0
100
AcDbLine
 10
170.0
 20
79.97800000000001
 30
0.0
 11
170.0
 21
87.65799999999998
 31
0.0
  0
LINE
  5
241
330
1E
100
AcDbEntity
  8
0
100
AcDbLine
 10
160.5999999999999
 20
72.298
 30
0.0
 11
160.5999999999999
 21
79.97800000000001
 31
0.0
  0
LINE
  5
242
330
1E
100
AcDbEntity
  8
0
100
AcDbLine
 10
160.5999999999999
 20
72.298
 30
0.0
 11
160.5999999999999
 21
65.098
 31
0.0
  0
LINE
  5
243
330
1E
100
AcDbEntity
  8
0
100
AcDbLine
 10
170.0
 20
72.298
 30
0.0
 11
170.0
 21
79.97800000000001
 31
0.0
  0
LINE
  5
244
330
1E
100
AcDbEntity
  8
0
100
AcDbLine
 10
170.0
 20
72.298
 30
0.0
 11
170.0
 21
65.098
 31
0.0
  0
LINE
  5
245
330
1E
100
AcDbEntity
  8
0
100
AcDbLine
 10
170.0
 20
65.098
 30
0.0
 11
170.0
 21
72.298
 31
0.0
  0
LINE
  5
246
330
1E
100
AcDbEntity
  8
0
100
AcDbLine
 10
170.0
 20
65.098
 30
0.0
 11
170.0
 21
58.738
 31
0.0
  0
LINE
  5
247
330
1E
100
AcDbEntity
  8
0
100
AcDbLine
 10
170.0
 20
58.738
 30
0.0
 11
170.0
 21
65.098
 31
0.0
  0
LINE
  5
248
330
1E
100
AcDbEntity
  8
0
100
AcDbLine
 10
170.0
 20
58.738
 30
0.0
 11
170.0
 21
53.938
 31
0.0
  0
LINE
  5
249
330
1E
100
AcDbEntity
  8
0
100
AcDbLine
 10
170.0
 20
53.938
 30
0.0
 11
170.0
 21
58.738
 31
0.0
  0
LINE
  5
24A
330
1E
100
AcDbEntity
  8
0
100
AcDbLine
 10
170.0
 20
53.938
 30
0.0
 11
170.0
 21
51.058
 31
0.0
  0
LINE
  5
24B
330
1E
100
AcDbEntity
  8
0
100
AcDbLine
 10
170.0
 20
51.058
 30
0.0
 11
170.0
 21
53.938
 31
0.0
  0
LINE
  5
24C
330
1E
100
AcDbEntity
  8
0
100
AcDbLine
 10
170.0
 20
51.058
 30
0.0
 11
170.0
 21
49.978
 31
0.0
  0
LINE
  5
24D
330
1E
100
AcDbEntity
  8
0
100
AcDbLine
 10
170.0
 20
49.978
 30
0.0
 11
170.0
 21
51.058
 31
0.0
  0
LINE
  5
24E
330
1E
100
AcDbEntity
  8
0
100
AcDbLine
 10
149.5
 20
7.97799999999997
 30
0.0
 11
150.0
 21
7.47799999999997
 31
0.0
  0
LINE
  5
24F
330
1E
100
AcDbEntity
  8
0
100
AcDbLine
 10
150.0
 20
7.47799999999997
 30
0.0
 11
150.0
 21
-0.0220000000000312
 31
0.0
  0
LINE
  5
250
330
1E
100
AcDbEntity
  8
0
100
AcDbLine
 10
148.9
 20
-0.0220000000000311
 30
0.0
 11
150.0
 21
-0.0220000000000312
 31
0.0
  0
LINE
  5
255
330
1E
100
AcDbEntity
  8
0
100
AcDbLine
 10
130.532
 20
252.7859999999999
 30
0.0
 11
130.5579999999999
 21
250.7159999999999
 31
0.0
  0
LINE
  5
256
330
1E
100
AcDbEntity
  8
0
100
AcDbLine
 10
130.58
 20
249.058
 30
0.0
 11
130.455757872077
 21
235.010549385199
 31
0.0
  0
LINE
  5
257
330
1E
100
AcDbEntity
  8
0
100
AcDbLine
 10
130.3489999999999
 20
233.6349999999999
 30
0.0
 11
130.522
 21
229.291
 31
0.0
  0
ENDSEC
  0
SECTION
  2
OBJECTS
  0
DICTIONARY
  5
C
330
0
100
AcDbDictionary
  3
ACAD_GROUP
350
D
  3
ACAD_LAYOUT
350
19
  3
ACAD_MLINESTYLE
350
16
  3
ACAD_PLOTSETTINGS
350
18
  3
ACAD_PLOTSTYLENAME
350
E
  3
ACDBHEADERROUNDTRIPXREC
350
25C
  3
ACDBVARIABLEDICTIONARY
350
259
  0
DICTIONARY
  5
27E
330
1E
100
AcDbDictionary
280
     1
  3
ACAD_LAYOUTSELFREF
360
27F
  0
DICTIONARY
  5
27C
330
1A
100
AcDbDictionary
280
     1
  3
ACAD_LAYOUTSELFREF
360
27D
  0
DICTIONARY
  5
D
102
{ACAD_REACTORS
330
C
102
}
330
C
100
AcDbDictionary
  0
DICTIONARY
  5
19
102
{ACAD_REACTORS
330
C
102
}
330
C
100
AcDbDictionary
  0
DICTIONARY
  5
16
102
{ACAD_REACTORS
330
C
102
}
330
C
100
AcDbDictionary
  3
STANDARD
350
17
  0
DICTIONARY
  5
18
102
{ACAD_REACTORS
330
C
102
}
330
C
100
AcDbDictionary
  0
ACDBDICTIONARYWDFLT
  5
E
102
{ACAD_REACTORS
330
C
102
}
330
C
100
AcDbDictionary
281
     1
  3
Normal
350
F
100
AcDbDictionaryWithDefault
340
F
  0
DICTIONARY
  5
25C
102
{ACAD_REACTORS
330
C
102
}
330
C
100
AcDbDictionary
  3
CEPSNTYPE
350
266
  3
FINGERPRINTGUID
350
267
  3
HYPERLINKBASE
350
25F
  3
INSUNITS
350
265
  3
LAYOUTDICT
350
261
  3
LWETCUNION
350
264
  3
PLOTSETDICT
350
262
  3
PLOTSTYLNAMDICT
350
263
  3
PSVPSCALE
350
269
  3
PUCSBASE
350
26C
  3
PUCSORGBACK
350
272
  3
PUCSORGBOTTOM
350
26E
  3
PUCSORGFRONT
350
271
  3
PUCSORGLEFT
350
26F
  3
PUCSORGRIGHT
350
270
  3
PUCSORGTOP
350
26D
  3
PUCSORTHOREF
350
26A
  3
PUCSORTHOVIEW
350
26B
  3
STYLESHEET
350
260
  3
TSTACKALIGN
350
25D
  3
TSTACKSIZE
350
25E
  3
UCSBASE
350
275
  3
UCSORGBACK
350
27B
  3
UCSORGBOTTOM
350
277
  3
UCSORGFRONT
350
27A
  3
UCSORGLEFT
350
278
  3
UCSORGRIGHT
350
279
  3
UCSORGTOP
350
276
  3
UCSORTHOREF
350
273
  3
UCSORTHOVIEW
350
274
  3
VERSIONGUID
350
268
  0
DICTIONARY
  5
259
102
{ACAD_REACTORS
330
C
102
}
330
C
100
AcDbDictionary
  3
DIMASSOC
350
25A
  0
XRECORD
  5
27F
102
{ACAD_REACTORS
330
27E
102
}
330
27E
100
AcDbXrecord
340
1E
  0
XRECORD
  5
27D
102
{ACAD_REACTORS
330
27C
102
}
330
27C
100
AcDbXrecord
340
1A
  0
MLINESTYLE
  5
17
102
{ACAD_REACTORS
330
16
102
}
330
16
100
AcDbMlineStyle
  2
STANDARD
 70
     0
  3

 62
   256
 51
90.0
 52
90.0
 71
     2
 49
0.5
 62
   256
  6
BYLAYER
 49
-0.5
 62
   256
  6
BYLAYER
  0
ACDBPLACEHOLDER
  5
F
102
{ACAD_REACTORS
330
E
102
}
330
E
100
AcDbPlaceHolder
280
     0
  0
XRECORD
  5
266
102
{ACAD_REACTORS
330
25C
102
}
330
25C
100
AcDbXrecord
 90
        0
  0
XRECORD
  5
267
102
{ACAD_REACTORS
330
25C
102
}
330
25C
100
AcDbXrecord
  1
{9E850D86-38D8-48CE-96EE-B92722868288}
  0
XRECORD
  5
25F
102
{ACAD_REACTORS
330
25C
102
}
330
25C
100
AcDbXrecord
  1

  0
XRECORD
  5
265
102
{ACAD_REACTORS
330
25C
102
}
330
25C
100
AcDbXrecord
 90
        0
  0
XRECORD
  5
261
102
{ACAD_REACTORS
330
25C
102
}
330
25C
100
AcDbXrecord
340
19
  0
XRECORD
  5
264
102
{ACAD_REACTORS
330
25C
102
}
330
25C
100
AcDbXrecord
 90
    10781
  0
XRECORD
  5
262
102
{ACAD_REACTORS
330
25C
102
}
330
25C
100
AcDbXrecord
340
18
  0
XRECORD
  5
263
102
{ACAD_REACTORS
330
25C
102
}
330
25C
100
AcDbXrecord
340
E
  0
XRECORD
  5
269
102
{ACAD_REACTORS
330
25C
102
}
330
25C
100
AcDbXrecord
 40
0.0
  0
XRECORD
  5
26C
102
{ACAD_REACTORS
330
25C
102
}
330
25C
100
AcDbXrecord
340
0
  0
XRECORD
  5
272
102
{ACAD_REACTORS
330
25C
102
}
330
25C
100
AcDbXrecord
 10
0.0
 20
0.0
 30
0.0
  0
XRECORD
  5
26E
102
{ACAD_REACTORS
330
25C
102
}
330
25C
100
AcDbXrecord
 10
0.0
 20
0.0
 30
0.0
  0
XRECORD
  5
271
102
{ACAD_REACTORS
330
25C
102
}
330
25C
100
AcDbXrecord
 10
0.0
 20
0.0
 30
0.0
  0
XRECORD
  5
26F
102
{ACAD_REACTORS
330
25C
102
}
330
25C
100
AcDbXrecord
 10
0.0
 20
0.0
 30
0.0
  0
XRECORD
  5
270
102
{ACAD_REACTORS
330
25C
102
}
330
25C
100
AcDbXrecord
 10
0.0
 20
0.0
 30
0.0
  0
XRECORD
  5
26D
102
{ACAD_REACTORS
330
25C
102
}
330
25C
100
AcDbXrecord
 10
0.0
 20
0.0
 30
0.0
  0
XRECORD
  5
26A
102
{ACAD_REACTORS
330
25C
102
}
330
25C
100
AcDbXrecord
340
0
  0
XRECORD
  5
26B
102
{ACAD_REACTORS
330
25C
102
}
330
25C
100
AcDbXrecord
 70
     0
  0
XRECORD
  5
260
102
{ACAD_REACTORS
330
25C
102
}
330
25C
100
AcDbXrecord
  1

  0
XRECORD
  5
25D
102
{ACAD_REACTORS
330
25C
102
}
330
25C
100
AcDbXrecord
 90
        1
  0
XRECORD
  5
25E
102
{ACAD_REACTORS
330
25C
102
}
330
25C
100
AcDbXrecord
 90
       70
  0
XRECORD
  5
275
102
{ACAD_REACTORS
330
25C
102
}
330
25C
100
AcDbXrecord
340
0
  0
XRECORD
  5
27B
102
{ACAD_REACTORS
330
25C
102
}
330
25C
100
AcDbXrecord
 10
0.0
 20
0.0
 30
0.0
  0
XRECORD
  5
277
102
{ACAD_REACTORS
330
25C
102
}
330
25C
100
AcDbXrecord
 10
0.0
 20
0.0
 30
0.0
  0
XRECORD
  5
27A
102
{ACAD_REACTORS
330
25C
102
}
330
25C
100
AcDbXrecord
 10
0.0
 20
0.0
 30
0.0
  0
XRECORD
  5
278
102
{ACAD_REACTORS
330
25C
102
}
330
25C
100
AcDbXrecord
 10
0.0
 20
0.0
 30
0.0
  0
XRECORD
  5
279
102
{ACAD_REACTORS
330
25C
102
}
330
25C
100
AcDbXrecord
 10
0.0
 20
0.0
 30
0.0
  0
XRECORD
  5
276
102
{ACAD_REACTORS
330
25C
102
}
330
25C
100
AcDbXrecord
 10
0.0
 20
0.0
 30
0.0
  0
XRECORD
  5
273
102
{ACAD_REACTORS
330
25C
102
}
330
25C
100
AcDbXrecord
340
0
  0
XRECORD
  5
274
102
{ACAD_REACTORS
330
25C
102
}
330
25C
100
AcDbXrecord
 70
     1
  0
XRECORD
  5
268
102
{ACAD_REACTORS
330
25C
102
}
330
25C
100
AcDbXrecord
  1
{3E6B1F6D-4D39-463D-9B30-9564A9C94130}
  0
DICTIONARYVAR
  5
25A
102
{ACAD_REACTORS
330
259
102
}
330
259
100
DictionaryVariables
280
     0
  1
1
  0
ENDSEC
  0
EOF
