  0
SECTION
  2
HEADER
  9
$ACADVER
  1
AC1015
  9
$ACADMAINTVER
 70
    13
  9
$DWGCODEPAGE
  3
ANSI_1252
  9
$INSBASE
 10
0.0
 20
0.0
 30
0.0
  9
$EXTMIN
 10
0.0
 20
-0.0000000000000142
 30
0.0
  9
$EXTMAX
 10
866.0
 20
169.4059999999999
 30
0.0
  9
$LIMMIN
 10
0.0
 20
0.0
  9
$LIMMAX
 10
12.0
 20
9.0
  9
$ORTHOMODE
 70
     0
  9
$REGENMODE
 70
     1
  9
$FILLMODE
 70
     1
  9
$QTEXTMODE
 70
     0
  9
$MIRRTEXT
 70
     1
  9
$LTSCALE
 40
1.0
  9
$ATTMODE
 70
     1
  9
$TEXTSIZE
 40
0.2
  9
$TRACEWID
 40
0.05
  9
$TEXTSTYLE
  7
Standard
  9
$CLAYER
  8
0
  9
$CELTYPE
  6
Continuous
  9
$CECOLOR
 62
   256
  9
$CELTSCALE
 40
1.0
  9
$DISPSILH
 70
     0
  9
$DIMSCALE
 40
1.0
  9
$DIMASZ
 40
0.18
  9
$DIMEXO
 40
0.0625
  9
$DIMDLI
 40
0.38
  9
$DIMRND
 40
0.0
  9
$DIMDLE
 40
0.0
  9
$DIMEXE
 40
0.18
  9
$DIMTP
 40
0.0
  9
$DIMTM
 40
0.0
  9
$DIMTXT
 40
0.18
  9
$DIMCEN
 40
0.09
  9
$DIMTSZ
 40
0.0
  9
$DIMTOL
 70
     0
  9
$DIMLIM
 70
     0
  9
$DIMTIH
 70
     1
  9
$DIMTOH
 70
     1
  9
$DIMSE1
 70
     0
  9
$DIMSE2
 70
     0
  9
$DIMTAD
 70
     0
  9
$DIMZIN
 70
     0
  9
$DIMBLK
  1

  9
$DIMASO
 70
     1
  9
$DIMSHO
 70
     1
  9
$DIMPOST
  1

  9
$DIMAPOST
  1

  9
$DIMALT
 70
     0
  9
$DIMALTD
 70
     2
  9
$DIMALTF
 40
25.4
  9
$DIMLFAC
 40
1.0
  9
$DIMTOFL
 70
     0
  9
$DIMTVP
 40
0.0
  9
$DIMTIX
 70
     0
  9
$DIMSOXD
 70
     0
  9
$DIMSAH
 70
     0
  9
$DIMBLK1
  1

  9
$DIMBLK2
  1

  9
$DIMSTYLE
  2
Standard
  9
$DIMCLRD
 70
     0
  9
$DIMCLRE
 70
     0
  9
$DIMCLRT
 70
     0
  9
$DIMTFAC
 40
1.0
  9
$DIMGAP
 40
0.09
  9
$DIMJUST
 70
     0
  9
$DIMSD1
 70
     0
  9
$DIMSD2
 70
     0
  9
$DIMTOLJ
 70
     1
  9
$DIMTZIN
 70
     0
  9
$DIMALTZ
 70
     0
  9
$DIMALTTZ
 70
     0
  9
$DIMUPT
 70
     0
  9
$DIMDEC
 70
     4
  9
$DIMTDEC
 70
     4
  9
$DIMALTU
 70
     2
  9
$DIMALTTD
 70
     2
  9
$DIMTXSTY
  7
Standard
  9
$DIMAUNIT
 70
     0
  9
$DIMADEC
 70
     0
  9
$DIMALTRND
 40
0.0
  9
$DIMAZIN
 70
     0
  9
$DIMDSEP
 70
    46
  9
$DIMATFIT
 70
     3
  9
$DIMFRAC
 70
     0
  9
$DIMLDRBLK
  1

  9
$DIMLUNIT
 70
     2
  9
$DIMLWD
 70
    -2
  9
$DIMLWE
 70
    -2
  9
$DIMTMOVE
 70
     0
  9
$LUNITS
 70
     2
  9
$LUPREC
 70
     4
  9
$SKETCHINC
 40
0.1
  9
$FILLETRAD
 40
0.0
  9
$AUNITS
 70
     0
  9
$AUPREC
 70
     0
  9
$MENU
  1
.
  9
$ELEVATION
 40
0.0
  9
$PELEVATION
 40
0.0
  9
$THICKNESS
 40
0.0
  9
$LIMCHECK
 70
     0
  9
$CHAMFERA
 40
0.0
  9
$CHAMFERB
 40
0.0
  9
$CHAMFERC
 40
0.0
  9
$CHAMFERD
 40
0.0
  9
$SKPOLY
 70
     0
  9
$TDCREATE
 40
2455508.868870254
  9
$TDUCREATE
 40
2455508.827203588
  9
$TDUPDATE
 40
2455508.871288692
  9
$TDUUPDATE
 40
2455508.829622025
  9
$TDINDWG
 40
0.0024189815
  9
$TDUSRTIMER
 40
0.0024189815
  9
$USRTIMER
 70
     1
  9
$ANGBASE
 50
0.0
  9
$ANGDIR
 70
     0
  9
$PDMODE
 70
     0
  9
$PDSIZE
 40
0.0
  9
$PLINEWID
 40
0.0
  9
$SPLFRAME
 70
     0
  9
$SPLINETYPE
 70
     6
  9
$SPLINESEGS
 70
     8
  9
$HANDSEED
  5
1A5
  9
$SURFTAB1
 70
     6
  9
$SURFTAB2
 70
     6
  9
$SURFTYPE
 70
     6
  9
$SURFU
 70
     6
  9
$SURFV
 70
     6
  9
$UCSBASE
  2

  9
$UCSNAME
  2

  9
$UCSORG
 10
0.0
 20
0.0
 30
0.0
  9
$UCSXDIR
 10
1.0
 20
0.0
 30
0.0
  9
$UCSYDIR
 10
0.0
 20
1.0
 30
0.0
  9
$UCSORTHOREF
  2

  9
$UCSORTHOVIEW
 70
     1
  9
$UCSORGTOP
 10
0.0
 20
0.0
 30
0.0
  9
$UCSORGBOTTOM
 10
0.0
 20
0.0
 30
0.0
  9
$UCSORGLEFT
 10
0.0
 20
0.0
 30
0.0
  9
$UCSORGRIGHT
 10
0.0
 20
0.0
 30
0.0
  9
$UCSORGFRONT
 10
0.0
 20
0.0
 30
0.0
  9
$UCSORGBACK
 10
0.0
 20
0.0
 30
0.0
  9
$PUCSBASE
  2

  9
$PUCSNAME
  2

  9
$PUCSORG
 10
0.0
 20
0.0
 30
0.0
  9
$PUCSXDIR
 10
1.0
 20
0.0
 30
0.0
  9
$PUCSYDIR
 10
0.0
 20
1.0
 30
0.0
  9
$PUCSORTHOREF
  2

  9
$PUCSORTHOVIEW
 70
     0
  9
$PUCSORGTOP
 10
0.0
 20
0.0
 30
0.0
  9
$PUCSORGBOTTOM
 10
0.0
 20
0.0
 30
0.0
  9
$PUCSORGLEFT
 10
0.0
 20
0.0
 30
0.0
  9
$PUCSORGRIGHT
 10
0.0
 20
0.0
 30
0.0
  9
$PUCSORGFRONT
 10
0.0
 20
0.0
 30
0.0
  9
$PUCSORGBACK
 10
0.0
 20
0.0
 30
0.0
  9
$USERI1
 70
     0
  9
$USERI2
 70
     0
  9
$USERI3
 70
     0
  9
$USERI4
 70
     0
  9
$USERI5
 70
     0
  9
$USERR1
 40
0.0
  9
$USERR2
 40
0.0
  9
$USERR3
 40
0.0
  9
$USERR4
 40
0.0
  9
$USERR5
 40
0.0
  9
$WORLDVIEW
 70
     1
  9
$SHADEDGE
 70
     3
  9
$SHADEDIF
 70
    70
  9
$TILEMODE
 70
     1
  9
$MAXACTVP
 70
    64
  9
$PINSBASE
 10
0.0
 20
0.0
 30
0.0
  9
$PLIMCHECK
 70
     0
  9
$PEXTMIN
 10
1.000000000000000E+20
 20
1.000000000000000E+20
 30
1.000000000000000E+20
  9
$PEXTMAX
 10
-1.000000000000000E+20
 20
-1.000000000000000E+20
 30
-1.000000000000000E+20
  9
$PLIMMIN
 10
0.0
 20
0.0
  9
$PLIMMAX
 10
12.0
 20
9.0
  9
$UNITMODE
 70
     0
  9
$VISRETAIN
 70
     1
  9
$PLINEGEN
 70
     0
  9
$PSLTSCALE
 70
     1
  9
$TREEDEPTH
 70
  3020
  9
$CMLSTYLE
  2
Standard
  9
$CMLJUST
 70
     0
  9
$CMLSCALE
 40
1.0
  9
$PROXYGRAPHICS
 70
     1
  9
$MEASUREMENT
 70
     0
  9
$CELWEIGHT
370
    -1
  9
$ENDCAPS
280
     0
  9
$JOINSTYLE
280
     0
  9
$LWDISPLAY
290
     0
  9
$INSUNITS
 70
     0
  9
$HYPERLINKBASE
  1

  9
$STYLESHEET
  1

  9
$XEDIT
290
     1
  9
$CEPSNTYPE
380
     0
  9
$PSTYLEMODE
290
     1
  9
$FINGERPRINTGUID
  2
{09071D69-F177-4E7B-8289-B14DB43D42D7}
  9
$VERSIONGUID
  2
{4E014F20-6B2F-4279-849B-14AF215D9926}
  9
$EXTNAMES
290
     1
  9
$PSVPSCALE
 40
0.0
  9
$OLESTARTUP
290
     0
  0
ENDSEC
  0
SECTION
  2
CLASSES
  0
CLASS
  1
ACDBDICTIONARYWDFLT
  2
AcDbDictionaryWithDefault
  3
AutoCAD 2000
 90
        0
280
     0
281
     0
  0
CLASS
  1
ACDBPLACEHOLDER
  2
AcDbPlaceHolder
  3
AutoCAD 2000
 90
        0
280
     0
281
     0
  0
CLASS
  1
LAYOUT
  2
AcDbLayout
  3
AutoCAD 2000
 90
        0
280
     0
281
     0
  0
CLASS
  1
DICTIONARYVAR
  2
AcDbDictionaryVar
  3
AutoCAD 2000
 90
        0
280
     0
281
     0
  0
ENDSEC
  0
SECTION
  2
TABLES
  0
TABLE
  2
VPORT
  5
8
330
0
100
AcDbSymbolTable
 70
     4
  0
VPORT
  5
1A4
330
8
100
AcDbSymbolTableRecord
100
AcDbViewportTableRecord
  2
*Active
 70
     0
 10
0.0
 20
0.0
 11
1.0
 21
1.0
 12
433.0
 22
84.70299999999998
 13
0.0
 23
0.0
 14
1.0
 24
1.0
 15
0.0
 25
0.0
 16
0.0
 26
0.0
 36
1.0
 17
0.0
 27
0.0
 37
0.0
 40
419.0423023771431
 41
2.073363431151241
 42
50.0
 43
0.0
 44
0.0
 50
0.0
 51
0.0
 71
     0
 72
   100
 73
     1
 74
     3
 75
     0
 76
     0
 77
     0
 78
     0
281
     0
 65
     1
110
0.0
120
0.0
130
0.0
111
1.0
121
0.0
131
0.0
112
0.0
122
1.0
132
0.0
 79
     1
146
0.0
  0
ENDTAB
  0
TABLE
  2
LTYPE
  5
5
330
0
100
AcDbSymbolTable
 70
     1
  0
LTYPE
  5
13
330
5
100
AcDbSymbolTableRecord
100
AcDbLinetypeTableRecord
  2
ByBlock
 70
     0
  3

 72
    65
 73
     0
 40
0.0
  0
LTYPE
  5
14
330
5
100
AcDbSymbolTableRecord
100
AcDbLinetypeTableRecord
  2
ByLayer
 70
     0
  3

 72
    65
 73
     0
 40
0.0
  0
LTYPE
  5
15
330
5
100
AcDbSymbolTableRecord
100
AcDbLinetypeTableRecord
  2
Continuous
 70
     0
  3
Solid line
 72
    65
 73
     0
 40
0.0
  0
ENDTAB
  0
TABLE
  2
LAYER
  5
2
330
0
100
AcDbSymbolTable
 70
     1
  0
LAYER
  5
10
330
2
100
AcDbSymbolTableRecord
100
AcDbLayerTableRecord
  2
0
 70
     0
 62
     7
  6
Continuous
370
    -3
390
F
  0
ENDTAB
  0
TABLE
  2
STYLE
  5
3
330
0
100
AcDbSymbolTable
 70
     1
  0
STYLE
  5
11
330
3
100
AcDbSymbolTableRecord
100
AcDbTextStyleTableRecord
  2
Standard
 70
     0
 40
0.0
 41
1.0
 50
0.0
 71
     0
 42
0.2
  3
txt
  4

  0
ENDTAB
  0
TABLE
  2
VIEW
  5
6
330
0
100
AcDbSymbolTable
 70
     0
  0
ENDTAB
  0
TABLE
  2
UCS
  5
7
330
0
100
AcDbSymbolTable
 70
     0
  0
ENDTAB
  0
TABLE
  2
APPID
  5
9
330
0
100
AcDbSymbolTable
 70
     1
  0
APPID
  5
12
330
9
100
AcDbSymbolTableRecord
100
AcDbRegAppTableRecord
  2
ACAD
 70
     0
  0
ENDTAB
  0
TABLE
  2
DIMSTYLE
  5
A
330
0
100
AcDbSymbolTable
 70
     1
100
AcDbDimStyleTable
 71
     0
  0
DIMSTYLE
105
198
330
A
100
AcDbSymbolTableRecord
100
AcDbDimStyleTableRecord
  2
Standard
 70
     0
340
11
  0
ENDTAB
  0
TABLE
  2
BLOCK_RECORD
  5
1
330
0
100
AcDbSymbolTable
 70
     0
  0
BLOCK_RECORD
  5
1E
330
1
100
AcDbSymbolTableRecord
100
AcDbBlockTableRecord
  2
*Model_Space
340
21
  0
BLOCK_RECORD
  5
1A
330
1
100
AcDbSymbolTableRecord
100
AcDbBlockTableRecord
  2
*Paper_Space
340
1D
  0
ENDTAB
  0
ENDSEC
  0
SECTION
  2
BLOCKS
  0
BLOCK
  5
1F
330
1E
100
AcDbEntity
  8
0
100
AcDbBlockBegin
  2
*Model_Space
 70
     0
 10
0.0
 20
0.0
 30
0.0
  3
*Model_Space
  1

  0
ENDBLK
  5
20
330
1E
100
AcDbEntity
  8
0
100
AcDbBlockEnd
  0
BLOCK
  5
1B
330
1A
100
AcDbEntity
 67
     1
  8
0
100
AcDbBlockBegin
  2
*Paper_Space
 70
     0
 10
0.0
 20
0.0
 30
0.0
  3
*Paper_Space
  1

  0
ENDBLK
  5
1C
330
1A
100
AcDbEntity
 67
     1
  8
0
100
AcDbBlockEnd
  0
ENDSEC
  0
SECTION
  2
ENTITIES
  0
LINE
  5
22
330
1E
100
AcDbEntity
  8
0
100
AcDbLine
 10
25.151
 20
50.02439999999999
 30
0.0
 11
30.943
 21
50.02439999999999
 31
0.0
  0
LINE
  5
23
330
1E
100
AcDbEntity
  8
0
100
AcDbLine
 10
18.01099999999999
 20
50.02439999999999
 30
0.0
 11
25.151
 21
50.02439999999999
 31
0.0
  0
LINE
  5
24
330
1E
100
AcDbEntity
  8
0
100
AcDbLine
 10
17.54799999999999
 20
50.02439999999999
 30
0.0
 11
21.951
 21
50.02439999999999
 31
0.0
  0
LINE
  5
25
330
1E
100
AcDbEntity
  8
0
100
AcDbLine
 10
12.244
 20
50.02439999999999
 30
0.0
 11
18.01099999999999
 21
50.02439999999999
 31
0.0
  0
LINE
  5
26
330
1E
100
AcDbEntity
  8
0
100
AcDbLine
 10
0.0
 20
50.02439999999999
 30
0.0
 11
0.8849999999999999
 21
50.02439999999999
 31
0.0
  0
LINE
  5
27
330
1E
100
AcDbEntity
  8
0
100
AcDbLine
 10
0.0
 20
50.02439999999999
 30
0.0
 11
1.783
 21
50.02439999999999
 31
0.0
  0
LINE
  5
28
330
1E
100
AcDbEntity
  8
0
100
AcDbLine
 10
0.0
 20
50.02439999999999
 30
0.0
 11
2.245
 21
108.311
 31
0.0
  0
LINE
  5
29
330
1E
100
AcDbEntity
  8
0
100
AcDbLine
 10
1.783
 20
50.02439999999999
 30
0.0
 11
6.224
 21
50.02439999999999
 31
0.0
  0
LINE
  5
2A
330
1E
100
AcDbEntity
  8
0
100
AcDbLine
 10
0.8849999999999999
 20
50.02439999999999
 30
0.0
 11
2.961
 21
50.02439999999999
 31
0.0
  0
LINE
  5
2B
330
1E
100
AcDbEntity
  8
0
100
AcDbLine
 10
2.961
 20
50.02439999999999
 30
0.0
 11
6.222999999999999
 21
50.02439999999999
 31
0.0
  0
LINE
  5
2C
330
1E
100
AcDbEntity
  8
0
100
AcDbLine
 10
6.222999999999999
 20
50.02439999999999
 30
0.0
 11
8.227999999999999
 21
50.02439999999999
 31
0.0
  0
LINE
  5
2D
330
1E
100
AcDbEntity
  8
0
100
AcDbLine
 10
6.224
 20
50.02439999999999
 30
0.0
 11
7.474
 21
50.02439999999999
 31
0.0
  0
LINE
  5
2E
330
1E
100
AcDbEntity
  8
0
100
AcDbLine
 10
2.245
 20
108.311
 30
0.0
 11
2.958999999999999
 21
166.414
 31
0.0
  0
LINE
  5
2F
330
1E
100
AcDbEntity
  8
0
100
AcDbLine
 10
3.483
 20
168.104
 30
0.0
 11
4.868
 21
169.205
 31
0.0
  0
LINE
  5
30
330
1E
100
AcDbEntity
  8
0
100
AcDbLine
 10
4.868
 20
169.205
 30
0.0
 11
6.632999999999999
 21
169.335
 31
0.0
  0
LINE
  5
31
330
1E
100
AcDbEntity
  8
0
100
AcDbLine
 10
2.958999999999999
 20
166.414
 30
0.0
 11
3.483
 21
168.104
 31
0.0
  0
LINE
  5
32
330
1E
100
AcDbEntity
  8
0
100
AcDbLine
 10
9.817999999999999
 20
50.02439999999999
 30
0.0
 11
14.671
 21
50.02439999999999
 31
0.0
  0
LINE
  5
33
330
1E
100
AcDbEntity
  8
0
100
AcDbLine
 10
7.474
 20
50.02439999999999
 30
0.0
 11
9.817999999999999
 21
50.02439999999999
 31
0.0
  0
LINE
  5
34
330
1E
100
AcDbEntity
  8
0
100
AcDbLine
 10
11.003
 20
50.02439999999999
 30
0.0
 11
13.639
 21
50.02439999999999
 31
0.0
  0
LINE
  5
35
330
1E
100
AcDbEntity
  8
0
100
AcDbLine
 10
10.73
 20
50.02439999999999
 30
0.0
 11
12.844
 21
50.02439999999999
 31
0.0
  0
LINE
  5
36
330
1E
100
AcDbEntity
  8
0
100
AcDbLine
 10
10.73
 20
50.02439999999999
 30
0.0
 11
11.003
 21
50.02439999999999
 31
0.0
  0
LINE
  5
38
330
1E
100
AcDbEntity
  8
0
100
AcDbLine
 10
6.632999999999999
 20
169.335
 30
0.0
 11
7.953999999999999
 21
169.335
 31
0.0
  0
LINE
  5
3B
330
1E
100
AcDbEntity
  8
0
100
AcDbLine
 10
16.753
 20
50.02439999999999
 30
0.0
 11
19.37999999999999
 21
50.02439999999999
 31
0.0
  0
LINE
  5
3C
330
1E
100
AcDbEntity
  8
0
100
AcDbLine
 10
13.639
 20
50.02439999999999
 30
0.0
 11
16.753
 21
50.02439999999999
 31
0.0
  0
LINE
  5
3D
330
1E
100
AcDbEntity
  8
0
100
AcDbLine
 10
12.844
 20
50.02439999999999
 30
0.0
 11
16.756
 21
50.02439999999999
 31
0.0
  0
LINE
  5
3E
330
1E
100
AcDbEntity
  8
0
100
AcDbLine
 10
14.671
 20
50.02439999999999
 30
0.0
 11
21.11499999999999
 21
50.02439999999999
 31
0.0
  0
LINE
  5
3F
330
1E
100
AcDbEntity
  8
0
100
AcDbLine
 10
21.11499999999999
 20
50.02439999999999
 30
0.0
 11
28.728
 21
50.02439999999999
 31
0.0
  0
LINE
  5
4B
330
1E
100
AcDbEntity
  8
0
100
AcDbLine
 10
8.227999999999999
 20
50.02439999999999
 30
0.0
 11
12.244
 21
50.02439999999999
 31
0.0
  0
LINE
  5
4E
330
1E
100
AcDbEntity
  8
0
100
AcDbLine
 10
224.827
 20
6.57919999999999
 30
0.0
 11
229.0629999999999
 21
3.446699999999979
 31
0.0
  0
LINE
  5
4F
330
1E
100
AcDbEntity
  8
0
100
AcDbLine
 10
229.0629999999999
 20
3.446699999999979
 30
0.0
 11
232.4969999999999
 21
1.766899999999989
 31
0.0
  0
LINE
  5
55
330
1E
100
AcDbEntity
  8
0
100
AcDbLine
 10
207.8679999999999
 20
38.4708
 30
0.0
 11
208.408338802535
 21
37.31132635357829
 31
0.0
  0
LINE
  5
57
330
1E
100
AcDbEntity
  8
0
100
AcDbLine
 10
206.0886084163919
 20
41.35585208812361
 30
0.0
 11
207.8679999999999
 21
38.4708
 31
0.0
  0
LINE
  5
59
330
1E
100
AcDbEntity
  8
0
100
AcDbLine
 10
203.809
 20
44.2366
 30
0.0
 11
206.088608416393
 21
41.35585208812194
 31
0.0
  0
LINE
  5
5A
330
1E
100
AcDbEntity
  8
0
100
AcDbLine
 10
208.408338802535
 20
37.31132635357829
 30
0.0
 11
215.634
 21
21.8086
 31
0.0
  0
LINE
  5
5B
330
1E
100
AcDbEntity
  8
0
100
AcDbLine
 10
219.0679999999999
 20
14.44209999999999
 30
0.0
 11
222.54
 21
8.97739999999999
 31
0.0
  0
LINE
  5
5C
330
1E
100
AcDbEntity
  8
0
100
AcDbLine
 10
215.634
 20
21.8086
 30
0.0
 11
219.0679999999999
 21
14.44209999999999
 31
0.0
  0
LINE
  5
5E
330
1E
100
AcDbEntity
  8
0
100
AcDbLine
 10
624.2819999999999
 20
-0.0000000000000142
 30
0.0
 11
630.6469999999999
 21
0.8243999999999848
 31
0.0
  0
LINE
  5
5F
330
1E
100
AcDbEntity
  8
0
100
AcDbLine
 10
630.6469999999999
 20
0.8243999999999848
 30
0.0
 11
633.513
 21
1.766899999999989
 31
0.0
  0
LINE
  5
60
330
1E
100
AcDbEntity
  8
0
100
AcDbLine
 10
241.73
 20
-0.0000000000000142
 30
0.0
 11
624.2819999999999
 21
-0.0000000000000142
 31
0.0
  0
LINE
  5
61
330
1E
100
AcDbEntity
  8
0
100
AcDbLine
 10
476.563
 20
19.00929999999999
 30
0.0
 11
493.0109999999999
 21
19.00929999999999
 31
0.0
  0
LINE
  5
62
330
1E
100
AcDbEntity
  8
0
100
AcDbLine
 10
437.3499999999999
 20
19.00929999999999
 30
0.0
 11
447.813
 21
19.00929999999999
 31
0.0
  0
LINE
  5
63
330
1E
100
AcDbEntity
  8
0
100
AcDbLine
 10
428.5709999999999
 20
19.00929999999999
 30
0.0
 11
433.018
 21
19.00929999999999
 31
0.0
  0
LINE
  5
64
330
1E
100
AcDbEntity
  8
0
100
AcDbLine
 10
430.452
 20
19.00929999999999
 30
0.0
 11
437.3499999999999
 21
19.00929999999999
 31
0.0
  0
LINE
  5
65
330
1E
100
AcDbEntity
  8
0
100
AcDbLine
 10
461.1699999999999
 20
19.00929999999999
 30
0.0
 11
476.563
 21
19.00929999999999
 31
0.0
  0
LINE
  5
66
330
1E
100
AcDbEntity
  8
0
100
AcDbLine
 10
447.813
 20
19.00929999999999
 30
0.0
 11
461.1699999999999
 21
19.00929999999999
 31
0.0
  0
LINE
  5
67
330
1E
100
AcDbEntity
  8
0
100
AcDbLine
 10
427.5559999999999
 20
19.00929999999999
 30
0.0
 11
430.452
 21
19.00929999999999
 31
0.0
  0
LINE
  5
68
330
1E
100
AcDbEntity
  8
0
100
AcDbLine
 10
427.5559999999999
 20
19.00929999999999
 30
0.0
 11
428.5709999999999
 21
19.00929999999999
 31
0.0
  0
LINE
  5
69
330
1E
100
AcDbEntity
  8
0
100
AcDbLine
 10
472.095
 20
19.00929999999999
 30
0.0
 11
477.1459999999999
 21
19.00929999999999
 31
0.0
  0
LINE
  5
6A
330
1E
100
AcDbEntity
  8
0
100
AcDbLine
 10
477.1459999999999
 20
19.00929999999999
 30
0.0
 11
484.466
 21
19.00929999999999
 31
0.0
  0
LINE
  5
6B
330
1E
100
AcDbEntity
  8
0
100
AcDbLine
 10
484.466
 20
19.00929999999999
 30
0.0
 11
493.01
 21
19.00929999999999
 31
0.0
  0
LINE
  5
6C
330
1E
100
AcDbEntity
  8
0
100
AcDbLine
 10
508.8769999999999
 20
19.00929999999999
 30
0.0
 11
513.927
 21
19.00929999999999
 31
0.0
  0
LINE
  5
6D
330
1E
100
AcDbEntity
  8
0
100
AcDbLine
 10
501.5559999999999
 20
19.00929999999999
 30
0.0
 11
508.8769999999999
 21
19.00929999999999
 31
0.0
  0
LINE
  5
6E
330
1E
100
AcDbEntity
  8
0
100
AcDbLine
 10
493.01
 20
19.00929999999999
 30
0.0
 11
501.5559999999999
 21
19.00929999999999
 31
0.0
  0
LINE
  5
6F
330
1E
100
AcDbEntity
  8
0
100
AcDbLine
 10
476.355
 20
19.00929999999999
 30
0.0
 11
483.9509999999999
 21
19.00929999999999
 31
0.0
  0
LINE
  5
70
330
1E
100
AcDbEntity
  8
0
100
AcDbLine
 10
471.453
 20
19.00929999999999
 30
0.0
 11
476.355
 21
19.00929999999999
 31
0.0
  0
LINE
  5
71
330
1E
100
AcDbEntity
  8
0
100
AcDbLine
 10
470.0369999999999
 20
19.00929999999999
 30
0.0
 11
472.095
 21
19.00929999999999
 31
0.0
  0
LINE
  5
72
330
1E
100
AcDbEntity
  8
0
100
AcDbLine
 10
470.0369999999999
 20
19.00929999999999
 30
0.0
 11
471.453
 21
19.00929999999999
 31
0.0
  0
LINE
  5
73
330
1E
100
AcDbEntity
  8
0
100
AcDbLine
 10
493.0109999999999
 20
19.00929999999999
 30
0.0
 11
509.459
 21
19.00929999999999
 31
0.0
  0
LINE
  5
74
330
1E
100
AcDbEntity
  8
0
100
AcDbLine
 10
509.6669999999999
 20
19.00929999999999
 30
0.0
 11
514.569
 21
19.00929999999999
 31
0.0
  0
LINE
  5
75
330
1E
100
AcDbEntity
  8
0
100
AcDbLine
 10
509.459
 20
19.00929999999999
 30
0.0
 11
524.852
 21
19.00929999999999
 31
0.0
  0
LINE
  5
76
330
1E
100
AcDbEntity
  8
0
100
AcDbLine
 10
513.927
 20
19.00929999999999
 30
0.0
 11
515.986
 21
19.00929999999999
 31
0.0
  0
LINE
  5
77
330
1E
100
AcDbEntity
  8
0
100
AcDbLine
 10
558.464
 20
19.00929999999999
 30
0.0
 11
558.6149999999999
 21
20.7311
 31
0.0
  0
LINE
  5
78
330
1E
100
AcDbEntity
  8
0
100
AcDbLine
 10
548.6709999999999
 20
19.00929999999999
 30
0.0
 11
555.57
 21
19.00929999999999
 31
0.0
  0
LINE
  5
79
330
1E
100
AcDbEntity
  8
0
100
AcDbLine
 10
538.2080000000001
 20
19.00929999999999
 30
0.0
 11
548.6709999999999
 21
19.00929999999999
 31
0.0
  0
LINE
  5
7A
330
1E
100
AcDbEntity
  8
0
100
AcDbLine
 10
524.852
 20
19.00929999999999
 30
0.0
 11
538.2080000000001
 21
19.00929999999999
 31
0.0
  0
LINE
  5
7B
330
1E
100
AcDbEntity
  8
0
100
AcDbLine
 10
555.57
 20
19.00929999999999
 30
0.0
 11
558.464
 21
19.00929999999999
 31
0.0
  0
LINE
  5
7C
330
1E
100
AcDbEntity
  8
0
100
AcDbLine
 10
514.569
 20
19.00929999999999
 30
0.0
 11
515.986
 21
19.00929999999999
 31
0.0
  0
LINE
  5
7D
330
1E
100
AcDbEntity
  8
0
100
AcDbLine
 10
440.6609999999999
 20
19.00929999999999
 30
0.0
 11
451.0939999999999
 21
19.00929999999999
 31
0.0
  0
LINE
  5
7E
330
1E
100
AcDbEntity
  8
0
100
AcDbLine
 10
451.0939999999999
 20
19.00929999999999
 30
0.0
 11
463.7599999999999
 21
19.00929999999999
 31
0.0
  0
LINE
  5
7F
330
1E
100
AcDbEntity
  8
0
100
AcDbLine
 10
463.7599999999999
 20
19.00929999999999
 30
0.0
 11
477.985
 21
19.00929999999999
 31
0.0
  0
LINE
  5
80
330
1E
100
AcDbEntity
  8
0
100
AcDbLine
 10
433.018
 20
19.00929999999999
 30
0.0
 11
440.6609999999999
 21
19.00929999999999
 31
0.0
  0
LINE
  5
81
330
1E
100
AcDbEntity
  8
0
100
AcDbLine
 10
477.985
 20
19.00929999999999
 30
0.0
 11
493.0109999999999
 21
19.00929999999999
 31
0.0
  0
LINE
  5
82
330
1E
100
AcDbEntity
  8
0
100
AcDbLine
 10
483.9509999999999
 20
19.00929999999999
 30
0.0
 11
493.01
 21
19.00929999999999
 31
0.0
  0
LINE
  5
83
330
1E
100
AcDbEntity
  8
0
100
AcDbLine
 10
508.037
 20
19.00929999999999
 30
0.0
 11
522.2619999999999
 21
19.00929999999999
 31
0.0
  0
LINE
  5
84
330
1E
100
AcDbEntity
  8
0
100
AcDbLine
 10
493.0109999999999
 20
19.00929999999999
 30
0.0
 11
508.037
 21
19.00929999999999
 31
0.0
  0
LINE
  5
85
330
1E
100
AcDbEntity
  8
0
100
AcDbLine
 10
493.01
 20
19.00929999999999
 30
0.0
 11
502.071
 21
19.00929999999999
 31
0.0
  0
LINE
  5
86
330
1E
100
AcDbEntity
  8
0
100
AcDbLine
 10
427.406
 20
20.73209999999999
 30
0.0
 11
427.5559999999999
 21
19.00929999999999
 31
0.0
  0
LINE
  5
87
330
1E
100
AcDbEntity
  8
0
100
AcDbLine
 10
425.103
 20
29.2153
 30
0.0
 11
427.406
 21
20.73209999999999
 31
0.0
  0
LINE
  5
88
330
1E
100
AcDbEntity
  8
0
100
AcDbLine
 10
502.071
 20
19.00929999999999
 30
0.0
 11
509.6669999999999
 21
19.00929999999999
 31
0.0
  0
LINE
  5
89
330
1E
100
AcDbEntity
  8
0
100
AcDbLine
 10
534.928
 20
19.00929999999999
 30
0.0
 11
545.361
 21
19.00929999999999
 31
0.0
  0
LINE
  5
8A
330
1E
100
AcDbEntity
  8
0
100
AcDbLine
 10
522.2619999999999
 20
19.00929999999999
 30
0.0
 11
534.928
 21
19.00929999999999
 31
0.0
  0
LINE
  5
8B
330
1E
100
AcDbEntity
  8
0
100
AcDbLine
 10
553.004
 20
19.00929999999999
 30
0.0
 11
557.451
 21
19.00929999999999
 31
0.0
  0
LINE
  5
8C
330
1E
100
AcDbEntity
  8
0
100
AcDbLine
 10
545.361
 20
19.00929999999999
 30
0.0
 11
553.004
 21
19.00929999999999
 31
0.0
  0
LINE
  5
8D
330
1E
100
AcDbEntity
  8
0
100
AcDbLine
 10
557.451
 20
19.00929999999999
 30
0.0
 11
558.464
 21
19.00929999999999
 31
0.0
  0
LINE
  5
8F
330
1E
100
AcDbEntity
  8
0
100
AcDbLine
 10
633.513
 20
1.766899999999989
 30
0.0
 11
636.5
 21
3.19059999999999
 31
0.0
  0
LINE
  5
90
330
1E
100
AcDbEntity
  8
0
100
AcDbLine
 10
636.5
 20
3.19059999999999
 30
0.0
 11
641.504
 21
6.87939999999999
 31
0.0
  0
LINE
  5
A4
330
1E
100
AcDbEntity
  8
0
100
AcDbLine
 10
558.6149999999999
 20
20.7311
 30
0.0
 11
560.9189999999999
 21
29.2153
 31
0.0
  0
LINE
  5
A5
330
1E
100
AcDbEntity
  8
0
100
AcDbLine
 10
409.463
 20
42.6048
 30
0.0
 11
412.9959999999999
 21
41.1311
 31
0.0
  0
LINE
  5
A6
330
1E
100
AcDbEntity
  8
0
100
AcDbLine
 10
412.9959999999999
 20
41.1311
 30
0.0
 11
420.0109999999999
 21
36.3818
 31
0.0
  0
LINE
  5
A7
330
1E
100
AcDbEntity
  8
0
100
AcDbLine
 10
420.0109999999999
 20
36.3818
 30
0.0
 11
425.103
 21
29.2153
 31
0.0
  0
LINE
  5
AA
330
1E
100
AcDbEntity
  8
0
100
AcDbLine
 10
573.0249999999999
 20
41.1311
 30
0.0
 11
576.5579999999999
 21
42.6038
 31
0.0
  0
LINE
  5
AB
330
1E
100
AcDbEntity
  8
0
100
AcDbLine
 10
576.5579999999999
 20
42.6038
 30
0.0
 11
582.6109999999999
 21
45.5532
 31
0.0
  0
LINE
  5
AF
330
1E
100
AcDbEntity
  8
0
100
AcDbLine
 10
566.0109999999999
 20
36.3818
 30
0.0
 11
573.0249999999999
 21
41.1311
 31
0.0
  0
LINE
  5
B1
330
1E
100
AcDbEntity
  8
0
100
AcDbLine
 10
560.9189999999999
 20
29.2153
 30
0.0
 11
566.0109999999999
 21
36.3818
 31
0.0
  0
LINE
  5
B5
330
1E
100
AcDbEntity
  8
0
100
AcDbLine
 10
660.4619999999999
 20
42.2726
 30
0.0
 11
663.9916697860971
 21
45.8050521834505
 31
0.0
  0
LINE
  5
B7
330
1E
100
AcDbEntity
  8
0
100
AcDbLine
 10
233.928
 20
1.248599999999989
 30
0.0
 11
241.7279999999999
 21
-0.0000000000000142
 31
0.0
  0
LINE
  5
B8
330
1E
100
AcDbEntity
  8
0
100
AcDbLine
 10
232.4969999999999
 20
1.766899999999989
 30
0.0
 11
233.928
 21
1.248599999999989
 31
0.0
  0
LINE
  5
B9
330
1E
100
AcDbEntity
  8
0
100
AcDbLine
 10
29.249
 20
50.02439999999999
 30
0.0
 11
37.659
 21
50.02439999999999
 31
0.0
  0
LINE
  5
BA
330
1E
100
AcDbEntity
  8
0
100
AcDbLine
 10
37.015
 20
50.02439999999999
 30
0.0
 11
97.971
 21
50.02439999999999
 31
0.0
  0
LINE
  5
BB
330
1E
100
AcDbEntity
  8
0
100
AcDbLine
 10
97.971
 20
50.02439999999999
 30
0.0
 11
128.892
 21
50.02439999999999
 31
0.0
  0
LINE
  5
BC
330
1E
100
AcDbEntity
  8
0
100
AcDbLine
 10
30.943
 20
50.02439999999999
 30
0.0
 11
37.015
 21
50.02439999999999
 31
0.0
  0
LINE
  5
BD
330
1E
100
AcDbEntity
  8
0
100
AcDbLine
 10
28.728
 20
50.02439999999999
 30
0.0
 11
37.015
 21
50.02439999999999
 31
0.0
  0
LINE
  5
BE
330
1E
100
AcDbEntity
  8
0
100
AcDbLine
 10
37.015
 20
50.02439999999999
 30
0.0
 11
97.97200000000001
 21
50.02439999999999
 31
0.0
  0
LINE
  5
BF
330
1E
100
AcDbEntity
  8
0
100
AcDbLine
 10
33.716
 20
50.02439999999999
 30
0.0
 11
37.659
 21
50.02439999999999
 31
0.0
  0
LINE
  5
C0
330
1E
100
AcDbEntity
  8
0
100
AcDbLine
 10
33.722
 20
50.02439999999999
 30
0.0
 11
37.659
 21
50.02439999999999
 31
0.0
  0
LINE
  5
C1
330
1E
100
AcDbEntity
  8
0
100
AcDbLine
 10
37.659
 20
50.02439999999999
 30
0.0
 11
97.971
 21
50.02439999999999
 31
0.0
  0
LINE
  5
C2
330
1E
100
AcDbEntity
  8
0
100
AcDbLine
 10
97.97200000000001
 20
50.02439999999999
 30
0.0
 11
120.662
 21
50.02439999999999
 31
0.0
  0
LINE
  5
C3
330
1E
100
AcDbEntity
  8
0
100
AcDbLine
 10
120.662
 20
50.02439999999999
 30
0.0
 11
122.377
 21
50.02439999999999
 31
0.0
  0
LINE
  5
C4
330
1E
100
AcDbEntity
  8
0
100
AcDbLine
 10
122.377
 20
50.02439999999999
 30
0.0
 11
123.3149999999999
 21
50.02439999999999
 31
0.0
  0
LINE
  5
C5
330
1E
100
AcDbEntity
  8
0
100
AcDbLine
 10
123.3149999999999
 20
50.02439999999999
 30
0.0
 11
123.7249999999999
 21
50.02439999999999
 31
0.0
  0
LINE
  5
C6
330
1E
100
AcDbEntity
  8
0
100
AcDbLine
 10
97.971
 20
50.02439999999999
 30
0.0
 11
124.5849999999999
 21
50.02439999999999
 31
0.0
  0
LINE
  5
C7
330
1E
100
AcDbEntity
  8
0
100
AcDbLine
 10
37.659
 20
50.02439999999999
 30
0.0
 11
97.971
 21
50.02439999999999
 31
0.0
  0
LINE
  5
C8
330
1E
100
AcDbEntity
  8
0
100
AcDbLine
 10
37.015
 20
50.02439999999999
 30
0.0
 11
97.97200000000001
 21
50.02439999999999
 31
0.0
  0
LINE
  5
C9
330
1E
100
AcDbEntity
  8
0
100
AcDbLine
 10
37.015
 20
50.02439999999999
 30
0.0
 11
97.971
 21
50.02439999999999
 31
0.0
  0
LINE
  5
CA
330
1E
100
AcDbEntity
  8
0
100
AcDbLine
 10
131.876
 20
50.02439999999999
 30
0.0
 11
136.657
 21
50.02439999999999
 31
0.0
  0
LINE
  5
CB
330
1E
100
AcDbEntity
  8
0
100
AcDbLine
 10
130.055
 20
50.02439999999999
 30
0.0
 11
131.072
 21
50.02439999999999
 31
0.0
  0
LINE
  5
CC
330
1E
100
AcDbEntity
  8
0
100
AcDbLine
 10
128.892
 20
50.02439999999999
 30
0.0
 11
130.055
 21
50.02439999999999
 31
0.0
  0
LINE
  5
CD
330
1E
100
AcDbEntity
  8
0
100
AcDbLine
 10
139.643
 20
50.02439999999999
 30
0.0
 11
142.4499999999999
 21
50.02439999999999
 31
0.0
  0
LINE
  5
CE
330
1E
100
AcDbEntity
  8
0
100
AcDbLine
 10
136.3559999999999
 20
50.02439999999999
 30
0.0
 11
139.643
 21
50.02439999999999
 31
0.0
  0
LINE
  5
CF
330
1E
100
AcDbEntity
  8
0
100
AcDbLine
 10
131.072
 20
50.02439999999999
 30
0.0
 11
131.876
 21
50.02439999999999
 31
0.0
  0
LINE
  5
D0
330
1E
100
AcDbEntity
  8
0
100
AcDbLine
 10
156.3909999999999
 20
50.02439999999999
 30
0.0
 11
163.619
 21
50.02439999999999
 31
0.0
  0
LINE
  5
D1
330
1E
100
AcDbEntity
  8
0
100
AcDbLine
 10
149.784
 20
50.02439999999999
 30
0.0
 11
156.3909999999999
 21
50.02439999999999
 31
0.0
  0
LINE
  5
D2
330
1E
100
AcDbEntity
  8
0
100
AcDbLine
 10
143.93
 20
50.02439999999999
 30
0.0
 11
149.784
 21
50.02439999999999
 31
0.0
  0
LINE
  5
D3
330
1E
100
AcDbEntity
  8
0
100
AcDbLine
 10
136.657
 20
50.02439999999999
 30
0.0
 11
143.93
 21
50.02439999999999
 31
0.0
  0
LINE
  5
D4
330
1E
100
AcDbEntity
  8
0
100
AcDbLine
 10
164.687
 20
50.02439999999999
 30
0.0
 11
177.244
 21
50.02439999999999
 31
0.0
  0
LINE
  5
D5
330
1E
100
AcDbEntity
  8
0
100
AcDbLine
 10
177.244
 20
50.02439999999999
 30
0.0
 11
189.74
 21
50.02439999999999
 31
0.0
  0
LINE
  5
D6
330
1E
100
AcDbEntity
  8
0
100
AcDbLine
 10
163.619
 20
50.02439999999999
 30
0.0
 11
171.282
 21
50.02439999999999
 31
0.0
  0
LINE
  5
D7
330
1E
100
AcDbEntity
  8
0
100
AcDbLine
 10
124.5849999999999
 20
50.02439999999999
 30
0.0
 11
130.34
 21
50.02439999999999
 31
0.0
  0
LINE
  5
D8
330
1E
100
AcDbEntity
  8
0
100
AcDbLine
 10
133.352
 20
50.02439999999999
 30
0.0
 11
134.9569999999999
 21
50.02439999999999
 31
0.0
  0
LINE
  5
D9
330
1E
100
AcDbEntity
  8
0
100
AcDbLine
 10
171.282
 20
50.02439999999999
 30
0.0
 11
181.8799999999999
 21
50.02439999999999
 31
0.0
  0
LINE
  5
DA
330
1E
100
AcDbEntity
  8
0
100
AcDbLine
 10
123.7249999999999
 20
50.02439999999999
 30
0.0
 11
129.703
 21
50.02439999999999
 31
0.0
  0
LINE
  5
DB
330
1E
100
AcDbEntity
  8
0
100
AcDbLine
 10
133.9399999999999
 20
50.02439999999999
 30
0.0
 11
139.1329999999999
 21
50.02439999999999
 31
0.0
  0
LINE
  5
DC
330
1E
100
AcDbEntity
  8
0
100
AcDbLine
 10
130.8609999999999
 20
50.02439999999999
 30
0.0
 11
133.9399999999999
 21
50.02439999999999
 31
0.0
  0
LINE
  5
DD
330
1E
100
AcDbEntity
  8
0
100
AcDbLine
 10
129.703
 20
50.02439999999999
 30
0.0
 11
130.8609999999999
 21
50.02439999999999
 31
0.0
  0
LINE
  5
DE
330
1E
100
AcDbEntity
  8
0
100
AcDbLine
 10
155.2239999999999
 20
50.02439999999999
 30
0.0
 11
165.535
 21
50.02439999999999
 31
0.0
  0
LINE
  5
DF
330
1E
100
AcDbEntity
  8
0
100
AcDbLine
 10
160.4079999999999
 20
50.02439999999999
 30
0.0
 11
166.975
 21
50.02439999999999
 31
0.0
  0
LINE
  5
E0
330
1E
100
AcDbEntity
  8
0
100
AcDbLine
 10
153.496
 20
50.02439999999999
 30
0.0
 11
160.4079999999999
 21
50.02439999999999
 31
0.0
  0
LINE
  5
E1
330
1E
100
AcDbEntity
  8
0
100
AcDbLine
 10
147.947
 20
50.02439999999999
 30
0.0
 11
153.496
 21
50.02439999999999
 31
0.0
  0
LINE
  5
E2
330
1E
100
AcDbEntity
  8
0
100
AcDbLine
 10
144.028
 20
50.02439999999999
 30
0.0
 11
147.947
 21
50.02439999999999
 31
0.0
  0
LINE
  5
E3
330
1E
100
AcDbEntity
  8
0
100
AcDbLine
 10
139.1329999999999
 20
50.02439999999999
 30
0.0
 11
146.203
 21
50.02439999999999
 31
0.0
  0
LINE
  5
E4
330
1E
100
AcDbEntity
  8
0
100
AcDbLine
 10
146.203
 20
50.02439999999999
 30
0.0
 11
155.2239999999999
 21
50.02439999999999
 31
0.0
  0
LINE
  5
E5
330
1E
100
AcDbEntity
  8
0
100
AcDbLine
 10
174.058
 20
50.02439999999999
 30
0.0
 11
187.7369999999999
 21
50.02439999999999
 31
0.0
  0
LINE
  5
E6
330
1E
100
AcDbEntity
  8
0
100
AcDbLine
 10
166.975
 20
50.02439999999999
 30
0.0
 11
174.0549999999999
 21
50.02439999999999
 31
0.0
  0
LINE
  5
E7
330
1E
100
AcDbEntity
  8
0
100
AcDbLine
 10
166.975
 20
50.02439999999999
 30
0.0
 11
174.058
 21
50.02439999999999
 31
0.0
  0
LINE
  5
E8
330
1E
100
AcDbEntity
  8
0
100
AcDbLine
 10
165.535
 20
50.02439999999999
 30
0.0
 11
176.662
 21
50.02439999999999
 31
0.0
  0
LINE
  5
E9
330
1E
100
AcDbEntity
  8
0
100
AcDbLine
 10
134.9569999999999
 20
50.02439999999999
 30
0.0
 11
141.459
 21
50.02439999999999
 31
0.0
  0
LINE
  5
EA
330
1E
100
AcDbEntity
  8
0
100
AcDbLine
 10
181.8799999999999
 20
50.02439999999999
 30
0.0
 11
189.74
 21
50.02439999999999
 31
0.0
  0
LINE
  5
EB
330
1E
100
AcDbEntity
  8
0
100
AcDbLine
 10
196.069
 20
48.99589999999999
 30
0.0
 11
197.2532983557555
 21
48.53698438714474
 31
0.0
  0
LINE
  5
ED
330
1E
100
AcDbEntity
  8
0
100
AcDbLine
 10
189.74
 20
50.02439999999999
 30
0.0
 11
196.069
 21
48.99589999999999
 31
0.0
  0
LINE
  5
EE
330
1E
100
AcDbEntity
  8
0
100
AcDbLine
 10
191.079
 20
50.02439999999999
 30
0.0
 11
285.607
 21
50.02439999999999
 31
0.0
  0
LINE
  5
EF
330
1E
100
AcDbEntity
  8
0
100
AcDbLine
 10
180.8809999999999
 20
50.02439999999999
 30
0.0
 11
191.079
 21
50.02439999999999
 31
0.0
  0
LINE
  5
F0
330
1E
100
AcDbEntity
  8
0
100
AcDbLine
 10
176.662
 20
50.02439999999999
 30
0.0
 11
180.8809999999999
 21
50.02439999999999
 31
0.0
  0
LINE
  5
F1
330
1E
100
AcDbEntity
  8
0
100
AcDbLine
 10
200.55207137775
 20
46.81520518844629
 30
0.0
 11
203.809
 21
44.2366
 31
0.0
  0
LINE
  5
F2
330
1E
100
AcDbEntity
  8
0
100
AcDbLine
 10
285.607
 20
50.02439999999999
 30
0.0
 11
380.209
 21
50.02439999999999
 31
0.0
  0
LINE
  5
F3
330
1E
100
AcDbEntity
  8
0
100
AcDbLine
 10
327.652
 20
50.02439999999999
 30
0.0
 11
458.6289999999999
 21
50.02439999999999
 31
0.0
  0
LINE
  5
F4
330
1E
100
AcDbEntity
  8
0
100
AcDbLine
 10
399.038
 20
47.81629999999999
 30
0.0
 11
403.41
 21
45.5532
 31
0.0
  0
LINE
  5
F5
330
1E
100
AcDbEntity
  8
0
100
AcDbLine
 10
394.291744689012
 20
50.02439999999999
 30
0.0
 11
399.038
 21
47.81629999999999
 31
0.0
  0
LINE
  5
F6
330
1E
100
AcDbEntity
  8
0
100
AcDbLine
 10
403.41
 20
45.5532
 30
0.0
 11
409.463
 21
42.6048
 31
0.0
  0
LINE
  5
F7
330
1E
100
AcDbEntity
  8
0
100
AcDbLine
 10
509.346
 20
50.02439999999999
 30
0.0
 11
650.4529999999999
 21
50.02439999999999
 31
0.0
  0
LINE
  5
F8
330
1E
100
AcDbEntity
  8
0
100
AcDbLine
 10
458.6289999999999
 20
50.02439999999999
 30
0.0
 11
493.013
 21
50.02439999999999
 31
0.0
  0
LINE
  5
F9
330
1E
100
AcDbEntity
  8
0
100
AcDbLine
 10
493.013
 20
50.02439999999999
 30
0.0
 11
509.346
 21
50.02439999999999
 31
0.0
  0
LINE
  5
FA
330
1E
100
AcDbEntity
  8
0
100
AcDbLine
 10
582.6109999999999
 20
45.5532
 30
0.0
 11
586.984
 21
47.81629999999999
 31
0.0
  0
LINE
  5
FB
330
1E
100
AcDbEntity
  8
0
100
AcDbLine
 10
664.070566208962
 20
45.8640734601501
 30
0.0
 11
666.624175931453
 21
47.51803853624259
 31
0.0
  0
LINE
  5
FD
330
1E
100
AcDbEntity
  8
0
100
AcDbLine
 10
586.984
 20
47.81629999999999
 30
0.0
 11
591.7299295556469
 21
50.02439999999999
 31
0.0
  0
LINE
  5
101
330
1E
100
AcDbEntity
  8
0
100
AcDbLine
 10
663.9916697860971
 20
45.8050521834505
 30
0.0
 11
664.070566208962
 21
45.8640734601501
 31
0.0
  0
LINE
  5
107
330
1E
100
AcDbEntity
  8
0
100
AcDbLine
 10
666.624175931453
 20
47.51803853624259
 30
0.0
 11
671.572
 21
49.4641
 31
0.0
  0
LINE
  5
112
330
1E
100
AcDbEntity
  8
0
100
AcDbLine
 10
684.646
 20
50.02439999999999
 30
0.0
 11
803.377
 21
50.02439999999999
 31
0.0
  0
LINE
  5
113
330
1E
100
AcDbEntity
  8
0
100
AcDbLine
 10
676.2699999999999
 20
50.02439999999999
 30
0.0
 11
684.646
 21
50.02439999999999
 31
0.0
  0
LINE
  5
114
330
1E
100
AcDbEntity
  8
0
100
AcDbLine
 10
791.427
 20
50.02439999999999
 30
0.0
 11
806.196
 21
50.02439999999999
 31
0.0
  0
LINE
  5
115
330
1E
100
AcDbEntity
  8
0
100
AcDbLine
 10
671.572
 20
49.4641
 30
0.0
 11
676.2699999999999
 21
50.02439999999999
 31
0.0
  0
LINE
  5
116
330
1E
100
AcDbEntity
  8
0
100
AcDbLine
 10
650.4529999999999
 20
50.02439999999999
 30
0.0
 11
791.427
 21
50.02439999999999
 31
0.0
  0
LINE
  5
119
330
1E
100
AcDbEntity
  8
0
100
AcDbLine
 10
663.9916697860971
 20
45.8050521834505
 30
0.0
 11
664.070566208962
 21
45.8640734601501
 31
0.0
  0
LINE
  5
11A
330
1E
100
AcDbEntity
  8
0
100
AcDbLine
 10
563.5509999999999
 20
50.02439999999999
 30
0.0
 11
675.6339999999998
 21
50.02439999999999
 31
0.0
  0
LINE
  5
11B
330
1E
100
AcDbEntity
  8
0
100
AcDbLine
 10
493.0109999999999
 20
50.02439999999999
 30
0.0
 11
563.5509999999999
 21
50.02439999999999
 31
0.0
  0
LINE
  5
11C
330
1E
100
AcDbEntity
  8
0
100
AcDbLine
 10
380.209
 20
50.02439999999999
 30
0.0
 11
493.0109999999999
 21
50.02439999999999
 31
0.0
  0
LINE
  5
11D
330
1E
100
AcDbEntity
  8
0
100
AcDbLine
 10
675.6339999999998
 20
50.02439999999999
 30
0.0
 11
794.936
 21
50.02439999999999
 31
0.0
  0
LINE
  5
11E
330
1E
100
AcDbEntity
  8
0
100
AcDbLine
 10
807.2739999999999
 20
50.02439999999999
 30
0.0
 11
819.452
 21
50.02439999999999
 31
0.0
  0
LINE
  5
11F
330
1E
100
AcDbEntity
  8
0
100
AcDbLine
 10
803.377
 20
50.02439999999999
 30
0.0
 11
814.741
 21
50.02439999999999
 31
0.0
  0
LINE
  5
120
330
1E
100
AcDbEntity
  8
0
100
AcDbLine
 10
820.4769999999999
 20
50.02439999999999
 30
0.0
 11
830.797
 21
50.02439999999999
 31
0.0
  0
LINE
  5
121
330
1E
100
AcDbEntity
  8
0
100
AcDbLine
 10
806.196
 20
50.02439999999999
 30
0.0
 11
813.6180000000001
 21
50.02439999999999
 31
0.0
  0
LINE
  5
122
330
1E
100
AcDbEntity
  8
0
100
AcDbLine
 10
814.741
 20
50.02439999999999
 30
0.0
 11
822.405
 21
50.02439999999999
 31
0.0
  0
LINE
  5
123
330
1E
100
AcDbEntity
  8
0
100
AcDbLine
 10
829.625
 20
50.02439999999999
 30
0.0
 11
838.87
 21
50.02439999999999
 31
0.0
  0
LINE
  5
124
330
1E
100
AcDbEntity
  8
0
100
AcDbLine
 10
838.87
 20
50.02439999999999
 30
0.0
 11
842.082
 21
50.02439999999999
 31
0.0
  0
LINE
  5
125
330
1E
100
AcDbEntity
  8
0
100
AcDbLine
 10
839.0629999999999
 20
50.02439999999999
 30
0.0
 11
843.575
 21
50.02439999999999
 31
0.0
  0
LINE
  5
126
330
1E
100
AcDbEntity
  8
0
100
AcDbLine
 10
823.2519999999999
 20
50.02439999999999
 30
0.0
 11
831.6160000000001
 21
50.02439999999999
 31
0.0
  0
LINE
  5
127
330
1E
100
AcDbEntity
  8
0
100
AcDbLine
 10
838.9499999999999
 20
50.02439999999999
 30
0.0
 11
843.337
 21
50.02439999999999
 31
0.0
  0
LINE
  5
128
330
1E
100
AcDbEntity
  8
0
100
AcDbLine
 10
822.405
 20
50.02439999999999
 30
0.0
 11
829.625
 21
50.02439999999999
 31
0.0
  0
LINE
  5
129
330
1E
100
AcDbEntity
  8
0
100
AcDbLine
 10
830.797
 20
50.02439999999999
 30
0.0
 11
839.822
 21
50.02439999999999
 31
0.0
  0
LINE
  5
12A
330
1E
100
AcDbEntity
  8
0
100
AcDbLine
 10
842.082
 20
50.02439999999999
 30
0.0
 11
849.3630000000001
 21
50.02439999999999
 31
0.0
  0
LINE
  5
12B
330
1E
100
AcDbEntity
  8
0
100
AcDbLine
 10
839.822
 20
50.02439999999999
 30
0.0
 11
846.893
 21
50.02439999999999
 31
0.0
  0
LINE
  5
12C
330
1E
100
AcDbEntity
  8
0
100
AcDbLine
 10
809.35
 20
50.02439999999999
 30
0.0
 11
820.4769999999999
 21
50.02439999999999
 31
0.0
  0
LINE
  5
12D
330
1E
100
AcDbEntity
  8
0
100
AcDbLine
 10
794.936
 20
50.02439999999999
 30
0.0
 11
805.141
 21
50.02439999999999
 31
0.0
  0
LINE
  5
12E
330
1E
100
AcDbEntity
  8
0
100
AcDbLine
 10
805.141
 20
50.02439999999999
 30
0.0
 11
809.35
 21
50.02439999999999
 31
0.0
  0
LINE
  5
12F
330
1E
100
AcDbEntity
  8
0
100
AcDbLine
 10
197.253298355755
 20
48.536984387145
 30
0.0
 11
200.55207137775
 21
46.81520518844629
 31
0.0
  0
LINE
  5
131
330
1E
100
AcDbEntity
  8
0
100
AcDbLine
 10
849.3630000000001
 20
50.02439999999999
 30
0.0
 11
854.081
 21
50.02439999999999
 31
0.0
  0
LINE
  5
132
330
1E
100
AcDbEntity
  8
0
100
AcDbLine
 10
854.081
 20
50.02439999999999
 30
0.0
 11
856.076
 21
50.02439999999999
 31
0.0
  0
LINE
  5
133
330
1E
100
AcDbEntity
  8
0
100
AcDbLine
 10
844.9939999999999
 20
50.02439999999999
 30
0.0
 11
849.5029999999999
 21
50.02439999999999
 31
0.0
  0
LINE
  5
134
330
1E
100
AcDbEntity
  8
0
100
AcDbLine
 10
851.689
 20
50.02439999999999
 30
0.0
 11
854.448
 21
50.02439999999999
 31
0.0
  0
LINE
  5
135
330
1E
100
AcDbEntity
  8
0
100
AcDbLine
 10
846.893
 20
50.02439999999999
 30
0.0
 11
852.0850000000001
 21
50.02439999999999
 31
0.0
  0
LINE
  5
136
330
1E
100
AcDbEntity
  8
0
100
AcDbLine
 10
851.697
 20
50.02439999999999
 30
0.0
 11
854.448
 21
50.02439999999999
 31
0.0
  0
LINE
  5
137
330
1E
100
AcDbEntity
  8
0
100
AcDbLine
 10
856.314
 20
50.02439999999999
 30
0.0
 11
862.0230000000001
 21
50.02439999999999
 31
0.0
  0
LINE
  5
138
330
1E
100
AcDbEntity
  8
0
100
AcDbLine
 10
852.0850000000001
 20
50.02439999999999
 30
0.0
 11
855.151
 21
50.02439999999999
 31
0.0
  0
LINE
  5
139
330
1E
100
AcDbEntity
  8
0
100
AcDbLine
 10
856.076
 20
50.02439999999999
 30
0.0
 11
861.172
 21
50.02439999999999
 31
0.0
  0
LINE
  5
13A
330
1E
100
AcDbEntity
  8
0
100
AcDbLine
 10
865.2489999999998
 20
50.02439999999999
 30
0.0
 11
866.0
 21
50.02439999999999
 31
0.0
  0
LINE
  5
13B
330
1E
100
AcDbEntity
  8
0
100
AcDbLine
 10
862.0230000000001
 20
50.02439999999999
 30
0.0
 11
865.2489999999998
 21
50.02439999999999
 31
0.0
  0
LINE
  5
13C
330
1E
100
AcDbEntity
  8
0
100
AcDbLine
 10
864.2710000000001
 20
50.02439999999999
 30
0.0
 11
866.0
 21
50.02439999999999
 31
0.0
  0
LINE
  5
13D
330
1E
100
AcDbEntity
  8
0
100
AcDbLine
 10
861.172
 20
50.02439999999999
 30
0.0
 11
864.2710000000001
 21
50.02439999999999
 31
0.0
  0
LINE
  5
13E
330
1E
100
AcDbEntity
  8
0
100
AcDbLine
 10
855.151
 20
50.02439999999999
 30
0.0
 11
856.314
 21
50.02439999999999
 31
0.0
  0
LINE
  5
13F
330
1E
100
AcDbEntity
  8
0
100
AcDbLine
 10
844.968
 20
50.02439999999999
 30
0.0
 11
851.697
 21
50.02439999999999
 31
0.0
  0
LINE
  5
140
330
1E
100
AcDbEntity
  8
0
100
AcDbLine
 10
844.968
 20
50.02439999999999
 30
0.0
 11
851.689
 21
50.02439999999999
 31
0.0
  0
LINE
  5
147
330
1E
100
AcDbEntity
  8
0
100
AcDbLine
 10
97.97200000000001
 20
169.4059999999999
 30
0.0
 11
187.99
 21
169.335
 31
0.0
  0
LINE
  5
148
330
1E
100
AcDbEntity
  8
0
100
AcDbLine
 10
6.633000000000002
 20
169.335
 30
0.0
 11
97.97200000000001
 21
169.4059999999999
 31
0.0
  0
LINE
  5
14C
330
1E
100
AcDbEntity
  8
0
100
AcDbLine
 10
130.5719999999999
 20
149.7079999999999
 30
0.0
 11
136.185
 21
149.6979999999999
 31
0.0
  0
LINE
  5
14D
330
1E
100
AcDbEntity
  8
0
100
AcDbLine
 10
129.851
 20
149.71
 30
0.0
 11
130.5719999999999
 21
149.7079999999999
 31
0.0
  0
LINE
  5
14E
330
1E
100
AcDbEntity
  8
0
100
AcDbLine
 10
152.035
 20
149.709
 30
0.0
 11
161.156
 21
149.7139999999999
 31
0.0
  0
LINE
  5
14F
330
1E
100
AcDbEntity
  8
0
100
AcDbLine
 10
144.6069999999999
 20
149.704
 30
0.0
 11
152.035
 21
149.709
 31
0.0
  0
LINE
  5
150
330
1E
100
AcDbEntity
  8
0
100
AcDbLine
 10
138.8209999999999
 20
149.704
 30
0.0
 11
144.6069999999999
 21
149.704
 31
0.0
  0
LINE
  5
151
330
1E
100
AcDbEntity
  8
0
100
AcDbLine
 10
136.185
 20
149.6979999999999
 30
0.0
 11
138.8209999999999
 21
149.704
 31
0.0
  0
LINE
  5
156
330
1E
100
AcDbEntity
  8
0
100
AcDbLine
 10
458.053
 20
149.6299999999999
 30
0.0
 11
493.0109999999999
 21
149.6289999999999
 31
0.0
  0
LINE
  5
157
330
1E
100
AcDbEntity
  8
0
100
AcDbLine
 10
493.0109999999999
 20
149.6289999999999
 30
0.0
 11
527.965
 21
149.6299999999999
 31
0.0
  0
LINE
  5
158
330
1E
100
AcDbEntity
  8
0
100
AcDbLine
 10
192.7986023748889
 20
149.714560426566
 30
0.0
 11
192.984
 21
166.414
 31
0.0
  0
LINE
  5
159
330
1E
100
AcDbEntity
  8
0
100
AcDbLine
 10
234.785
 20
149.713
 30
0.0
 11
298.5939999999999
 21
149.6979999999999
 31
0.0
  0
LINE
  5
15A
330
1E
100
AcDbEntity
  8
0
100
AcDbLine
 10
298.5939999999999
 20
149.6979999999999
 30
0.0
 11
347.303
 21
149.674
 31
0.0
  0
LINE
  5
15B
330
1E
100
AcDbEntity
  8
0
100
AcDbLine
 10
347.303
 20
149.674
 30
0.0
 11
384.033
 21
149.655
 31
0.0
  0
LINE
  5
15C
330
1E
100
AcDbEntity
  8
0
100
AcDbLine
 10
384.033
 20
149.655
 30
0.0
 11
420.967
 21
149.641
 31
0.0
  0
LINE
  5
15D
330
1E
100
AcDbEntity
  8
0
100
AcDbLine
 10
420.967
 20
149.641
 30
0.0
 11
458.053
 21
149.6299999999999
 31
0.0
  0
LINE
  5
15E
330
1E
100
AcDbEntity
  8
0
100
AcDbLine
 10
180.9709999999999
 20
149.7149999999999
 30
0.0
 11
234.785
 21
149.713
 31
0.0
  0
LINE
  5
15F
330
1E
100
AcDbEntity
  8
0
100
AcDbLine
 10
161.156
 20
149.7139999999999
 30
0.0
 11
172.98
 21
149.7179999999999
 31
0.0
  0
LINE
  5
161
330
1E
100
AcDbEntity
  8
0
100
AcDbLine
 10
172.98
 20
149.7179999999999
 30
0.0
 11
180.9709999999999
 21
149.7149999999999
 31
0.0
  0
LINE
  5
162
330
1E
100
AcDbEntity
  8
0
100
AcDbLine
 10
601.984
 20
149.655
 30
0.0
 11
638.721
 21
149.675
 31
0.0
  0
LINE
  5
163
330
1E
100
AcDbEntity
  8
0
100
AcDbLine
 10
565.059
 20
149.6399999999999
 30
0.0
 11
601.984
 21
149.655
 31
0.0
  0
LINE
  5
164
330
1E
100
AcDbEntity
  8
0
100
AcDbLine
 10
565.056
 20
149.6399999999999
 30
0.0
 11
601.984
 21
149.655
 31
0.0
  0
LINE
  5
165
330
1E
100
AcDbEntity
  8
0
100
AcDbLine
 10
527.965
 20
149.6299999999999
 30
0.0
 11
565.056
 21
149.6399999999999
 31
0.0
  0
LINE
  5
166
330
1E
100
AcDbEntity
  8
0
100
AcDbLine
 10
527.965
 20
149.6299999999999
 30
0.0
 11
565.059
 21
149.6399999999999
 31
0.0
  0
LINE
  5
167
330
1E
100
AcDbEntity
  8
0
100
AcDbLine
 10
687.4299999999999
 20
149.6989999999999
 30
0.0
 11
751.2389999999999
 21
149.713
 31
0.0
  0
LINE
  5
16F
330
1E
100
AcDbEntity
  8
0
100
AcDbLine
 10
862.592
 20
148.328
 30
0.0
 11
863.0499999999999
 21
146.738
 31
0.0
  0
LINE
  5
171
330
1E
100
AcDbEntity
  8
0
100
AcDbLine
 10
859.3291103519149
 20
149.706457561913
 30
0.0
 11
859.412
 21
149.716
 31
0.0
  0
LINE
  5
172
330
1E
100
AcDbEntity
  8
0
100
AcDbLine
 10
859.2730000000001
 20
149.7139999999999
 30
0.0
 11
859.412
 21
149.716
 31
0.0
  0
LINE
  5
176
330
1E
100
AcDbEntity
  8
0
100
AcDbLine
 10
859.412
 20
149.716
 30
0.0
 11
861.3560000000001
 21
149.434
 31
0.0
  0
LINE
  5
177
330
1E
100
AcDbEntity
  8
0
100
AcDbLine
 10
857.961
 20
149.721
 30
0.0
 11
859.412
 21
149.716
 31
0.0
  0
LINE
  5
17A
330
1E
100
AcDbEntity
  8
0
100
AcDbLine
 10
861.3560000000001
 20
149.434
 30
0.0
 11
862.592
 21
148.328
 31
0.0
  0
LINE
  5
183
330
1E
100
AcDbEntity
  8
0
100
AcDbLine
 10
638.721
 20
149.675
 30
0.0
 11
687.4299999999999
 21
149.6989999999999
 31
0.0
  0
LINE
  5
191
330
1E
100
AcDbEntity
  8
0
100
AcDbLine
 10
192.46
 20
168.104
 30
0.0
 11
192.984
 21
166.414
 31
0.0
  0
LINE
  5
192
330
1E
100
AcDbEntity
  8
0
100
AcDbLine
 10
191.0749999999999
 20
169.205
 30
0.0
 11
192.46
 21
168.104
 31
0.0
  0
LINE
  5
193
330
1E
100
AcDbEntity
  8
0
100
AcDbLine
 10
189.3109999999999
 20
169.335
 30
0.0
 11
191.0749999999999
 21
169.205
 31
0.0
  0
LINE
  5
194
330
1E
100
AcDbEntity
  8
0
100
AcDbLine
 10
187.99
 20
169.335
 30
0.0
 11
189.3109999999999
 21
169.335
 31
0.0
  0
LINE
  5
195
330
1E
100
AcDbEntity
  8
0
100
AcDbLine
 10
174.0549999999999
 20
50.02439999999999
 30
0.0
 11
187.7369999999999
 21
50.02439999999999
 31
0.0
  0
LINE
  5
196
330
1E
100
AcDbEntity
  8
0
100
AcDbLine
 10
25.398
 20
50.02439999999999
 30
0.0
 11
33.716
 21
50.02439999999999
 31
0.0
  0
LINE
  5
197
330
1E
100
AcDbEntity
  8
0
100
AcDbLine
 10
25.398
 20
50.02439999999999
 30
0.0
 11
33.722
 21
50.02439999999999
 31
0.0
  0
LINE
  5
19C
330
1E
100
AcDbEntity
  8
0
  6
Continuous
100
AcDbLine
 10
222.54
 20
8.97739999999999
 30
0.0
 11
224.827
 21
6.57919999999999
 31
0.0
  0
LINE
  5
19D
330
1E
100
AcDbEntity
  8
0
  6
Continuous
100
AcDbLine
 10
641.504
 20
6.87939999999999
 30
0.0
 11
660.4619999999999
 21
42.2726
 31
0.0
  0
LINE
  5
19E
330
1E
100
AcDbEntity
  8
0
  6
Continuous
100
AcDbLine
 10
751.2389999999999
 20
149.713
 30
0.0
 11
857.961
 21
149.721
 31
0.0
  0
LINE
  5
19F
330
1E
100
AcDbEntity
  8
0
  6
Continuous
100
AcDbLine
 10
863.0499999999999
 20
146.738
 30
0.0
 11
866.0
 21
50.02439999999999
 31
0.0
  0
ENDSEC
  0
SECTION
  2
OBJECTS
  0
DICTIONARY
  5
C
330
0
100
AcDbDictionary
281
     1
  3
ACAD_GROUP
350
D
  3
ACAD_LAYOUT
350
19
  3
ACAD_MLINESTYLE
350
16
  3
ACAD_PLOTSETTINGS
350
18
  3
ACAD_PLOTSTYLENAME
350
E
  3
AcDbVariableDictionary
350
1A1
  0
DICTIONARY
  5
D
102
{ACAD_REACTORS
330
C
102
}
330
C
100
AcDbDictionary
281
     1
  0
DICTIONARY
  5
19
102
{ACAD_REACTORS
330
C
102
}
330
C
100
AcDbDictionary
281
     1
  3
Layout1
350
1D
  3
Model
350
21
  0
DICTIONARY
  5
16
102
{ACAD_REACTORS
330
C
102
}
330
C
100
AcDbDictionary
281
     1
  3
Standard
350
17
  0
DICTIONARY
  5
18
102
{ACAD_REACTORS
330
C
102
}
330
C
100
AcDbDictionary
281
     1
  0
ACDBDICTIONARYWDFLT
  5
E
102
{ACAD_REACTORS
330
C
102
}
330
C
100
AcDbDictionary
281
     1
  3
Normal
350
F
100
AcDbDictionaryWithDefault
340
F
  0
DICTIONARY
  5
1A1
102
{ACAD_REACTORS
330
C
102
}
330
C
100
AcDbDictionary
281
     1
  3
DIMASSOC
350
1A2
  0
LAYOUT
  5
1D
102
{ACAD_REACTORS
330
19
102
}
330
19
100
AcDbPlotSettings
  1

  2
C:\Programme\AutoCAD LT 2002 Deu\plotters\DWF ePlot (optimized for plotting).pc3
  4

  6

 40
0.0
 41
0.0
 42
0.0
 43
0.0
 44
0.0
 45
0.0
 46
0.0
 47
0.0
 48
0.0
 49
0.0
140
0.0
141
0.0
142
1.0
143
1.0
 70
   688
 72
     0
 73
     0
 74
     5
  7

 75
    16
147
1.0
148
0.0
149
0.0
100
AcDbLayout
  1
Layout1
 70
     1
 71
     1
 10
0.0
 20
0.0
 11
12.0
 21
9.0
 12
0.0
 22
0.0
 32
0.0
 14
1.000000000000000E+20
 24
1.000000000000000E+20
 34
1.000000000000000E+20
 15
-1.000000000000000E+20
 25
-1.000000000000000E+20
 35
-1.000000000000000E+20
146
0.0
 13
0.0
 23
0.0
 33
0.0
 16
1.0
 26
0.0
 36
0.0
 17
0.0
 27
1.0
 37
0.0
 76
     0
330
1A
  0
LAYOUT
  5
21
102
{ACAD_REACTORS
330
19
102
}
330
19
100
AcDbPlotSettings
  1

  2
C:\Programme\AutoCAD LT 2002 Deu\plotters\DWF ePlot (optimized for plotting).pc3
  4

  6

 40
0.0
 41
0.0
 42
0.0
 43
0.0
 44
0.0
 45
0.0
 46
0.0
 47
0.0
 48
0.0
 49
0.0
140
0.0
141
0.0
142
1.0
143
1.0
 70
  1712
 72
     0
 73
     0
 74
     0
  7

 75
     0
147
1.0
148
0.0
149
0.0
100
AcDbLayout
  1
Model
 70
     1
 71
     0
 10
0.0
 20
0.0
 11
12.0
 21
9.0
 12
0.0
 22
0.0
 32
0.0
 14
0.0
 24
0.0
 34
0.0
 15
0.0
 25
0.0
 35
0.0
146
0.0
 13
0.0
 23
0.0
 33
0.0
 16
1.0
 26
0.0
 36
0.0
 17
0.0
 27
1.0
 37
0.0
 76
     0
330
1E
  0
MLINESTYLE
  5
17
102
{ACAD_REACTORS
330
16
102
}
330
16
100
AcDbMlineStyle
  2
STANDARD
 70
     0
  3

 62
   256
 51
90.0
 52
90.0
 71
     2
 49
0.5
 62
   256
  6
BYLAYER
 49
-0.5
 62
   256
  6
BYLAYER
  0
ACDBPLACEHOLDER
  5
F
102
{ACAD_REACTORS
330
E
102
}
330
E
  0
DICTIONARYVAR
  5
1A2
102
{ACAD_REACTORS
330
1A1
102
}
330
1A1
100
DictionaryVariables
280
     0
  1
1
  0
ENDSEC
  0
EOF
