  0
SECTION
  2
HEADER
  9
$ACADVER
  1
AC1015
  9
$ACADMAINTVER
 70
    13
  9
$DWGCODEPAGE
  3
ANSI_1252
  9
$INSBASE
 10
0.0
 20
0.0
 30
0.0
  9
$EXTMIN
 10
0.0
 20
-0.0000000000000028
 30
0.0
  9
$EXTMAX
 10
596.0
 20
199.402
 30
0.0
  9
$LIMMIN
 10
0.0
 20
0.0
  9
$LIMMAX
 10
12.0
 20
9.0
  9
$ORTHOMODE
 70
     0
  9
$REGENMODE
 70
     1
  9
$FILLMODE
 70
     1
  9
$QTEXTMODE
 70
     0
  9
$MIRRTEXT
 70
     1
  9
$LTSCALE
 40
1.0
  9
$ATTMODE
 70
     1
  9
$TEXTSIZE
 40
0.2
  9
$TRACEWID
 40
0.05
  9
$TEXTSTYLE
  7
Standard
  9
$CLAYER
  8
0
  9
$CELTYPE
  6
Continuous
  9
$CECOLOR
 62
   256
  9
$CELTSCALE
 40
1.0
  9
$DISPSILH
 70
     0
  9
$DIMSCALE
 40
1.0
  9
$DIMASZ
 40
0.18
  9
$DIMEXO
 40
0.0625
  9
$DIMDLI
 40
0.38
  9
$DIMRND
 40
0.0
  9
$DIMDLE
 40
0.0
  9
$DIMEXE
 40
0.18
  9
$DIMTP
 40
0.0
  9
$DIMTM
 40
0.0
  9
$DIMTXT
 40
0.18
  9
$DIMCEN
 40
0.09
  9
$DIMTSZ
 40
0.0
  9
$DIMTOL
 70
     0
  9
$DIMLIM
 70
     0
  9
$DIMTIH
 70
     1
  9
$DIMTOH
 70
     1
  9
$DIMSE1
 70
     0
  9
$DIMSE2
 70
     0
  9
$DIMTAD
 70
     0
  9
$DIMZIN
 70
     0
  9
$DIMBLK
  1

  9
$DIMASO
 70
     1
  9
$DIMSHO
 70
     1
  9
$DIMPOST
  1

  9
$DIMAPOST
  1

  9
$DIMALT
 70
     0
  9
$DIMALTD
 70
     2
  9
$DIMALTF
 40
25.4
  9
$DIMLFAC
 40
1.0
  9
$DIMTOFL
 70
     0
  9
$DIMTVP
 40
0.0
  9
$DIMTIX
 70
     0
  9
$DIMSOXD
 70
     0
  9
$DIMSAH
 70
     0
  9
$DIMBLK1
  1

  9
$DIMBLK2
  1

  9
$DIMSTYLE
  2
Standard
  9
$DIMCLRD
 70
     0
  9
$DIMCLRE
 70
     0
  9
$DIMCLRT
 70
     0
  9
$DIMTFAC
 40
1.0
  9
$DIMGAP
 40
0.09
  9
$DIMJUST
 70
     0
  9
$DIMSD1
 70
     0
  9
$DIMSD2
 70
     0
  9
$DIMTOLJ
 70
     1
  9
$DIMTZIN
 70
     0
  9
$DIMALTZ
 70
     0
  9
$DIMALTTZ
 70
     0
  9
$DIMUPT
 70
     0
  9
$DIMDEC
 70
     4
  9
$DIMTDEC
 70
     4
  9
$DIMALTU
 70
     2
  9
$DIMALTTD
 70
     2
  9
$DIMTXSTY
  7
Standard
  9
$DIMAUNIT
 70
     0
  9
$DIMADEC
 70
     0
  9
$DIMALTRND
 40
0.0
  9
$DIMAZIN
 70
     0
  9
$DIMDSEP
 70
    46
  9
$DIMATFIT
 70
     3
  9
$DIMFRAC
 70
     0
  9
$DIMLDRBLK
  1

  9
$DIMLUNIT
 70
     2
  9
$DIMLWD
 70
    -2
  9
$DIMLWE
 70
    -2
  9
$DIMTMOVE
 70
     0
  9
$LUNITS
 70
     2
  9
$LUPREC
 70
     4
  9
$SKETCHINC
 40
0.1
  9
$FILLETRAD
 40
0.0
  9
$AUNITS
 70
     0
  9
$AUPREC
 70
     0
  9
$MENU
  1
.
  9
$ELEVATION
 40
0.0
  9
$PELEVATION
 40
0.0
  9
$THICKNESS
 40
0.0
  9
$LIMCHECK
 70
     0
  9
$CHAMFERA
 40
0.0
  9
$CHAMFERB
 40
0.0
  9
$CHAMFERC
 40
0.0
  9
$CHAMFERD
 40
0.0
  9
$SKPOLY
 70
     0
  9
$TDCREATE
 40
2455508.926957997
  9
$TDUCREATE
 40
2455508.885291331
  9
$TDUPDATE
 40
2455508.928396806
  9
$TDUUPDATE
 40
2455508.886730138
  9
$TDINDWG
 40
0.0014388079
  9
$TDUSRTIMER
 40
0.0014388079
  9
$USRTIMER
 70
     1
  9
$ANGBASE
 50
0.0
  9
$ANGDIR
 70
     0
  9
$PDMODE
 70
     0
  9
$PDSIZE
 40
0.0
  9
$PLINEWID
 40
0.0
  9
$SPLFRAME
 70
     0
  9
$SPLINETYPE
 70
     6
  9
$SPLINESEGS
 70
     8
  9
$HANDSEED
  5
21F
  9
$SURFTAB1
 70
     6
  9
$SURFTAB2
 70
     6
  9
$SURFTYPE
 70
     6
  9
$SURFU
 70
     6
  9
$SURFV
 70
     6
  9
$UCSBASE
  2

  9
$UCSNAME
  2

  9
$UCSORG
 10
0.0
 20
0.0
 30
0.0
  9
$UCSXDIR
 10
1.0
 20
0.0
 30
0.0
  9
$UCSYDIR
 10
0.0
 20
1.0
 30
0.0
  9
$UCSORTHOREF
  2

  9
$UCSORTHOVIEW
 70
     1
  9
$UCSORGTOP
 10
0.0
 20
0.0
 30
0.0
  9
$UCSORGBOTTOM
 10
0.0
 20
0.0
 30
0.0
  9
$UCSORGLEFT
 10
0.0
 20
0.0
 30
0.0
  9
$UCSORGRIGHT
 10
0.0
 20
0.0
 30
0.0
  9
$UCSORGFRONT
 10
0.0
 20
0.0
 30
0.0
  9
$UCSORGBACK
 10
0.0
 20
0.0
 30
0.0
  9
$PUCSBASE
  2

  9
$PUCSNAME
  2

  9
$PUCSORG
 10
0.0
 20
0.0
 30
0.0
  9
$PUCSXDIR
 10
1.0
 20
0.0
 30
0.0
  9
$PUCSYDIR
 10
0.0
 20
1.0
 30
0.0
  9
$PUCSORTHOREF
  2

  9
$PUCSORTHOVIEW
 70
     0
  9
$PUCSORGTOP
 10
0.0
 20
0.0
 30
0.0
  9
$PUCSORGBOTTOM
 10
0.0
 20
0.0
 30
0.0
  9
$PUCSORGLEFT
 10
0.0
 20
0.0
 30
0.0
  9
$PUCSORGRIGHT
 10
0.0
 20
0.0
 30
0.0
  9
$PUCSORGFRONT
 10
0.0
 20
0.0
 30
0.0
  9
$PUCSORGBACK
 10
0.0
 20
0.0
 30
0.0
  9
$USERI1
 70
     0
  9
$USERI2
 70
     0
  9
$USERI3
 70
     0
  9
$USERI4
 70
     0
  9
$USERI5
 70
     0
  9
$USERR1
 40
0.0
  9
$USERR2
 40
0.0
  9
$USERR3
 40
0.0
  9
$USERR4
 40
0.0
  9
$USERR5
 40
0.0
  9
$WORLDVIEW
 70
     1
  9
$SHADEDGE
 70
     3
  9
$SHADEDIF
 70
    70
  9
$TILEMODE
 70
     1
  9
$MAXACTVP
 70
    64
  9
$PINSBASE
 10
0.0
 20
0.0
 30
0.0
  9
$PLIMCHECK
 70
     0
  9
$PEXTMIN
 10
1.000000000000000E+20
 20
1.000000000000000E+20
 30
1.000000000000000E+20
  9
$PEXTMAX
 10
-1.000000000000000E+20
 20
-1.000000000000000E+20
 30
-1.000000000000000E+20
  9
$PLIMMIN
 10
0.0
 20
0.0
  9
$PLIMMAX
 10
12.0
 20
9.0
  9
$UNITMODE
 70
     0
  9
$VISRETAIN
 70
     1
  9
$PLINEGEN
 70
     0
  9
$PSLTSCALE
 70
     1
  9
$TREEDEPTH
 70
  3020
  9
$CMLSTYLE
  2
Standard
  9
$CMLJUST
 70
     0
  9
$CMLSCALE
 40
1.0
  9
$PROXYGRAPHICS
 70
     1
  9
$MEASUREMENT
 70
     0
  9
$CELWEIGHT
370
    -1
  9
$ENDCAPS
280
     0
  9
$JOINSTYLE
280
     0
  9
$LWDISPLAY
290
     0
  9
$INSUNITS
 70
     0
  9
$HYPERLINKBASE
  1

  9
$STYLESHEET
  1

  9
$XEDIT
290
     1
  9
$CEPSNTYPE
380
     0
  9
$PSTYLEMODE
290
     1
  9
$FINGERPRINTGUID
  2
{73FAD1E4-56D4-4935-A001-E5479692909A}
  9
$VERSIONGUID
  2
{92427E16-298E-49E2-9E93-6671E13F0B57}
  9
$EXTNAMES
290
     1
  9
$PSVPSCALE
 40
0.0
  9
$OLESTARTUP
290
     0
  0
ENDSEC
  0
SECTION
  2
CLASSES
  0
CLASS
  1
ACDBDICTIONARYWDFLT
  2
AcDbDictionaryWithDefault
  3
AutoCAD 2000
 90
        0
280
     0
281
     0
  0
CLASS
  1
ACDBPLACEHOLDER
  2
AcDbPlaceHolder
  3
AutoCAD 2000
 90
        0
280
     0
281
     0
  0
CLASS
  1
LAYOUT
  2
AcDbLayout
  3
AutoCAD 2000
 90
        0
280
     0
281
     0
  0
CLASS
  1
DICTIONARYVAR
  2
AcDbDictionaryVar
  3
AutoCAD 2000
 90
        0
280
     0
281
     0
  0
ENDSEC
  0
SECTION
  2
TABLES
  0
TABLE
  2
VPORT
  5
8
330
0
100
AcDbSymbolTable
 70
     4
  0
VPORT
  5
21E
330
8
100
AcDbSymbolTableRecord
100
AcDbViewportTableRecord
  2
*Active
 70
     0
 10
0.0
 20
0.0
 11
1.0
 21
1.0
 12
298.0
 22
99.70100000000002
 13
0.0
 23
0.0
 14
1.0
 24
1.0
 15
0.0
 25
0.0
 16
0.0
 26
0.0
 36
1.0
 17
0.0
 27
0.0
 37
0.0
 40
288.3940094881954
 41
2.073363431151241
 42
50.0
 43
0.0
 44
0.0
 50
0.0
 51
0.0
 71
     0
 72
   100
 73
     1
 74
     3
 75
     0
 76
     0
 77
     0
 78
     0
281
     0
 65
     1
110
0.0
120
0.0
130
0.0
111
1.0
121
0.0
131
0.0
112
0.0
122
1.0
132
0.0
 79
     1
146
0.0
  0
ENDTAB
  0
TABLE
  2
LTYPE
  5
5
330
0
100
AcDbSymbolTable
 70
     1
  0
LTYPE
  5
13
330
5
100
AcDbSymbolTableRecord
100
AcDbLinetypeTableRecord
  2
ByBlock
 70
     0
  3

 72
    65
 73
     0
 40
0.0
  0
LTYPE
  5
14
330
5
100
AcDbSymbolTableRecord
100
AcDbLinetypeTableRecord
  2
ByLayer
 70
     0
  3

 72
    65
 73
     0
 40
0.0
  0
LTYPE
  5
15
330
5
100
AcDbSymbolTableRecord
100
AcDbLinetypeTableRecord
  2
Continuous
 70
     0
  3
Solid line
 72
    65
 73
     0
 40
0.0
  0
ENDTAB
  0
TABLE
  2
LAYER
  5
2
330
0
100
AcDbSymbolTable
 70
     1
  0
LAYER
  5
10
330
2
100
AcDbSymbolTableRecord
100
AcDbLayerTableRecord
  2
0
 70
     0
 62
     7
  6
Continuous
370
    -3
390
F
  0
ENDTAB
  0
TABLE
  2
STYLE
  5
3
330
0
100
AcDbSymbolTable
 70
     1
  0
STYLE
  5
11
330
3
100
AcDbSymbolTableRecord
100
AcDbTextStyleTableRecord
  2
Standard
 70
     0
 40
0.0
 41
1.0
 50
0.0
 71
     0
 42
0.2
  3
txt
  4

  0
ENDTAB
  0
TABLE
  2
VIEW
  5
6
330
0
100
AcDbSymbolTable
 70
     0
  0
ENDTAB
  0
TABLE
  2
UCS
  5
7
330
0
100
AcDbSymbolTable
 70
     0
  0
ENDTAB
  0
TABLE
  2
APPID
  5
9
330
0
100
AcDbSymbolTable
 70
     1
  0
APPID
  5
12
330
9
100
AcDbSymbolTableRecord
100
AcDbRegAppTableRecord
  2
ACAD
 70
     0
  0
ENDTAB
  0
TABLE
  2
DIMSTYLE
  5
A
330
0
100
AcDbSymbolTable
 70
     1
100
AcDbDimStyleTable
 71
     0
  0
DIMSTYLE
105
1A0
330
A
100
AcDbSymbolTableRecord
100
AcDbDimStyleTableRecord
  2
Standard
 70
     0
340
11
  0
ENDTAB
  0
TABLE
  2
BLOCK_RECORD
  5
1
330
0
100
AcDbSymbolTable
 70
     0
  0
BLOCK_RECORD
  5
1E
330
1
100
AcDbSymbolTableRecord
100
AcDbBlockTableRecord
  2
*Model_Space
340
21
  0
BLOCK_RECORD
  5
1A
330
1
100
AcDbSymbolTableRecord
100
AcDbBlockTableRecord
  2
*Paper_Space
340
1D
  0
ENDTAB
  0
ENDSEC
  0
SECTION
  2
BLOCKS
  0
BLOCK
  5
1F
330
1E
100
AcDbEntity
  8
0
100
AcDbBlockBegin
  2
*Model_Space
 70
     0
 10
0.0
 20
0.0
 30
0.0
  3
*Model_Space
  1

  0
ENDBLK
  5
20
330
1E
100
AcDbEntity
  8
0
100
AcDbBlockEnd
  0
BLOCK
  5
1B
330
1A
100
AcDbEntity
 67
     1
  8
0
100
AcDbBlockBegin
  2
*Paper_Space
 70
     0
 10
0.0
 20
0.0
 30
0.0
  3
*Paper_Space
  1

  0
ENDBLK
  5
1C
330
1A
100
AcDbEntity
 67
     1
  8
0
100
AcDbBlockEnd
  0
ENDSEC
  0
SECTION
  2
ENTITIES
  0
LINE
  5
25
330
1E
100
AcDbEntity
  8
0
100
AcDbLine
 10
103.7449999999999
 20
0.178099999999998
 30
0.0
 11
106.727
 21
-0.0000000000000028
 31
0.0
  0
LINE
  5
26
330
1E
100
AcDbEntity
  8
0
100
AcDbLine
 10
101.5879999999999
 20
0.534199999999999
 30
0.0
 11
103.7449999999999
 21
0.178099999999998
 31
0.0
  0
LINE
  5
29
330
1E
100
AcDbEntity
  8
0
100
AcDbLine
 10
93.29349999999999
 20
3.916599999999999
 30
0.0
 11
93.56250000000001
 21
3.7475
 31
0.0
  0
LINE
  5
2D
330
1E
100
AcDbEntity
  8
0
100
AcDbLine
 10
97.3248
 20
1.8357
 30
0.0
 11
99.73
 21
0.9983999999999989
 31
0.0
  0
LINE
  5
2E
330
1E
100
AcDbEntity
  8
0
100
AcDbLine
 10
93.56250000000001
 20
3.7475
 30
0.0
 11
97.3248
 21
1.8357
 31
0.0
  0
LINE
  5
2F
330
1E
100
AcDbEntity
  8
0
100
AcDbLine
 10
99.73
 20
0.9983999999999989
 30
0.0
 11
101.5879999999999
 21
0.534199999999999
 31
0.0
  0
LINE
  5
31
330
1E
100
AcDbEntity
  8
0
100
AcDbLine
 10
92.1184
 20
4.713899999999999
 30
0.0
 11
93.29349999999999
 21
3.916599999999999
 31
0.0
  0
LINE
  5
37
330
1E
100
AcDbEntity
  8
0
100
AcDbLine
 10
91.9414
 20
4.841899999999999
 30
0.0
 11
92.1184
 21
4.713899999999999
 31
0.0
  0
LINE
  5
38
330
1E
100
AcDbEntity
  8
0
100
AcDbLine
 10
91.16229999999999
 20
5.437149999999999
 30
0.0
 11
91.9414
 21
4.841899999999999
 31
0.0
  0
LINE
  5
39
330
1E
100
AcDbEntity
  8
0
100
AcDbLine
 10
87.9291
 20
8.51937
 30
0.0
 11
88.4121
 21
7.985149999999999
 31
0.0
  0
LINE
  5
3A
330
1E
100
AcDbEntity
  8
0
100
AcDbLine
 10
84.06679999999999
 20
14.44069999999999
 30
0.0
 11
87.9291
 21
8.51937
 31
0.0
  0
LINE
  5
3C
330
1E
100
AcDbEntity
  8
0
100
AcDbLine
 10
90.75129999999999
 20
5.771279999999999
 30
0.0
 11
91.16229999999999
 21
5.437149999999999
 31
0.0
  0
LINE
  5
3D
330
1E
100
AcDbEntity
  8
0
100
AcDbLine
 10
90.14329999999999
 20
6.29349
 30
0.0
 11
90.75129999999999
 21
5.771279999999999
 31
0.0
  0
LINE
  5
3E
330
1E
100
AcDbEntity
  8
0
100
AcDbLine
 10
88.4121
 20
7.985149999999999
 30
0.0
 11
90.14329999999999
 21
6.29349
 31
0.0
  0
LINE
  5
41
330
1E
100
AcDbEntity
  8
0
100
AcDbLine
 10
233.902
 20
16.00629999999999
 30
0.0
 11
238.1349999999999
 21
16.00629999999999
 31
0.0
  0
LINE
  5
42
330
1E
100
AcDbEntity
  8
0
100
AcDbLine
 10
233.902
 20
16.00629999999999
 30
0.0
 11
238.1349999999999
 21
16.00629999999999
 31
0.0
  0
LINE
  5
43
330
1E
100
AcDbEntity
  8
0
100
AcDbLine
 10
265.235
 20
16.00629999999999
 30
0.0
 11
277.749
 21
16.00629999999999
 31
0.0
  0
LINE
  5
44
330
1E
100
AcDbEntity
  8
0
100
AcDbLine
 10
277.749
 20
16.00629999999999
 30
0.0
 11
291.149
 21
16.00629999999999
 31
0.0
  0
LINE
  5
45
330
1E
100
AcDbEntity
  8
0
100
AcDbLine
 10
291.149
 20
16.00629999999999
 30
0.0
 11
304.85
 21
16.00629999999999
 31
0.0
  0
LINE
  5
47
330
1E
100
AcDbEntity
  8
0
100
AcDbLine
 10
284.6659999999999
 20
16.00629999999999
 30
0.0
 11
291.0009999999999
 21
16.00629999999999
 31
0.0
  0
LINE
  5
48
330
1E
100
AcDbEntity
  8
0
100
AcDbLine
 10
291.0009999999999
 20
16.00629999999999
 30
0.0
 11
298.0009999999999
 21
16.00629999999999
 31
0.0
  0
LINE
  5
50
330
1E
100
AcDbEntity
  8
0
100
AcDbLine
 10
298.0009999999999
 20
16.00629999999999
 30
0.0
 11
304.999
 21
16.00629999999999
 31
0.0
  0
LINE
  5
51
330
1E
100
AcDbEntity
  8
0
100
AcDbLine
 10
244.985
 20
16.00629999999999
 30
0.0
 11
254.1509999999999
 21
16.00629999999999
 31
0.0
  0
LINE
  5
52
330
1E
100
AcDbEntity
  8
0
100
AcDbLine
 10
279.19
 20
16.00629999999999
 30
0.0
 11
284.295
 21
16.00629999999999
 31
0.0
  0
LINE
  5
53
330
1E
100
AcDbEntity
  8
0
100
AcDbLine
 10
275.9859999999999
 20
16.00629999999999
 30
0.0
 11
279.19
 21
16.00629999999999
 31
0.0
  0
LINE
  5
54
330
1E
100
AcDbEntity
  8
0
100
AcDbLine
 10
276.2699999999999
 20
16.00629999999999
 30
0.0
 11
279.595
 21
16.00629999999999
 31
0.0
  0
LINE
  5
55
330
1E
100
AcDbEntity
  8
0
100
AcDbLine
 10
284.295
 20
16.00629999999999
 30
0.0
 11
290.783
 21
16.00629999999999
 31
0.0
  0
LINE
  5
56
330
1E
100
AcDbEntity
  8
0
100
AcDbLine
 10
290.783
 20
16.00629999999999
 30
0.0
 11
298.0009999999999
 21
16.00629999999999
 31
0.0
  0
LINE
  5
57
330
1E
100
AcDbEntity
  8
0
100
AcDbLine
 10
279.595
 20
16.00629999999999
 30
0.0
 11
284.6659999999999
 21
16.00629999999999
 31
0.0
  0
LINE
  5
58
330
1E
100
AcDbEntity
  8
0
100
AcDbLine
 10
298.0009999999999
 20
16.00629999999999
 30
0.0
 11
305.2169999999999
 21
16.00629999999999
 31
0.0
  0
LINE
  5
5E
330
1E
100
AcDbEntity
  8
0
100
AcDbLine
 10
254.1509999999999
 20
16.00629999999999
 30
0.0
 11
265.235
 21
16.00629999999999
 31
0.0
  0
LINE
  5
5F
330
1E
100
AcDbEntity
  8
0
100
AcDbLine
 10
238.1349999999999
 20
16.00629999999999
 30
0.0
 11
244.985
 21
16.00629999999999
 31
0.0
  0
LINE
  5
60
330
1E
100
AcDbEntity
  8
0
100
AcDbLine
 10
275.0049999999999
 20
16.00629999999999
 30
0.0
 11
275.9859999999999
 21
16.00629999999999
 31
0.0
  0
LINE
  5
61
330
1E
100
AcDbEntity
  8
0
100
AcDbLine
 10
275.0049999999999
 20
16.00629999999999
 30
0.0
 11
276.2699999999999
 21
16.00629999999999
 31
0.0
  0
LINE
  5
62
330
1E
100
AcDbEntity
  8
0
100
AcDbLine
 10
232.4699999999999
 20
16.00629999999999
 30
0.0
 11
233.902
 21
16.00629999999999
 31
0.0
  0
LINE
  5
65
330
1E
100
AcDbEntity
  8
0
100
AcDbLine
 10
222.904
 20
38.11209999999999
 30
0.0
 11
227.5459999999999
 21
32.5429
 31
0.0
  0
LINE
  5
66
330
1E
100
AcDbEntity
  8
0
100
AcDbLine
 10
227.5459999999999
 20
32.5429
 30
0.0
 11
230.7109999999999
 21
26.0233
 31
0.0
  0
LINE
  5
67
330
1E
100
AcDbEntity
  8
0
100
AcDbLine
 10
232.214
 20
18.9355
 30
0.0
 11
232.4699999999999
 21
16.00629999999999
 31
0.0
  0
LINE
  5
68
330
1E
100
AcDbEntity
  8
0
100
AcDbLine
 10
265.235
 20
16.00629999999999
 30
0.0
 11
277.7499999999999
 21
16.00629999999999
 31
0.0
  0
LINE
  5
69
330
1E
100
AcDbEntity
  8
0
100
AcDbLine
 10
244.985
 20
16.00629999999999
 30
0.0
 11
254.1509999999999
 21
16.00629999999999
 31
0.0
  0
LINE
  5
6A
330
1E
100
AcDbEntity
  8
0
100
AcDbLine
 10
254.1509999999999
 20
16.00629999999999
 30
0.0
 11
265.235
 21
16.00629999999999
 31
0.0
  0
LINE
  5
6B
330
1E
100
AcDbEntity
  8
0
100
AcDbLine
 10
238.1349999999999
 20
16.00629999999999
 30
0.0
 11
244.985
 21
16.00629999999999
 31
0.0
  0
LINE
  5
6C
330
1E
100
AcDbEntity
  8
0
100
AcDbLine
 10
230.7109999999999
 20
26.0233
 30
0.0
 11
232.214
 21
18.9355
 31
0.0
  0
LINE
  5
6D
330
1E
100
AcDbEntity
  8
0
100
AcDbLine
 10
0.446036
 20
50.01979999999999
 30
0.0
 11
2.81123
 21
50.01979999999999
 31
0.0
  0
LINE
  5
6E
330
1E
100
AcDbEntity
  8
0
100
AcDbLine
 10
0.959077
 20
50.01979999999999
 30
0.0
 11
4.18834
 21
50.01979999999999
 31
0.0
  0
LINE
  5
6F
330
1E
100
AcDbEntity
  8
0
100
AcDbLine
 10
2.81123
 20
50.01979999999999
 30
0.0
 11
7.18458
 21
50.01979999999999
 31
0.0
  0
LINE
  5
70
330
1E
100
AcDbEntity
  8
0
100
AcDbLine
 10
7.18458
 20
50.01979999999999
 30
0.0
 11
7.87963
 21
50.01979999999999
 31
0.0
  0
LINE
  5
71
330
1E
100
AcDbEntity
  8
0
100
AcDbLine
 10
0.0
 20
50.01979999999999
 30
0.0
 11
2.205179999999999
 21
98.3599
 31
0.0
  0
LINE
  5
72
330
1E
100
AcDbEntity
  8
0
100
AcDbLine
 10
0.0
 20
50.01979999999999
 30
0.0
 11
0.446036
 21
50.01979999999999
 31
0.0
  0
LINE
  5
73
330
1E
100
AcDbEntity
  8
0
100
AcDbLine
 10
0.0
 20
50.01979999999999
 30
0.0
 11
0.959077
 21
50.01979999999999
 31
0.0
  0
LINE
  5
74
330
1E
100
AcDbEntity
  8
0
100
AcDbLine
 10
0.446036
 20
50.01979999999999
 30
0.0
 11
2.81123
 21
50.01979999999999
 31
0.0
  0
LINE
  5
75
330
1E
100
AcDbEntity
  8
0
100
AcDbLine
 10
12.012
 20
50.01979999999999
 30
0.0
 11
14.9152
 21
50.01979999999999
 31
0.0
  0
LINE
  5
76
330
1E
100
AcDbEntity
  8
0
100
AcDbLine
 10
9.830789999999998
 20
50.01979999999999
 30
0.0
 11
12.012
 21
50.01979999999999
 31
0.0
  0
LINE
  5
77
330
1E
100
AcDbEntity
  8
0
100
AcDbLine
 10
4.18834
 20
50.01979999999999
 30
0.0
 11
7.861629999999999
 21
50.01979999999999
 31
0.0
  0
LINE
  5
78
330
1E
100
AcDbEntity
  8
0
100
AcDbLine
 10
7.861629999999999
 20
50.01979999999999
 30
0.0
 11
9.56277
 21
50.01979999999999
 31
0.0
  0
LINE
  5
79
330
1E
100
AcDbEntity
  8
0
100
AcDbLine
 10
9.56277
 20
50.01979999999999
 30
0.0
 11
10.1308
 21
50.01979999999999
 31
0.0
  0
LINE
  5
7A
330
1E
100
AcDbEntity
  8
0
100
AcDbLine
 10
2.205179999999999
 20
98.3599
 30
0.0
 11
3.080249999999999
 21
146.7189999999999
 31
0.0
  0
LINE
  5
7B
330
1E
100
AcDbEntity
  8
0
100
AcDbLine
 10
3.080249999999999
 20
146.7189999999999
 30
0.0
 11
3.57529
 21
148.312
 31
0.0
  0
LINE
  5
7D
330
1E
100
AcDbEntity
  8
0
100
AcDbLine
 10
10.1308
 20
50.01979999999999
 30
0.0
 11
13.59609999999999
 21
50.01979999999999
 31
0.0
  0
LINE
  5
7E
330
1E
100
AcDbEntity
  8
0
100
AcDbLine
 10
13.59609999999999
 20
50.01979999999999
 30
0.0
 11
18.6705
 21
50.01979999999999
 31
0.0
  0
LINE
  5
7F
330
1E
100
AcDbEntity
  8
0
100
AcDbLine
 10
7.87963
 20
50.01979999999999
 30
0.0
 11
9.830789999999998
 21
50.01979999999999
 31
0.0
  0
LINE
  5
80
330
1E
100
AcDbEntity
  8
0
100
AcDbLine
 10
14.0691
 20
50.01979999999999
 30
0.0
 11
16.6103
 21
50.01979999999999
 31
0.0
  0
LINE
  5
81
330
1E
100
AcDbEntity
  8
0
100
AcDbLine
 10
19.9526
 20
50.01979999999999
 30
0.0
 11
23.6729
 21
50.01979999999999
 31
0.0
  0
LINE
  5
82
330
1E
100
AcDbEntity
  8
0
100
AcDbLine
 10
14.9152
 20
50.01979999999999
 30
0.0
 11
19.9526
 21
50.01979999999999
 31
0.0
  0
LINE
  5
83
330
1E
100
AcDbEntity
  8
0
100
AcDbLine
 10
23.6729
 20
50.01979999999999
 30
0.0
 11
29.8214
 21
50.01979999999999
 31
0.0
  0
LINE
  5
84
330
1E
100
AcDbEntity
  8
0
100
AcDbLine
 10
67.2983247919064
 20
49.0157961737739
 30
0.0
 11
68.8275
 21
47.1316
 31
0.0
  0
LINE
  5
87
330
1E
100
AcDbEntity
  8
0
100
AcDbLine
 10
65.63369258326902
 20
49.80172415308983
 30
0.0
 11
67.30339999999999
 21
49.0134
 31
0.0
  0
LINE
  5
88
330
1E
100
AcDbEntity
  8
0
100
AcDbLine
 10
64.29619999999999
 20
50.01979999999999
 30
0.0
 11
65.63369258326921
 21
49.8017241530898
 31
0.0
  0
LINE
  5
89
330
1E
100
AcDbEntity
  8
0
100
AcDbLine
 10
64.29619999999999
 20
50.01979999999999
 30
0.0
 11
65.63369258326921
 21
49.8017241530898
 31
0.0
  0
LINE
  5
8A
330
1E
100
AcDbEntity
  8
0
100
AcDbLine
 10
60.2689
 20
50.01979999999999
 30
0.0
 11
64.29619999999999
 21
50.01979999999999
 31
0.0
  0
LINE
  5
8B
330
1E
100
AcDbEntity
  8
0
100
AcDbLine
 10
56.5666
 20
50.01979999999999
 30
0.0
 11
60.2689
 21
50.01979999999999
 31
0.0
  0
LINE
  5
8C
330
1E
100
AcDbEntity
  8
0
100
AcDbLine
 10
49.96199999999999
 20
50.01979999999999
 30
0.0
 11
56.5666
 21
50.01979999999999
 31
0.0
  0
LINE
  5
91
330
1E
100
AcDbEntity
  8
0
100
AcDbLine
 10
68.8275
 20
47.1316
 30
0.0
 11
84.06679999999999
 21
14.44069999999999
 31
0.0
  0
LINE
  5
92
330
1E
100
AcDbEntity
  8
0
100
AcDbLine
 10
68.8275
 20
47.1316
 30
0.0
 11
84.06679999999999
 21
14.44069999999999
 31
0.0
  0
LINE
  5
95
330
1E
100
AcDbEntity
  8
0
100
AcDbLine
 10
55.5935
 20
50.01979999999999
 30
0.0
 11
64.2972
 21
50.01979999999999
 31
0.0
  0
LINE
  5
96
330
1E
100
AcDbEntity
  8
0
100
AcDbLine
 10
45.7537
 20
50.01979999999999
 30
0.0
 11
49.96199999999999
 21
50.01979999999999
 31
0.0
  0
LINE
  5
97
330
1E
100
AcDbEntity
  8
0
100
AcDbLine
 10
36.676
 20
50.01979999999999
 30
0.0
 11
45.7537
 21
50.01979999999999
 31
0.0
  0
LINE
  5
98
330
1E
100
AcDbEntity
  8
0
100
AcDbLine
 10
29.8214
 20
50.01979999999999
 30
0.0
 11
36.676
 21
50.01979999999999
 31
0.0
  0
LINE
  5
99
330
1E
100
AcDbEntity
  8
0
100
AcDbLine
 10
22.0318
 20
50.01979999999999
 30
0.0
 11
23.9739
 21
50.01979999999999
 31
0.0
  0
LINE
  5
9A
330
1E
100
AcDbEntity
  8
0
100
AcDbLine
 10
25.7921
 20
50.01979999999999
 30
0.0
 11
31.08449999999999
 21
50.01979999999999
 31
0.0
  0
LINE
  5
9B
330
1E
100
AcDbEntity
  8
0
100
AcDbLine
 10
18.6705
 20
50.01979999999999
 30
0.0
 11
25.7921
 21
50.01979999999999
 31
0.0
  0
LINE
  5
9C
330
1E
100
AcDbEntity
  8
0
100
AcDbLine
 10
36.4589
 20
50.01979999999999
 30
0.0
 11
42.1664
 21
50.01979999999999
 31
0.0
  0
LINE
  5
9D
330
1E
100
AcDbEntity
  8
0
100
AcDbLine
 10
42.1664
 20
50.01979999999999
 30
0.0
 11
48.1319
 21
50.01979999999999
 31
0.0
  0
LINE
  5
9E
330
1E
100
AcDbEntity
  8
0
100
AcDbLine
 10
48.1319
 20
50.01979999999999
 30
0.0
 11
54.2704
 21
50.01979999999999
 31
0.0
  0
LINE
  5
9F
330
1E
100
AcDbEntity
  8
0
100
AcDbLine
 10
54.2704
 20
50.01979999999999
 30
0.0
 11
67.0664
 21
50.01979999999999
 31
0.0
  0
LINE
  5
A0
330
1E
100
AcDbEntity
  8
0
100
AcDbLine
 10
31.08449999999999
 20
50.01979999999999
 30
0.0
 11
36.4589
 21
50.01979999999999
 31
0.0
  0
LINE
  5
A2
330
1E
100
AcDbEntity
  8
0
100
AcDbLine
 10
67.0664
 20
50.01979999999999
 30
0.0
 11
125.384
 21
50.01979999999999
 31
0.0
  0
LINE
  5
A3
330
1E
100
AcDbEntity
  8
0
100
AcDbLine
 10
71.86579999999999
 20
50.01979999999999
 30
0.0
 11
179.404
 21
50.01979999999999
 31
0.0
  0
LINE
  5
A4
330
1E
100
AcDbEntity
  8
0
100
AcDbLine
 10
58.2597
 20
50.01979999999999
 30
0.0
 11
71.86579999999999
 21
50.01979999999999
 31
0.0
  0
LINE
  5
A5
330
1E
100
AcDbEntity
  8
0
100
AcDbLine
 10
33.0767
 20
50.01979999999999
 30
0.0
 11
40.7293
 21
50.01979999999999
 31
0.0
  0
LINE
  5
A6
330
1E
100
AcDbEntity
  8
0
100
AcDbLine
 10
27.0872
 20
50.01979999999999
 30
0.0
 11
33.0767
 21
50.01979999999999
 31
0.0
  0
LINE
  5
A7
330
1E
100
AcDbEntity
  8
0
100
AcDbLine
 10
16.1783
 20
50.01979999999999
 30
0.0
 11
21.04769999999999
 21
50.01979999999999
 31
0.0
  0
LINE
  5
A8
330
1E
100
AcDbEntity
  8
0
100
AcDbLine
 10
13.8321
 20
50.01979999999999
 30
0.0
 11
16.1783
 21
50.01979999999999
 31
0.0
  0
LINE
  5
B4
330
1E
100
AcDbEntity
  8
0
100
AcDbLine
 10
85.62690000000001
 20
149.696
 30
0.0
 11
153.269
 21
149.6589999999999
 31
0.0
  0
LINE
  5
BB
330
1E
100
AcDbEntity
  8
0
100
AcDbLine
 10
3.57529
 20
148.312
 30
0.0
 11
4.812389999999999
 21
149.4159999999999
 31
0.0
  0
LINE
  5
C1
330
1E
100
AcDbEntity
  8
0
100
AcDbLine
 10
93.15649999999999
 20
196.409
 30
0.0
 11
93.6805
 21
198.099
 31
0.0
  0
LINE
  5
C3
330
1E
100
AcDbEntity
  8
0
100
AcDbLine
 10
93.6805
 20
198.099
 30
0.0
 11
95.0637
 21
199.201
 31
0.0
  0
LINE
  5
C8
330
1E
100
AcDbEntity
  8
0
100
AcDbLine
 10
198.4759999999999
 20
50.01979999999999
 30
0.0
 11
298.0
 21
50.01979999999999
 31
0.0
  0
LINE
  5
C9
330
1E
100
AcDbEntity
  8
0
100
AcDbLine
 10
125.384
 20
50.01979999999999
 30
0.0
 11
198.4759999999999
 21
50.01979999999999
 31
0.0
  0
LINE
  5
CA
330
1E
100
AcDbEntity
  8
0
100
AcDbLine
 10
153.269
 20
149.6589999999999
 30
0.0
 11
210.539
 21
149.624
 31
0.0
  0
LINE
  5
CB
330
1E
100
AcDbEntity
  8
0
100
AcDbLine
 10
179.404
 20
50.01979999999999
 30
0.0
 11
298.0
 21
50.01979999999999
 31
0.0
  0
LINE
  5
DF
330
1E
100
AcDbEntity
  8
0
100
AcDbLine
 10
95.0637
 20
199.201
 30
0.0
 11
215.407
 21
199.3299999999999
 31
0.0
  0
LINE
  5
E0
330
1E
100
AcDbEntity
  8
0
100
AcDbLine
 10
95.0637
 20
199.201
 30
0.0
 11
215.409
 21
199.3309999999999
 31
0.0
  0
LINE
  5
E1
330
1E
100
AcDbEntity
  8
0
100
AcDbLine
 10
210.539
 20
149.624
 30
0.0
 11
260.014
 21
149.602
 31
0.0
  0
LINE
  5
E2
330
1E
100
AcDbEntity
  8
0
100
AcDbLine
 10
260.014
 20
149.602
 30
0.0
 11
298.0
 21
149.594
 31
0.0
  0
LINE
  5
E5
330
1E
100
AcDbEntity
  8
0
100
AcDbLine
 10
216.029
 20
42.86389999999999
 30
0.0
 11
217.4309999999999
 21
42.0106
 31
0.0
  0
LINE
  5
E6
330
1E
100
AcDbEntity
  8
0
100
AcDbLine
 10
215.409
 20
199.3309999999999
 30
0.0
 11
298.0
 21
199.402
 31
0.0
  0
LINE
  5
E7
330
1E
100
AcDbEntity
  8
0
100
AcDbLine
 10
215.407
 20
199.3299999999999
 30
0.0
 11
298.0
 21
199.402
 31
0.0
  0
LINE
  5
EA
330
1E
100
AcDbEntity
  8
0
100
AcDbLine
 10
203.5649999999999
 20
50.01979999999999
 30
0.0
 11
216.029
 21
42.86389999999999
 31
0.0
  0
LINE
  5
EC
330
1E
100
AcDbEntity
  8
0
100
AcDbLine
 10
291.149
 20
16.00629999999999
 30
0.0
 11
304.851
 21
16.00629999999999
 31
0.0
  0
LINE
  5
EE
330
1E
100
AcDbEntity
  8
0
100
AcDbLine
 10
277.7499999999999
 20
16.00629999999999
 30
0.0
 11
291.149
 21
16.00629999999999
 31
0.0
  0
LINE
  5
1A4
330
1E
100
AcDbEntity
  8
0
  6
Continuous
100
AcDbLine
 10
93.15649999999999
 20
196.409
 30
0.0
 11
93.15649999999997
 21
149.6918813342578
 31
0.0
  0
LINE
  5
1A5
330
1E
100
AcDbEntity
  8
0
  6
Continuous
100
AcDbLine
 10
85.62690000000001
 20
149.696
 30
0.0
 11
4.812389999999999
 21
149.4159999999999
 31
0.0
  0
LINE
  5
1A6
330
1E
100
AcDbEntity
  8
0
  6
Continuous
100
AcDbLine
 10
217.4309999999999
 20
42.0106
 30
0.0
 11
222.904
 21
38.11209999999999
 31
0.0
  0
LINE
  5
1A7
330
1E
100
AcDbEntity
  8
0
100
AcDbLine
 10
500.9363
 20
199.201
 30
0.0
 11
380.591
 21
199.3309999999999
 31
0.0
  0
LINE
  5
1A8
330
1E
100
AcDbEntity
  8
0
100
AcDbLine
 10
500.9363
 20
199.201
 30
0.0
 11
380.5929999999999
 21
199.3299999999999
 31
0.0
  0
LINE
  5
1A9
330
1E
100
AcDbEntity
  8
0
100
AcDbLine
 10
510.3731
 20
149.696
 30
0.0
 11
442.731
 21
149.6589999999999
 31
0.0
  0
LINE
  5
1AA
330
1E
100
AcDbEntity
  8
0
100
AcDbLine
 10
470.6159999999999
 20
50.01979999999999
 30
0.0
 11
397.5239999999999
 21
50.01979999999999
 31
0.0
  0
LINE
  5
1AB
330
1E
100
AcDbEntity
  8
0
100
AcDbLine
 10
524.1341999999999
 20
50.01979999999999
 30
0.0
 11
416.596
 21
50.01979999999999
 31
0.0
  0
LINE
  5
1AC
330
1E
100
AcDbEntity
  8
0
100
AcDbLine
 10
593.79482
 20
98.3599
 30
0.0
 11
592.9197499999999
 21
146.7189999999999
 31
0.0
  0
LINE
  5
1AD
330
1E
100
AcDbEntity
  8
0
100
AcDbLine
 10
540.4065000000001
 20
50.01979999999999
 30
0.0
 11
531.7028
 21
50.01979999999999
 31
0.0
  0
LINE
  5
1AE
330
1E
100
AcDbEntity
  8
0
100
AcDbLine
 10
539.4333999999999
 20
50.01979999999999
 30
0.0
 11
535.7311
 21
50.01979999999999
 31
0.0
  0
LINE
  5
1AF
330
1E
100
AcDbEntity
  8
0
100
AcDbLine
 10
541.7296
 20
50.01979999999999
 30
0.0
 11
528.9335999999999
 21
50.01979999999999
 31
0.0
  0
LINE
  5
1B0
330
1E
100
AcDbEntity
  8
0
100
AcDbLine
 10
588.1203699999999
 20
50.01979999999999
 30
0.0
 11
586.1692099999999
 21
50.01979999999999
 31
0.0
  0
LINE
  5
1B1
330
1E
100
AcDbEntity
  8
0
100
AcDbLine
 10
588.1383699999999
 20
50.01979999999999
 30
0.0
 11
586.43723
 21
50.01979999999999
 31
0.0
  0
LINE
  5
1B2
330
1E
100
AcDbEntity
  8
0
100
AcDbLine
 10
596.0
 20
50.01979999999999
 30
0.0
 11
593.79482
 21
98.3599
 31
0.0
  0
LINE
  5
1B3
330
1E
100
AcDbEntity
  8
0
100
AcDbLine
 10
595.0409229999999
 20
50.01979999999999
 30
0.0
 11
591.8116599999999
 21
50.01979999999999
 31
0.0
  0
LINE
  5
1B4
330
1E
100
AcDbEntity
  8
0
100
AcDbLine
 10
593.1887699999999
 20
50.01979999999999
 30
0.0
 11
588.81542
 21
50.01979999999999
 31
0.0
  0
LINE
  5
1B5
330
1E
100
AcDbEntity
  8
0
100
AcDbLine
 10
596.0
 20
50.01979999999999
 30
0.0
 11
595.0409229999999
 21
50.01979999999999
 31
0.0
  0
LINE
  5
1B6
330
1E
100
AcDbEntity
  8
0
100
AcDbLine
 10
595.5539639999999
 20
50.01979999999999
 30
0.0
 11
593.1887699999999
 21
50.01979999999999
 31
0.0
  0
LINE
  5
1B7
330
1E
100
AcDbEntity
  8
0
100
AcDbLine
 10
595.5539639999999
 20
50.01979999999999
 30
0.0
 11
593.1887699999999
 21
50.01979999999999
 31
0.0
  0
LINE
  5
1B8
330
1E
100
AcDbEntity
  8
0
100
AcDbLine
 10
596.0
 20
50.01979999999999
 30
0.0
 11
595.5539639999999
 21
50.01979999999999
 31
0.0
  0
LINE
  5
1B9
330
1E
100
AcDbEntity
  8
0
100
AcDbLine
 10
591.8116599999999
 20
50.01979999999999
 30
0.0
 11
588.1383699999999
 21
50.01979999999999
 31
0.0
  0
LINE
  5
1BA
330
1E
100
AcDbEntity
  8
0
100
AcDbLine
 10
588.81542
 20
50.01979999999999
 30
0.0
 11
588.1203699999999
 21
50.01979999999999
 31
0.0
  0
LINE
  5
1BB
330
1E
100
AcDbEntity
  8
0
100
AcDbLine
 10
562.9233
 20
50.01979999999999
 30
0.0
 11
555.2707
 21
50.01979999999999
 31
0.0
  0
LINE
  5
1BC
330
1E
100
AcDbEntity
  8
0
100
AcDbLine
 10
564.9154999999999
 20
50.01979999999999
 30
0.0
 11
559.5411
 21
50.01979999999999
 31
0.0
  0
LINE
  5
1BD
330
1E
100
AcDbEntity
  8
0
100
AcDbLine
 10
566.1785999999999
 20
50.01979999999999
 30
0.0
 11
559.3239999999999
 21
50.01979999999999
 31
0.0
  0
LINE
  5
1BE
330
1E
100
AcDbEntity
  8
0
100
AcDbLine
 10
576.0474
 20
50.01979999999999
 30
0.0
 11
572.3270999999999
 21
50.01979999999999
 31
0.0
  0
LINE
  5
1BF
330
1E
100
AcDbEntity
  8
0
100
AcDbLine
 10
577.3295
 20
50.01979999999999
 30
0.0
 11
570.2079
 21
50.01979999999999
 31
0.0
  0
LINE
  5
1C0
330
1E
100
AcDbEntity
  8
0
100
AcDbLine
 10
582.1679
 20
50.01979999999999
 30
0.0
 11
579.8217
 21
50.01979999999999
 31
0.0
  0
LINE
  5
1C1
330
1E
100
AcDbEntity
  8
0
100
AcDbLine
 10
581.9308999999999
 20
50.01979999999999
 30
0.0
 11
579.3896999999999
 21
50.01979999999999
 31
0.0
  0
LINE
  5
1C2
330
1E
100
AcDbEntity
  8
0
100
AcDbLine
 10
581.0848
 20
50.01979999999999
 30
0.0
 11
576.0474
 21
50.01979999999999
 31
0.0
  0
LINE
  5
1C3
330
1E
100
AcDbEntity
  8
0
100
AcDbLine
 10
582.4038999999999
 20
50.01979999999999
 30
0.0
 11
577.3295
 21
50.01979999999999
 31
0.0
  0
LINE
  5
1C4
330
1E
100
AcDbEntity
  8
0
100
AcDbLine
 10
585.8691999999999
 20
50.01979999999999
 30
0.0
 11
582.4038999999999
 21
50.01979999999999
 31
0.0
  0
LINE
  5
1C5
330
1E
100
AcDbEntity
  8
0
100
AcDbLine
 10
583.988
 20
50.01979999999999
 30
0.0
 11
581.0848
 21
50.01979999999999
 31
0.0
  0
LINE
  5
1C6
330
1E
100
AcDbEntity
  8
0
100
AcDbLine
 10
586.43723
 20
50.01979999999999
 30
0.0
 11
585.8691999999999
 21
50.01979999999999
 31
0.0
  0
LINE
  5
1C7
330
1E
100
AcDbEntity
  8
0
100
AcDbLine
 10
586.1692099999999
 20
50.01979999999999
 30
0.0
 11
583.988
 21
50.01979999999999
 31
0.0
  0
LINE
  5
1C8
330
1E
100
AcDbEntity
  8
0
100
AcDbLine
 10
579.8217
 20
50.01979999999999
 30
0.0
 11
574.9523
 21
50.01979999999999
 31
0.0
  0
LINE
  5
1C9
330
1E
100
AcDbEntity
  8
0
100
AcDbLine
 10
572.3270999999999
 20
50.01979999999999
 30
0.0
 11
566.1785999999999
 21
50.01979999999999
 31
0.0
  0
LINE
  5
1CA
330
1E
100
AcDbEntity
  8
0
100
AcDbLine
 10
568.9127999999999
 20
50.01979999999999
 30
0.0
 11
562.9233
 21
50.01979999999999
 31
0.0
  0
LINE
  5
1CB
330
1E
100
AcDbEntity
  8
0
100
AcDbLine
 10
570.2079
 20
50.01979999999999
 30
0.0
 11
564.9154999999999
 21
50.01979999999999
 31
0.0
  0
LINE
  5
1CC
330
1E
100
AcDbEntity
  8
0
100
AcDbLine
 10
573.9682
 20
50.01979999999999
 30
0.0
 11
572.0261
 21
50.01979999999999
 31
0.0
  0
LINE
  5
1CD
330
1E
100
AcDbEntity
  8
0
100
AcDbLine
 10
553.8336
 20
50.01979999999999
 30
0.0
 11
547.8681
 21
50.01979999999999
 31
0.0
  0
LINE
  5
1CE
330
1E
100
AcDbEntity
  8
0
100
AcDbLine
 10
559.3239999999999
 20
50.01979999999999
 30
0.0
 11
550.2463
 21
50.01979999999999
 31
0.0
  0
LINE
  5
1CF
330
1E
100
AcDbEntity
  8
0
100
AcDbLine
 10
559.5411
 20
50.01979999999999
 30
0.0
 11
553.8336
 21
50.01979999999999
 31
0.0
  0
LINE
  5
1D0
330
1E
100
AcDbEntity
  8
0
100
AcDbLine
 10
547.8681
 20
50.01979999999999
 30
0.0
 11
541.7296
 21
50.01979999999999
 31
0.0
  0
LINE
  5
1D1
330
1E
100
AcDbEntity
  8
0
100
AcDbLine
 10
546.0379999999999
 20
50.01979999999999
 30
0.0
 11
539.4333999999999
 21
50.01979999999999
 31
0.0
  0
LINE
  5
1D2
330
1E
100
AcDbEntity
  8
0
100
AcDbLine
 10
550.2463
 20
50.01979999999999
 30
0.0
 11
546.0379999999999
 21
50.01979999999999
 31
0.0
  0
LINE
  5
1D3
330
1E
100
AcDbEntity
  8
0
100
AcDbLine
 10
527.1724999999999
 20
47.1316
 30
0.0
 11
511.9331999999999
 21
14.44069999999999
 31
0.0
  0
LINE
  5
1D4
330
1E
100
AcDbEntity
  8
0
100
AcDbLine
 10
527.1724999999999
 20
47.1316
 30
0.0
 11
511.9331999999999
 21
14.44069999999999
 31
0.0
  0
LINE
  5
1D5
330
1E
100
AcDbEntity
  8
0
100
AcDbLine
 10
492.255
 20
0.178099999999998
 30
0.0
 11
489.273
 21
-0.0000000000000028
 31
0.0
  0
LINE
  5
1D6
330
1E
100
AcDbEntity
  8
0
100
AcDbLine
 10
505.8567
 20
6.29349
 30
0.0
 11
505.2487
 21
5.771279999999999
 31
0.0
  0
LINE
  5
1D7
330
1E
100
AcDbEntity
  8
0
100
AcDbLine
 10
503.8815999999999
 20
4.713899999999999
 30
0.0
 11
502.7065
 21
3.916599999999999
 31
0.0
  0
LINE
  5
1D8
330
1E
100
AcDbEntity
  8
0
100
AcDbLine
 10
505.2487
 20
5.771279999999999
 30
0.0
 11
504.8377
 21
5.437149999999999
 31
0.0
  0
LINE
  5
1D9
330
1E
100
AcDbEntity
  8
0
100
AcDbLine
 10
504.8377
 20
5.437149999999999
 30
0.0
 11
504.0586
 21
4.841899999999999
 31
0.0
  0
LINE
  5
1DA
330
1E
100
AcDbEntity
  8
0
100
AcDbLine
 10
504.0586
 20
4.841899999999999
 30
0.0
 11
503.8815999999999
 21
4.713899999999999
 31
0.0
  0
LINE
  5
1DB
330
1E
100
AcDbEntity
  8
0
100
AcDbLine
 10
498.6752
 20
1.8357
 30
0.0
 11
496.2699999999999
 21
0.9983999999999989
 31
0.0
  0
LINE
  5
1DC
330
1E
100
AcDbEntity
  8
0
100
AcDbLine
 10
502.4375
 20
3.7475
 30
0.0
 11
498.6752
 21
1.8357
 31
0.0
  0
LINE
  5
1DD
330
1E
100
AcDbEntity
  8
0
100
AcDbLine
 10
502.7065
 20
3.916599999999999
 30
0.0
 11
502.4375
 21
3.7475
 31
0.0
  0
LINE
  5
1DE
330
1E
100
AcDbEntity
  8
0
100
AcDbLine
 10
494.412
 20
0.534199999999999
 30
0.0
 11
492.255
 21
0.178099999999998
 31
0.0
  0
LINE
  5
1DF
330
1E
100
AcDbEntity
  8
0
100
AcDbLine
 10
496.2699999999999
 20
0.9983999999999989
 30
0.0
 11
494.412
 21
0.534199999999999
 31
0.0
  0
LINE
  5
1E0
330
1E
100
AcDbEntity
  8
0
100
AcDbLine
 10
511.9331999999999
 20
14.44069999999999
 30
0.0
 11
508.0708999999999
 21
8.51937
 31
0.0
  0
LINE
  5
1E1
330
1E
100
AcDbEntity
  8
0
100
AcDbLine
 10
507.5878999999999
 20
7.985149999999999
 30
0.0
 11
505.8567
 21
6.29349
 31
0.0
  0
LINE
  5
1E2
330
1E
100
AcDbEntity
  8
0
100
AcDbLine
 10
508.0708999999999
 20
8.51937
 30
0.0
 11
507.5878999999999
 21
7.985149999999999
 31
0.0
  0
LINE
  5
1E3
330
1E
100
AcDbEntity
  8
0
100
AcDbLine
 10
528.9335999999999
 20
50.01979999999999
 30
0.0
 11
470.6159999999999
 21
50.01979999999999
 31
0.0
  0
LINE
  5
1E4
330
1E
100
AcDbEntity
  8
0
100
AcDbLine
 10
537.7403
 20
50.01979999999999
 30
0.0
 11
524.1341999999999
 21
50.01979999999999
 31
0.0
  0
LINE
  5
1E5
330
1E
100
AcDbEntity
  8
0
100
AcDbLine
 10
535.7311
 20
50.01979999999999
 30
0.0
 11
531.7038
 21
50.01979999999999
 31
0.0
  0
LINE
  5
1E6
330
1E
100
AcDbEntity
  8
0
100
AcDbLine
 10
530.3663074167309
 20
49.80172415308983
 30
0.0
 11
528.6965999999999
 21
49.0134
 31
0.0
  0
LINE
  5
1E7
330
1E
100
AcDbEntity
  8
0
100
AcDbLine
 10
528.7016752080935
 20
49.0157961737739
 30
0.0
 11
527.1724999999999
 21
47.1316
 31
0.0
  0
LINE
  5
1E8
330
1E
100
AcDbEntity
  8
0
100
AcDbLine
 10
531.7038
 20
50.01979999999999
 30
0.0
 11
530.3663074167308
 21
49.8017241530898
 31
0.0
  0
LINE
  5
1E9
330
1E
100
AcDbEntity
  8
0
100
AcDbLine
 10
531.7038
 20
50.01979999999999
 30
0.0
 11
530.3663074167308
 21
49.8017241530898
 31
0.0
  0
LINE
  5
1EA
330
1E
100
AcDbEntity
  8
0
  6
Continuous
100
AcDbLine
 10
510.3731
 20
149.696
 30
0.0
 11
591.1876099999999
 21
149.4159999999999
 31
0.0
  0
LINE
  5
1EB
330
1E
100
AcDbEntity
  8
0
100
AcDbLine
 10
592.42471
 20
148.312
 30
0.0
 11
591.1876099999999
 21
149.4159999999999
 31
0.0
  0
LINE
  5
1EC
330
1E
100
AcDbEntity
  8
0
100
AcDbLine
 10
592.9197499999999
 20
146.7189999999999
 30
0.0
 11
592.42471
 21
148.312
 31
0.0
  0
LINE
  5
1ED
330
1E
100
AcDbEntity
  8
0
  6
Continuous
100
AcDbLine
 10
502.8434999999999
 20
196.409
 30
0.0
 11
502.8434999999999
 21
149.6918813342578
 31
0.0
  0
LINE
  5
1EE
330
1E
100
AcDbEntity
  8
0
100
AcDbLine
 10
502.8434999999999
 20
196.409
 30
0.0
 11
502.3195
 21
198.099
 31
0.0
  0
LINE
  5
1EF
330
1E
100
AcDbEntity
  8
0
100
AcDbLine
 10
502.3195
 20
198.099
 30
0.0
 11
500.9363
 21
199.201
 31
0.0
  0
LINE
  5
1F0
330
1E
100
AcDbEntity
  8
0
100
AcDbLine
 10
416.596
 20
50.01979999999999
 30
0.0
 11
298.0
 21
50.01979999999999
 31
0.0
  0
LINE
  5
1F1
330
1E
100
AcDbEntity
  8
0
100
AcDbLine
 10
397.5239999999999
 20
50.01979999999999
 30
0.0
 11
298.0
 21
50.01979999999999
 31
0.0
  0
LINE
  5
1F2
330
1E
100
AcDbEntity
  8
0
100
AcDbLine
 10
351.0149999999999
 20
16.00629999999999
 30
0.0
 11
341.849
 21
16.00629999999999
 31
0.0
  0
LINE
  5
1F3
330
1E
100
AcDbEntity
  8
0
100
AcDbLine
 10
351.0149999999999
 20
16.00629999999999
 30
0.0
 11
341.849
 21
16.00629999999999
 31
0.0
  0
LINE
  5
1F4
330
1E
100
AcDbEntity
  8
0
100
AcDbLine
 10
373.096
 20
38.11209999999999
 30
0.0
 11
368.454
 21
32.5429
 31
0.0
  0
LINE
  5
1F5
330
1E
100
AcDbEntity
  8
0
100
AcDbLine
 10
365.2889999999999
 20
26.0233
 30
0.0
 11
363.7859999999999
 21
18.9355
 31
0.0
  0
LINE
  5
1F6
330
1E
100
AcDbEntity
  8
0
100
AcDbLine
 10
362.0979999999999
 20
16.00629999999999
 30
0.0
 11
357.865
 21
16.00629999999999
 31
0.0
  0
LINE
  5
1F7
330
1E
100
AcDbEntity
  8
0
100
AcDbLine
 10
362.0979999999999
 20
16.00629999999999
 30
0.0
 11
357.865
 21
16.00629999999999
 31
0.0
  0
LINE
  5
1F8
330
1E
100
AcDbEntity
  8
0
100
AcDbLine
 10
363.7859999999999
 20
18.9355
 30
0.0
 11
363.5299999999999
 21
16.00629999999999
 31
0.0
  0
LINE
  5
1F9
330
1E
100
AcDbEntity
  8
0
100
AcDbLine
 10
363.5299999999999
 20
16.00629999999999
 30
0.0
 11
362.0979999999999
 21
16.00629999999999
 31
0.0
  0
LINE
  5
1FA
330
1E
100
AcDbEntity
  8
0
100
AcDbLine
 10
357.865
 20
16.00629999999999
 30
0.0
 11
351.0149999999999
 21
16.00629999999999
 31
0.0
  0
LINE
  5
1FB
330
1E
100
AcDbEntity
  8
0
100
AcDbLine
 10
357.865
 20
16.00629999999999
 30
0.0
 11
351.0149999999999
 21
16.00629999999999
 31
0.0
  0
LINE
  5
1FC
330
1E
100
AcDbEntity
  8
0
100
AcDbLine
 10
368.454
 20
32.5429
 30
0.0
 11
365.2889999999999
 21
26.0233
 31
0.0
  0
LINE
  5
1FD
330
1E
100
AcDbEntity
  8
0
100
AcDbLine
 10
392.435
 20
50.01979999999999
 30
0.0
 11
379.971
 21
42.86389999999999
 31
0.0
  0
LINE
  5
1FE
330
1E
100
AcDbEntity
  8
0
  6
Continuous
100
AcDbLine
 10
378.569
 20
42.0106
 30
0.0
 11
373.096
 21
38.11209999999999
 31
0.0
  0
LINE
  5
1FF
330
1E
100
AcDbEntity
  8
0
100
AcDbLine
 10
379.971
 20
42.86389999999999
 30
0.0
 11
378.569
 21
42.0106
 31
0.0
  0
LINE
  5
200
330
1E
100
AcDbEntity
  8
0
100
AcDbLine
 10
304.851
 20
16.00629999999999
 30
0.0
 11
291.149
 21
16.00629999999999
 31
0.0
  0
LINE
  5
201
330
1E
100
AcDbEntity
  8
0
100
AcDbLine
 10
305.2169999999999
 20
16.00629999999999
 30
0.0
 11
297.999
 21
16.00629999999999
 31
0.0
  0
LINE
  5
202
330
1E
100
AcDbEntity
  8
0
100
AcDbLine
 10
304.999
 20
16.00629999999999
 30
0.0
 11
297.999
 21
16.00629999999999
 31
0.0
  0
LINE
  5
203
330
1E
100
AcDbEntity
  8
0
100
AcDbLine
 10
304.851
 20
16.00629999999999
 30
0.0
 11
291.1499999999999
 21
16.00629999999999
 31
0.0
  0
LINE
  5
204
330
1E
100
AcDbEntity
  8
0
100
AcDbLine
 10
330.7649999999999
 20
16.00629999999999
 30
0.0
 11
318.25
 21
16.00629999999999
 31
0.0
  0
LINE
  5
205
330
1E
100
AcDbEntity
  8
0
100
AcDbLine
 10
330.7649999999999
 20
16.00629999999999
 30
0.0
 11
318.2509999999999
 21
16.00629999999999
 31
0.0
  0
LINE
  5
206
330
1E
100
AcDbEntity
  8
0
100
AcDbLine
 10
341.849
 20
16.00629999999999
 30
0.0
 11
330.7649999999999
 21
16.00629999999999
 31
0.0
  0
LINE
  5
207
330
1E
100
AcDbEntity
  8
0
100
AcDbLine
 10
341.849
 20
16.00629999999999
 30
0.0
 11
330.7649999999999
 21
16.00629999999999
 31
0.0
  0
LINE
  5
208
330
1E
100
AcDbEntity
  8
0
100
AcDbLine
 10
316.4049999999999
 20
16.00629999999999
 30
0.0
 11
311.3339999999999
 21
16.00629999999999
 31
0.0
  0
LINE
  5
209
330
1E
100
AcDbEntity
  8
0
100
AcDbLine
 10
316.8099999999999
 20
16.00629999999999
 30
0.0
 11
311.7049999999999
 21
16.00629999999999
 31
0.0
  0
LINE
  5
20A
330
1E
100
AcDbEntity
  8
0
100
AcDbLine
 10
318.25
 20
16.00629999999999
 30
0.0
 11
304.851
 21
16.00629999999999
 31
0.0
  0
LINE
  5
20B
330
1E
100
AcDbEntity
  8
0
100
AcDbLine
 10
318.2509999999999
 20
16.00629999999999
 30
0.0
 11
304.851
 21
16.00629999999999
 31
0.0
  0
LINE
  5
20C
330
1E
100
AcDbEntity
  8
0
100
AcDbLine
 10
319.73
 20
16.00629999999999
 30
0.0
 11
316.4049999999999
 21
16.00629999999999
 31
0.0
  0
LINE
  5
20D
330
1E
100
AcDbEntity
  8
0
100
AcDbLine
 10
320.014
 20
16.00629999999999
 30
0.0
 11
316.8099999999999
 21
16.00629999999999
 31
0.0
  0
LINE
  5
20E
330
1E
100
AcDbEntity
  8
0
100
AcDbLine
 10
320.995
 20
16.00629999999999
 30
0.0
 11
319.73
 21
16.00629999999999
 31
0.0
  0
LINE
  5
20F
330
1E
100
AcDbEntity
  8
0
100
AcDbLine
 10
320.995
 20
16.00629999999999
 30
0.0
 11
320.014
 21
16.00629999999999
 31
0.0
  0
LINE
  5
210
330
1E
100
AcDbEntity
  8
0
100
AcDbLine
 10
311.7049999999999
 20
16.00629999999999
 30
0.0
 11
305.2169999999999
 21
16.00629999999999
 31
0.0
  0
LINE
  5
211
330
1E
100
AcDbEntity
  8
0
100
AcDbLine
 10
311.3339999999999
 20
16.00629999999999
 30
0.0
 11
304.999
 21
16.00629999999999
 31
0.0
  0
LINE
  5
212
330
1E
100
AcDbEntity
  8
0
100
AcDbLine
 10
297.999
 20
16.00629999999999
 30
0.0
 11
290.783
 21
16.00629999999999
 31
0.0
  0
LINE
  5
213
330
1E
100
AcDbEntity
  8
0
100
AcDbLine
 10
297.999
 20
16.00629999999999
 30
0.0
 11
291.0009999999999
 21
16.00629999999999
 31
0.0
  0
LINE
  5
214
330
1E
100
AcDbEntity
  8
0
100
AcDbLine
 10
380.5929999999999
 20
199.3299999999999
 30
0.0
 11
298.0
 21
199.402
 31
0.0
  0
LINE
  5
215
330
1E
100
AcDbEntity
  8
0
100
AcDbLine
 10
380.591
 20
199.3309999999999
 30
0.0
 11
298.0
 21
199.402
 31
0.0
  0
LINE
  5
216
330
1E
100
AcDbEntity
  8
0
100
AcDbLine
 10
385.461
 20
149.624
 30
0.0
 11
335.9859999999999
 21
149.602
 31
0.0
  0
LINE
  5
217
330
1E
100
AcDbEntity
  8
0
100
AcDbLine
 10
442.731
 20
149.6589999999999
 30
0.0
 11
385.461
 21
149.624
 31
0.0
  0
LINE
  5
218
330
1E
100
AcDbEntity
  8
0
100
AcDbLine
 10
335.9859999999999
 20
149.602
 30
0.0
 11
298.0
 21
149.594
 31
0.0
  0
LINE
  5
219
330
1E
100
AcDbEntity
  8
0
  6
Continuous
100
AcDbLine
 10
106.727
 20
-0.0000000000000028
 30
0.0
 11
489.273
 21
-0.0000000000000028
 31
0.0
  0
ENDSEC
  0
SECTION
  2
OBJECTS
  0
DICTIONARY
  5
C
330
0
100
AcDbDictionary
281
     1
  3
ACAD_GROUP
350
D
  3
ACAD_LAYOUT
350
19
  3
ACAD_MLINESTYLE
350
16
  3
ACAD_PLOTSETTINGS
350
18
  3
ACAD_PLOTSTYLENAME
350
E
  3
AcDbVariableDictionary
350
21B
  0
DICTIONARY
  5
D
102
{ACAD_REACTORS
330
C
102
}
330
C
100
AcDbDictionary
281
     1
  0
DICTIONARY
  5
19
102
{ACAD_REACTORS
330
C
102
}
330
C
100
AcDbDictionary
281
     1
  3
Layout1
350
1D
  3
Model
350
21
  0
DICTIONARY
  5
16
102
{ACAD_REACTORS
330
C
102
}
330
C
100
AcDbDictionary
281
     1
  3
Standard
350
17
  0
DICTIONARY
  5
18
102
{ACAD_REACTORS
330
C
102
}
330
C
100
AcDbDictionary
281
     1
  0
ACDBDICTIONARYWDFLT
  5
E
102
{ACAD_REACTORS
330
C
102
}
330
C
100
AcDbDictionary
281
     1
  3
Normal
350
F
100
AcDbDictionaryWithDefault
340
F
  0
DICTIONARY
  5
21B
102
{ACAD_REACTORS
330
C
102
}
330
C
100
AcDbDictionary
281
     1
  3
DIMASSOC
350
21C
  0
LAYOUT
  5
1D
102
{ACAD_REACTORS
330
19
102
}
330
19
100
AcDbPlotSettings
  1

  2
C:\Programme\AutoCAD LT 2002 Deu\plotters\DWF ePlot (optimized for plotting).pc3
  4

  6

 40
0.0
 41
0.0
 42
0.0
 43
0.0
 44
0.0
 45
0.0
 46
0.0
 47
0.0
 48
0.0
 49
0.0
140
0.0
141
0.0
142
1.0
143
1.0
 70
   688
 72
     0
 73
     0
 74
     5
  7

 75
    16
147
1.0
148
0.0
149
0.0
100
AcDbLayout
  1
Layout1
 70
     1
 71
     1
 10
0.0
 20
0.0
 11
12.0
 21
9.0
 12
0.0
 22
0.0
 32
0.0
 14
1.000000000000000E+20
 24
1.000000000000000E+20
 34
1.000000000000000E+20
 15
-1.000000000000000E+20
 25
-1.000000000000000E+20
 35
-1.000000000000000E+20
146
0.0
 13
0.0
 23
0.0
 33
0.0
 16
1.0
 26
0.0
 36
0.0
 17
0.0
 27
1.0
 37
0.0
 76
     0
330
1A
  0
LAYOUT
  5
21
102
{ACAD_REACTORS
330
19
102
}
330
19
100
AcDbPlotSettings
  1

  2
C:\Programme\AutoCAD LT 2002 Deu\plotters\DWF ePlot (optimized for plotting).pc3
  4

  6

 40
0.0
 41
0.0
 42
0.0
 43
0.0
 44
0.0
 45
0.0
 46
0.0
 47
0.0
 48
0.0
 49
0.0
140
0.0
141
0.0
142
1.0
143
1.0
 70
  1712
 72
     0
 73
     0
 74
     0
  7

 75
     0
147
1.0
148
0.0
149
0.0
100
AcDbLayout
  1
Model
 70
     1
 71
     0
 10
0.0
 20
0.0
 11
12.0
 21
9.0
 12
0.0
 22
0.0
 32
0.0
 14
0.0
 24
0.0
 34
0.0
 15
0.0
 25
0.0
 35
0.0
146
0.0
 13
0.0
 23
0.0
 33
0.0
 16
1.0
 26
0.0
 36
0.0
 17
0.0
 27
1.0
 37
0.0
 76
     0
330
1E
  0
MLINESTYLE
  5
17
102
{ACAD_REACTORS
330
16
102
}
330
16
100
AcDbMlineStyle
  2
STANDARD
 70
     0
  3

 62
   256
 51
90.0
 52
90.0
 71
     2
 49
0.5
 62
   256
  6
BYLAYER
 49
-0.5
 62
   256
  6
BYLAYER
  0
ACDBPLACEHOLDER
  5
F
102
{ACAD_REACTORS
330
E
102
}
330
E
  0
DICTIONARYVAR
  5
21C
102
{ACAD_REACTORS
330
21B
102
}
330
21B
100
DictionaryVariables
280
     0
  1
1
  0
ENDSEC
  0
EOF
