  0
SECTION
  2
HEADER
  9
$ACADVER
  1
AC1015
  9
$ACADMAINTVER
 70
    13
  9
$DWGCODEPAGE
  3
ANSI_1252
  9
$INSBASE
 10
0.0
 20
0.0
 30
0.0
  9
$EXTMIN
 10
0.0000000000000301
 20
-0.0000000000000028
 30
0.0
  9
$EXTMAX
 10
503.0
 20
199.3309999999999
 30
0.0
  9
$LIMMIN
 10
0.0
 20
0.0
  9
$LIMMAX
 10
12.0
 20
9.0
  9
$ORTHOMODE
 70
     0
  9
$REGENMODE
 70
     1
  9
$FILLMODE
 70
     1
  9
$QTEXTMODE
 70
     0
  9
$MIRRTEXT
 70
     1
  9
$LTSCALE
 40
1.0
  9
$ATTMODE
 70
     1
  9
$TEXTSIZE
 40
0.2
  9
$TRACEWID
 40
0.05
  9
$TEXTSTYLE
  7
Standard
  9
$CLAYER
  8
0
  9
$CELTYPE
  6
Continuous
  9
$CECOLOR
 62
   256
  9
$CELTSCALE
 40
1.0
  9
$DISPSILH
 70
     0
  9
$DIMSCALE
 40
1.0
  9
$DIMASZ
 40
0.18
  9
$DIMEXO
 40
0.0625
  9
$DIMDLI
 40
0.38
  9
$DIMRND
 40
0.0
  9
$DIMDLE
 40
0.0
  9
$DIMEXE
 40
0.18
  9
$DIMTP
 40
0.0
  9
$DIMTM
 40
0.0
  9
$DIMTXT
 40
0.18
  9
$DIMCEN
 40
0.09
  9
$DIMTSZ
 40
0.0
  9
$DIMTOL
 70
     0
  9
$DIMLIM
 70
     0
  9
$DIMTIH
 70
     1
  9
$DIMTOH
 70
     1
  9
$DIMSE1
 70
     0
  9
$DIMSE2
 70
     0
  9
$DIMTAD
 70
     0
  9
$DIMZIN
 70
     0
  9
$DIMBLK
  1

  9
$DIMASO
 70
     1
  9
$DIMSHO
 70
     1
  9
$DIMPOST
  1

  9
$DIMAPOST
  1

  9
$DIMALT
 70
     0
  9
$DIMALTD
 70
     2
  9
$DIMALTF
 40
25.4
  9
$DIMLFAC
 40
1.0
  9
$DIMTOFL
 70
     0
  9
$DIMTVP
 40
0.0
  9
$DIMTIX
 70
     0
  9
$DIMSOXD
 70
     0
  9
$DIMSAH
 70
     0
  9
$DIMBLK1
  1

  9
$DIMBLK2
  1

  9
$DIMSTYLE
  2
Standard
  9
$DIMCLRD
 70
     0
  9
$DIMCLRE
 70
     0
  9
$DIMCLRT
 70
     0
  9
$DIMTFAC
 40
1.0
  9
$DIMGAP
 40
0.09
  9
$DIMJUST
 70
     0
  9
$DIMSD1
 70
     0
  9
$DIMSD2
 70
     0
  9
$DIMTOLJ
 70
     1
  9
$DIMTZIN
 70
     0
  9
$DIMALTZ
 70
     0
  9
$DIMALTTZ
 70
     0
  9
$DIMUPT
 70
     0
  9
$DIMDEC
 70
     4
  9
$DIMTDEC
 70
     4
  9
$DIMALTU
 70
     2
  9
$DIMALTTD
 70
     2
  9
$DIMTXSTY
  7
Standard
  9
$DIMAUNIT
 70
     0
  9
$DIMADEC
 70
     0
  9
$DIMALTRND
 40
0.0
  9
$DIMAZIN
 70
     0
  9
$DIMDSEP
 70
    46
  9
$DIMATFIT
 70
     3
  9
$DIMFRAC
 70
     0
  9
$DIMLDRBLK
  1

  9
$DIMLUNIT
 70
     2
  9
$DIMLWD
 70
    -2
  9
$DIMLWE
 70
    -2
  9
$DIMTMOVE
 70
     0
  9
$LUNITS
 70
     2
  9
$LUPREC
 70
     4
  9
$SKETCHINC
 40
0.1
  9
$FILLETRAD
 40
0.0
  9
$AUNITS
 70
     0
  9
$AUPREC
 70
     0
  9
$MENU
  1
.
  9
$ELEVATION
 40
0.0
  9
$PELEVATION
 40
0.0
  9
$THICKNESS
 40
0.0
  9
$LIMCHECK
 70
     0
  9
$CHAMFERA
 40
0.0
  9
$CHAMFERB
 40
0.0
  9
$CHAMFERC
 40
0.0
  9
$CHAMFERD
 40
0.0
  9
$SKPOLY
 70
     0
  9
$TDCREATE
 40
2455508.926954930
  9
$TDUCREATE
 40
2455508.885288264
  9
$TDUPDATE
 40
2455508.930500034
  9
$TDUUPDATE
 40
2455508.888833368
  9
$TDINDWG
 40
0.0035452778
  9
$TDUSRTIMER
 40
0.0035452778
  9
$USRTIMER
 70
     1
  9
$ANGBASE
 50
0.0
  9
$ANGDIR
 70
     0
  9
$PDMODE
 70
     0
  9
$PDSIZE
 40
0.0
  9
$PLINEWID
 40
0.0
  9
$SPLFRAME
 70
     0
  9
$SPLINETYPE
 70
     6
  9
$SPLINESEGS
 70
     8
  9
$HANDSEED
  5
15A
  9
$SURFTAB1
 70
     6
  9
$SURFTAB2
 70
     6
  9
$SURFTYPE
 70
     6
  9
$SURFU
 70
     6
  9
$SURFV
 70
     6
  9
$UCSBASE
  2

  9
$UCSNAME
  2

  9
$UCSORG
 10
0.0
 20
0.0
 30
0.0
  9
$UCSXDIR
 10
1.0
 20
0.0
 30
0.0
  9
$UCSYDIR
 10
0.0
 20
1.0
 30
0.0
  9
$UCSORTHOREF
  2

  9
$UCSORTHOVIEW
 70
     1
  9
$UCSORGTOP
 10
0.0
 20
0.0
 30
0.0
  9
$UCSORGBOTTOM
 10
0.0
 20
0.0
 30
0.0
  9
$UCSORGLEFT
 10
0.0
 20
0.0
 30
0.0
  9
$UCSORGRIGHT
 10
0.0
 20
0.0
 30
0.0
  9
$UCSORGFRONT
 10
0.0
 20
0.0
 30
0.0
  9
$UCSORGBACK
 10
0.0
 20
0.0
 30
0.0
  9
$PUCSBASE
  2

  9
$PUCSNAME
  2

  9
$PUCSORG
 10
0.0
 20
0.0
 30
0.0
  9
$PUCSXDIR
 10
1.0
 20
0.0
 30
0.0
  9
$PUCSYDIR
 10
0.0
 20
1.0
 30
0.0
  9
$PUCSORTHOREF
  2

  9
$PUCSORTHOVIEW
 70
     0
  9
$PUCSORGTOP
 10
0.0
 20
0.0
 30
0.0
  9
$PUCSORGBOTTOM
 10
0.0
 20
0.0
 30
0.0
  9
$PUCSORGLEFT
 10
0.0
 20
0.0
 30
0.0
  9
$PUCSORGRIGHT
 10
0.0
 20
0.0
 30
0.0
  9
$PUCSORGFRONT
 10
0.0
 20
0.0
 30
0.0
  9
$PUCSORGBACK
 10
0.0
 20
0.0
 30
0.0
  9
$USERI1
 70
     0
  9
$USERI2
 70
     0
  9
$USERI3
 70
     0
  9
$USERI4
 70
     0
  9
$USERI5
 70
     0
  9
$USERR1
 40
0.0
  9
$USERR2
 40
0.0
  9
$USERR3
 40
0.0
  9
$USERR4
 40
0.0
  9
$USERR5
 40
0.0
  9
$WORLDVIEW
 70
     1
  9
$SHADEDGE
 70
     3
  9
$SHADEDIF
 70
    70
  9
$TILEMODE
 70
     1
  9
$MAXACTVP
 70
    64
  9
$PINSBASE
 10
0.0
 20
0.0
 30
0.0
  9
$PLIMCHECK
 70
     0
  9
$PEXTMIN
 10
1.000000000000000E+20
 20
1.000000000000000E+20
 30
1.000000000000000E+20
  9
$PEXTMAX
 10
-1.000000000000000E+20
 20
-1.000000000000000E+20
 30
-1.000000000000000E+20
  9
$PLIMMIN
 10
0.0
 20
0.0
  9
$PLIMMAX
 10
12.0
 20
9.0
  9
$UNITMODE
 70
     0
  9
$VISRETAIN
 70
     1
  9
$PLINEGEN
 70
     0
  9
$PSLTSCALE
 70
     1
  9
$TREEDEPTH
 70
  3020
  9
$CMLSTYLE
  2
Standard
  9
$CMLJUST
 70
     0
  9
$CMLSCALE
 40
1.0
  9
$PROXYGRAPHICS
 70
     1
  9
$MEASUREMENT
 70
     0
  9
$CELWEIGHT
370
    -1
  9
$ENDCAPS
280
     0
  9
$JOINSTYLE
280
     0
  9
$LWDISPLAY
290
     0
  9
$INSUNITS
 70
     0
  9
$HYPERLINKBASE
  1

  9
$STYLESHEET
  1

  9
$XEDIT
290
     1
  9
$CEPSNTYPE
380
     0
  9
$PSTYLEMODE
290
     1
  9
$FINGERPRINTGUID
  2
{627FC4D9-54C3-493B-A680-4930269CF120}
  9
$VERSIONGUID
  2
{8833ACF6-CC09-47E6-A98D-0C0382F4B478}
  9
$EXTNAMES
290
     1
  9
$PSVPSCALE
 40
0.0
  9
$OLESTARTUP
290
     0
  0
ENDSEC
  0
SECTION
  2
CLASSES
  0
CLASS
  1
ACDBDICTIONARYWDFLT
  2
AcDbDictionaryWithDefault
  3
AutoCAD 2000
 90
        0
280
     0
281
     0
  0
CLASS
  1
ACDBPLACEHOLDER
  2
AcDbPlaceHolder
  3
AutoCAD 2000
 90
        0
280
     0
281
     0
  0
CLASS
  1
LAYOUT
  2
AcDbLayout
  3
AutoCAD 2000
 90
        0
280
     0
281
     0
  0
CLASS
  1
DICTIONARYVAR
  2
AcDbDictionaryVar
  3
AutoCAD 2000
 90
        0
280
     0
281
     0
  0
ENDSEC
  0
SECTION
  2
TABLES
  0
TABLE
  2
VPORT
  5
8
330
0
100
AcDbSymbolTable
 70
     4
  0
VPORT
  5
159
330
8
100
AcDbSymbolTableRecord
100
AcDbViewportTableRecord
  2
*Active
 70
     0
 10
0.0
 20
0.0
 11
1.0
 21
1.0
 12
251.5
 22
99.66549999999999
 13
0.0
 23
0.0
 14
1.0
 24
1.0
 15
0.0
 25
0.0
 16
0.0
 26
0.0
 36
1.0
 17
0.0
 27
0.0
 37
0.0
 40
243.3929308264467
 41
2.073363431151241
 42
50.0
 43
0.0
 44
0.0
 50
0.0
 51
0.0
 71
     0
 72
   100
 73
     1
 74
     3
 75
     0
 76
     0
 77
     0
 78
     0
281
     0
 65
     1
110
0.0
120
0.0
130
0.0
111
1.0
121
0.0
131
0.0
112
0.0
122
1.0
132
0.0
 79
     1
146
0.0
  0
ENDTAB
  0
TABLE
  2
LTYPE
  5
5
330
0
100
AcDbSymbolTable
 70
     1
  0
LTYPE
  5
13
330
5
100
AcDbSymbolTableRecord
100
AcDbLinetypeTableRecord
  2
ByBlock
 70
     0
  3

 72
    65
 73
     0
 40
0.0
  0
LTYPE
  5
14
330
5
100
AcDbSymbolTableRecord
100
AcDbLinetypeTableRecord
  2
ByLayer
 70
     0
  3

 72
    65
 73
     0
 40
0.0
  0
LTYPE
  5
15
330
5
100
AcDbSymbolTableRecord
100
AcDbLinetypeTableRecord
  2
Continuous
 70
     0
  3
Solid line
 72
    65
 73
     0
 40
0.0
  0
ENDTAB
  0
TABLE
  2
LAYER
  5
2
330
0
100
AcDbSymbolTable
 70
     1
  0
LAYER
  5
10
330
2
100
AcDbSymbolTableRecord
100
AcDbLayerTableRecord
  2
0
 70
     0
 62
     7
  6
Continuous
370
    -3
390
F
  0
ENDTAB
  0
TABLE
  2
STYLE
  5
3
330
0
100
AcDbSymbolTable
 70
     1
  0
STYLE
  5
11
330
3
100
AcDbSymbolTableRecord
100
AcDbTextStyleTableRecord
  2
Standard
 70
     0
 40
0.0
 41
1.0
 50
0.0
 71
     0
 42
0.2
  3
txt
  4

  0
ENDTAB
  0
TABLE
  2
VIEW
  5
6
330
0
100
AcDbSymbolTable
 70
     0
  0
ENDTAB
  0
TABLE
  2
UCS
  5
7
330
0
100
AcDbSymbolTable
 70
     0
  0
ENDTAB
  0
TABLE
  2
APPID
  5
9
330
0
100
AcDbSymbolTable
 70
     1
  0
APPID
  5
12
330
9
100
AcDbSymbolTableRecord
100
AcDbRegAppTableRecord
  2
ACAD
 70
     0
  0
ENDTAB
  0
TABLE
  2
DIMSTYLE
  5
A
330
0
100
AcDbSymbolTable
 70
     1
100
AcDbDimStyleTable
 71
     0
  0
DIMSTYLE
105
143
330
A
100
AcDbSymbolTableRecord
100
AcDbDimStyleTableRecord
  2
Standard
 70
     0
340
11
  0
ENDTAB
  0
TABLE
  2
BLOCK_RECORD
  5
1
330
0
100
AcDbSymbolTable
 70
     0
  0
BLOCK_RECORD
  5
1E
330
1
100
AcDbSymbolTableRecord
100
AcDbBlockTableRecord
  2
*Model_Space
340
21
  0
BLOCK_RECORD
  5
1A
330
1
100
AcDbSymbolTableRecord
100
AcDbBlockTableRecord
  2
*Paper_Space
340
1D
  0
ENDTAB
  0
ENDSEC
  0
SECTION
  2
BLOCKS
  0
BLOCK
  5
1F
330
1E
100
AcDbEntity
  8
0
100
AcDbBlockBegin
  2
*Model_Space
 70
     0
 10
0.0
 20
0.0
 30
0.0
  3
*Model_Space
  1

  0
ENDBLK
  5
20
330
1E
100
AcDbEntity
  8
0
100
AcDbBlockEnd
  0
BLOCK
  5
1B
330
1A
100
AcDbEntity
 67
     1
  8
0
100
AcDbBlockBegin
  2
*Paper_Space
 70
     0
 10
0.0
 20
0.0
 30
0.0
  3
*Paper_Space
  1

  0
ENDBLK
  5
1C
330
1A
100
AcDbEntity
 67
     1
  8
0
100
AcDbBlockEnd
  0
ENDSEC
  0
SECTION
  2
ENTITIES
  0
LINE
  5
22
330
1E
100
AcDbEntity
  8
0
100
AcDbLine
 10
214.999
 20
16.00629999999999
 30
0.0
 11
216.1609999999999
 21
16.00629999999999
 31
0.0
  0
LINE
  5
23
330
1E
100
AcDbEntity
  8
0
100
AcDbLine
 10
216.1609999999999
 20
16.00629999999999
 30
0.0
 11
219.5279999999999
 21
16.00629999999999
 31
0.0
  0
LINE
  5
24
330
1E
100
AcDbEntity
  8
0
100
AcDbLine
 10
219.5279999999999
 20
16.00629999999999
 30
0.0
 11
224.7599999999999
 21
16.00629999999999
 31
0.0
  0
LINE
  5
25
330
1E
100
AcDbEntity
  8
0
100
AcDbLine
 10
219.5279999999999
 20
16.00629999999999
 30
0.0
 11
224.377
 21
16.00629999999999
 31
0.0
  0
LINE
  5
26
330
1E
100
AcDbEntity
  8
0
100
AcDbLine
 10
224.7599999999999
 20
16.00629999999999
 30
0.0
 11
231.33
 21
16.00629999999999
 31
0.0
  0
LINE
  5
27
330
1E
100
AcDbEntity
  8
0
100
AcDbLine
 10
224.377
 20
16.00629999999999
 30
0.0
 11
238.0009999999999
 21
16.00629999999999
 31
0.0
  0
LINE
  5
28
330
1E
100
AcDbEntity
  8
0
100
AcDbLine
 10
224.377
 20
16.00629999999999
 30
0.0
 11
238.0
 21
16.00629999999999
 31
0.0
  0
LINE
  5
29
330
1E
100
AcDbEntity
  8
0
100
AcDbLine
 10
0.0000000000000301
 20
50.01979999999999
 30
0.0
 11
0.99200000000003
 21
50.01979999999999
 31
0.0
  0
LINE
  5
2A
330
1E
100
AcDbEntity
  8
0
100
AcDbLine
 10
0.0000000000000301
 20
50.01979999999999
 30
0.0
 11
2.19800000000003
 21
98.30379999999999
 31
0.0
  0
LINE
  5
2B
330
1E
100
AcDbEntity
  8
0
100
AcDbLine
 10
0.0000000000000301
 20
50.01979999999999
 30
0.0
 11
2.19800000000003
 21
98.30379999999999
 31
0.0
  0
LINE
  5
2C
330
1E
100
AcDbEntity
  8
0
100
AcDbLine
 10
0.0000000000000301
 20
50.01979999999999
 30
0.0
 11
0.99200000000003
 21
50.01979999999999
 31
0.0
  0
LINE
  5
2D
330
1E
100
AcDbEntity
  8
0
100
AcDbLine
 10
0.99200000000003
 20
50.01979999999999
 30
0.0
 11
2.975000000000029
 21
50.01979999999999
 31
0.0
  0
LINE
  5
2E
330
1E
100
AcDbEntity
  8
0
100
AcDbLine
 10
0.99200000000003
 20
50.01979999999999
 30
0.0
 11
2.977000000000029
 21
50.01979999999999
 31
0.0
  0
LINE
  5
2F
330
1E
100
AcDbEntity
  8
0
100
AcDbLine
 10
5.29100000000003
 20
50.01979999999999
 30
0.0
 11
5.982000000000029
 21
50.01979999999999
 31
0.0
  0
LINE
  5
30
330
1E
100
AcDbEntity
  8
0
100
AcDbLine
 10
2.975000000000029
 20
50.01979999999999
 30
0.0
 11
5.29100000000003
 21
50.01979999999999
 31
0.0
  0
LINE
  5
31
330
1E
100
AcDbEntity
  8
0
100
AcDbLine
 10
5.982000000000029
 20
50.01979999999999
 30
0.0
 11
7.198000000000029
 21
50.01979999999999
 31
0.0
  0
LINE
  5
32
330
1E
100
AcDbEntity
  8
0
100
AcDbLine
 10
2.977000000000029
 20
50.01979999999999
 30
0.0
 11
5.33200000000003
 21
50.01979999999999
 31
0.0
  0
LINE
  5
33
330
1E
100
AcDbEntity
  8
0
100
AcDbLine
 10
6.081000000000029
 20
50.01979999999999
 30
0.0
 11
7.201000000000029
 21
50.01979999999999
 31
0.0
  0
LINE
  5
34
330
1E
100
AcDbEntity
  8
0
100
AcDbLine
 10
2.19800000000003
 20
98.30379999999999
 30
0.0
 11
2.996000000000039
 21
146.631
 31
0.0
  0
LINE
  5
35
330
1E
100
AcDbEntity
  8
0
100
AcDbLine
 10
2.996000000000039
 20
146.631
 30
0.0
 11
3.093000000000039
 21
147.3799999999999
 31
0.0
  0
LINE
  5
38
330
1E
100
AcDbEntity
  8
0
100
AcDbLine
 10
5.33200000000003
 20
50.01979999999999
 30
0.0
 11
6.081000000000029
 21
50.01979999999999
 31
0.0
  0
LINE
  5
39
330
1E
100
AcDbEntity
  8
0
100
AcDbLine
 10
7.198000000000029
 20
50.01979999999999
 30
0.0
 11
9.03200000000003
 21
50.01979999999999
 31
0.0
  0
LINE
  5
3A
330
1E
100
AcDbEntity
  8
0
100
AcDbLine
 10
9.03200000000003
 20
50.01979999999999
 30
0.0
 11
11.55499999999999
 21
50.01979999999999
 31
0.0
  0
LINE
  5
3B
330
1E
100
AcDbEntity
  8
0
100
AcDbLine
 10
9.03200000000003
 20
50.01979999999999
 30
0.0
 11
11.552
 21
50.01979999999999
 31
0.0
  0
LINE
  5
3C
330
1E
100
AcDbEntity
  8
0
100
AcDbLine
 10
11.55499999999999
 20
50.01979999999999
 30
0.0
 11
14.729
 21
50.01979999999999
 31
0.0
  0
LINE
  5
3D
330
1E
100
AcDbEntity
  8
0
100
AcDbLine
 10
7.201000000000029
 20
50.01979999999999
 30
0.0
 11
9.03200000000003
 21
50.01979999999999
 31
0.0
  0
LINE
  5
3E
330
1E
100
AcDbEntity
  8
0
100
AcDbLine
 10
6.57100000000004
 20
149.602
 30
0.0
 11
7.168000000000029
 21
149.624
 31
0.0
  0
LINE
  5
3F
330
1E
100
AcDbEntity
  8
0
100
AcDbLine
 10
8.458000000000041
 20
149.6589999999999
 30
0.0
 11
10.82699999999999
 21
149.696
 31
0.0
  0
LINE
  5
40
330
1E
100
AcDbEntity
  8
0
100
AcDbLine
 10
8.458000000000041
 20
149.6589999999999
 30
0.0
 11
10.82699999999999
 21
149.696
 31
0.0
  0
LINE
  5
41
330
1E
100
AcDbEntity
  8
0
100
AcDbLine
 10
10.82699999999999
 20
149.696
 30
0.0
 11
11.972
 21
149.7229999999999
 31
0.0
  0
LINE
  5
42
330
1E
100
AcDbEntity
  8
0
100
AcDbLine
 10
7.168000000000029
 20
149.624
 30
0.0
 11
8.458000000000041
 21
149.6589999999999
 31
0.0
  0
LINE
  5
43
330
1E
100
AcDbEntity
  8
0
100
AcDbLine
 10
11.552
 20
50.01979999999999
 30
0.0
 11
14.728
 21
50.01979999999999
 31
0.0
  0
LINE
  5
44
330
1E
100
AcDbEntity
  8
0
100
AcDbLine
 10
54.25699999999999
 20
50.01979999999999
 30
0.0
 11
95.57199999999999
 21
50.01979999999999
 31
0.0
  0
LINE
  5
45
330
1E
100
AcDbEntity
  8
0
100
AcDbLine
 10
53.365
 20
50.01979999999999
 30
0.0
 11
65.218
 21
50.01979999999999
 31
0.0
  0
LINE
  5
46
330
1E
100
AcDbEntity
  8
0
100
AcDbLine
 10
53.365
 20
50.01979999999999
 30
0.0
 11
54.25699999999999
 21
50.01979999999999
 31
0.0
  0
LINE
  5
47
330
1E
100
AcDbEntity
  8
0
100
AcDbLine
 10
14.729
 20
50.01979999999999
 30
0.0
 11
18.79799999999999
 21
50.01979999999999
 31
0.0
  0
LINE
  5
48
330
1E
100
AcDbEntity
  8
0
100
AcDbLine
 10
14.728
 20
50.01979999999999
 30
0.0
 11
18.79799999999999
 21
50.01979999999999
 31
0.0
  0
LINE
  5
49
330
1E
100
AcDbEntity
  8
0
100
AcDbLine
 10
18.79799999999999
 20
50.01979999999999
 30
0.0
 11
26.381
 21
50.01979999999999
 31
0.0
  0
LINE
  5
4A
330
1E
100
AcDbEntity
  8
0
100
AcDbLine
 10
18.79799999999999
 20
50.01979999999999
 30
0.0
 11
26.385
 21
50.01979999999999
 31
0.0
  0
LINE
  5
4B
330
1E
100
AcDbEntity
  8
0
100
AcDbLine
 10
15.04199999999999
 20
50.01979999999999
 30
0.0
 11
18.76
 21
50.01979999999999
 31
0.0
  0
LINE
  5
4C
330
1E
100
AcDbEntity
  8
0
100
AcDbLine
 10
18.76
 20
50.01979999999999
 30
0.0
 11
19.399
 21
50.01979999999999
 31
0.0
  0
LINE
  5
4D
330
1E
100
AcDbEntity
  8
0
100
AcDbLine
 10
19.399
 20
50.01979999999999
 30
0.0
 11
20.923
 21
50.01979999999999
 31
0.0
  0
LINE
  5
4E
330
1E
100
AcDbEntity
  8
0
100
AcDbLine
 10
20.923
 20
50.01979999999999
 30
0.0
 11
24.756
 21
50.01979999999999
 31
0.0
  0
LINE
  5
4F
330
1E
100
AcDbEntity
  8
0
100
AcDbLine
 10
26.385
 20
50.01979999999999
 30
0.0
 11
34.378
 21
50.01979999999999
 31
0.0
  0
LINE
  5
50
330
1E
100
AcDbEntity
  8
0
100
AcDbLine
 10
34.378
 20
50.01979999999999
 30
0.0
 11
42.77199999999999
 21
50.01979999999999
 31
0.0
  0
LINE
  5
51
330
1E
100
AcDbEntity
  8
0
100
AcDbLine
 10
26.381
 20
50.01979999999999
 30
0.0
 11
34.378
 21
50.01979999999999
 31
0.0
  0
LINE
  5
52
330
1E
100
AcDbEntity
  8
0
100
AcDbLine
 10
24.756
 20
50.01979999999999
 30
0.0
 11
30.622
 21
50.01979999999999
 31
0.0
  0
LINE
  5
53
330
1E
100
AcDbEntity
  8
0
100
AcDbLine
 10
30.622
 20
50.01979999999999
 30
0.0
 11
38.176
 21
50.01979999999999
 31
0.0
  0
LINE
  5
54
330
1E
100
AcDbEntity
  8
0
100
AcDbLine
 10
42.77199999999999
 20
50.01979999999999
 30
0.0
 11
53.365
 21
50.01979999999999
 31
0.0
  0
LINE
  5
55
330
1E
100
AcDbEntity
  8
0
100
AcDbLine
 10
38.176
 20
50.01979999999999
 30
0.0
 11
42.77199999999999
 21
50.01979999999999
 31
0.0
  0
LINE
  5
56
330
1E
100
AcDbEntity
  8
0
100
AcDbLine
 10
51.232
 20
50.01979999999999
 30
0.0
 11
59.34000000000001
 21
50.01979999999999
 31
0.0
  0
LINE
  5
57
330
1E
100
AcDbEntity
  8
0
100
AcDbLine
 10
153.625
 20
50.01979999999999
 30
0.0
 11
199.5129999999999
 21
50.01979999999999
 31
0.0
  0
LINE
  5
58
330
1E
100
AcDbEntity
  8
0
100
AcDbLine
 10
150.3199999999999
 20
46.53739999999999
 30
0.0
 11
156.897
 21
42.6779
 31
0.0
  0
LINE
  5
59
330
1E
100
AcDbEntity
  8
0
100
AcDbLine
 10
95.57199999999999
 20
50.01979999999999
 30
0.0
 11
149.3179999999999
 21
50.01979999999999
 31
0.0
  0
LINE
  5
5A
330
1E
100
AcDbEntity
  8
0
100
AcDbLine
 10
95.57199999999999
 20
50.01979999999999
 30
0.0
 11
153.625
 21
50.01979999999999
 31
0.0
  0
LINE
  5
5B
330
1E
100
AcDbEntity
  8
0
100
AcDbLine
 10
144.578
 20
50.01979999999999
 30
0.0
 11
150.3199999999999
 21
46.53739999999999
 31
0.0
  0
LINE
  5
5C
330
1E
100
AcDbEntity
  8
0
100
AcDbLine
 10
156.897
 20
42.6779
 30
0.0
 11
162.786
 21
38.39119999999999
 31
0.0
  0
LINE
  5
5D
330
1E
100
AcDbEntity
  8
0
100
AcDbLine
 10
65.218
 20
50.01979999999999
 30
0.0
 11
95.57199999999999
 21
50.01979999999999
 31
0.0
  0
LINE
  5
5E
330
1E
100
AcDbEntity
  8
0
100
AcDbLine
 10
59.34000000000001
 20
50.01979999999999
 30
0.0
 11
95.57199999999999
 21
50.01979999999999
 31
0.0
  0
LINE
  5
5F
330
1E
100
AcDbEntity
  8
0
100
AcDbLine
 10
28.881
 20
149.685
 30
0.0
 11
38.544
 21
149.681
 31
0.0
  0
LINE
  5
60
330
1E
100
AcDbEntity
  8
0
100
AcDbLine
 10
18.6639942634162
 20
149.702011473059
 30
0.0
 11
21.11199999999999
 21
149.695
 31
0.0
  0
LINE
  5
61
330
1E
100
AcDbEntity
  8
0
100
AcDbLine
 10
21.11199999999999
 20
149.695
 30
0.0
 11
28.883
 21
149.685
 31
0.0
  0
LINE
  5
62
330
1E
100
AcDbEntity
  8
0
100
AcDbLine
 10
21.11199999999999
 20
149.6939999999999
 30
0.0
 11
28.881
 21
149.685
 31
0.0
  0
LINE
  5
63
330
1E
100
AcDbEntity
  8
0
100
AcDbLine
 10
59.49899999999999
 20
149.686
 30
0.0
 11
116.766
 21
149.6929999999999
 31
0.0
  0
LINE
  5
64
330
1E
100
AcDbEntity
  8
0
100
AcDbLine
 10
116.766
 20
149.6929999999999
 30
0.0
 11
178.209
 21
149.6939999999999
 31
0.0
  0
LINE
  5
65
330
1E
100
AcDbEntity
  8
0
100
AcDbLine
 10
49.65399999999999
 20
149.6839999999999
 30
0.0
 11
59.49899999999999
 21
149.686
 31
0.0
  0
LINE
  5
66
330
1E
100
AcDbEntity
  8
0
100
AcDbLine
 10
38.544
 20
149.681
 30
0.0
 11
49.65399999999999
 21
149.6839999999999
 31
0.0
  0
LINE
  5
67
330
1E
100
AcDbEntity
  8
0
100
AcDbLine
 10
13.63199999999999
 20
50.01979999999999
 30
0.0
 11
15.04199999999999
 21
50.01979999999999
 31
0.0
  0
LINE
  5
68
330
1E
100
AcDbEntity
  8
0
100
AcDbLine
 10
11.9720000000001
 20
149.7229999999999
 30
0.0
 11
13.15299999999999
 21
149.725
 31
0.0
  0
LINE
  5
69
330
1E
100
AcDbEntity
  8
0
100
AcDbLine
 10
11.972
 20
149.7229999999999
 30
0.0
 11
13.154
 21
149.725
 31
0.0
  0
LINE
  5
6A
330
1E
100
AcDbEntity
  8
0
100
AcDbLine
 10
11.972
 20
149.7229999999999
 30
0.0
 11
13.15299999999999
 21
149.725
 31
0.0
  0
LINE
  5
6B
330
1E
100
AcDbEntity
  8
0
100
AcDbLine
 10
13.154
 20
149.725
 30
0.0
 11
16.223
 21
149.71
 31
0.0
  0
LINE
  5
6C
330
1E
100
AcDbEntity
  8
0
100
AcDbLine
 10
16.223
 20
149.71
 30
0.0
 11
21.11199999999999
 21
149.6939999999999
 31
0.0
  0
LINE
  5
6D
330
1E
100
AcDbEntity
  8
0
100
AcDbLine
 10
18.6639942634162
 20
149.702011473059
 30
0.0
 11
21.11199999999999
 21
149.695
 31
0.0
  0
LINE
  5
6E
330
1E
100
AcDbEntity
  8
0
100
AcDbLine
 10
6.43700000000004
 20
149.594
 30
0.0
 11
6.57100000000004
 21
149.602
 31
0.0
  0
LINE
  5
6F
330
1E
100
AcDbEntity
  8
0
100
AcDbLine
 10
162.786
 20
38.39119999999999
 30
0.0
 11
167.469
 21
32.813
 31
0.0
  0
LINE
  5
70
330
1E
100
AcDbEntity
  8
0
100
AcDbLine
 10
172.834
 20
16.00629999999999
 30
0.0
 11
175.682
 21
16.00629999999999
 31
0.0
  0
LINE
  5
71
330
1E
100
AcDbEntity
  8
0
100
AcDbLine
 10
189.305
 20
16.00629999999999
 30
0.0
 11
199.485
 21
16.00629999999999
 31
0.0
  0
LINE
  5
72
330
1E
100
AcDbEntity
  8
0
100
AcDbLine
 10
175.682
 20
16.00629999999999
 30
0.0
 11
181.254
 21
16.00629999999999
 31
0.0
  0
LINE
  5
73
330
1E
100
AcDbEntity
  8
0
100
AcDbLine
 10
181.254
 20
16.00629999999999
 30
0.0
 11
189.306
 21
16.00629999999999
 31
0.0
  0
LINE
  5
74
330
1E
100
AcDbEntity
  8
0
100
AcDbLine
 10
181.254
 20
16.00629999999999
 30
0.0
 11
189.305
 21
16.00629999999999
 31
0.0
  0
LINE
  5
75
330
1E
100
AcDbEntity
  8
0
100
AcDbLine
 10
189.306
 20
16.00629999999999
 30
0.0
 11
199.485
 21
16.00629999999999
 31
0.0
  0
LINE
  5
76
330
1E
100
AcDbEntity
  8
0
100
AcDbLine
 10
170.674
 20
26.2544
 30
0.0
 11
172.208
 21
19.0615
 31
0.0
  0
LINE
  5
77
330
1E
100
AcDbEntity
  8
0
100
AcDbLine
 10
172.208
 20
19.0615
 30
0.0
 11
172.834
 21
16.00629999999999
 31
0.0
  0
LINE
  5
78
330
1E
100
AcDbEntity
  8
0
100
AcDbLine
 10
199.485
 20
16.00629999999999
 30
0.0
 11
211.348
 21
16.00629999999999
 31
0.0
  0
LINE
  5
79
330
1E
100
AcDbEntity
  8
0
100
AcDbLine
 10
199.485
 20
16.00629999999999
 30
0.0
 11
211.349
 21
16.00629999999999
 31
0.0
  0
LINE
  5
7A
330
1E
100
AcDbEntity
  8
0
100
AcDbLine
 10
211.349
 20
16.00629999999999
 30
0.0
 11
224.377
 21
16.00629999999999
 31
0.0
  0
LINE
  5
7B
330
1E
100
AcDbEntity
  8
0
100
AcDbLine
 10
211.348
 20
16.00629999999999
 30
0.0
 11
214.999
 21
16.00629999999999
 31
0.0
  0
LINE
  5
7C
330
1E
100
AcDbEntity
  8
0
100
AcDbLine
 10
178.209
 20
149.6939999999999
 30
0.0
 11
245.249
 21
149.6979999999999
 31
0.0
  0
LINE
  5
7E
330
1E
100
AcDbEntity
  8
0
100
AcDbLine
 10
199.5129999999999
 20
50.01979999999999
 30
0.0
 11
245.407
 21
50.01979999999999
 31
0.0
  0
LINE
  5
80
330
1E
100
AcDbEntity
  8
0
100
AcDbLine
 10
167.469
 20
32.813
 30
0.0
 11
170.674
 21
26.2544
 31
0.0
  0
LINE
  5
81
330
1E
100
AcDbEntity
  8
0
100
AcDbLine
 10
231.33
 20
16.00629999999999
 30
0.0
 11
238.572
 21
16.00629999999999
 31
0.0
  0
LINE
  5
82
330
1E
100
AcDbEntity
  8
0
100
AcDbLine
 10
256.7409999999999
 20
16.00629999999999
 30
0.0
 11
259.9089999999999
 21
16.00629999999999
 31
0.0
  0
LINE
  5
83
330
1E
100
AcDbEntity
  8
0
100
AcDbLine
 10
264.651
 20
16.00629999999999
 30
0.0
 11
276.5149999999999
 21
16.00629999999999
 31
0.0
  0
LINE
  5
84
330
1E
100
AcDbEntity
  8
0
100
AcDbLine
 10
259.9089999999999
 20
16.00629999999999
 30
0.0
 11
261.0009999999999
 21
16.00629999999999
 31
0.0
  0
LINE
  5
85
330
1E
100
AcDbEntity
  8
0
100
AcDbLine
 10
264.6519999999999
 20
16.00629999999999
 30
0.0
 11
276.514
 21
16.00629999999999
 31
0.0
  0
LINE
  5
86
330
1E
100
AcDbEntity
  8
0
100
AcDbLine
 10
276.5149999999999
 20
16.00629999999999
 30
0.0
 11
286.695
 21
16.00629999999999
 31
0.0
  0
LINE
  5
87
330
1E
100
AcDbEntity
  8
0
100
AcDbLine
 10
445.413
 20
5.153039999999999
 30
0.0
 11
447.142
 21
5.001999999999999
 31
0.0
  0
LINE
  5
8B
330
1E
100
AcDbEntity
  8
0
100
AcDbLine
 10
442.721
 20
6.032379999999999
 30
0.0
 11
445.413
 21
5.153039999999999
 31
0.0
  0
LINE
  5
8C
330
1E
100
AcDbEntity
  8
0
100
AcDbLine
 10
440.071
 20
7.932129999999999
 30
0.0
 11
442.721
 21
6.032379999999999
 31
0.0
  0
LINE
  5
91
330
1E
100
AcDbEntity
  8
0
100
AcDbLine
 10
303.166
 20
16.00629999999999
 30
0.0
 11
305.9529999999999
 21
43.7693
 31
0.0
  0
LINE
  5
92
330
1E
100
AcDbEntity
  8
0
100
AcDbLine
 10
294.7459999999999
 20
16.00629999999999
 30
0.0
 11
300.3179999999999
 21
16.00629999999999
 31
0.0
  0
LINE
  5
93
330
1E
100
AcDbEntity
  8
0
100
AcDbLine
 10
483.2619999999999
 20
2.857099999999999
 30
0.0
 11
485.788
 21
1.6947
 31
0.0
  0
LINE
  5
96
330
1E
100
AcDbEntity
  8
0
100
AcDbLine
 10
479.838
 20
3.924599999999999
 30
0.0
 11
483.2619999999999
 21
2.857099999999999
 31
0.0
  0
LINE
  5
98
330
1E
100
AcDbEntity
  8
0
100
AcDbLine
 10
503.0
 20
-0.0000000000000028
 30
0.0
 11
503.0
 21
0.9983999999999989
 31
0.0
  0
LINE
  5
99
330
1E
100
AcDbEntity
  8
0
100
AcDbLine
 10
488.517
 20
-0.0000000000000028
 30
0.0
 11
503.0
 21
-0.0000000000000028
 31
0.0
  0
LINE
  5
9A
330
1E
100
AcDbEntity
  8
0
100
AcDbLine
 10
503.0
 20
0.9983999999999989
 30
0.0
 11
503.0
 21
3.916599999999999
 31
0.0
  0
LINE
  5
9B
330
1E
100
AcDbEntity
  8
0
100
AcDbLine
 10
503.0
 20
0.9983999999999989
 30
0.0
 11
503.0
 21
-0.0000000000000028
 31
0.0
  0
LINE
  5
9C
330
1E
100
AcDbEntity
  8
0
100
AcDbLine
 10
503.0
 20
3.916599999999999
 30
0.0
 11
503.0
 21
8.51937
 31
0.0
  0
LINE
  5
9D
330
1E
100
AcDbEntity
  8
0
100
AcDbLine
 10
503.0
 20
3.916599999999999
 30
0.0
 11
503.0
 21
0.9983999999999989
 31
0.0
  0
LINE
  5
9E
330
1E
100
AcDbEntity
  8
0
100
AcDbLine
 10
486.948
 20
0.8722999999999979
 30
0.0
 11
487.308
 21
0.406199999999998
 31
0.0
  0
LINE
  5
9F
330
1E
100
AcDbEntity
  8
0
100
AcDbLine
 10
485.788
 20
1.6947
 30
0.0
 11
486.948
 21
0.8722999999999979
 31
0.0
  0
LINE
  5
A0
330
1E
100
AcDbEntity
  8
0
100
AcDbLine
 10
487.308
 20
0.406199999999998
 30
0.0
 11
488.517
 21
-0.0000000000000028
 31
0.0
  0
LINE
  5
A2
330
1E
100
AcDbEntity
  8
0
100
AcDbLine
 10
475.3919999999999
 20
4.4698
 30
0.0
 11
479.838
 21
3.924599999999999
 31
0.0
  0
LINE
  5
A4
330
1E
100
AcDbEntity
  8
0
100
AcDbLine
 10
471.843
 20
4.545799999999999
 30
0.0
 11
472.4409999999999
 21
4.4698
 31
0.0
  0
LINE
  5
A5
330
1E
100
AcDbEntity
  8
0
100
AcDbLine
 10
468.8579999999999
 20
5.001999999999999
 30
0.0
 11
471.843
 21
4.545799999999999
 31
0.0
  0
LINE
  5
A7
330
1E
100
AcDbEntity
  8
0
100
AcDbLine
 10
472.4409999999999
 20
4.4698
 30
0.0
 11
475.3919999999999
 21
4.4698
 31
0.0
  0
LINE
  5
A8
330
1E
100
AcDbEntity
  8
0
100
AcDbLine
 10
503.0
 20
14.44069999999999
 30
0.0
 11
503.0
 21
47.1306
 31
0.0
  0
LINE
  5
A9
330
1E
100
AcDbEntity
  8
0
100
AcDbLine
 10
503.0
 20
14.44069999999999
 30
0.0
 11
503.0
 21
8.51937
 31
0.0
  0
LINE
  5
AA
330
1E
100
AcDbEntity
  8
0
100
AcDbLine
 10
503.0
 20
8.51937
 30
0.0
 11
503.0
 21
14.44069999999999
 31
0.0
  0
LINE
  5
AB
330
1E
100
AcDbEntity
  8
0
100
AcDbLine
 10
503.0
 20
8.51937
 30
0.0
 11
503.0
 21
3.916599999999999
 31
0.0
  0
LINE
  5
AE
330
1E
100
AcDbEntity
  8
0
100
AcDbLine
 10
447.142
 20
5.001999999999999
 30
0.0
 11
468.8579999999999
 21
5.001999999999999
 31
0.0
  0
LINE
  5
AF
330
1E
100
AcDbEntity
  8
0
100
AcDbLine
 10
300.3179999999999
 20
16.00629999999999
 30
0.0
 11
303.166
 21
16.00629999999999
 31
0.0
  0
LINE
  5
B0
330
1E
100
AcDbEntity
  8
0
100
AcDbLine
 10
276.514
 20
16.00629999999999
 30
0.0
 11
286.695
 21
16.00629999999999
 31
0.0
  0
LINE
  5
B1
330
1E
100
AcDbEntity
  8
0
100
AcDbLine
 10
251.624
 20
16.00629999999999
 30
0.0
 11
264.651
 21
16.00629999999999
 31
0.0
  0
LINE
  5
B2
330
1E
100
AcDbEntity
  8
0
100
AcDbLine
 10
245.541
 20
16.00629999999999
 30
0.0
 11
251.624
 21
16.00629999999999
 31
0.0
  0
LINE
  5
B3
330
1E
100
AcDbEntity
  8
0
100
AcDbLine
 10
251.7949999999999
 20
16.00629999999999
 30
0.0
 11
256.7409999999999
 21
16.00629999999999
 31
0.0
  0
LINE
  5
B4
330
1E
100
AcDbEntity
  8
0
100
AcDbLine
 10
286.695
 20
16.00629999999999
 30
0.0
 11
294.7459999999999
 21
16.00629999999999
 31
0.0
  0
LINE
  5
B5
330
1E
100
AcDbEntity
  8
0
100
AcDbLine
 10
238.0009999999999
 20
16.00629999999999
 30
0.0
 11
251.624
 21
16.00629999999999
 31
0.0
  0
LINE
  5
B6
330
1E
100
AcDbEntity
  8
0
100
AcDbLine
 10
300.274
 20
50.01979999999999
 30
0.0
 11
355.0119999999999
 21
50.01979999999999
 31
0.0
  0
LINE
  5
B7
330
1E
100
AcDbEntity
  8
0
100
AcDbLine
 10
245.249
 20
149.6979999999999
 30
0.0
 11
311.007
 21
149.7889999999999
 31
0.0
  0
LINE
  5
B8
330
1E
100
AcDbEntity
  8
0
100
AcDbLine
 10
245.407
 20
50.01979999999999
 30
0.0
 11
300.274
 21
50.01979999999999
 31
0.0
  0
LINE
  5
B9
330
1E
100
AcDbEntity
  8
0
100
AcDbLine
 10
311.007
 20
149.7889999999999
 30
0.0
 11
360.336
 21
149.907
 31
0.0
  0
LINE
  5
BA
330
1E
100
AcDbEntity
  8
0
100
AcDbLine
 10
337.472748107463
 20
149.852308769217
 30
0.0
 11
337.998
 21
196.409
 31
0.0
  0
LINE
  5
BB
330
1E
100
AcDbEntity
  8
0
100
AcDbLine
 10
307.304775954058
 20
50.01979999999999
 30
0.0
 11
355.86
 21
50.01979999999999
 31
0.0
  0
LINE
  5
BC
330
1E
100
AcDbEntity
  8
0
100
AcDbLine
 10
307.304775954058
 20
50.01979999999999
 30
0.0
 11
355.0119999999999
 21
50.01979999999999
 31
0.0
  0
LINE
  5
BD
330
1E
100
AcDbEntity
  8
0
100
AcDbLine
 10
366.954
 20
50.01979999999999
 30
0.0
 11
368.6399999999999
 21
50.01979999999999
 31
0.0
  0
LINE
  5
BE
330
1E
100
AcDbEntity
  8
0
100
AcDbLine
 10
355.86
 20
50.01979999999999
 30
0.0
 11
366.954
 21
50.01979999999999
 31
0.0
  0
LINE
  5
BF
330
1E
100
AcDbEntity
  8
0
100
AcDbLine
 10
355.0119999999999
 20
50.01979999999999
 30
0.0
 11
361.938
 21
50.01979999999999
 31
0.0
  0
LINE
  5
C0
330
1E
100
AcDbEntity
  8
0
100
AcDbLine
 10
355.0119999999999
 20
50.01979999999999
 30
0.0
 11
364.699
 21
50.01979999999999
 31
0.0
  0
LINE
  5
C1
330
1E
100
AcDbEntity
  8
0
100
AcDbLine
 10
368.6399999999999
 20
50.01979999999999
 30
0.0
 11
377.959
 21
50.01979999999999
 31
0.0
  0
LINE
  5
C2
330
1E
100
AcDbEntity
  8
0
100
AcDbLine
 10
370.8949999999999
 20
50.01979999999999
 30
0.0
 11
377.6489999999999
 21
50.01979999999999
 31
0.0
  0
LINE
  5
C3
330
1E
100
AcDbEntity
  8
0
100
AcDbLine
 10
364.699
 20
50.01979999999999
 30
0.0
 11
370.8949999999999
 21
50.01979999999999
 31
0.0
  0
LINE
  5
C4
330
1E
100
AcDbEntity
  8
0
100
AcDbLine
 10
377.959
 20
50.01979999999999
 30
0.0
 11
385.8899999999999
 21
50.01979999999999
 31
0.0
  0
LINE
  5
C5
330
1E
100
AcDbEntity
  8
0
100
AcDbLine
 10
377.6489999999999
 20
50.01979999999999
 30
0.0
 11
384.033
 21
50.01979999999999
 31
0.0
  0
LINE
  5
C6
330
1E
100
AcDbEntity
  8
0
100
AcDbLine
 10
385.8899999999999
 20
50.01979999999999
 30
0.0
 11
391.8959999999999
 21
50.01979999999999
 31
0.0
  0
LINE
  5
C7
330
1E
100
AcDbEntity
  8
0
100
AcDbLine
 10
391.8959999999999
 20
50.01979999999999
 30
0.0
 11
394.754
 21
50.01979999999999
 31
0.0
  0
LINE
  5
C8
330
1E
100
AcDbEntity
  8
0
100
AcDbLine
 10
394.754
 20
50.01979999999999
 30
0.0
 11
395.554676268272
 21
50.01979999999999
 31
0.0
  0
LINE
  5
C9
330
1E
100
AcDbEntity
  8
0
100
AcDbLine
 10
389.934
 20
50.01979999999999
 30
0.0
 11
395.245
 21
50.01979999999999
 31
0.0
  0
LINE
  5
CA
330
1E
100
AcDbEntity
  8
0
100
AcDbLine
 10
391.22
 20
50.01979999999999
 30
0.0
 11
395.245
 21
50.01979999999999
 31
0.0
  0
LINE
  5
CB
330
1E
100
AcDbEntity
  8
0
100
AcDbLine
 10
384.033
 20
50.01979999999999
 30
0.0
 11
391.22
 21
50.01979999999999
 31
0.0
  0
LINE
  5
CC
330
1E
100
AcDbEntity
  8
0
100
AcDbLine
 10
384.033
 20
50.01979999999999
 30
0.0
 11
389.934
 21
50.01979999999999
 31
0.0
  0
LINE
  5
CD
330
1E
100
AcDbEntity
  8
0
100
AcDbLine
 10
378.284
 20
50.01979999999999
 30
0.0
 11
384.033
 21
50.01979999999999
 31
0.0
  0
LINE
  5
CE
330
1E
100
AcDbEntity
  8
0
100
AcDbLine
 10
372.223
 20
50.01979999999999
 30
0.0
 11
378.284
 21
50.01979999999999
 31
0.0
  0
LINE
  5
CF
330
1E
100
AcDbEntity
  8
0
100
AcDbLine
 10
361.938
 20
50.01979999999999
 30
0.0
 11
372.223
 21
50.01979999999999
 31
0.0
  0
LINE
  5
D0
330
1E
100
AcDbEntity
  8
0
100
AcDbLine
 10
395.554676268272
 20
50.01979999999999
 30
0.0
 11
395.9369999999999
 21
49.3165
 31
0.0
  0
LINE
  5
D1
330
1E
100
AcDbEntity
  8
0
100
AcDbLine
 10
395.245
 20
50.01979999999999
 30
0.0
 11
395.554676268272
 21
50.01979999999999
 31
0.0
  0
LINE
  5
D2
330
1E
100
AcDbEntity
  8
0
100
AcDbLine
 10
395.245
 20
50.01979999999999
 30
0.0
 11
400.3949999999999
 21
50.01979999999999
 31
0.0
  0
LINE
  5
D6
330
1E
100
AcDbEntity
  8
0
100
AcDbLine
 10
396.7559999999999
 20
48.7393
 30
0.0
 11
401.269
 21
46.3443
 31
0.0
  0
LINE
  5
DA
330
1E
100
AcDbEntity
  8
0
100
AcDbLine
 10
401.269
 20
46.3443
 30
0.0
 11
404.3949999999999
 21
44.17139999999999
 31
0.0
  0
LINE
  5
DB
330
1E
100
AcDbEntity
  8
0
100
AcDbLine
 10
404.3949999999999
 20
44.17139999999999
 30
0.0
 11
440.071
 21
7.932129999999999
 31
0.0
  0
LINE
  5
DC
330
1E
100
AcDbEntity
  8
0
100
AcDbLine
 10
503.0
 20
48.9383
 30
0.0
 11
503.0
 21
50.01979999999999
 31
0.0
  0
LINE
  5
DD
330
1E
100
AcDbEntity
  8
0
100
AcDbLine
 10
503.0
 20
48.9383
 30
0.0
 11
503.0
 21
47.1306
 31
0.0
  0
LINE
  5
DE
330
1E
100
AcDbEntity
  8
0
100
AcDbLine
 10
503.0
 20
47.1306
 30
0.0
 11
503.0
 21
48.9383
 31
0.0
  0
LINE
  5
DF
330
1E
100
AcDbEntity
  8
0
100
AcDbLine
 10
503.0
 20
47.1306
 30
0.0
 11
503.0
 21
14.44069999999999
 31
0.0
  0
LINE
  5
E0
330
1E
100
AcDbEntity
  8
0
100
AcDbLine
 10
430.7509999999999
 20
48.93930000000001
 30
0.0
 11
503.0
 21
48.9383
 31
0.0
  0
LINE
  5
E1
330
1E
100
AcDbEntity
  8
0
100
AcDbLine
 10
404.3949999999999
 20
44.17139999999999
 30
0.0
 11
440.071
 21
7.932129999999999
 31
0.0
  0
LINE
  5
E2
330
1E
100
AcDbEntity
  8
0
100
AcDbLine
 10
396.893
 20
50.01979999999999
 30
0.0
 11
419.315
 21
50.01979999999999
 31
0.0
  0
LINE
  5
EA
330
1E
100
AcDbEntity
  8
0
100
AcDbLine
 10
400.3949999999999
 20
50.01979999999999
 30
0.0
 11
404.559
 21
50.01979999999999
 31
0.0
  0
LINE
  5
EB
330
1E
100
AcDbEntity
  8
0
100
AcDbLine
 10
404.559
 20
50.01979999999999
 30
0.0
 11
408.4299999999999
 21
50.01979999999999
 31
0.0
  0
LINE
  5
EC
330
1E
100
AcDbEntity
  8
0
100
AcDbLine
 10
425.617
 20
49.33250000000001
 30
0.0
 11
430.7509999999999
 21
48.93930000000001
 31
0.0
  0
LINE
  5
ED
330
1E
100
AcDbEntity
  8
0
100
AcDbLine
 10
411.739
 20
50.01979999999999
 30
0.0
 11
414.4359999999999
 21
50.01979999999999
 31
0.0
  0
LINE
  5
EE
330
1E
100
AcDbEntity
  8
0
100
AcDbLine
 10
414.4359999999999
 20
50.01979999999999
 30
0.0
 11
419.315
 21
50.01979999999999
 31
0.0
  0
LINE
  5
EF
330
1E
100
AcDbEntity
  8
0
100
AcDbLine
 10
419.315
 20
50.01979999999999
 30
0.0
 11
422.545
 21
49.76069999999999
 31
0.0
  0
LINE
  5
F0
330
1E
100
AcDbEntity
  8
0
100
AcDbLine
 10
422.545
 20
49.76069999999999
 30
0.0
 11
425.617
 21
49.33250000000001
 31
0.0
  0
LINE
  5
F1
330
1E
100
AcDbEntity
  8
0
100
AcDbLine
 10
503.0
 20
50.01979999999999
 30
0.0
 11
503.0
 21
85.0556
 31
0.0
  0
LINE
  5
F2
330
1E
100
AcDbEntity
  8
0
100
AcDbLine
 10
503.0
 20
50.01979999999999
 30
0.0
 11
503.0
 21
48.9383
 31
0.0
  0
LINE
  5
F3
330
1E
100
AcDbEntity
  8
0
100
AcDbLine
 10
503.0
 20
120.141
 30
0.0
 11
503.0
 21
85.0556
 31
0.0
  0
LINE
  5
F4
330
1E
100
AcDbEntity
  8
0
100
AcDbLine
 10
503.0
 20
120.141
 30
0.0
 11
503.0
 21
125.102
 31
0.0
  0
LINE
  5
F5
330
1E
100
AcDbEntity
  8
0
100
AcDbLine
 10
470.933
 20
130.051
 30
0.0
 11
503.0
 21
130.051
 31
0.0
  0
LINE
  5
F6
330
1E
100
AcDbEntity
  8
0
100
AcDbLine
 10
503.0
 20
130.051
 30
0.0
 11
503.0
 21
128.727
 31
0.0
  0
LINE
  5
F7
330
1E
100
AcDbEntity
  8
0
100
AcDbLine
 10
503.0
 20
128.727
 30
0.0
 11
503.0
 21
125.102
 31
0.0
  0
LINE
  5
F8
330
1E
100
AcDbEntity
  8
0
100
AcDbLine
 10
503.0
 20
128.727
 30
0.0
 11
503.0
 21
130.051
 31
0.0
  0
LINE
  5
F9
330
1E
100
AcDbEntity
  8
0
100
AcDbLine
 10
503.0
 20
125.102
 30
0.0
 11
503.0
 21
128.727
 31
0.0
  0
LINE
  5
FA
330
1E
100
AcDbEntity
  8
0
100
AcDbLine
 10
503.0
 20
125.102
 30
0.0
 11
503.0
 21
120.141
 31
0.0
  0
LINE
  5
FB
330
1E
100
AcDbEntity
  8
0
100
AcDbLine
 10
503.0
 20
85.0556
 30
0.0
 11
503.0
 21
120.141
 31
0.0
  0
LINE
  5
FC
330
1E
100
AcDbEntity
  8
0
100
AcDbLine
 10
503.0
 20
85.0556
 30
0.0
 11
503.0
 21
50.01979999999999
 31
0.0
  0
LINE
  5
FD
330
1E
100
AcDbEntity
  8
0
100
AcDbLine
 10
409.2119999999999
 20
50.01979999999999
 30
0.0
 11
411.739
 21
50.01979999999999
 31
0.0
  0
LINE
  5
FE
330
1E
100
AcDbEntity
  8
0
100
AcDbLine
 10
493.564
 20
131.1109999999999
 30
0.0
 11
500.309
 21
130.051
 31
0.0
  0
LINE
  5
FF
330
1E
100
AcDbEntity
  8
0
100
AcDbLine
 10
408.4299999999999
 20
50.01979999999999
 30
0.0
 11
409.2119999999999
 21
50.01979999999999
 31
0.0
  0
LINE
  5
100
330
1E
100
AcDbEntity
  8
0
100
AcDbLine
 10
395.9369999999999
 20
49.3165
 30
0.0
 11
396.7559999999999
 21
48.7393
 31
0.0
  0
LINE
  5
102
330
1E
100
AcDbEntity
  8
0
100
AcDbLine
 10
369.024
 20
149.9429999999999
 30
0.0
 11
379.781
 21
149.991
 31
0.0
  0
LINE
  5
103
330
1E
100
AcDbEntity
  8
0
100
AcDbLine
 10
360.336
 20
149.907
 30
0.0
 11
369.024
 21
149.9429999999999
 31
0.0
  0
LINE
  5
104
330
1E
100
AcDbEntity
  8
0
100
AcDbLine
 10
379.781
 20
149.991
 30
0.0
 11
386.6319999999999
 21
149.995
 31
0.0
  0
LINE
  5
105
330
1E
100
AcDbEntity
  8
0
100
AcDbLine
 10
415.829
 20
135.032
 30
0.0
 11
422.2719999999999
 21
131.366
 31
0.0
  0
LINE
  5
106
330
1E
100
AcDbEntity
  8
0
100
AcDbLine
 10
410.9689999999999
 20
140.6339999999999
 30
0.0
 11
415.829
 21
135.032
 31
0.0
  0
LINE
  5
107
330
1E
100
AcDbEntity
  8
0
100
AcDbLine
 10
487.469
 20
134.1879999999999
 30
0.0
 11
493.564
 21
131.1109999999999
 31
0.0
  0
LINE
  5
108
330
1E
100
AcDbEntity
  8
0
100
AcDbLine
 10
482.6109999999999
 20
138.9869999999999
 30
0.0
 11
487.469
 21
134.1879999999999
 31
0.0
  0
LINE
  5
109
330
1E
100
AcDbEntity
  8
0
100
AcDbLine
 10
408.244
 20
147.5329999999999
 30
0.0
 11
410.9689999999999
 21
140.6339999999999
 31
0.0
  0
LINE
  5
10C
330
1E
100
AcDbEntity
  8
0
100
AcDbLine
 10
404.2619999999999
 20
149.918
 30
0.0
 11
405.5119999999999
 21
149.9129999999999
 31
0.0
  0
LINE
  5
10D
330
1E
100
AcDbEntity
  8
0
100
AcDbLine
 10
479.457
 20
145.0439999999999
 30
0.0
 11
482.6109999999999
 21
138.9869999999999
 31
0.0
  0
LINE
  5
10E
330
1E
100
AcDbEntity
  8
0
100
AcDbLine
 10
403.003
 20
149.934
 30
0.0
 11
404.2619999999999
 21
149.918
 31
0.0
  0
LINE
  5
110
330
1E
100
AcDbEntity
  8
0
100
AcDbLine
 10
478.3109999999999
 20
151.777
 30
0.0
 11
479.457
 21
145.0439999999999
 31
0.0
  0
LINE
  5
111
330
1E
100
AcDbEntity
  8
0
100
AcDbLine
 10
478.0019999999999
 20
196.409
 30
0.0
 11
478.3109999999999
 21
151.777
 31
0.0
  0
LINE
  5
112
330
1E
100
AcDbEntity
  8
0
100
AcDbLine
 10
393.582
 20
149.981
 30
0.0
 11
399.7059999999999
 21
149.953
 31
0.0
  0
LINE
  5
113
330
1E
100
AcDbEntity
  8
0
100
AcDbLine
 10
399.7059999999999
 20
149.953
 30
0.0
 11
403.003
 21
149.934
 31
0.0
  0
LINE
  5
114
330
1E
100
AcDbEntity
  8
0
100
AcDbLine
 10
386.6319999999999
 20
149.995
 30
0.0
 11
393.582
 21
149.981
 31
0.0
  0
LINE
  5
121
330
1E
100
AcDbEntity
  8
0
100
AcDbLine
 10
377.663
 20
199.3309999999999
 30
0.0
 11
397.8719999999999
 21
199.3299999999999
 31
0.0
  0
LINE
  5
124
330
1E
100
AcDbEntity
  8
0
100
AcDbLine
 10
418.128
 20
199.3299999999999
 30
0.0
 11
438.337
 21
199.3309999999999
 31
0.0
  0
LINE
  5
12D
330
1E
100
AcDbEntity
  8
0
100
AcDbLine
 10
397.8719999999999
 20
199.3299999999999
 30
0.0
 11
418.128
 21
199.3299999999999
 31
0.0
  0
LINE
  5
12E
330
1E
100
AcDbEntity
  8
0
100
AcDbLine
 10
377.663
 20
199.3299999999999
 30
0.0
 11
397.8719999999999
 21
199.3299999999999
 31
0.0
  0
LINE
  5
13E
330
1E
100
AcDbEntity
  8
0
100
AcDbLine
 10
338.429
 20
197.955
 30
0.0
 11
339.598
 21
199.06
 31
0.0
  0
LINE
  5
13F
330
1E
100
AcDbEntity
  8
0
100
AcDbLine
 10
337.998
 20
196.409
 30
0.0
 11
338.429
 21
197.955
 31
0.0
  0
LINE
  5
140
330
1E
100
AcDbEntity
  8
0
100
AcDbLine
 10
305.9529999999999
 20
43.7693
 30
0.0
 11
307.304775954058
 21
50.01979999999999
 31
0.0
  0
LINE
  5
141
330
1E
100
AcDbEntity
  8
0
100
AcDbLine
 10
238.572
 20
16.00629999999999
 30
0.0
 11
245.541
 21
16.00629999999999
 31
0.0
  0
LINE
  5
142
330
1E
100
AcDbEntity
  8
0
100
AcDbLine
 10
238.0
 20
16.00629999999999
 30
0.0
 11
251.624
 21
16.00629999999999
 31
0.0
  0
LINE
  5
147
330
1E
100
AcDbEntity
  8
0
  6
Continuous
100
AcDbLine
 10
3.093000000000039
 20
147.3799999999999
 30
0.0
 11
4.000453582524528
 21
148.7123047923219
 31
0.0
  0
LINE
  5
148
330
1E
100
AcDbEntity
  8
0
  6
Continuous
100
AcDbLine
 10
4.000453582524528
 20
148.7123047923219
 30
0.0
 11
5.443767724017561
 21
149.4488865464023
 31
0.0
  0
LINE
  5
149
330
1E
100
AcDbEntity
  8
0
  6
Continuous
100
AcDbLine
 10
5.443767724017561
 20
149.4488865464023
 30
0.0
 11
6.43700000000004
 21
149.594
 31
0.0
  0
LINE
  5
14A
330
1E
100
AcDbEntity
  8
0
  6
Continuous
100
AcDbLine
 10
470.933
 20
130.051
 30
0.0
 11
427.3717166163349
 21
130.051
 31
0.0
  0
LINE
  5
14B
330
1E
100
AcDbEntity
  8
0
  6
Continuous
100
AcDbLine
 10
427.3717166163349
 20
130.051
 30
0.0
 11
422.2719999999999
 21
131.366
 31
0.0
  0
LINE
  5
14C
330
1E
100
AcDbEntity
  8
0
  6
Continuous
100
AcDbLine
 10
408.244
 20
147.5329999999999
 30
0.0
 11
407.2922285470424
 21
149.2532441753174
 31
0.0
  0
LINE
  5
14D
330
1E
100
AcDbEntity
  8
0
  6
Continuous
100
AcDbLine
 10
407.2922285470424
 20
149.2532441753174
 30
0.0
 11
406.2579419064686
 21
149.8321066758215
 31
0.0
  0
LINE
  5
14E
330
1E
100
AcDbEntity
  8
0
  6
Continuous
100
AcDbLine
 10
406.2579419064686
 20
149.8321066758215
 30
0.0
 11
405.5119999999999
 21
149.9129999999999
 31
0.0
  0
LINE
  5
14F
330
1E
100
AcDbEntity
  8
0
  6
Continuous
100
AcDbLine
 10
438.337
 20
199.3309999999999
 30
0.0
 11
474.4427088135616
 21
199.3309999999999
 31
0.0
  0
LINE
  5
150
330
1E
100
AcDbEntity
  8
0
  6
Continuous
100
AcDbLine
 10
474.4427088135616
 20
199.3309999999999
 30
0.0
 11
476.4945377223216
 21
198.9135501184023
 31
0.0
  0
LINE
  5
151
330
1E
100
AcDbEntity
  8
0
  6
Continuous
100
AcDbLine
 10
476.4945377223216
 20
198.9135501184023
 30
0.0
 11
477.5784876238653
 21
197.8830778042719
 31
0.0
  0
LINE
  5
152
330
1E
100
AcDbEntity
  8
0
  6
Continuous
100
AcDbLine
 10
477.5784876238653
 20
197.8830778042719
 30
0.0
 11
478.0019999999999
 21
196.409
 31
0.0
  0
LINE
  5
153
330
1E
100
AcDbEntity
  8
0
  6
Continuous
100
AcDbLine
 10
377.663
 20
199.3299999999999
 30
0.0
 11
340.6894400051253
 21
199.3299999999999
 31
0.0
  0
LINE
  5
154
330
1E
100
AcDbEntity
  8
0
  6
Continuous
100
AcDbLine
 10
340.6894400051253
 20
199.3299999999999
 30
0.0
 11
339.598
 21
199.06
 31
0.0
  0
ENDSEC
  0
SECTION
  2
OBJECTS
  0
DICTIONARY
  5
C
330
0
100
AcDbDictionary
281
     1
  3
ACAD_GROUP
350
D
  3
ACAD_LAYOUT
350
19
  3
ACAD_MLINESTYLE
350
16
  3
ACAD_PLOTSETTINGS
350
18
  3
ACAD_PLOTSTYLENAME
350
E
  3
AcDbVariableDictionary
350
156
  0
DICTIONARY
  5
D
102
{ACAD_REACTORS
330
C
102
}
330
C
100
AcDbDictionary
281
     1
  0
DICTIONARY
  5
19
102
{ACAD_REACTORS
330
C
102
}
330
C
100
AcDbDictionary
281
     1
  3
Layout1
350
1D
  3
Model
350
21
  0
DICTIONARY
  5
16
102
{ACAD_REACTORS
330
C
102
}
330
C
100
AcDbDictionary
281
     1
  3
Standard
350
17
  0
DICTIONARY
  5
18
102
{ACAD_REACTORS
330
C
102
}
330
C
100
AcDbDictionary
281
     1
  0
ACDBDICTIONARYWDFLT
  5
E
102
{ACAD_REACTORS
330
C
102
}
330
C
100
AcDbDictionary
281
     1
  3
Normal
350
F
100
AcDbDictionaryWithDefault
340
F
  0
DICTIONARY
  5
156
102
{ACAD_REACTORS
330
C
102
}
330
C
100
AcDbDictionary
281
     1
  3
DIMASSOC
350
157
  0
LAYOUT
  5
1D
102
{ACAD_REACTORS
330
19
102
}
330
19
100
AcDbPlotSettings
  1

  2
C:\Programme\AutoCAD LT 2002 Deu\plotters\DWF ePlot (optimized for plotting).pc3
  4

  6

 40
0.0
 41
0.0
 42
0.0
 43
0.0
 44
0.0
 45
0.0
 46
0.0
 47
0.0
 48
0.0
 49
0.0
140
0.0
141
0.0
142
1.0
143
1.0
 70
   688
 72
     0
 73
     0
 74
     5
  7

 75
    16
147
1.0
148
0.0
149
0.0
100
AcDbLayout
  1
Layout1
 70
     1
 71
     1
 10
0.0
 20
0.0
 11
12.0
 21
9.0
 12
0.0
 22
0.0
 32
0.0
 14
1.000000000000000E+20
 24
1.000000000000000E+20
 34
1.000000000000000E+20
 15
-1.000000000000000E+20
 25
-1.000000000000000E+20
 35
-1.000000000000000E+20
146
0.0
 13
0.0
 23
0.0
 33
0.0
 16
1.0
 26
0.0
 36
0.0
 17
0.0
 27
1.0
 37
0.0
 76
     0
330
1A
  0
LAYOUT
  5
21
102
{ACAD_REACTORS
330
19
102
}
330
19
100
AcDbPlotSettings
  1

  2
C:\Programme\AutoCAD LT 2002 Deu\plotters\DWF ePlot (optimized for plotting).pc3
  4

  6

 40
0.0
 41
0.0
 42
0.0
 43
0.0
 44
0.0
 45
0.0
 46
0.0
 47
0.0
 48
0.0
 49
0.0
140
0.0
141
0.0
142
1.0
143
1.0
 70
  1712
 72
     0
 73
     0
 74
     0
  7

 75
     0
147
1.0
148
0.0
149
0.0
100
AcDbLayout
  1
Model
 70
     1
 71
     0
 10
0.0
 20
0.0
 11
12.0
 21
9.0
 12
0.0
 22
0.0
 32
0.0
 14
0.0
 24
0.0
 34
0.0
 15
0.0
 25
0.0
 35
0.0
146
0.0
 13
0.0
 23
0.0
 33
0.0
 16
1.0
 26
0.0
 36
0.0
 17
0.0
 27
1.0
 37
0.0
 76
     0
330
1E
  0
MLINESTYLE
  5
17
102
{ACAD_REACTORS
330
16
102
}
330
16
100
AcDbMlineStyle
  2
STANDARD
 70
     0
  3

 62
   256
 51
90.0
 52
90.0
 71
     2
 49
0.5
 62
   256
  6
BYLAYER
 49
-0.5
 62
   256
  6
BYLAYER
  0
ACDBPLACEHOLDER
  5
F
102
{ACAD_REACTORS
330
E
102
}
330
E
  0
DICTIONARYVAR
  5
157
102
{ACAD_REACTORS
330
156
102
}
330
156
100
DictionaryVariables
280
     0
  1
1
  0
ENDSEC
  0
EOF
