  0
SECTION
  2
HEADER
  9
$ACADVER
  1
AC1015
  9
$ACADMAINTVER
 70
    13
  9
$DWGCODEPAGE
  3
ANSI_1252
  9
$INSBASE
 10
0.0
 20
0.0
 30
0.0
  9
$EXTMIN
 10
0.121410000000007
 20
-0.0000000000000116
 30
0.0
  9
$EXTMAX
 10
215.87859
 20
204.0
 30
0.0
  9
$LIMMIN
 10
0.0
 20
0.0
  9
$LIMMAX
 10
12.0
 20
9.0
  9
$ORTHOMODE
 70
     0
  9
$REGENMODE
 70
     1
  9
$FILLMODE
 70
     1
  9
$QTEXTMODE
 70
     0
  9
$MIRRTEXT
 70
     1
  9
$LTSCALE
 40
1.0
  9
$ATTMODE
 70
     1
  9
$TEXTSIZE
 40
0.2
  9
$TRACEWID
 40
0.05
  9
$TEXTSTYLE
  7
Standard
  9
$CLAYER
  8
0
  9
$CELTYPE
  6
Continuous
  9
$CECOLOR
 62
   256
  9
$CELTSCALE
 40
1.0
  9
$DISPSILH
 70
     0
  9
$DIMSCALE
 40
1.0
  9
$DIMASZ
 40
0.18
  9
$DIMEXO
 40
0.0625
  9
$DIMDLI
 40
0.38
  9
$DIMRND
 40
0.0
  9
$DIMDLE
 40
0.0
  9
$DIMEXE
 40
0.18
  9
$DIMTP
 40
0.0
  9
$DIMTM
 40
0.0
  9
$DIMTXT
 40
0.18
  9
$DIMCEN
 40
0.09
  9
$DIMTSZ
 40
0.0
  9
$DIMTOL
 70
     0
  9
$DIMLIM
 70
     0
  9
$DIMTIH
 70
     1
  9
$DIMTOH
 70
     1
  9
$DIMSE1
 70
     0
  9
$DIMSE2
 70
     0
  9
$DIMTAD
 70
     0
  9
$DIMZIN
 70
     0
  9
$DIMBLK
  1

  9
$DIMASO
 70
     1
  9
$DIMSHO
 70
     1
  9
$DIMPOST
  1

  9
$DIMAPOST
  1

  9
$DIMALT
 70
     0
  9
$DIMALTD
 70
     2
  9
$DIMALTF
 40
25.4
  9
$DIMLFAC
 40
1.0
  9
$DIMTOFL
 70
     0
  9
$DIMTVP
 40
0.0
  9
$DIMTIX
 70
     0
  9
$DIMSOXD
 70
     0
  9
$DIMSAH
 70
     0
  9
$DIMBLK1
  1

  9
$DIMBLK2
  1

  9
$DIMSTYLE
  2
Standard
  9
$DIMCLRD
 70
     0
  9
$DIMCLRE
 70
     0
  9
$DIMCLRT
 70
     0
  9
$DIMTFAC
 40
1.0
  9
$DIMGAP
 40
0.09
  9
$DIMJUST
 70
     0
  9
$DIMSD1
 70
     0
  9
$DIMSD2
 70
     0
  9
$DIMTOLJ
 70
     1
  9
$DIMTZIN
 70
     0
  9
$DIMALTZ
 70
     0
  9
$DIMALTTZ
 70
     0
  9
$DIMUPT
 70
     0
  9
$DIMDEC
 70
     4
  9
$DIMTDEC
 70
     4
  9
$DIMALTU
 70
     2
  9
$DIMALTTD
 70
     2
  9
$DIMTXSTY
  7
Standard
  9
$DIMAUNIT
 70
     0
  9
$DIMADEC
 70
     0
  9
$DIMALTRND
 40
0.0
  9
$DIMAZIN
 70
     0
  9
$DIMDSEP
 70
    46
  9
$DIMATFIT
 70
     3
  9
$DIMFRAC
 70
     0
  9
$DIMLDRBLK
  1

  9
$DIMLUNIT
 70
     2
  9
$DIMLWD
 70
    -2
  9
$DIMLWE
 70
    -2
  9
$DIMTMOVE
 70
     0
  9
$LUNITS
 70
     2
  9
$LUPREC
 70
     4
  9
$SKETCHINC
 40
0.1
  9
$FILLETRAD
 40
0.0
  9
$AUNITS
 70
     0
  9
$AUPREC
 70
     0
  9
$MENU
  1
.
  9
$ELEVATION
 40
0.0
  9
$PELEVATION
 40
0.0
  9
$THICKNESS
 40
0.0
  9
$LIMCHECK
 70
     0
  9
$CHAMFERA
 40
0.0
  9
$CHAMFERB
 40
0.0
  9
$CHAMFERC
 40
0.0
  9
$CHAMFERD
 40
0.0
  9
$SKPOLY
 70
     0
  9
$TDCREATE
 40
2455508.472257662
  9
$TDUCREATE
 40
2455508.430590995
  9
$TDUPDATE
 40
2455508.495268009
  9
$TDUUPDATE
 40
2455508.453601342
  9
$TDINDWG
 40
0.0230103472
  9
$TDUSRTIMER
 40
0.0230103472
  9
$USRTIMER
 70
     1
  9
$ANGBASE
 50
0.0
  9
$ANGDIR
 70
     0
  9
$PDMODE
 70
     0
  9
$PDSIZE
 40
0.0
  9
$PLINEWID
 40
0.0
  9
$SPLFRAME
 70
     0
  9
$SPLINETYPE
 70
     6
  9
$SPLINESEGS
 70
     8
  9
$HANDSEED
  5
208
  9
$SURFTAB1
 70
     6
  9
$SURFTAB2
 70
     6
  9
$SURFTYPE
 70
     6
  9
$SURFU
 70
     6
  9
$SURFV
 70
     6
  9
$UCSBASE
  2

  9
$UCSNAME
  2

  9
$UCSORG
 10
0.0
 20
0.0
 30
0.0
  9
$UCSXDIR
 10
1.0
 20
0.0
 30
0.0
  9
$UCSYDIR
 10
0.0
 20
1.0
 30
0.0
  9
$UCSORTHOREF
  2

  9
$UCSORTHOVIEW
 70
     1
  9
$UCSORGTOP
 10
0.0
 20
0.0
 30
0.0
  9
$UCSORGBOTTOM
 10
0.0
 20
0.0
 30
0.0
  9
$UCSORGLEFT
 10
0.0
 20
0.0
 30
0.0
  9
$UCSORGRIGHT
 10
0.0
 20
0.0
 30
0.0
  9
$UCSORGFRONT
 10
0.0
 20
0.0
 30
0.0
  9
$UCSORGBACK
 10
0.0
 20
0.0
 30
0.0
  9
$PUCSBASE
  2

  9
$PUCSNAME
  2

  9
$PUCSORG
 10
0.0
 20
0.0
 30
0.0
  9
$PUCSXDIR
 10
1.0
 20
0.0
 30
0.0
  9
$PUCSYDIR
 10
0.0
 20
1.0
 30
0.0
  9
$PUCSORTHOREF
  2

  9
$PUCSORTHOVIEW
 70
     0
  9
$PUCSORGTOP
 10
0.0
 20
0.0
 30
0.0
  9
$PUCSORGBOTTOM
 10
0.0
 20
0.0
 30
0.0
  9
$PUCSORGLEFT
 10
0.0
 20
0.0
 30
0.0
  9
$PUCSORGRIGHT
 10
0.0
 20
0.0
 30
0.0
  9
$PUCSORGFRONT
 10
0.0
 20
0.0
 30
0.0
  9
$PUCSORGBACK
 10
0.0
 20
0.0
 30
0.0
  9
$USERI1
 70
     0
  9
$USERI2
 70
     0
  9
$USERI3
 70
     0
  9
$USERI4
 70
     0
  9
$USERI5
 70
     0
  9
$USERR1
 40
0.0
  9
$USERR2
 40
0.0
  9
$USERR3
 40
0.0
  9
$USERR4
 40
0.0
  9
$USERR5
 40
0.0
  9
$WORLDVIEW
 70
     1
  9
$SHADEDGE
 70
     3
  9
$SHADEDIF
 70
    70
  9
$TILEMODE
 70
     1
  9
$MAXACTVP
 70
    64
  9
$PINSBASE
 10
0.0
 20
0.0
 30
0.0
  9
$PLIMCHECK
 70
     0
  9
$PEXTMIN
 10
1.000000000000000E+20
 20
1.000000000000000E+20
 30
1.000000000000000E+20
  9
$PEXTMAX
 10
-1.000000000000000E+20
 20
-1.000000000000000E+20
 30
-1.000000000000000E+20
  9
$PLIMMIN
 10
0.0
 20
0.0
  9
$PLIMMAX
 10
12.0
 20
9.0
  9
$UNITMODE
 70
     0
  9
$VISRETAIN
 70
     1
  9
$PLINEGEN
 70
     0
  9
$PSLTSCALE
 70
     1
  9
$TREEDEPTH
 70
  3020
  9
$CMLSTYLE
  2
Standard
  9
$CMLJUST
 70
     0
  9
$CMLSCALE
 40
1.0
  9
$PROXYGRAPHICS
 70
     1
  9
$MEASUREMENT
 70
     0
  9
$CELWEIGHT
370
    -1
  9
$ENDCAPS
280
     0
  9
$JOINSTYLE
280
     0
  9
$LWDISPLAY
290
     0
  9
$INSUNITS
 70
     0
  9
$HYPERLINKBASE
  1

  9
$STYLESHEET
  1

  9
$XEDIT
290
     1
  9
$CEPSNTYPE
380
     0
  9
$PSTYLEMODE
290
     1
  9
$FINGERPRINTGUID
  2
{A32FF317-C7C6-4FA0-8131-A7D9AC4E21F2}
  9
$VERSIONGUID
  2
{5482FA56-45AE-450E-8ECC-2E9ABE333DED}
  9
$EXTNAMES
290
     1
  9
$PSVPSCALE
 40
0.0
  9
$OLESTARTUP
290
     0
  0
ENDSEC
  0
SECTION
  2
CLASSES
  0
CLASS
  1
ACDBDICTIONARYWDFLT
  2
AcDbDictionaryWithDefault
  3
AutoCAD 2000
 90
        0
280
     0
281
     0
  0
CLASS
  1
ACDBPLACEHOLDER
  2
AcDbPlaceHolder
  3
AutoCAD 2000
 90
        0
280
     0
281
     0
  0
CLASS
  1
LAYOUT
  2
AcDbLayout
  3
AutoCAD 2000
 90
        0
280
     0
281
     0
  0
CLASS
  1
DICTIONARYVAR
  2
AcDbDictionaryVar
  3
AutoCAD 2000
 90
        0
280
     0
281
     0
  0
ENDSEC
  0
SECTION
  2
TABLES
  0
TABLE
  2
VPORT
  5
8
330
0
100
AcDbSymbolTable
 70
     3
  0
VPORT
  5
207
330
8
100
AcDbSymbolTableRecord
100
AcDbViewportTableRecord
  2
*Active
 70
     0
 10
0.0
 20
0.0
 11
1.0
 21
1.0
 12
108.0
 22
101.9999999999999
 13
0.0
 23
0.0
 14
1.0
 24
1.0
 15
0.0
 25
0.0
 16
0.0
 26
0.0
 36
1.0
 17
0.0
 27
0.0
 37
0.0
 40
205.379932356257
 41
2.073363431151241
 42
50.0
 43
0.0
 44
0.0
 50
0.0
 51
0.0
 71
     0
 72
   100
 73
     1
 74
     3
 75
     0
 76
     0
 77
     0
 78
     0
281
     0
 65
     1
110
0.0
120
0.0
130
0.0
111
1.0
121
0.0
131
0.0
112
0.0
122
1.0
132
0.0
 79
     1
146
0.0
  0
ENDTAB
  0
TABLE
  2
LTYPE
  5
5
330
0
100
AcDbSymbolTable
 70
     1
  0
LTYPE
  5
13
330
5
100
AcDbSymbolTableRecord
100
AcDbLinetypeTableRecord
  2
ByBlock
 70
     0
  3

 72
    65
 73
     0
 40
0.0
  0
LTYPE
  5
14
330
5
100
AcDbSymbolTableRecord
100
AcDbLinetypeTableRecord
  2
ByLayer
 70
     0
  3

 72
    65
 73
     0
 40
0.0
  0
LTYPE
  5
15
330
5
100
AcDbSymbolTableRecord
100
AcDbLinetypeTableRecord
  2
Continuous
 70
     0
  3
Solid line
 72
    65
 73
     0
 40
0.0
  0
ENDTAB
  0
TABLE
  2
LAYER
  5
2
330
0
100
AcDbSymbolTable
 70
     1
  0
LAYER
  5
10
330
2
100
AcDbSymbolTableRecord
100
AcDbLayerTableRecord
  2
0
 70
     0
 62
     7
  6
Continuous
370
    -3
390
F
  0
ENDTAB
  0
TABLE
  2
STYLE
  5
3
330
0
100
AcDbSymbolTable
 70
     1
  0
STYLE
  5
11
330
3
100
AcDbSymbolTableRecord
100
AcDbTextStyleTableRecord
  2
Standard
 70
     0
 40
0.0
 41
1.0
 50
0.0
 71
     0
 42
0.2
  3
txt
  4

  0
ENDTAB
  0
TABLE
  2
VIEW
  5
6
330
0
100
AcDbSymbolTable
 70
     0
  0
ENDTAB
  0
TABLE
  2
UCS
  5
7
330
0
100
AcDbSymbolTable
 70
     0
  0
ENDTAB
  0
TABLE
  2
APPID
  5
9
330
0
100
AcDbSymbolTable
 70
     1
  0
APPID
  5
12
330
9
100
AcDbSymbolTableRecord
100
AcDbRegAppTableRecord
  2
ACAD
 70
     0
  0
ENDTAB
  0
TABLE
  2
DIMSTYLE
  5
A
330
0
100
AcDbSymbolTable
 70
     1
100
AcDbDimStyleTable
 71
     0
  0
DIMSTYLE
105
200
330
A
100
AcDbSymbolTableRecord
100
AcDbDimStyleTableRecord
  2
Standard
 70
     0
340
11
  0
ENDTAB
  0
TABLE
  2
BLOCK_RECORD
  5
1
330
0
100
AcDbSymbolTable
 70
     0
  0
BLOCK_RECORD
  5
1E
330
1
100
AcDbSymbolTableRecord
100
AcDbBlockTableRecord
  2
*Model_Space
340
21
  0
BLOCK_RECORD
  5
1A
330
1
100
AcDbSymbolTableRecord
100
AcDbBlockTableRecord
  2
*Paper_Space
340
1D
  0
ENDTAB
  0
ENDSEC
  0
SECTION
  2
BLOCKS
  0
BLOCK
  5
1F
330
1E
100
AcDbEntity
  8
0
100
AcDbBlockBegin
  2
*Model_Space
 70
     0
 10
0.0
 20
0.0
 30
0.0
  3
*Model_Space
  1

  0
ENDBLK
  5
20
330
1E
100
AcDbEntity
  8
0
100
AcDbBlockEnd
  0
BLOCK
  5
1B
330
1A
100
AcDbEntity
 67
     1
  8
0
100
AcDbBlockBegin
  2
*Paper_Space
 70
     0
 10
0.0
 20
0.0
 30
0.0
  3
*Paper_Space
  1

  0
ENDBLK
  5
1C
330
1A
100
AcDbEntity
 67
     1
  8
0
100
AcDbBlockEnd
  0
ENDSEC
  0
SECTION
  2
ENTITIES
  0
LINE
  5
22
330
1E
100
AcDbEntity
  8
0
100
AcDbLine
 10
135.2195899999999
 20
-0.0000000000000077
 30
0.0
 11
137.7695899999999
 21
-0.0000000000000079
 31
0.0
  0
LINE
  5
23
330
1E
100
AcDbEntity
  8
0
100
AcDbLine
 10
135.2195899999999
 20
4.42307999999999
 30
0.0
 11
137.7695899999999
 21
4.42307999999999
 31
0.0
  0
LINE
  5
24
330
1E
100
AcDbEntity
  8
0
100
AcDbLine
 10
136.3445899999999
 20
4.99999999999999
 30
0.0
 11
138.7445899999999
 21
4.99999999999999
 31
0.0
  0
LINE
  5
25
330
1E
100
AcDbEntity
  8
0
100
AcDbLine
 10
135.4445899999999
 20
4.99999999999999
 30
0.0
 11
136.3445899999999
 21
4.99999999999999
 31
0.0
  0
LINE
  5
26
330
1E
100
AcDbEntity
  8
0
100
AcDbLine
 10
134.6945899999999
 20
4.80768999999999
 30
0.0
 11
135.4445899999999
 21
4.99999999999999
 31
0.0
  0
LINE
  5
27
330
1E
100
AcDbEntity
  8
0
100
AcDbLine
 10
134.3195899999999
 20
4.42307999999999
 30
0.0
 11
134.6945899999999
 21
4.80768999999999
 31
0.0
  0
LINE
  5
28
330
1E
100
AcDbEntity
  8
0
100
AcDbLine
 10
134.3195899999999
 20
4.42307999999999
 30
0.0
 11
134.3195899999999
 21
-0.0000000000000078
 31
0.0
  0
LINE
  5
29
330
1E
100
AcDbEntity
  8
0
100
AcDbLine
 10
134.3195899999999
 20
4.42307999999999
 30
0.0
 11
135.2195899999999
 21
4.42307999999999
 31
0.0
  0
LINE
  5
2A
330
1E
100
AcDbEntity
  8
0
100
AcDbLine
 10
134.3195899999999
 20
-0.0000000000000077
 30
0.0
 11
135.2195899999999
 21
-0.0000000000000077
 31
0.0
  0
LINE
  5
2B
330
1E
100
AcDbEntity
  8
0
100
AcDbLine
 10
134.3195899999999
 20
-0.0000000000000077
 30
0.0
 11
134.3195899999999
 21
4.42307999999999
 31
0.0
  0
LINE
  5
2C
330
1E
100
AcDbEntity
  8
0
100
AcDbLine
 10
137.7695899999999
 20
4.42307999999999
 30
0.0
 11
141.8195899999999
 21
4.42307999999999
 31
0.0
  0
LINE
  5
2D
330
1E
100
AcDbEntity
  8
0
100
AcDbLine
 10
141.8195899999999
 20
4.42307999999999
 30
0.0
 11
147.1445899999999
 21
4.42307999999999
 31
0.0
  0
LINE
  5
2F
330
1E
100
AcDbEntity
  8
0
100
AcDbLine
 10
137.7695899999999
 20
-0.0000000000000079
 30
0.0
 11
141.8195899999999
 21
-0.0000000000000081
 31
0.0
  0
LINE
  5
30
330
1E
100
AcDbEntity
  8
0
100
AcDbLine
 10
141.8195899999999
 20
-0.0000000000000081
 30
0.0
 11
147.1445899999999
 21
-0.0000000000000085
 31
0.0
  0
LINE
  5
31
330
1E
100
AcDbEntity
  8
0
100
AcDbLine
 10
136.8195899999999
 20
4.99999999999999
 30
0.0
 11
139.3195899999999
 21
5.59999999999999
 31
0.0
  0
LINE
  5
32
330
1E
100
AcDbEntity
  8
0
100
AcDbLine
 10
141.0195899999999
 20
7.19999999999999
 30
0.0
 11
141.8195899999999
 21
9.999999999999991
 31
0.0
  0
LINE
  5
33
330
1E
100
AcDbEntity
  8
0
100
AcDbLine
 10
139.3195899999999
 20
5.59999999999999
 30
0.0
 11
141.0195899999999
 21
7.19999999999999
 31
0.0
  0
LINE
  5
34
330
1E
100
AcDbEntity
  8
0
100
AcDbLine
 10
138.7445899999999
 20
4.99999999999999
 30
0.0
 11
139.9285899999999
 21
4.99999999999999
 31
0.0
  0
LINE
  5
35
330
1E
100
AcDbEntity
  8
0
100
AcDbLine
 10
138.7445899999999
 20
4.99999999999999
 30
0.0
 11
142.5695899999999
 21
4.99999999999999
 31
0.0
  0
LINE
  5
36
330
1E
100
AcDbEntity
  8
0
100
AcDbLine
 10
142.5695899999999
 20
4.99999999999999
 30
0.0
 11
147.6695899999999
 21
4.99999999999999
 31
0.0
  0
LINE
  5
38
330
1E
100
AcDbEntity
  8
0
100
AcDbLine
 10
141.8195899999999
 20
9.999999999999991
 30
0.0
 11
141.8195899999999
 21
43.93354058309039
 31
0.0
  0
LINE
  5
39
330
1E
100
AcDbEntity
  8
0
100
AcDbLine
 10
141.8195899999999
 20
43.93354058309039
 30
0.0
 11
141.8195899999999
 21
9.999999999999991
 31
0.0
  0
LINE
  5
3A
330
1E
100
AcDbEntity
  8
0
100
AcDbLine
 10
141.86659
 20
43.9212
 30
0.0
 11
143.4105899999999
 21
43.5109
 31
0.0
  0
LINE
  5
3B
330
1E
100
AcDbEntity
  8
0
100
AcDbLine
 10
147.1445899999999
 20
4.42307999999999
 30
0.0
 11
153.29459
 21
4.42307999999999
 31
0.0
  0
LINE
  5
3C
330
1E
100
AcDbEntity
  8
0
100
AcDbLine
 10
147.1445899999999
 20
-0.0000000000000085
 30
0.0
 11
153.29459
 21
-0.0000000000000088
 31
0.0
  0
LINE
  5
3D
330
1E
100
AcDbEntity
  8
0
100
AcDbLine
 10
159.8195899999999
 20
-0.0000000000000092
 30
0.0
 11
172.8195899999999
 21
-0.00000000000001
 31
0.0
  0
LINE
  5
3E
330
1E
100
AcDbEntity
  8
0
100
AcDbLine
 10
148.3165899999999
 20
4.99999999999999
 30
0.0
 11
153.5195899999999
 21
4.99999999999999
 31
0.0
  0
LINE
  5
3F
330
1E
100
AcDbEntity
  8
0
100
AcDbLine
 10
153.5195899999999
 20
4.99999999999999
 30
0.0
 11
159.8195899999999
 21
4.99999999999999
 31
0.0
  0
LINE
  5
40
330
1E
100
AcDbEntity
  8
0
100
AcDbLine
 10
153.29459
 20
4.42307999999999
 30
0.0
 11
159.8195899999999
 21
4.42307999999999
 31
0.0
  0
LINE
  5
41
330
1E
100
AcDbEntity
  8
0
100
AcDbLine
 10
159.8195899999999
 20
4.42307999999999
 30
0.0
 11
172.8195899999999
 21
4.42307999999999
 31
0.0
  0
LINE
  5
42
330
1E
100
AcDbEntity
  8
0
100
AcDbLine
 10
159.8195899999999
 20
4.99999999999999
 30
0.0
 11
172.8195899999999
 21
4.99999999999999
 31
0.0
  0
LINE
  5
45
330
1E
100
AcDbEntity
  8
0
100
AcDbLine
 10
153.29459
 20
-0.0000000000000088
 30
0.0
 11
159.8195899999999
 21
-0.0000000000000092
 31
0.0
  0
LINE
  5
46
330
1E
100
AcDbEntity
  8
0
100
AcDbLine
 10
147.6695899999999
 20
4.99999999999999
 30
0.0
 11
148.3165899999999
 21
4.99999999999999
 31
0.0
  0
LINE
  5
47
330
1E
100
AcDbEntity
  8
0
100
AcDbLine
 10
147.6695899999999
 20
4.99999999999999
 30
0.0
 11
153.5195899999999
 21
4.99999999999999
 31
0.0
  0
LINE
  5
49
330
1E
100
AcDbEntity
  8
0
100
AcDbLine
 10
156.0905899999999
 20
40.1813
 30
0.0
 11
158.5865899999999
 21
39.5146
 31
0.0
  0
LINE
  5
4A
330
1E
100
AcDbEntity
  8
0
100
AcDbLine
 10
145.21159
 20
43.04549999999999
 30
0.0
 11
147.06859
 21
42.5604
 31
0.0
  0
LINE
  5
4B
330
1E
100
AcDbEntity
  8
0
100
AcDbLine
 10
147.06859
 20
42.5604
 30
0.0
 11
148.99659
 21
42.0332
 31
0.0
  0
LINE
  5
4C
330
1E
100
AcDbEntity
  8
0
100
AcDbLine
 10
148.99659
 20
42.0332
 30
0.0
 11
151.1715899999999
 21
41.4724
 31
0.0
  0
LINE
  5
4E
330
1E
100
AcDbEntity
  8
0
100
AcDbLine
 10
151.1715899999999
 20
41.4724
 30
0.0
 11
153.5575899999999
 21
40.8546
 31
0.0
  0
LINE
  5
4F
330
1E
100
AcDbEntity
  8
0
100
AcDbLine
 10
153.5575899999999
 20
40.8546
 30
0.0
 11
156.0905899999999
 21
40.1813
 31
0.0
  0
LINE
  5
55
330
1E
100
AcDbEntity
  8
0
100
AcDbLine
 10
158.5865899999999
 20
39.5146
 30
0.0
 11
160.92259
 21
38.8958
 31
0.0
  0
LINE
  5
56
330
1E
100
AcDbEntity
  8
0
100
AcDbLine
 10
160.92259
 20
38.8958
 30
0.0
 11
162.7675899999999
 21
38.4029
 31
0.0
  0
LINE
  5
57
330
1E
100
AcDbEntity
  8
0
100
AcDbLine
 10
143.4105899999999
 20
43.5109
 30
0.0
 11
145.21159
 21
43.04549999999999
 31
0.0
  0
LINE
  5
58
330
1E
100
AcDbEntity
  8
0
100
AcDbLine
 10
140.1515899999999
 20
44.37149999999999
 30
0.0
 11
141.86659
 21
43.9212
 31
0.0
  0
LINE
  5
59
330
1E
100
AcDbEntity
  8
0
100
AcDbLine
 10
162.7675899999999
 20
38.4029
 30
0.0
 11
163.3675899999999
 21
38.25829999999999
 31
0.0
  0
LINE
  5
68
330
1E
100
AcDbEntity
  8
0
100
AcDbLine
 10
138.1355899999999
 20
44.8905
 30
0.0
 11
140.1515899999999
 21
44.37149999999999
 31
0.0
  0
LINE
  5
6C
330
1E
100
AcDbEntity
  8
0
100
AcDbLine
 10
163.3675899999999
 20
38.25829999999999
 30
0.0
 11
167.84259
 21
38.0785
 31
0.0
  0
LINE
  5
78
330
1E
100
AcDbEntity
  8
0
100
AcDbLine
 10
89.72659
 20
57.6564
 30
0.0
 11
138.1355899999999
 21
44.8905
 31
0.0
  0
LINE
  5
79
330
1E
100
AcDbEntity
  8
0
100
AcDbLine
 10
84.29968999999999
 20
59.58339999999999
 30
0.0
 11
85.75819
 21
58.7002
 31
0.0
  0
LINE
  5
7A
330
1E
100
AcDbEntity
  8
0
100
AcDbLine
 10
83.65789000000001
 20
60.3419
 30
0.0
 11
84.29968999999999
 21
59.58339999999999
 31
0.0
  0
LINE
  5
7B
330
1E
100
AcDbEntity
  8
0
100
AcDbLine
 10
85.75819
 20
58.7002
 30
0.0
 11
87.79039
 21
58.15100000000001
 31
0.0
  0
LINE
  5
7C
330
1E
100
AcDbEntity
  8
0
100
AcDbLine
 10
87.79039
 20
58.15100000000001
 30
0.0
 11
89.72659
 21
57.6564
 31
0.0
  0
LINE
  5
89
330
1E
100
AcDbEntity
  8
0
100
AcDbLine
 10
167.84259
 20
38.0785
 30
0.0
 11
172.707018783627
 21
39.28493370158049
 31
0.0
  0
LINE
  5
8A
330
1E
100
AcDbEntity
  8
0
100
AcDbLine
 10
172.8195899999999
 20
4.99999999999999
 30
0.0
 11
179.1195899999999
 21
4.99999999999999
 31
0.0
  0
LINE
  5
8B
330
1E
100
AcDbEntity
  8
0
100
AcDbLine
 10
172.8195899999999
 20
4.99999999999999
 30
0.0
 11
178.79559
 21
4.99999999999999
 31
0.0
  0
LINE
  5
8C
330
1E
100
AcDbEntity
  8
0
100
AcDbLine
 10
172.8195899999999
 20
4.42307999999999
 30
0.0
 11
179.3445899999999
 21
4.42307999999999
 31
0.0
  0
LINE
  5
8D
330
1E
100
AcDbEntity
  8
0
100
AcDbLine
 10
179.1195899999999
 20
4.99999999999999
 30
0.0
 11
184.96959
 21
4.99999999999999
 31
0.0
  0
LINE
  5
90
330
1E
100
AcDbEntity
  8
0
100
AcDbLine
 10
172.8195899999999
 20
-0.00000000000001
 30
0.0
 11
179.3445899999999
 21
-0.0000000000000104
 31
0.0
  0
LINE
  5
91
330
1E
100
AcDbEntity
  8
0
100
AcDbLine
 10
172.707018783627
 20
39.28493370158049
 30
0.0
 11
176.0945899999999
 21
41.09119999999999
 31
0.0
  0
LINE
  5
98
330
1E
100
AcDbEntity
  8
0
100
AcDbLine
 10
176.0945899999999
 20
41.09119999999999
 30
0.0
 11
178.475274238223
 21
43.2447726266433
 31
0.0
  0
LINE
  5
99
330
1E
100
AcDbEntity
  8
0
100
AcDbLine
 10
179.3445899999999
 20
4.42307999999999
 30
0.0
 11
185.4945899999999
 21
4.42307999999999
 31
0.0
  0
LINE
  5
9C
330
1E
100
AcDbEntity
  8
0
100
AcDbLine
 10
179.3445899999999
 20
-0.0000000000000104
 30
0.0
 11
185.4945899999999
 21
-0.0000000000000108
 31
0.0
  0
LINE
  5
9D
330
1E
100
AcDbEntity
  8
0
100
AcDbLine
 10
178.475274238223
 20
43.2447726266433
 30
0.0
 11
181.7095899999999
 21
47.8185
 31
0.0
  0
LINE
  5
A2
330
1E
100
AcDbEntity
  8
0
100
AcDbLine
 10
181.7095899999999
 20
47.8185
 30
0.0
 11
183.0615899999999
 21
52.048
 31
0.0
  0
LINE
  5
A7
330
1E
100
AcDbEntity
  8
0
100
AcDbLine
 10
82.96889
 20
63.7279
 30
0.0
 11
83.14109
 21
61.58319999999999
 31
0.0
  0
LINE
  5
A8
330
1E
100
AcDbEntity
  8
0
100
AcDbLine
 10
82.96889
 20
63.7279
 30
0.0
 11
83.07479
 21
66.632
 31
0.0
  0
LINE
  5
A9
330
1E
100
AcDbEntity
  8
0
100
AcDbLine
 10
83.14109
 20
61.58319999999999
 30
0.0
 11
83.65789000000001
 21
60.3419
 31
0.0
  0
LINE
  5
AF
330
1E
100
AcDbEntity
  8
0
100
AcDbLine
 10
83.07479
 20
66.632
 30
0.0
 11
83.59569
 21
69.58639999999999
 31
0.0
  0
LINE
  5
BF
330
1E
100
AcDbEntity
  8
0
100
AcDbLine
 10
83.59569
 20
69.58639999999999
 30
0.0
 11
84.11669000000001
 21
72.54089999999999
 31
0.0
  0
LINE
  5
C8
330
1E
100
AcDbEntity
  8
0
100
AcDbLine
 10
84.11669000000001
 20
72.54089999999999
 30
0.0
 11
85.01039
 21
75.3061
 31
0.0
  0
LINE
  5
C9
330
1E
100
AcDbEntity
  8
0
100
AcDbLine
 10
85.01039
 20
75.3061
 30
0.0
 11
85.90578999999999
 21
77.2626
 31
0.0
  0
LINE
  5
CA
330
1E
100
AcDbEntity
  8
0
100
AcDbLine
 10
85.90578999999999
 20
77.2626
 30
0.0
 11
86.81599
 21
78.2522
 31
0.0
  0
LINE
  5
D1
330
1E
100
AcDbEntity
  8
0
100
AcDbLine
 10
151.3572740058919
 20
73.3792706738585
 30
0.0
 11
153.7845899999999
 21
78.62919999999999
 31
0.0
  0
LINE
  5
D2
330
1E
100
AcDbEntity
  8
0
100
AcDbLine
 10
151.3572740058919
 20
73.3792706738585
 30
0.0
 11
153.7845899999999
 21
78.62919999999999
 31
0.0
  0
LINE
  5
D3
330
1E
100
AcDbEntity
  8
0
100
AcDbLine
 10
150.5735899999999
 20
73.45279999999999
 30
0.0
 11
152.48459
 21
73.2735
 31
0.0
  0
LINE
  5
D4
330
1E
100
AcDbEntity
  8
0
100
AcDbLine
 10
152.48459
 20
73.2735
 30
0.0
 11
154.4765899999999
 21
73.10939999999999
 31
0.0
  0
LINE
  5
D5
330
1E
100
AcDbEntity
  8
0
100
AcDbLine
 10
154.4765899999999
 20
73.10939999999999
 30
0.0
 11
156.7125899999999
 21
72.8926
 31
0.0
  0
LINE
  5
D6
330
1E
100
AcDbEntity
  8
0
100
AcDbLine
 10
156.7125899999999
 20
72.8926
 30
0.0
 11
159.1655899999999
 21
72.6572
 31
0.0
  0
LINE
  5
D8
330
1E
100
AcDbEntity
  8
0
100
AcDbLine
 10
161.77659
 20
72.4234
 30
0.0
 11
164.3485899999999
 21
72.1964
 31
0.0
  0
LINE
  5
D9
330
1E
100
AcDbEntity
  8
0
100
AcDbLine
 10
159.1655899999999
 20
72.6572
 30
0.0
 11
161.77659
 21
72.4234
 31
0.0
  0
LINE
  5
DA
330
1E
100
AcDbEntity
  8
0
100
AcDbLine
 10
164.3485899999999
 20
72.1964
 30
0.0
 11
166.7555899999999
 21
71.9789
 31
0.0
  0
LINE
  5
DC
330
1E
100
AcDbEntity
  8
0
100
AcDbLine
 10
168.65859
 20
71.81090000000001
 30
0.0
 11
169.27159
 21
71.7417
 31
0.0
  0
LINE
  5
DE
330
1E
100
AcDbEntity
  8
0
100
AcDbLine
 10
166.7555899999999
 20
71.9789
 30
0.0
 11
168.65859
 21
71.81090000000001
 31
0.0
  0
LINE
  5
DF
330
1E
100
AcDbEntity
  8
0
100
AcDbLine
 10
147.1295899999999
 20
73.77419999999999
 30
0.0
 11
148.7215899999999
 21
73.6315
 31
0.0
  0
LINE
  5
E0
330
1E
100
AcDbEntity
  8
0
100
AcDbLine
 10
148.7215899999999
 20
73.6315
 30
0.0
 11
150.5735899999999
 21
73.45279999999999
 31
0.0
  0
LINE
  5
E1
330
1E
100
AcDbEntity
  8
0
100
AcDbLine
 10
145.3645899999999
 20
73.9377
 30
0.0
 11
147.1295899999999
 21
73.77419999999999
 31
0.0
  0
LINE
  5
E3
330
1E
100
AcDbEntity
  8
0
100
AcDbLine
 10
143.2935899999999
 20
74.1393
 30
0.0
 11
145.3645899999999
 21
73.9377
 31
0.0
  0
LINE
  5
E4
330
1E
100
AcDbEntity
  8
0
100
AcDbLine
 10
86.81599
 20
78.2522
 30
0.0
 11
87.67849
 21
78.7454
 31
0.0
  0
LINE
  5
EF
330
1E
100
AcDbEntity
  8
0
100
AcDbLine
 10
0.828740000000007
 20
182.938
 30
0.0
 11
1.89761000000001
 21
184.579
 31
0.0
  0
LINE
  5
F0
330
1E
100
AcDbEntity
  8
0
100
AcDbLine
 10
1.89761000000001
 20
184.579
 30
0.0
 11
8.24246000000001
 21
192.5769999999999
 31
0.0
  0
LINE
  5
F1
330
1E
100
AcDbEntity
  8
0
100
AcDbLine
 10
0.121410000000007
 20
181.067
 30
0.0
 11
0.424470000000007
 21
180.953
 31
0.0
  0
LINE
  5
F2
330
1E
100
AcDbEntity
  8
0
100
AcDbLine
 10
0.121410000000007
 20
181.067
 30
0.0
 11
0.828740000000007
 21
182.938
 31
0.0
  0
LINE
  5
F3
330
1E
100
AcDbEntity
  8
0
100
AcDbLine
 10
0.424470000000007
 20
180.953
 30
0.0
 11
20.26189
 21
173.452
 31
0.0
  0
LINE
  5
F7
330
1E
100
AcDbEntity
  8
0
100
AcDbLine
 10
8.24246000000001
 20
192.5769999999999
 30
0.0
 11
16.31963
 21
198.775
 31
0.0
  0
LINE
  5
FE
330
1E
100
AcDbEntity
  8
0
100
AcDbLine
 10
21.40689
 20
175.1579999999999
 30
0.0
 11
23.24378999999999
 21
177.618
 31
0.0
  0
LINE
  5
FF
330
1E
100
AcDbEntity
  8
0
100
AcDbLine
 10
20.69558999999999
 20
173.2879999999999
 30
0.0
 11
21.40689
 21
175.1579999999999
 31
0.0
  0
LINE
  5
100
330
1E
100
AcDbEntity
  8
0
100
AcDbLine
 10
20.26189
 20
173.452
 30
0.0
 11
20.69558999999999
 21
173.2879999999999
 31
0.0
  0
LINE
  5
10B
330
1E
100
AcDbEntity
  8
0
100
AcDbLine
 10
16.31963
 20
198.775
 30
0.0
 11
25.72569
 21
202.671
 31
0.0
  0
LINE
  5
10C
330
1E
100
AcDbEntity
  8
0
100
AcDbLine
 10
26.64029
 20
180.9359999999999
 30
0.0
 11
30.97649
 21
183.227
 31
0.0
  0
LINE
  5
10D
330
1E
100
AcDbEntity
  8
0
100
AcDbLine
 10
25.72569
 20
202.671
 30
0.0
 11
35.81959
 21
204.0
 31
0.0
  0
LINE
  5
10E
330
1E
100
AcDbEntity
  8
0
100
AcDbLine
 10
35.81959
 20
204.0
 30
0.0
 11
150.29459
 21
193.2829999999999
 31
0.0
  0
LINE
  5
10F
330
1E
100
AcDbEntity
  8
0
100
AcDbLine
 10
35.81959
 20
184.0
 30
0.0
 11
147.8085899999999
 21
167.402
 31
0.0
  0
LINE
  5
110
330
1E
100
AcDbEntity
  8
0
100
AcDbLine
 10
30.97649
 20
183.227
 30
0.0
 11
35.81959
 21
184.0
 31
0.0
  0
LINE
  5
111
330
1E
100
AcDbEntity
  8
0
100
AcDbLine
 10
35.81959
 20
204.0
 30
0.0
 11
150.29459
 21
193.2829999999999
 31
0.0
  0
LINE
  5
112
330
1E
100
AcDbEntity
  8
0
100
AcDbLine
 10
35.81959
 20
184.0
 30
0.0
 11
147.8085899999999
 21
167.402
 31
0.0
  0
LINE
  5
113
330
1E
100
AcDbEntity
  8
0
100
AcDbLine
 10
23.24378999999999
 20
177.618
 30
0.0
 11
26.64029
 21
180.9359999999999
 31
0.0
  0
LINE
  5
119
330
1E
100
AcDbEntity
  8
0
100
AcDbLine
 10
87.67849
 20
78.7454
 30
0.0
 11
89.35109
 21
79.07659999999999
 31
0.0
  0
LINE
  5
11A
330
1E
100
AcDbEntity
  8
0
100
AcDbLine
 10
89.35109
 20
79.07659999999999
 30
0.0
 11
91.44859
 21
78.89759999999999
 31
0.0
  0
LINE
  5
11D
330
1E
100
AcDbEntity
  8
0
100
AcDbLine
 10
153.7845899999999
 20
78.62919999999999
 30
0.0
 11
154.29259
 21
80.74479999999999
 31
0.0
  0
LINE
  5
11E
330
1E
100
AcDbEntity
  8
0
100
AcDbLine
 10
93.43709
 20
78.7002
 30
0.0
 11
143.2935899999999
 21
74.1393
 31
0.0
  0
LINE
  5
11F
330
1E
100
AcDbEntity
  8
0
100
AcDbLine
 10
151.90859
 20
166.4559999999999
 30
0.0
 11
153.2315899999999
 21
165.619
 31
0.0
  0
LINE
  5
120
330
1E
100
AcDbEntity
  8
0
100
AcDbLine
 10
153.2315899999999
 20
165.619
 30
0.0
 11
154.4175899999999
 21
164.554
 31
0.0
  0
LINE
  5
121
330
1E
100
AcDbEntity
  8
0
100
AcDbLine
 10
154.4175899999999
 20
164.554
 30
0.0
 11
155.3605899999999
 21
163.4279999999999
 31
0.0
  0
LINE
  5
122
330
1E
100
AcDbEntity
  8
0
100
AcDbLine
 10
150.3715899999999
 20
167.0169999999999
 30
0.0
 11
151.90859
 21
166.4559999999999
 31
0.0
  0
LINE
  5
123
330
1E
100
AcDbEntity
  8
0
100
AcDbLine
 10
153.8095899999999
 20
193.032
 30
0.0
 11
158.7665899999999
 21
192.059
 31
0.0
  0
LINE
  5
124
330
1E
100
AcDbEntity
  8
0
100
AcDbLine
 10
150.29459
 20
193.2829999999999
 30
0.0
 11
153.8095899999999
 21
193.032
 31
0.0
  0
LINE
  5
125
330
1E
100
AcDbEntity
  8
0
100
AcDbLine
 10
147.8085899999999
 20
167.402
 30
0.0
 11
150.3715899999999
 21
167.0169999999999
 31
0.0
  0
LINE
  5
126
330
1E
100
AcDbEntity
  8
0
100
AcDbLine
 10
154.6685899999999
 20
82.7753
 30
0.0
 11
154.8195899999999
 21
85.0
 31
0.0
  0
LINE
  5
127
330
1E
100
AcDbEntity
  8
0
100
AcDbLine
 10
154.29259
 20
80.74479999999999
 30
0.0
 11
154.6685899999999
 21
82.7753
 31
0.0
  0
LINE
  5
12D
330
1E
100
AcDbEntity
  8
0
100
AcDbLine
 10
157.4705899999999
 20
158.5749999999999
 30
0.0
 11
157.66859
 21
157.388
 31
0.0
  0
LINE
  5
12E
330
1E
100
AcDbEntity
  8
0
100
AcDbLine
 10
157.1365899999999
 20
159.747
 30
0.0
 11
157.4705899999999
 21
158.5749999999999
 31
0.0
  0
LINE
  5
12F
330
1E
100
AcDbEntity
  8
0
100
AcDbLine
 10
157.66859
 20
157.388
 30
0.0
 11
157.77459
 21
156.247
 31
0.0
  0
LINE
  5
130
330
1E
100
AcDbEntity
  8
0
100
AcDbLine
 10
157.77459
 20
156.247
 30
0.0
 11
157.8195899999999
 21
155.0
 31
0.0
  0
LINE
  5
131
330
1E
100
AcDbEntity
  8
0
100
AcDbLine
 10
156.65259
 20
161.025
 30
0.0
 11
157.1365899999999
 21
159.747
 31
0.0
  0
LINE
  5
132
330
1E
100
AcDbEntity
  8
0
100
AcDbLine
 10
158.7665899999999
 20
192.059
 30
0.0
 11
163.5075899999999
 21
190.4909999999999
 31
0.0
  0
LINE
  5
133
330
1E
100
AcDbEntity
  8
0
100
AcDbLine
 10
163.5075899999999
 20
190.4909999999999
 30
0.0
 11
168.06859
 21
188.3159999999999
 31
0.0
  0
LINE
  5
134
330
1E
100
AcDbEntity
  8
0
100
AcDbLine
 10
155.3605899999999
 20
163.4279999999999
 30
0.0
 11
156.0445899999999
 21
162.257
 31
0.0
  0
LINE
  5
135
330
1E
100
AcDbEntity
  8
0
100
AcDbLine
 10
168.06859
 20
188.3159999999999
 30
0.0
 11
172.2925899999999
 21
185.623
 31
0.0
  0
LINE
  5
136
330
1E
100
AcDbEntity
  8
0
100
AcDbLine
 10
156.0445899999999
 20
162.257
 30
0.0
 11
156.65259
 21
161.025
 31
0.0
  0
LINE
  5
137
330
1E
100
AcDbEntity
  8
0
100
AcDbLine
 10
154.8195899999999
 20
85.0
 30
0.0
 11
157.8195899999999
 21
155.0
 31
0.0
  0
LINE
  5
139
330
1E
100
AcDbEntity
  8
0
100
AcDbLine
 10
91.44859
 20
78.89759999999999
 30
0.0
 11
93.43709
 21
78.7002
 31
0.0
  0
LINE
  5
13C
330
1E
100
AcDbEntity
  8
0
100
AcDbLine
 10
170.6695899999999
 20
71.4
 30
0.0
 11
173.53759
 21
70.3802
 31
0.0
  0
LINE
  5
141
330
1E
100
AcDbEntity
  8
0
100
AcDbLine
 10
172.2925899999999
 20
185.623
 30
0.0
 11
176.17059
 21
182.352
 31
0.0
  0
LINE
  5
142
330
1E
100
AcDbEntity
  8
0
100
AcDbLine
 10
176.17059
 20
182.352
 30
0.0
 11
179.5305899999999
 21
178.564
 31
0.0
  0
LINE
  5
144
330
1E
100
AcDbEntity
  8
0
100
AcDbLine
 10
169.27159
 20
71.7417
 30
0.0
 11
170.6695899999999
 21
71.4
 31
0.0
  0
LINE
  5
14C
330
1E
100
AcDbEntity
  8
0
100
AcDbLine
 10
173.53759
 20
70.3802
 30
0.0
 11
176.793742157054
 21
68.32611496759189
 31
0.0
  0
LINE
  5
14D
330
1E
100
AcDbEntity
  8
0
100
AcDbLine
 10
179.5305899999999
 20
178.564
 30
0.0
 11
182.4135899999999
 21
174.504
 31
0.0
  0
LINE
  5
14E
330
1E
100
AcDbEntity
  8
0
100
AcDbLine
 10
176.793742157054
 20
68.32611496759189
 30
0.0
 11
180.2625899999999
 21
64.72660000000001
 31
0.0
  0
LINE
  5
14F
330
1E
100
AcDbEntity
  8
0
100
AcDbLine
 10
182.4135899999999
 20
174.504
 30
0.0
 11
184.7215899999999
 21
169.847
 31
0.0
  0
LINE
  5
152
330
1E
100
AcDbEntity
  8
0
100
AcDbLine
 10
180.2625899999999
 20
64.72660000000001
 30
0.0
 11
181.773416273084
 21
61.8690143307806
 31
0.0
  0
LINE
  5
153
330
1E
100
AcDbEntity
  8
0
100
AcDbLine
 10
181.773416273084
 20
61.8690143307806
 30
0.0
 11
183.2345899999999
 21
56.4853
 31
0.0
  0
LINE
  5
155
330
1E
100
AcDbEntity
  8
0
100
AcDbLine
 10
185.4945899999999
 20
4.42307999999999
 30
0.0
 11
190.8195899999999
 21
4.42307999999999
 31
0.0
  0
LINE
  5
156
330
1E
100
AcDbEntity
  8
0
100
AcDbLine
 10
185.4945899999999
 20
-0.0000000000000108
 30
0.0
 11
190.8195899999999
 21
-0.0000000000000111
 31
0.0
  0
LINE
  5
157
330
1E
100
AcDbEntity
  8
0
100
AcDbLine
 10
189.9405899999999
 20
49.9764
 30
0.0
 11
190.2552108177989
 21
35.6676313303052
 31
0.0
  0
LINE
  5
15A
330
1E
100
AcDbEntity
  8
0
100
AcDbLine
 10
184.96959
 20
4.99999999999999
 30
0.0
 11
190.0695899999999
 21
4.99999999999999
 31
0.0
  0
LINE
  5
15B
330
1E
100
AcDbEntity
  8
0
100
AcDbLine
 10
190.0695899999999
 20
4.99999999999999
 30
0.0
 11
193.89459
 21
4.99999999999999
 31
0.0
  0
LINE
  5
15D
330
1E
100
AcDbEntity
  8
0
100
AcDbLine
 10
190.8195899999999
 20
4.42307999999999
 30
0.0
 11
194.8695899999999
 21
4.42307999999999
 31
0.0
  0
LINE
  5
15E
330
1E
100
AcDbEntity
  8
0
100
AcDbLine
 10
190.8195899999999
 20
-0.0000000000000111
 30
0.0
 11
194.8695899999999
 21
-0.0000000000000114
 31
0.0
  0
LINE
  5
15F
330
1E
100
AcDbEntity
  8
0
100
AcDbLine
 10
190.596376208487
 20
20.1516311888802
 30
0.0
 11
195.01459
 21
38.4538
 31
0.0
  0
LINE
  5
160
330
1E
100
AcDbEntity
  8
0
100
AcDbLine
 10
190.596376208487
 20
20.1516311888802
 30
0.0
 11
195.01459
 21
38.4538
 31
0.0
  0
LINE
  5
161
330
1E
100
AcDbEntity
  8
0
100
AcDbLine
 10
190.594662308366
 20
20.22957835248319
 30
0.0
 11
190.8195899999999
 21
9.999999999999991
 31
0.0
  0
LINE
  5
162
330
1E
100
AcDbEntity
  8
0
100
AcDbLine
 10
190.8195899999999
 20
9.999999999999991
 30
0.0
 11
191.6195899999999
 21
7.19999999999999
 31
0.0
  0
LINE
  5
163
330
1E
100
AcDbEntity
  8
0
100
AcDbLine
 10
191.6195899999999
 20
7.19999999999999
 30
0.0
 11
193.3195899999999
 21
5.59999999999999
 31
0.0
  0
LINE
  5
164
330
1E
100
AcDbEntity
  8
0
100
AcDbLine
 10
198.3195899999999
 20
-0.0000000000000116
 30
0.0
 11
198.3195899999999
 21
4.42307999999999
 31
0.0
  0
LINE
  5
165
330
1E
100
AcDbEntity
  8
0
100
AcDbLine
 10
197.4195899999999
 20
-0.0000000000000115
 30
0.0
 11
198.3195899999999
 21
-0.0000000000000116
 31
0.0
  0
LINE
  5
166
330
1E
100
AcDbEntity
  8
0
100
AcDbLine
 10
194.8695899999999
 20
4.42307999999999
 30
0.0
 11
197.4195899999999
 21
4.42307999999999
 31
0.0
  0
LINE
  5
167
330
1E
100
AcDbEntity
  8
0
100
AcDbLine
 10
197.4195899999999
 20
4.42307999999999
 30
0.0
 11
198.3195899999999
 21
4.42307999999999
 31
0.0
  0
LINE
  5
168
330
1E
100
AcDbEntity
  8
0
100
AcDbLine
 10
193.89459
 20
4.99999999999999
 30
0.0
 11
196.29459
 21
4.99999999999999
 31
0.0
  0
LINE
  5
169
330
1E
100
AcDbEntity
  8
0
100
AcDbLine
 10
196.29459
 20
4.99999999999999
 30
0.0
 11
197.1945899999999
 21
4.99999999999999
 31
0.0
  0
LINE
  5
16A
330
1E
100
AcDbEntity
  8
0
100
AcDbLine
 10
197.1945899999999
 20
4.99999999999999
 30
0.0
 11
197.9445899999999
 21
4.80768999999999
 31
0.0
  0
LINE
  5
16B
330
1E
100
AcDbEntity
  8
0
100
AcDbLine
 10
197.9445899999999
 20
4.80768999999999
 30
0.0
 11
198.3195899999999
 21
4.42307999999999
 31
0.0
  0
LINE
  5
16C
330
1E
100
AcDbEntity
  8
0
100
AcDbLine
 10
198.3195899999999
 20
4.42307999999999
 30
0.0
 11
198.3195899999999
 21
-0.0000000000000113
 31
0.0
  0
LINE
  5
16D
330
1E
100
AcDbEntity
  8
0
100
AcDbLine
 10
194.8695899999999
 20
-0.0000000000000114
 30
0.0
 11
197.4195899999999
 21
-0.0000000000000115
 31
0.0
  0
LINE
  5
16E
330
1E
100
AcDbEntity
  8
0
100
AcDbLine
 10
193.3195899999999
 20
5.59999999999999
 30
0.0
 11
195.8195899999999
 21
4.99999999999999
 31
0.0
  0
LINE
  5
16F
330
1E
100
AcDbEntity
  8
0
100
AcDbLine
 10
190.2543194588199
 20
35.7081698093421
 30
0.0
 11
191.1505899999999
 21
39.489
 31
0.0
  0
LINE
  5
170
330
1E
100
AcDbEntity
  8
0
100
AcDbLine
 10
190.2543194588199
 20
35.7081698093421
 30
0.0
 11
191.1505899999999
 21
39.489
 31
0.0
  0
LINE
  5
171
330
1E
100
AcDbEntity
  8
0
100
AcDbLine
 10
191.94959
 20
41.4185
 30
0.0
 11
193.2215899999999
 21
43.07529999999999
 31
0.0
  0
LINE
  5
172
330
1E
100
AcDbEntity
  8
0
100
AcDbLine
 10
191.1505899999999
 20
39.489
 30
0.0
 11
191.94959
 21
41.4185
 31
0.0
  0
LINE
  5
173
330
1E
100
AcDbEntity
  8
0
100
AcDbLine
 10
195.4135899999999
 20
39.4185
 30
0.0
 11
196.0495899999999
 21
40.24689999999999
 31
0.0
  0
LINE
  5
174
330
1E
100
AcDbEntity
  8
0
100
AcDbLine
 10
195.01459
 20
38.4538
 30
0.0
 11
195.4135899999999
 21
39.4185
 31
0.0
  0
LINE
  5
17A
330
1E
100
AcDbEntity
  8
0
100
AcDbLine
 10
215.87859
 20
40.04249999999999
 30
0.0
 11
215.87859
 21
40.6665
 31
0.0
  0
LINE
  5
17B
330
1E
100
AcDbEntity
  8
0
100
AcDbLine
 10
215.87859
 20
40.04249999999999
 30
0.0
 11
215.87859
 21
39.65849999999999
 31
0.0
  0
LINE
  5
17C
330
1E
100
AcDbEntity
  8
0
100
AcDbLine
 10
215.87859
 20
39.65849999999999
 30
0.0
 11
215.87859
 21
40.04249999999999
 31
0.0
  0
LINE
  5
17D
330
1E
100
AcDbEntity
  8
0
100
AcDbLine
 10
215.87859
 20
39.65849999999999
 30
0.0
 11
215.87859
 21
39.51449999999999
 31
0.0
  0
LINE
  5
17E
330
1E
100
AcDbEntity
  8
0
100
AcDbLine
 10
215.87859
 20
39.51449999999999
 30
0.0
 11
215.87859
 21
39.65849999999999
 31
0.0
  0
LINE
  5
182
330
1E
100
AcDbEntity
  8
0
100
AcDbLine
 10
215.6285899999999
 20
39.4185
 30
0.0
 11
215.87859
 21
39.51449999999999
 31
0.0
  0
LINE
  5
184
330
1E
100
AcDbEntity
  8
0
100
AcDbLine
 10
203.87859
 20
39.4185
 30
0.0
 11
215.6285899999999
 21
39.4185
 31
0.0
  0
LINE
  5
185
330
1E
100
AcDbEntity
  8
0
100
AcDbLine
 10
196.87859
 20
40.8826
 30
0.0
 11
197.8425899999999
 21
41.2822
 31
0.0
  0
LINE
  5
186
330
1E
100
AcDbEntity
  8
0
100
AcDbLine
 10
197.8425899999999
 20
41.2822
 30
0.0
 11
198.87859
 21
41.4185
 31
0.0
  0
LINE
  5
187
330
1E
100
AcDbEntity
  8
0
100
AcDbLine
 10
198.87859
 20
41.4185
 30
0.0
 11
200.8785899999999
 21
41.4185
 31
0.0
  0
LINE
  5
18B
330
1E
100
AcDbEntity
  8
0
100
AcDbLine
 10
200.8785899999999
 20
41.4185
 30
0.0
 11
203.87859
 21
39.4185
 31
0.0
  0
LINE
  5
1A1
330
1E
100
AcDbEntity
  8
0
100
AcDbLine
 10
194.87859
 20
44.34669999999999
 30
0.0
 11
196.80759
 21
45.1459
 31
0.0
  0
LINE
  5
1A5
330
1E
100
AcDbEntity
  8
0
100
AcDbLine
 10
196.80759
 20
45.1459
 30
0.0
 11
198.87859
 21
45.4185
 31
0.0
  0
LINE
  5
1A6
330
1E
100
AcDbEntity
  8
0
100
AcDbLine
 10
198.87859
 20
45.4185
 30
0.0
 11
200.8785899999999
 21
45.4185
 31
0.0
  0
LINE
  5
1DD
330
1E
100
AcDbEntity
  8
0
100
AcDbLine
 10
215.87859
 20
42.4105
 30
0.0
 11
215.87859
 21
43.41849999999999
 31
0.0
  0
LINE
  5
1DE
330
1E
100
AcDbEntity
  8
0
100
AcDbLine
 10
215.87859
 20
42.4105
 30
0.0
 11
215.87859
 21
41.48249999999999
 31
0.0
  0
LINE
  5
1DF
330
1E
100
AcDbEntity
  8
0
100
AcDbLine
 10
215.87859
 20
41.48249999999999
 30
0.0
 11
215.87859
 21
42.4105
 31
0.0
  0
LINE
  5
1E0
330
1E
100
AcDbEntity
  8
0
100
AcDbLine
 10
215.87859
 20
41.48249999999999
 30
0.0
 11
215.87859
 21
40.6665
 31
0.0
  0
LINE
  5
1E1
330
1E
100
AcDbEntity
  8
0
100
AcDbLine
 10
215.87859
 20
40.6665
 30
0.0
 11
215.87859
 21
41.48249999999999
 31
0.0
  0
LINE
  5
1E2
330
1E
100
AcDbEntity
  8
0
100
AcDbLine
 10
215.87859
 20
40.6665
 30
0.0
 11
215.87859
 21
40.04249999999999
 31
0.0
  0
LINE
  5
1E3
330
1E
100
AcDbEntity
  8
0
100
AcDbLine
 10
215.87859
 20
43.41849999999999
 30
0.0
 11
215.87859
 21
44.42649999999999
 31
0.0
  0
LINE
  5
1E4
330
1E
100
AcDbEntity
  8
0
100
AcDbLine
 10
215.87859
 20
43.41849999999999
 30
0.0
 11
215.87859
 21
42.4105
 31
0.0
  0
LINE
  5
1E5
330
1E
100
AcDbEntity
  8
0
100
AcDbLine
 10
215.87859
 20
44.42649999999999
 30
0.0
 11
215.87859
 21
45.35449999999999
 31
0.0
  0
LINE
  5
1E6
330
1E
100
AcDbEntity
  8
0
100
AcDbLine
 10
215.87859
 20
44.42649999999999
 30
0.0
 11
215.87859
 21
43.41849999999999
 31
0.0
  0
LINE
  5
1E7
330
1E
100
AcDbEntity
  8
0
100
AcDbLine
 10
215.87859
 20
45.35449999999999
 30
0.0
 11
215.87859
 21
46.17049999999999
 31
0.0
  0
LINE
  5
1E8
330
1E
100
AcDbEntity
  8
0
100
AcDbLine
 10
215.87859
 20
45.35449999999999
 30
0.0
 11
215.87859
 21
44.42649999999999
 31
0.0
  0
LINE
  5
1E9
330
1E
100
AcDbEntity
  8
0
100
AcDbLine
 10
215.87859
 20
46.17049999999999
 30
0.0
 11
215.87859
 21
46.7945
 31
0.0
  0
LINE
  5
1EA
330
1E
100
AcDbEntity
  8
0
100
AcDbLine
 10
215.87859
 20
46.17049999999999
 30
0.0
 11
215.87859
 21
45.35449999999999
 31
0.0
  0
LINE
  5
1EB
330
1E
100
AcDbEntity
  8
0
100
AcDbLine
 10
215.87859
 20
46.7945
 30
0.0
 11
215.87859
 21
47.1785
 31
0.0
  0
LINE
  5
1EC
330
1E
100
AcDbEntity
  8
0
100
AcDbLine
 10
215.87859
 20
46.7945
 30
0.0
 11
215.87859
 21
46.17049999999999
 31
0.0
  0
LINE
  5
1ED
330
1E
100
AcDbEntity
  8
0
100
AcDbLine
 10
215.87859
 20
47.32249999999999
 30
0.0
 11
215.87859
 21
47.1785
 31
0.0
  0
LINE
  5
1EE
330
1E
100
AcDbEntity
  8
0
100
AcDbLine
 10
215.87859
 20
47.1785
 30
0.0
 11
215.87859
 21
47.32249999999999
 31
0.0
  0
LINE
  5
1EF
330
1E
100
AcDbEntity
  8
0
100
AcDbLine
 10
215.87859
 20
47.1785
 30
0.0
 11
215.87859
 21
46.7945
 31
0.0
  0
LINE
  5
1F0
330
1E
100
AcDbEntity
  8
0
100
AcDbLine
 10
215.6285899999999
 20
47.4185
 30
0.0
 11
215.87859
 21
47.32249999999999
 31
0.0
  0
LINE
  5
1F2
330
1E
100
AcDbEntity
  8
0
100
AcDbLine
 10
203.87859
 20
47.4185
 30
0.0
 11
215.6285899999999
 21
47.4185
 31
0.0
  0
LINE
  5
1F3
330
1E
100
AcDbEntity
  8
0
100
AcDbLine
 10
200.8785899999999
 20
45.4185
 30
0.0
 11
203.87859
 21
47.4185
 31
0.0
  0
LINE
  5
1F5
330
1E
100
AcDbEntity
  8
0
100
AcDbLine
 10
196.0495899999999
 20
40.24689999999999
 30
0.0
 11
196.87859
 21
40.8826
 31
0.0
  0
LINE
  5
1F6
330
1E
100
AcDbEntity
  8
0
100
AcDbLine
 10
193.2215899999999
 20
43.07529999999999
 30
0.0
 11
194.87859
 21
44.34669999999999
 31
0.0
  0
LINE
  5
1F7
330
1E
100
AcDbEntity
  8
0
100
AcDbLine
 10
190.594662308366
 20
20.22957835248319
 30
0.0
 11
190.8195899999999
 21
9.999999999999991
 31
0.0
  0
LINE
  5
1F8
330
1E
100
AcDbEntity
  8
0
100
AcDbLine
 10
189.9405899999999
 20
49.9764
 30
0.0
 11
190.594662308366
 21
20.22957835248319
 31
0.0
  0
LINE
  5
1F9
330
1E
100
AcDbEntity
  8
0
100
AcDbLine
 10
189.19759
 20
84.9927
 30
0.0
 11
189.9405899999999
 21
49.9764
 31
0.0
  0
LINE
  5
1FA
330
1E
100
AcDbEntity
  8
0
100
AcDbLine
 10
184.7215899999999
 20
169.847
 30
0.0
 11
186.49059
 21
165.094
 31
0.0
  0
LINE
  5
1FB
330
1E
100
AcDbEntity
  8
0
100
AcDbLine
 10
186.49059
 20
165.094
 30
0.0
 11
187.48559
 21
160.091
 31
0.0
  0
LINE
  5
1FC
330
1E
100
AcDbEntity
  8
0
100
AcDbLine
 10
187.48559
 20
160.091
 30
0.0
 11
187.8195899999999
 21
155.0
 31
0.0
  0
LINE
  5
1FD
330
1E
100
AcDbEntity
  8
0
100
AcDbLine
 10
187.8195899999999
 20
155.0
 30
0.0
 11
189.19759
 21
84.9927
 31
0.0
  0
LINE
  5
1FF
330
1E
100
AcDbEntity
  8
0
100
AcDbLine
 10
183.0615899999999
 20
52.048
 30
0.0
 11
183.2375899999999
 21
56.4848
 31
0.0
  0
ENDSEC
  0
SECTION
  2
OBJECTS
  0
DICTIONARY
  5
C
330
0
100
AcDbDictionary
281
     1
  3
ACAD_GROUP
350
D
  3
ACAD_LAYOUT
350
19
  3
ACAD_MLINESTYLE
350
16
  3
ACAD_PLOTSETTINGS
350
18
  3
ACAD_PLOTSTYLENAME
350
E
  3
AcDbVariableDictionary
350
205
  0
DICTIONARY
  5
D
102
{ACAD_REACTORS
330
C
102
}
330
C
100
AcDbDictionary
281
     1
  0
DICTIONARY
  5
19
102
{ACAD_REACTORS
330
C
102
}
330
C
100
AcDbDictionary
281
     1
  3
Layout1
350
1D
  3
Model
350
21
  0
DICTIONARY
  5
16
102
{ACAD_REACTORS
330
C
102
}
330
C
100
AcDbDictionary
281
     1
  3
Standard
350
17
  0
DICTIONARY
  5
18
102
{ACAD_REACTORS
330
C
102
}
330
C
100
AcDbDictionary
281
     1
  0
ACDBDICTIONARYWDFLT
  5
E
102
{ACAD_REACTORS
330
C
102
}
330
C
100
AcDbDictionary
281
     1
  3
Normal
350
F
100
AcDbDictionaryWithDefault
340
F
  0
DICTIONARY
  5
205
102
{ACAD_REACTORS
330
C
102
}
330
C
100
AcDbDictionary
281
     1
  3
DIMASSOC
350
206
  0
LAYOUT
  5
1D
102
{ACAD_REACTORS
330
19
102
}
330
19
100
AcDbPlotSettings
  1

  2
C:\Programme\AutoCAD LT 2002 Deu\plotters\DWF ePlot (optimized for plotting).pc3
  4

  6

 40
0.0
 41
0.0
 42
0.0
 43
0.0
 44
0.0
 45
0.0
 46
0.0
 47
0.0
 48
0.0
 49
0.0
140
0.0
141
0.0
142
1.0
143
1.0
 70
   688
 72
     0
 73
     0
 74
     5
  7

 75
    16
147
1.0
148
0.0
149
0.0
100
AcDbLayout
  1
Layout1
 70
     1
 71
     1
 10
0.0
 20
0.0
 11
12.0
 21
9.0
 12
0.0
 22
0.0
 32
0.0
 14
1.000000000000000E+20
 24
1.000000000000000E+20
 34
1.000000000000000E+20
 15
-1.000000000000000E+20
 25
-1.000000000000000E+20
 35
-1.000000000000000E+20
146
0.0
 13
0.0
 23
0.0
 33
0.0
 16
1.0
 26
0.0
 36
0.0
 17
0.0
 27
1.0
 37
0.0
 76
     0
330
1A
  0
LAYOUT
  5
21
102
{ACAD_REACTORS
330
19
102
}
330
19
100
AcDbPlotSettings
  1

  2
C:\Programme\AutoCAD LT 2002 Deu\plotters\DWF ePlot (optimized for plotting).pc3
  4

  6

 40
0.0
 41
0.0
 42
0.0
 43
0.0
 44
0.0
 45
0.0
 46
0.0
 47
0.0
 48
0.0
 49
0.0
140
0.0
141
0.0
142
1.0
143
1.0
 70
  1712
 72
     0
 73
     0
 74
     0
  7

 75
     0
147
1.0
148
0.0
149
0.0
100
AcDbLayout
  1
Model
 70
     1
 71
     0
 10
0.0
 20
0.0
 11
12.0
 21
9.0
 12
0.0
 22
0.0
 32
0.0
 14
0.0
 24
0.0
 34
0.0
 15
0.0
 25
0.0
 35
0.0
146
0.0
 13
0.0
 23
0.0
 33
0.0
 16
1.0
 26
0.0
 36
0.0
 17
0.0
 27
1.0
 37
0.0
 76
     0
330
1E
  0
MLINESTYLE
  5
17
102
{ACAD_REACTORS
330
16
102
}
330
16
100
AcDbMlineStyle
  2
STANDARD
 70
     0
  3

 62
   256
 51
90.0
 52
90.0
 71
     2
 49
0.5
 62
   256
  6
BYLAYER
 49
-0.5
 62
   256
  6
BYLAYER
  0
ACDBPLACEHOLDER
  5
F
102
{ACAD_REACTORS
330
E
102
}
330
E
  0
DICTIONARYVAR
  5
206
102
{ACAD_REACTORS
330
205
102
}
330
205
100
DictionaryVariables
280
     0
  1
1
  0
ENDSEC
  0
EOF
