  0
SECTION
  2
HEADER
  9
$ACADVER
  1
AC1015
  9
$ACADMAINTVER
 70
    13
  9
$DWGCODEPAGE
  3
ANSI_1252
  9
$INSBASE
 10
0.0
 20
0.0
 30
0.0
  9
$EXTMIN
 10
0.0000000000000065
 20
0.0000000000000102
 30
0.0
  9
$EXTMAX
 10
480.0
 20
183.402
 30
0.0
  9
$LIMMIN
 10
0.0
 20
0.0
  9
$LIMMAX
 10
12.0
 20
9.0
  9
$ORTHOMODE
 70
     0
  9
$REGENMODE
 70
     1
  9
$FILLMODE
 70
     1
  9
$QTEXTMODE
 70
     0
  9
$MIRRTEXT
 70
     1
  9
$LTSCALE
 40
1.0
  9
$ATTMODE
 70
     1
  9
$TEXTSIZE
 40
0.2
  9
$TRACEWID
 40
0.05
  9
$TEXTSTYLE
  7
Standard
  9
$CLAYER
  8
0
  9
$CELTYPE
  6
Continuous
  9
$CECOLOR
 62
   256
  9
$CELTSCALE
 40
1.0
  9
$DISPSILH
 70
     0
  9
$DIMSCALE
 40
1.0
  9
$DIMASZ
 40
0.18
  9
$DIMEXO
 40
0.0625
  9
$DIMDLI
 40
0.38
  9
$DIMRND
 40
0.0
  9
$DIMDLE
 40
0.0
  9
$DIMEXE
 40
0.18
  9
$DIMTP
 40
0.0
  9
$DIMTM
 40
0.0
  9
$DIMTXT
 40
0.18
  9
$DIMCEN
 40
0.09
  9
$DIMTSZ
 40
0.0
  9
$DIMTOL
 70
     0
  9
$DIMLIM
 70
     0
  9
$DIMTIH
 70
     1
  9
$DIMTOH
 70
     1
  9
$DIMSE1
 70
     0
  9
$DIMSE2
 70
     0
  9
$DIMTAD
 70
     0
  9
$DIMZIN
 70
     0
  9
$DIMBLK
  1

  9
$DIMASO
 70
     1
  9
$DIMSHO
 70
     1
  9
$DIMPOST
  1

  9
$DIMAPOST
  1

  9
$DIMALT
 70
     0
  9
$DIMALTD
 70
     2
  9
$DIMALTF
 40
25.4
  9
$DIMLFAC
 40
1.0
  9
$DIMTOFL
 70
     0
  9
$DIMTVP
 40
0.0
  9
$DIMTIX
 70
     0
  9
$DIMSOXD
 70
     0
  9
$DIMSAH
 70
     0
  9
$DIMBLK1
  1

  9
$DIMBLK2
  1

  9
$DIMSTYLE
  2
Standard
  9
$DIMCLRD
 70
     0
  9
$DIMCLRE
 70
     0
  9
$DIMCLRT
 70
     0
  9
$DIMTFAC
 40
1.0
  9
$DIMGAP
 40
0.09
  9
$DIMJUST
 70
     0
  9
$DIMSD1
 70
     0
  9
$DIMSD2
 70
     0
  9
$DIMTOLJ
 70
     1
  9
$DIMTZIN
 70
     0
  9
$DIMALTZ
 70
     0
  9
$DIMALTTZ
 70
     0
  9
$DIMUPT
 70
     0
  9
$DIMDEC
 70
     4
  9
$DIMTDEC
 70
     4
  9
$DIMALTU
 70
     2
  9
$DIMALTTD
 70
     2
  9
$DIMTXSTY
  7
Standard
  9
$DIMAUNIT
 70
     0
  9
$DIMADEC
 70
     0
  9
$DIMALTRND
 40
0.0
  9
$DIMAZIN
 70
     0
  9
$DIMDSEP
 70
    46
  9
$DIMATFIT
 70
     3
  9
$DIMFRAC
 70
     0
  9
$DIMLDRBLK
  1

  9
$DIMLUNIT
 70
     2
  9
$DIMLWD
 70
    -2
  9
$DIMLWE
 70
    -2
  9
$DIMTMOVE
 70
     0
  9
$LUNITS
 70
     2
  9
$LUPREC
 70
     4
  9
$SKETCHINC
 40
0.1
  9
$FILLETRAD
 40
0.0
  9
$AUNITS
 70
     0
  9
$AUPREC
 70
     0
  9
$MENU
  1
.
  9
$ELEVATION
 40
0.0
  9
$PELEVATION
 40
0.0
  9
$THICKNESS
 40
0.0
  9
$LIMCHECK
 70
     0
  9
$CHAMFERA
 40
0.0
  9
$CHAMFERB
 40
0.0
  9
$CHAMFERC
 40
0.0
  9
$CHAMFERD
 40
0.0
  9
$SKPOLY
 70
     0
  9
$TDCREATE
 40
2455508.920282650
  9
$TDUCREATE
 40
2455508.878615983
  9
$TDUPDATE
 40
2455508.921416377
  9
$TDUUPDATE
 40
2455508.879749710
  9
$TDINDWG
 40
0.0011337269
  9
$TDUSRTIMER
 40
0.0011337269
  9
$USRTIMER
 70
     1
  9
$ANGBASE
 50
0.0
  9
$ANGDIR
 70
     0
  9
$PDMODE
 70
     0
  9
$PDSIZE
 40
0.0
  9
$PLINEWID
 40
0.0
  9
$SPLFRAME
 70
     0
  9
$SPLINETYPE
 70
     6
  9
$SPLINESEGS
 70
     8
  9
$HANDSEED
  5
185
  9
$SURFTAB1
 70
     6
  9
$SURFTAB2
 70
     6
  9
$SURFTYPE
 70
     6
  9
$SURFU
 70
     6
  9
$SURFV
 70
     6
  9
$UCSBASE
  2

  9
$UCSNAME
  2

  9
$UCSORG
 10
0.0
 20
0.0
 30
0.0
  9
$UCSXDIR
 10
1.0
 20
0.0
 30
0.0
  9
$UCSYDIR
 10
0.0
 20
1.0
 30
0.0
  9
$UCSORTHOREF
  2

  9
$UCSORTHOVIEW
 70
     1
  9
$UCSORGTOP
 10
0.0
 20
0.0
 30
0.0
  9
$UCSORGBOTTOM
 10
0.0
 20
0.0
 30
0.0
  9
$UCSORGLEFT
 10
0.0
 20
0.0
 30
0.0
  9
$UCSORGRIGHT
 10
0.0
 20
0.0
 30
0.0
  9
$UCSORGFRONT
 10
0.0
 20
0.0
 30
0.0
  9
$UCSORGBACK
 10
0.0
 20
0.0
 30
0.0
  9
$PUCSBASE
  2

  9
$PUCSNAME
  2

  9
$PUCSORG
 10
0.0
 20
0.0
 30
0.0
  9
$PUCSXDIR
 10
1.0
 20
0.0
 30
0.0
  9
$PUCSYDIR
 10
0.0
 20
1.0
 30
0.0
  9
$PUCSORTHOREF
  2

  9
$PUCSORTHOVIEW
 70
     0
  9
$PUCSORGTOP
 10
0.0
 20
0.0
 30
0.0
  9
$PUCSORGBOTTOM
 10
0.0
 20
0.0
 30
0.0
  9
$PUCSORGLEFT
 10
0.0
 20
0.0
 30
0.0
  9
$PUCSORGRIGHT
 10
0.0
 20
0.0
 30
0.0
  9
$PUCSORGFRONT
 10
0.0
 20
0.0
 30
0.0
  9
$PUCSORGBACK
 10
0.0
 20
0.0
 30
0.0
  9
$USERI1
 70
     0
  9
$USERI2
 70
     0
  9
$USERI3
 70
     0
  9
$USERI4
 70
     0
  9
$USERI5
 70
     0
  9
$USERR1
 40
0.0
  9
$USERR2
 40
0.0
  9
$USERR3
 40
0.0
  9
$USERR4
 40
0.0
  9
$USERR5
 40
0.0
  9
$WORLDVIEW
 70
     1
  9
$SHADEDGE
 70
     3
  9
$SHADEDIF
 70
    70
  9
$TILEMODE
 70
     1
  9
$MAXACTVP
 70
    64
  9
$PINSBASE
 10
0.0
 20
0.0
 30
0.0
  9
$PLIMCHECK
 70
     0
  9
$PEXTMIN
 10
1.000000000000000E+20
 20
1.000000000000000E+20
 30
1.000000000000000E+20
  9
$PEXTMAX
 10
-1.000000000000000E+20
 20
-1.000000000000000E+20
 30
-1.000000000000000E+20
  9
$PLIMMIN
 10
0.0
 20
0.0
  9
$PLIMMAX
 10
12.0
 20
9.0
  9
$UNITMODE
 70
     0
  9
$VISRETAIN
 70
     1
  9
$PLINEGEN
 70
     0
  9
$PSLTSCALE
 70
     1
  9
$TREEDEPTH
 70
  3020
  9
$CMLSTYLE
  2
Standard
  9
$CMLJUST
 70
     0
  9
$CMLSCALE
 40
1.0
  9
$PROXYGRAPHICS
 70
     1
  9
$MEASUREMENT
 70
     0
  9
$CELWEIGHT
370
    -1
  9
$ENDCAPS
280
     0
  9
$JOINSTYLE
280
     0
  9
$LWDISPLAY
290
     0
  9
$INSUNITS
 70
     0
  9
$HYPERLINKBASE
  1

  9
$STYLESHEET
  1

  9
$XEDIT
290
     1
  9
$CEPSNTYPE
380
     0
  9
$PSTYLEMODE
290
     1
  9
$FINGERPRINTGUID
  2
{4DD7AD47-6AEE-4744-97FE-9F9F53D0F9D4}
  9
$VERSIONGUID
  2
{5D390AF8-0388-4939-ACDE-824ED02BF162}
  9
$EXTNAMES
290
     1
  9
$PSVPSCALE
 40
0.0
  9
$OLESTARTUP
290
     0
  0
ENDSEC
  0
SECTION
  2
CLASSES
  0
CLASS
  1
ACDBDICTIONARYWDFLT
  2
AcDbDictionaryWithDefault
  3
AutoCAD 2000
 90
        0
280
     0
281
     0
  0
CLASS
  1
ACDBPLACEHOLDER
  2
AcDbPlaceHolder
  3
AutoCAD 2000
 90
        0
280
     0
281
     0
  0
CLASS
  1
LAYOUT
  2
AcDbLayout
  3
AutoCAD 2000
 90
        0
280
     0
281
     0
  0
CLASS
  1
DICTIONARYVAR
  2
AcDbDictionaryVar
  3
AutoCAD 2000
 90
        0
280
     0
281
     0
  0
ENDSEC
  0
SECTION
  2
TABLES
  0
TABLE
  2
VPORT
  5
8
330
0
100
AcDbSymbolTable
 70
     4
  0
VPORT
  5
184
330
8
100
AcDbSymbolTableRecord
100
AcDbViewportTableRecord
  2
*Active
 70
     0
 10
0.0
 20
0.0
 11
1.0
 21
1.0
 12
240.0
 22
91.70100000000003
 13
0.0
 23
0.0
 14
1.0
 24
1.0
 15
0.0
 25
0.0
 16
0.0
 26
0.0
 36
1.0
 17
0.0
 27
0.0
 37
0.0
 40
232.2636318025735
 41
2.073363431151241
 42
50.0
 43
0.0
 44
0.0
 50
0.0
 51
0.0
 71
     0
 72
   100
 73
     1
 74
     3
 75
     0
 76
     0
 77
     0
 78
     0
281
     0
 65
     1
110
0.0
120
0.0
130
0.0
111
1.0
121
0.0
131
0.0
112
0.0
122
1.0
132
0.0
 79
     1
146
0.0
  0
ENDTAB
  0
TABLE
  2
LTYPE
  5
5
330
0
100
AcDbSymbolTable
 70
     1
  0
LTYPE
  5
13
330
5
100
AcDbSymbolTableRecord
100
AcDbLinetypeTableRecord
  2
ByBlock
 70
     0
  3

 72
    65
 73
     0
 40
0.0
  0
LTYPE
  5
14
330
5
100
AcDbSymbolTableRecord
100
AcDbLinetypeTableRecord
  2
ByLayer
 70
     0
  3

 72
    65
 73
     0
 40
0.0
  0
LTYPE
  5
15
330
5
100
AcDbSymbolTableRecord
100
AcDbLinetypeTableRecord
  2
Continuous
 70
     0
  3
Solid line
 72
    65
 73
     0
 40
0.0
  0
ENDTAB
  0
TABLE
  2
LAYER
  5
2
330
0
100
AcDbSymbolTable
 70
     1
  0
LAYER
  5
10
330
2
100
AcDbSymbolTableRecord
100
AcDbLayerTableRecord
  2
0
 70
     0
 62
     7
  6
Continuous
370
    -3
390
F
  0
ENDTAB
  0
TABLE
  2
STYLE
  5
3
330
0
100
AcDbSymbolTable
 70
     1
  0
STYLE
  5
11
330
3
100
AcDbSymbolTableRecord
100
AcDbTextStyleTableRecord
  2
Standard
 70
     0
 40
0.0
 41
1.0
 50
0.0
 71
     0
 42
0.2
  3
txt
  4

  0
ENDTAB
  0
TABLE
  2
VIEW
  5
6
330
0
100
AcDbSymbolTable
 70
     0
  0
ENDTAB
  0
TABLE
  2
UCS
  5
7
330
0
100
AcDbSymbolTable
 70
     0
  0
ENDTAB
  0
TABLE
  2
APPID
  5
9
330
0
100
AcDbSymbolTable
 70
     1
  0
APPID
  5
12
330
9
100
AcDbSymbolTableRecord
100
AcDbRegAppTableRecord
  2
ACAD
 70
     0
  0
ENDTAB
  0
TABLE
  2
DIMSTYLE
  5
A
330
0
100
AcDbSymbolTable
 70
     1
100
AcDbDimStyleTable
 71
     0
  0
DIMSTYLE
105
175
330
A
100
AcDbSymbolTableRecord
100
AcDbDimStyleTableRecord
  2
Standard
 70
     0
340
11
  0
ENDTAB
  0
TABLE
  2
BLOCK_RECORD
  5
1
330
0
100
AcDbSymbolTable
 70
     0
  0
BLOCK_RECORD
  5
1E
330
1
100
AcDbSymbolTableRecord
100
AcDbBlockTableRecord
  2
*Model_Space
340
21
  0
BLOCK_RECORD
  5
1A
330
1
100
AcDbSymbolTableRecord
100
AcDbBlockTableRecord
  2
*Paper_Space
340
1D
  0
ENDTAB
  0
ENDSEC
  0
SECTION
  2
BLOCKS
  0
BLOCK
  5
1F
330
1E
100
AcDbEntity
  8
0
100
AcDbBlockBegin
  2
*Model_Space
 70
     0
 10
0.0
 20
0.0
 30
0.0
  3
*Model_Space
  1

  0
ENDBLK
  5
20
330
1E
100
AcDbEntity
  8
0
100
AcDbBlockEnd
  0
BLOCK
  5
1B
330
1A
100
AcDbEntity
 67
     1
  8
0
100
AcDbBlockBegin
  2
*Paper_Space
 70
     0
 10
0.0
 20
0.0
 30
0.0
  3
*Paper_Space
  1

  0
ENDBLK
  5
1C
330
1A
100
AcDbEntity
 67
     1
  8
0
100
AcDbBlockEnd
  0
ENDSEC
  0
SECTION
  2
ENTITIES
  0
LINE
  5
22
330
1E
100
AcDbEntity
  8
0
100
AcDbLine
 10
245.794
 20
0.0000000000000156
 30
0.0
 11
252.0529999999999
 21
0.0000000000000152
 31
0.0
  0
LINE
  5
23
330
1E
100
AcDbEntity
  8
0
100
AcDbLine
 10
245.794
 20
0.0000000000000156
 30
0.0
 11
251.882
 21
0.0000000000000152
 31
0.0
  0
LINE
  5
24
330
1E
100
AcDbEntity
  8
0
100
AcDbLine
 10
168.144
 20
17.2594
 30
0.0
 11
170.864
 21
11.73699999999999
 31
0.0
  0
LINE
  5
25
330
1E
100
AcDbEntity
  8
0
100
AcDbLine
 10
164.1579999999999
 20
21.9504
 30
0.0
 11
168.144
 21
17.2594
 31
0.0
  0
LINE
  5
26
330
1E
100
AcDbEntity
  8
0
100
AcDbLine
 10
170.864
 20
11.73699999999999
 30
0.0
 11
172.1509999999999
 21
5.718450000000019
 31
0.0
  0
LINE
  5
27
330
1E
100
AcDbEntity
  8
0
100
AcDbLine
 10
172.1509999999999
 20
5.718450000000019
 30
0.0
 11
173.0109999999999
 21
0.00000000000002
 31
0.0
  0
LINE
  5
28
330
1E
100
AcDbEntity
  8
0
100
AcDbLine
 10
172.1509999999999
 20
5.718450000000019
 30
0.0
 11
173.0109999999999
 21
0.0000000000000198
 31
0.0
  0
LINE
  5
29
330
1E
100
AcDbEntity
  8
0
100
AcDbLine
 10
175.863
 20
0.0000000000000199
 30
0.0
 11
181.44
 21
0.0000000000000195
 31
0.0
  0
LINE
  5
2A
330
1E
100
AcDbEntity
  8
0
100
AcDbLine
 10
173.0109999999999
 20
0.00000000000002
 30
0.0
 11
175.863
 21
0.0000000000000199
 31
0.0
  0
LINE
  5
2B
330
1E
100
AcDbEntity
  8
0
100
AcDbLine
 10
85.80473182552509
 20
78.0335
 30
0.0
 11
96.103
 21
70.0411
 31
0.0
  0
LINE
  5
2D
330
1E
100
AcDbEntity
  8
0
100
AcDbLine
 10
114.375
 20
78.0335
 30
0.0
 11
123.201
 21
78.0335
 31
0.0
  0
LINE
  5
2E
330
1E
100
AcDbEntity
  8
0
100
AcDbLine
 10
105.252
 20
62.7679
 30
0.0
 11
123.305
 21
48.85
 31
0.0
  0
LINE
  5
31
330
1E
100
AcDbEntity
  8
0
100
AcDbLine
 10
143.9639999999999
 20
34.4988
 30
0.0
 11
159.147
 21
25.52699999999999
 31
0.0
  0
LINE
  5
33
330
1E
100
AcDbEntity
  8
0
100
AcDbLine
 10
133.341
 20
41.6089
 30
0.0
 11
143.9639999999999
 21
34.4988
 31
0.0
  0
LINE
  5
35
330
1E
100
AcDbEntity
  8
0
100
AcDbLine
 10
123.305
 20
48.85
 30
0.0
 11
133.341
 21
41.6089
 31
0.0
  0
LINE
  5
36
330
1E
100
AcDbEntity
  8
0
100
AcDbLine
 10
123.201
 20
78.0335
 30
0.0
 11
298.92
 21
78.0335
 31
0.0
  0
LINE
  5
37
330
1E
100
AcDbEntity
  8
0
100
AcDbLine
 10
103.872
 20
78.0335
 30
0.0
 11
114.375
 21
78.0335
 31
0.0
  0
LINE
  5
38
330
1E
100
AcDbEntity
  8
0
100
AcDbLine
 10
96.103
 20
70.0411
 30
0.0
 11
105.252
 21
62.7679
 31
0.0
  0
LINE
  5
39
330
1E
100
AcDbEntity
  8
0
100
AcDbLine
 10
159.147
 20
25.52699999999999
 30
0.0
 11
164.1579999999999
 21
21.9504
 31
0.0
  0
LINE
  5
3A
330
1E
100
AcDbEntity
  8
0
100
AcDbLine
 10
189.499
 20
0.000000000000019
 30
0.0
 11
199.69
 21
0.0000000000000184
 31
0.0
  0
LINE
  5
3B
330
1E
100
AcDbEntity
  8
0
100
AcDbLine
 10
199.69
 20
0.0000000000000184
 30
0.0
 11
211.565
 21
0.0000000000000177
 31
0.0
  0
LINE
  5
3C
330
1E
100
AcDbEntity
  8
0
100
AcDbLine
 10
211.565
 20
0.0000000000000177
 30
0.0
 11
215.22
 21
0.0000000000000175
 31
0.0
  0
LINE
  5
3D
330
1E
100
AcDbEntity
  8
0
100
AcDbLine
 10
211.565
 20
0.0000000000000177
 30
0.0
 11
224.6059999999999
 21
0.0000000000000169
 31
0.0
  0
LINE
  5
3E
330
1E
100
AcDbEntity
  8
0
100
AcDbLine
 10
181.44
 20
0.0000000000000195
 30
0.0
 11
189.499
 21
0.000000000000019
 31
0.0
  0
LINE
  5
3F
330
1E
100
AcDbEntity
  8
0
100
AcDbLine
 10
216.3829999999999
 20
0.0000000000000174
 30
0.0
 11
219.7529999999999
 21
0.0000000000000172
 31
0.0
  0
LINE
  5
40
330
1E
100
AcDbEntity
  8
0
100
AcDbLine
 10
216.3829999999999
 20
0.0000000000000174
 30
0.0
 11
224.6059999999999
 21
0.0000000000000169
 31
0.0
  0
LINE
  5
41
330
1E
100
AcDbEntity
  8
0
100
AcDbLine
 10
216.3829999999999
 20
0.0000000000000174
 30
0.0
 11
224.607
 21
0.0000000000000169
 31
0.0
  0
LINE
  5
42
330
1E
100
AcDbEntity
  8
0
100
AcDbLine
 10
224.6059999999999
 20
0.0000000000000169
 30
0.0
 11
238.2449999999999
 21
0.0000000000000161
 31
0.0
  0
LINE
  5
43
330
1E
100
AcDbEntity
  8
0
100
AcDbLine
 10
224.9909999999999
 20
0.0000000000000169
 30
0.0
 11
231.567
 21
0.0000000000000165
 31
0.0
  0
LINE
  5
44
330
1E
100
AcDbEntity
  8
0
100
AcDbLine
 10
219.7529999999999
 20
0.0000000000000172
 30
0.0
 11
224.9909999999999
 21
0.0000000000000169
 31
0.0
  0
LINE
  5
45
330
1E
100
AcDbEntity
  8
0
100
AcDbLine
 10
224.9909999999999
 20
0.0000000000000169
 30
0.0
 11
231.567
 21
0.0000000000000165
 31
0.0
  0
LINE
  5
46
330
1E
100
AcDbEntity
  8
0
100
AcDbLine
 10
238.2449999999999
 20
0.0000000000000161
 30
0.0
 11
251.882
 21
0.0000000000000152
 31
0.0
  0
LINE
  5
47
330
1E
100
AcDbEntity
  8
0
100
AcDbLine
 10
231.567
 20
0.0000000000000165
 30
0.0
 11
238.817
 21
0.000000000000016
 31
0.0
  0
LINE
  5
48
330
1E
100
AcDbEntity
  8
0
100
AcDbLine
 10
238.817
 20
0.000000000000016
 30
0.0
 11
245.794
 21
0.0000000000000156
 31
0.0
  0
LINE
  5
49
330
1E
100
AcDbEntity
  8
0
100
AcDbLine
 10
238.817
 20
0.000000000000016
 30
0.0
 11
245.793
 21
0.0000000000000156
 31
0.0
  0
LINE
  5
4A
330
1E
100
AcDbEntity
  8
0
100
AcDbLine
 10
238.817
 20
0.000000000000016
 30
0.0
 11
251.882
 21
0.0000000000000152
 31
0.0
  0
LINE
  5
4B
330
1E
100
AcDbEntity
  8
0
100
AcDbLine
 10
251.882
 20
0.0000000000000152
 30
0.0
 11
264.924
 21
0.0000000000000144
 31
0.0
  0
LINE
  5
4C
330
1E
100
AcDbEntity
  8
0
100
AcDbLine
 10
245.794
 20
0.0000000000000156
 30
0.0
 11
252.0529999999999
 21
0.0000000000000152
 31
0.0
  0
LINE
  5
4D
330
1E
100
AcDbEntity
  8
0
100
AcDbLine
 10
257.004
 20
0.0000000000000149
 30
0.0
 11
260.176
 21
0.0000000000000147
 31
0.0
  0
LINE
  5
4E
330
1E
100
AcDbEntity
  8
0
100
AcDbLine
 10
295.049
 20
0.0000000000000126
 30
0.0
 11
300.6259999999999
 21
0.0000000000000122
 31
0.0
  0
LINE
  5
4F
330
1E
100
AcDbEntity
  8
0
100
AcDbLine
 10
295.048
 20
0.0000000000000126
 30
0.0
 11
300.6259999999999
 21
0.0000000000000122
 31
0.0
  0
LINE
  5
50
330
1E
100
AcDbEntity
  8
0
100
AcDbLine
 10
303.477
 20
0.0000000000000102
 30
0.0
 11
306.379
 21
29.04949999999999
 31
0.0
  0
LINE
  5
51
330
1E
100
AcDbEntity
  8
0
100
AcDbLine
 10
303.477
 20
0.0000000000000121
 30
0.0
 11
306.379
 21
29.04949999999999
 31
0.0
  0
LINE
  5
52
330
1E
100
AcDbEntity
  8
0
100
AcDbLine
 10
300.6259999999999
 20
0.0000000000000122
 30
0.0
 11
303.477
 21
0.0000000000000121
 31
0.0
  0
LINE
  5
53
330
1E
100
AcDbEntity
  8
0
100
AcDbLine
 10
264.924
 20
0.0000000000000144
 30
0.0
 11
276.799
 21
0.0000000000000137
 31
0.0
  0
LINE
  5
54
330
1E
100
AcDbEntity
  8
0
100
AcDbLine
 10
286.988
 20
0.0000000000000131
 30
0.0
 11
295.049
 21
0.0000000000000126
 31
0.0
  0
LINE
  5
55
330
1E
100
AcDbEntity
  8
0
100
AcDbLine
 10
301.7509999999999
 20
78.0335
 30
0.0
 11
313.1419999999999
 21
78.0335
 31
0.0
  0
LINE
  5
56
330
1E
100
AcDbEntity
  8
0
100
AcDbLine
 10
298.92
 20
78.0335
 30
0.0
 11
301.7509999999999
 21
78.0335
 31
0.0
  0
LINE
  5
57
330
1E
100
AcDbEntity
  8
0
100
AcDbLine
 10
298.92
 20
78.0335
 30
0.0
 11
318.9649999999999
 21
78.0335
 31
0.0
  0
LINE
  5
58
330
1E
100
AcDbEntity
  8
0
100
AcDbLine
 10
312.1569999999999
 20
43.27259999999999
 30
0.0
 11
324.924
 21
62.4808
 31
0.0
  0
LINE
  5
59
330
1E
100
AcDbEntity
  8
0
100
AcDbLine
 10
310.563
 20
40.85849999999999
 30
0.0
 11
312.1569999999999
 21
43.27259999999999
 31
0.0
  0
LINE
  5
5A
330
1E
100
AcDbEntity
  8
0
100
AcDbLine
 10
313.1419999999999
 20
78.0335
 30
0.0
 11
320.774
 21
78.0335
 31
0.0
  0
LINE
  5
5B
330
1E
100
AcDbEntity
  8
0
100
AcDbLine
 10
307.72
 20
35.2181
 30
0.0
 11
310.563
 21
40.85849999999999
 31
0.0
  0
LINE
  5
5C
330
1E
100
AcDbEntity
  8
0
100
AcDbLine
 10
306.379
 20
29.04949999999999
 30
0.0
 11
307.72
 21
35.2181
 31
0.0
  0
LINE
  5
5D
330
1E
100
AcDbEntity
  8
0
100
AcDbLine
 10
324.924
 20
62.4808
 30
0.0
 11
336.302805113238
 21
78.0335
 31
0.0
  0
LINE
  5
5E
330
1E
100
AcDbEntity
  8
0
100
AcDbLine
 10
325.1359999999999
 20
78.0335
 30
0.0
 11
325.5479999999999
 21
78.0335
 31
0.0
  0
LINE
  5
5F
330
1E
100
AcDbEntity
  8
0
100
AcDbLine
 10
325.1359999999999
 20
78.0335
 30
0.0
 11
325.7009999999999
 21
78.0335
 31
0.0
  0
LINE
  5
60
330
1E
100
AcDbEntity
  8
0
100
AcDbLine
 10
326.974
 20
78.0335
 30
0.0
 11
331.79
 21
78.0335
 31
0.0
  0
LINE
  5
61
330
1E
100
AcDbEntity
  8
0
100
AcDbLine
 10
326.8009999999999
 20
78.0335
 30
0.0
 11
327.8519999999999
 21
78.0335
 31
0.0
  0
LINE
  5
62
330
1E
100
AcDbEntity
  8
0
100
AcDbLine
 10
327.8519999999999
 20
78.0335
 30
0.0
 11
329.605
 21
78.0335
 31
0.0
  0
LINE
  5
63
330
1E
100
AcDbEntity
  8
0
100
AcDbLine
 10
328.8219999999999
 20
78.0335
 30
0.0
 11
329.8719999999999
 21
78.0335
 31
0.0
  0
LINE
  5
64
330
1E
100
AcDbEntity
  8
0
100
AcDbLine
 10
325.7009999999999
 20
78.0335
 30
0.0
 11
327.0669999999999
 21
78.0335
 31
0.0
  0
LINE
  5
65
330
1E
100
AcDbEntity
  8
0
100
AcDbLine
 10
325.5479999999999
 20
78.0335
 30
0.0
 11
326.8009999999999
 21
78.0335
 31
0.0
  0
LINE
  5
66
330
1E
100
AcDbEntity
  8
0
100
AcDbLine
 10
320.774
 20
78.0335
 30
0.0
 11
329.37
 21
78.0335
 31
0.0
  0
LINE
  5
67
330
1E
100
AcDbEntity
  8
0
100
AcDbLine
 10
329.605
 20
78.0335
 30
0.0
 11
330.9719999999999
 21
78.0335
 31
0.0
  0
LINE
  5
68
330
1E
100
AcDbEntity
  8
0
100
AcDbLine
 10
330.9719999999999
 20
78.0335
 30
0.0
 11
331.5369999999999
 21
78.0335
 31
0.0
  0
LINE
  5
69
330
1E
100
AcDbEntity
  8
0
100
AcDbLine
 10
329.37
 20
78.0335
 30
0.0
 11
334.323
 21
78.0335
 31
0.0
  0
LINE
  5
6A
330
1E
100
AcDbEntity
  8
0
100
AcDbLine
 10
329.8719999999999
 20
78.0335
 30
0.0
 11
331.125
 21
78.0335
 31
0.0
  0
LINE
  5
6C
330
1E
100
AcDbEntity
  8
0
100
AcDbLine
 10
336.302805113238
 20
78.0335
 30
0.0
 11
339.4959999999999
 21
78.0335
 31
0.0
  0
LINE
  5
6D
330
1E
100
AcDbEntity
  8
0
100
AcDbLine
 10
339.4959999999999
 20
78.0335
 30
0.0
 11
341.608
 21
78.5017
 31
0.0
  0
LINE
  5
6E
330
1E
100
AcDbEntity
  8
0
100
AcDbLine
 10
331.79
 20
78.0335
 30
0.0
 11
335.957
 21
78.0335
 31
0.0
  0
LINE
  5
6F
330
1E
100
AcDbEntity
  8
0
100
AcDbLine
 10
335.957
 20
78.0335
 30
0.0
 11
338.6969999999999
 21
78.0335
 31
0.0
  0
LINE
  5
70
330
1E
100
AcDbEntity
  8
0
100
AcDbLine
 10
331.125
 20
78.0335
 30
0.0
 11
331.5369999999999
 21
78.0335
 31
0.0
  0
LINE
  5
71
330
1E
100
AcDbEntity
  8
0
100
AcDbLine
 10
338.6969999999999
 20
78.0335
 30
0.0
 11
339.4959999999999
 21
78.0335
 31
0.0
  0
LINE
  5
72
330
1E
100
AcDbEntity
  8
0
100
AcDbLine
 10
318.9649999999999
 20
78.0335
 30
0.0
 11
322.4139999999999
 21
78.0335
 31
0.0
  0
LINE
  5
73
330
1E
100
AcDbEntity
  8
0
100
AcDbLine
 10
322.4139999999999
 20
78.0335
 30
0.0
 11
326.974
 21
78.0335
 31
0.0
  0
LINE
  5
74
330
1E
100
AcDbEntity
  8
0
100
AcDbLine
 10
276.799
 20
0.0000000000000137
 30
0.0
 11
286.989
 21
0.0000000000000131
 31
0.0
  0
LINE
  5
75
330
1E
100
AcDbEntity
  8
0
100
AcDbLine
 10
276.799
 20
0.0000000000000137
 30
0.0
 11
286.988
 21
0.0000000000000131
 31
0.0
  0
LINE
  5
76
330
1E
100
AcDbEntity
  8
0
100
AcDbLine
 10
286.989
 20
0.0000000000000131
 30
0.0
 11
295.048
 21
0.0000000000000126
 31
0.0
  0
LINE
  5
77
330
1E
100
AcDbEntity
  8
0
100
AcDbLine
 10
260.176
 20
0.0000000000000147
 30
0.0
 11
261.269
 21
0.0000000000000146
 31
0.0
  0
LINE
  5
78
330
1E
100
AcDbEntity
  8
0
100
AcDbLine
 10
0.0000000000000067
 20
106.046
 30
0.0
 11
2.06200000000001
 21
118.302
 31
0.0
  0
LINE
  5
79
330
1E
100
AcDbEntity
  8
0
100
AcDbLine
 10
0.0000000000000065
 20
106.046
 30
0.0
 11
0.380000000000007
 21
106.046
 31
0.0
  0
LINE
  5
7A
330
1E
100
AcDbEntity
  8
0
100
AcDbLine
 10
0.0000000000000065
 20
106.046
 30
0.0
 11
2.06200000000001
 21
118.302
 31
0.0
  0
LINE
  5
7B
330
1E
100
AcDbEntity
  8
0
100
AcDbLine
 10
0.0000000000000065
 20
106.046
 30
0.0
 11
0.380000000000007
 21
106.046
 31
0.0
  0
LINE
  5
7C
330
1E
100
AcDbEntity
  8
0
100
AcDbLine
 10
0.380000000000007
 20
106.046
 30
0.0
 11
1.325000000000009
 21
106.046
 31
0.0
  0
LINE
  5
7D
330
1E
100
AcDbEntity
  8
0
100
AcDbLine
 10
0.380000000000007
 20
106.046
 30
0.0
 11
1.327000000000009
 21
106.046
 31
0.0
  0
LINE
  5
7E
330
1E
100
AcDbEntity
  8
0
100
AcDbLine
 10
5.713000000000009
 20
106.046
 30
0.0
 11
7.032000000000009
 21
106.046
 31
0.0
  0
LINE
  5
7F
330
1E
100
AcDbEntity
  8
0
100
AcDbLine
 10
1.327000000000009
 20
106.046
 30
0.0
 11
4.153000000000009
 21
106.046
 31
0.0
  0
LINE
  5
80
330
1E
100
AcDbEntity
  8
0
100
AcDbLine
 10
4.153000000000009
 20
106.046
 30
0.0
 11
5.713000000000009
 21
106.046
 31
0.0
  0
LINE
  5
81
330
1E
100
AcDbEntity
  8
0
100
AcDbLine
 10
7.032000000000009
 20
106.046
 30
0.0
 11
9.041000000000009
 21
106.046
 31
0.0
  0
LINE
  5
82
330
1E
100
AcDbEntity
  8
0
100
AcDbLine
 10
6.365000000000009
 20
106.046
 30
0.0
 11
9.038000000000009
 21
106.046
 31
0.0
  0
LINE
  5
83
330
1E
100
AcDbEntity
  8
0
100
AcDbLine
 10
5.481000000000009
 20
106.046
 30
0.0
 11
6.365000000000009
 21
106.046
 31
0.0
  0
LINE
  5
84
330
1E
100
AcDbEntity
  8
0
100
AcDbLine
 10
1.325000000000009
 20
106.046
 30
0.0
 11
2.980000000000009
 21
106.046
 31
0.0
  0
LINE
  5
85
330
1E
100
AcDbEntity
  8
0
100
AcDbLine
 10
2.06200000000001
 20
118.302
 30
0.0
 11
2.961000000000009
 21
130.705
 31
0.0
  0
LINE
  5
86
330
1E
100
AcDbEntity
  8
0
100
AcDbLine
 10
2.961000000000009
 20
130.705
 30
0.0
 11
3.071000000000009
 21
131.441
 31
0.0
  0
LINE
  5
89
330
1E
100
AcDbEntity
  8
0
100
AcDbLine
 10
6.403000000000009
 20
133.597
 30
0.0
 11
6.567000000000009
 21
133.607
 31
0.0
  0
LINE
  5
8A
330
1E
100
AcDbEntity
  8
0
100
AcDbLine
 10
6.567000000000009
 20
133.607
 30
0.0
 11
7.201000000000009
 21
133.63
 31
0.0
  0
LINE
  5
8B
330
1E
100
AcDbEntity
  8
0
100
AcDbLine
 10
2.980000000000009
 20
106.046
 30
0.0
 11
5.481000000000009
 21
106.046
 31
0.0
  0
LINE
  5
8C
330
1E
100
AcDbEntity
  8
0
100
AcDbLine
 10
9.041000000000009
 20
106.046
 30
0.0
 11
11.564
 21
106.046
 31
0.0
  0
LINE
  5
8D
330
1E
100
AcDbEntity
  8
0
100
AcDbLine
 10
14.743
 20
106.046
 30
0.0
 11
20.19299999999999
 21
106.046
 31
0.0
  0
LINE
  5
8E
330
1E
100
AcDbEntity
  8
0
100
AcDbLine
 10
14.744
 20
106.046
 30
0.0
 11
21.694
 21
106.046
 31
0.0
  0
LINE
  5
8F
330
1E
100
AcDbEntity
  8
0
100
AcDbLine
 10
11.564
 20
106.046
 30
0.0
 11
14.744
 21
106.046
 31
0.0
  0
LINE
  5
90
330
1E
100
AcDbEntity
  8
0
100
AcDbLine
 10
11.564
 20
106.046
 30
0.0
 11
14.743
 21
106.046
 31
0.0
  0
LINE
  5
91
330
1E
100
AcDbEntity
  8
0
100
AcDbLine
 10
9.038000000000009
 20
106.046
 30
0.0
 11
11.564
 21
106.046
 31
0.0
  0
LINE
  5
92
330
1E
100
AcDbEntity
  8
0
100
AcDbLine
 10
14.552
 20
106.046
 30
0.0
 11
16.012
 21
106.046
 31
0.0
  0
LINE
  5
93
330
1E
100
AcDbEntity
  8
0
100
AcDbLine
 10
20.19299999999999
 20
106.046
 30
0.0
 11
26.998
 21
106.046
 31
0.0
  0
LINE
  5
94
330
1E
100
AcDbEntity
  8
0
100
AcDbLine
 10
21.694
 20
106.046
 30
0.0
 11
26.998
 21
106.046
 31
0.0
  0
LINE
  5
95
330
1E
100
AcDbEntity
  8
0
100
AcDbLine
 10
21.871
 20
106.046
 30
0.0
 11
22.493
 21
106.046
 31
0.0
  0
LINE
  5
96
330
1E
100
AcDbEntity
  8
0
100
AcDbLine
 10
19.394
 20
106.046
 30
0.0
 11
19.995
 21
106.046
 31
0.0
  0
LINE
  5
97
330
1E
100
AcDbEntity
  8
0
100
AcDbLine
 10
19.995
 20
106.046
 30
0.0
 11
21.871
 21
106.046
 31
0.0
  0
LINE
  5
98
330
1E
100
AcDbEntity
  8
0
100
AcDbLine
 10
16.012
 20
106.046
 30
0.0
 11
19.394
 21
106.046
 31
0.0
  0
LINE
  5
99
330
1E
100
AcDbEntity
  8
0
100
AcDbLine
 10
14.488
 20
106.046
 30
0.0
 11
14.552
 21
106.046
 31
0.0
  0
LINE
  5
9A
330
1E
100
AcDbEntity
  8
0
100
AcDbLine
 10
22.493
 20
106.046
 30
0.0
 11
23.16
 21
106.046
 31
0.0
  0
LINE
  5
9B
330
1E
100
AcDbEntity
  8
0
100
AcDbLine
 10
23.16
 20
106.046
 30
0.0
 11
25.24
 21
106.046
 31
0.0
  0
LINE
  5
9C
330
1E
100
AcDbEntity
  8
0
100
AcDbLine
 10
31.083
 20
106.046
 30
0.0
 11
36.26699999999999
 21
106.046
 31
0.0
  0
LINE
  5
9D
330
1E
100
AcDbEntity
  8
0
100
AcDbLine
 10
26.998
 20
106.046
 30
0.0
 11
31.083
 21
106.046
 31
0.0
  0
LINE
  5
9E
330
1E
100
AcDbEntity
  8
0
100
AcDbLine
 10
26.998
 20
106.046
 30
0.0
 11
35.904
 21
106.046
 31
0.0
  0
LINE
  5
9F
330
1E
100
AcDbEntity
  8
0
100
AcDbLine
 10
25.24
 20
106.046
 30
0.0
 11
29.107
 21
106.046
 31
0.0
  0
LINE
  5
A0
330
1E
100
AcDbEntity
  8
0
100
AcDbLine
 10
7.20100000000015
 20
133.63
 30
0.0
 11
8.713000000000009
 21
133.6689999999999
 31
0.0
  0
LINE
  5
A1
330
1E
100
AcDbEntity
  8
0
100
AcDbLine
 10
8.714000000000009
 20
133.6689999999999
 30
0.0
 11
10.987
 21
133.702
 31
0.0
  0
LINE
  5
A2
330
1E
100
AcDbEntity
  8
0
100
AcDbLine
 10
8.714000000000009
 20
133.6689999999999
 30
0.0
 11
10.987
 21
133.703
 31
0.0
  0
LINE
  5
A3
330
1E
100
AcDbEntity
  8
0
100
AcDbLine
 10
29.107
 20
106.046
 30
0.0
 11
34.87899999999999
 21
106.046
 31
0.0
  0
LINE
  5
A4
330
1E
100
AcDbEntity
  8
0
100
AcDbLine
 10
54.651
 20
78.0335
 30
0.0
 11
54.885
 21
78.0335
 31
0.0
  0
LINE
  5
A5
330
1E
100
AcDbEntity
  8
0
100
AcDbLine
 10
54.651
 20
78.0335
 30
0.0
 11
57.256
 21
78.0335
 31
0.0
  0
LINE
  5
A6
330
1E
100
AcDbEntity
  8
0
100
AcDbLine
 10
54.885
 20
78.0335
 30
0.0
 11
57.905
 21
78.0335
 31
0.0
  0
LINE
  5
A8
330
1E
100
AcDbEntity
  8
0
100
AcDbLine
 10
51.378
 20
79.06690000000001
 30
0.0
 11
54.651
 21
78.0335
 31
0.0
  0
LINE
  5
AB
330
1E
100
AcDbEntity
  8
0
100
AcDbLine
 10
57.256
 20
78.0335
 30
0.0
 11
62.146
 21
78.0335
 31
0.0
  0
LINE
  5
AC
330
1E
100
AcDbEntity
  8
0
100
AcDbLine
 10
64.869
 20
78.0335
 30
0.0
 11
65.28100000000001
 21
78.0335
 31
0.0
  0
LINE
  5
AD
330
1E
100
AcDbEntity
  8
0
100
AcDbLine
 10
64.869
 20
78.0335
 30
0.0
 11
65.434
 21
78.0335
 31
0.0
  0
LINE
  5
AE
330
1E
100
AcDbEntity
  8
0
100
AcDbLine
 10
65.434
 20
78.0335
 30
0.0
 11
66.79999999999999
 21
78.0335
 31
0.0
  0
LINE
  5
AF
330
1E
100
AcDbEntity
  8
0
100
AcDbLine
 10
65.28100000000001
 20
78.0335
 30
0.0
 11
66.53399999999999
 21
78.0335
 31
0.0
  0
LINE
  5
B1
330
1E
100
AcDbEntity
  8
0
100
AcDbLine
 10
62.146
 20
78.0335
 30
0.0
 11
68.288
 21
78.0335
 31
0.0
  0
LINE
  5
B2
330
1E
100
AcDbEntity
  8
0
100
AcDbLine
 10
36.26699999999999
 20
106.046
 30
0.0
 11
42.816
 21
106.046
 31
0.0
  0
LINE
  5
B3
330
1E
100
AcDbEntity
  8
0
100
AcDbLine
 10
41.93399999999999
 20
133.6829999999999
 30
0.0
 11
53.285
 21
133.687
 31
0.0
  0
LINE
  5
B4
330
1E
100
AcDbEntity
  8
0
100
AcDbLine
 10
35.904
 20
106.046
 30
0.0
 11
42.167
 21
106.046
 31
0.0
  0
LINE
  5
B5
330
1E
100
AcDbEntity
  8
0
100
AcDbLine
 10
62.111
 20
106.046
 30
0.0
 11
107.902
 21
106.046
 31
0.0
  0
LINE
  5
B6
330
1E
100
AcDbEntity
  8
0
100
AcDbLine
 10
52.83100000000001
 20
106.046
 30
0.0
 11
62.111
 21
106.046
 31
0.0
  0
LINE
  5
B7
330
1E
100
AcDbEntity
  8
0
100
AcDbLine
 10
42.816
 20
106.046
 30
0.0
 11
52.83100000000001
 21
106.046
 31
0.0
  0
LINE
  5
B8
330
1E
100
AcDbEntity
  8
0
100
AcDbLine
 10
42.167
 20
106.046
 30
0.0
 11
43.0566196065645
 21
106.046
 31
0.0
  0
LINE
  5
B9
330
1E
100
AcDbEntity
  8
0
100
AcDbLine
 10
43.0566196065645
 20
106.046
 30
0.0
 11
49.59399999999999
 21
81.7411
 31
0.0
  0
LINE
  5
BA
330
1E
100
AcDbEntity
  8
0
100
AcDbLine
 10
42.05499999999999
 20
106.046
 30
0.0
 11
43.0566196065645
 21
106.046
 31
0.0
  0
LINE
  5
BB
330
1E
100
AcDbEntity
  8
0
100
AcDbLine
 10
49.59399999999999
 20
81.7411
 30
0.0
 11
51.378
 21
79.06690000000001
 31
0.0
  0
LINE
  5
BC
330
1E
100
AcDbEntity
  8
0
100
AcDbLine
 10
34.87899999999999
 20
106.046
 30
0.0
 11
42.05499999999999
 21
106.046
 31
0.0
  0
LINE
  5
BD
330
1E
100
AcDbEntity
  8
0
100
AcDbLine
 10
53.285000000022
 20
133.687
 30
0.0
 11
66.32699999999999
 21
133.6889999999999
 31
0.0
  0
LINE
  5
BE
330
1E
100
AcDbEntity
  8
0
100
AcDbLine
 10
53.285
 20
133.687
 30
0.0
 11
66.328
 21
133.6889999999999
 31
0.0
  0
LINE
  5
BF
330
1E
100
AcDbEntity
  8
0
100
AcDbLine
 10
53.285
 20
133.687
 30
0.0
 11
66.32699999999999
 21
133.6889999999999
 31
0.0
  0
LINE
  5
C0
330
1E
100
AcDbEntity
  8
0
100
AcDbLine
 10
33.12599999999999
 20
133.685
 30
0.0
 11
41.93399999999999
 21
133.6829999999999
 31
0.0
  0
LINE
  5
C1
330
1E
100
AcDbEntity
  8
0
100
AcDbLine
 10
68.288
 20
78.0335
 30
0.0
 11
74.38500000000001
 21
78.0335
 31
0.0
  0
LINE
  5
C2
330
1E
100
AcDbEntity
  8
0
100
AcDbLine
 10
66.53399999999999
 20
78.0335
 30
0.0
 11
67.584
 21
78.0335
 31
0.0
  0
LINE
  5
C3
330
1E
100
AcDbEntity
  8
0
100
AcDbLine
 10
67.584
 20
78.0335
 30
0.0
 11
69.339
 21
78.0335
 31
0.0
  0
LINE
  5
C4
330
1E
100
AcDbEntity
  8
0
100
AcDbLine
 10
69.339
 20
78.0335
 30
0.0
 11
70.705
 21
78.0335
 31
0.0
  0
LINE
  5
C5
330
1E
100
AcDbEntity
  8
0
100
AcDbLine
 10
70.705
 20
78.0335
 30
0.0
 11
71.26999999999999
 21
78.0335
 31
0.0
  0
LINE
  5
C6
330
1E
100
AcDbEntity
  8
0
100
AcDbLine
 10
70.85899999999999
 20
78.0335
 30
0.0
 11
71.26999999999999
 21
78.0335
 31
0.0
  0
LINE
  5
C7
330
1E
100
AcDbEntity
  8
0
100
AcDbLine
 10
69.605
 20
78.0335
 30
0.0
 11
70.85899999999999
 21
78.0335
 31
0.0
  0
LINE
  5
C8
330
1E
100
AcDbEntity
  8
0
100
AcDbLine
 10
68.55500000000001
 20
78.0335
 30
0.0
 11
69.605
 21
78.0335
 31
0.0
  0
LINE
  5
C9
330
1E
100
AcDbEntity
  8
0
100
AcDbLine
 10
297.1449999999999
 20
106.046
 30
0.0
 11
355.113
 21
106.046
 31
0.0
  0
LINE
  5
CA
330
1E
100
AcDbEntity
  8
0
100
AcDbLine
 10
245.6579999999999
 20
106.046
 30
0.0
 11
297.1449999999999
 21
106.046
 31
0.0
  0
LINE
  5
CB
330
1E
100
AcDbEntity
  8
0
100
AcDbLine
 10
74.38500000000001
 20
78.0335
 30
0.0
 11
298.92
 21
78.0335
 31
0.0
  0
LINE
  5
CC
330
1E
100
AcDbEntity
  8
0
100
AcDbLine
 10
341.608
 20
78.5017
 30
0.0
 11
343.325
 21
79.8203
 31
0.0
  0
LINE
  5
D0
330
1E
100
AcDbEntity
  8
0
100
AcDbLine
 10
343.325
 20
79.8203
 30
0.0
 11
344.324
 21
81.7411
 31
0.0
  0
LINE
  5
D9
330
1E
100
AcDbEntity
  8
0
100
AcDbLine
 10
355.113
 20
106.046
 30
0.0
 11
364.583
 21
106.046
 31
0.0
  0
LINE
  5
DA
330
1E
100
AcDbEntity
  8
0
100
AcDbLine
 10
356.058
 20
106.046
 30
0.0
 11
365.48
 21
106.046
 31
0.0
  0
LINE
  5
DD
330
1E
100
AcDbEntity
  8
0
100
AcDbLine
 10
344.324
 20
81.7411
 30
0.0
 11
350.831504286698
 21
106.046
 31
0.0
  0
LINE
  5
E0
330
1E
100
AcDbEntity
  8
0
100
AcDbLine
 10
199.72
 20
106.046
 30
0.0
 11
245.6579999999999
 21
106.046
 31
0.0
  0
LINE
  5
E1
330
1E
100
AcDbEntity
  8
0
100
AcDbLine
 10
364.583
 20
106.046
 30
0.0
 11
373.3869999999999
 21
106.046
 31
0.0
  0
LINE
  5
E2
330
1E
100
AcDbEntity
  8
0
100
AcDbLine
 10
365.48
 20
106.046
 30
0.0
 11
375.086
 21
106.046
 31
0.0
  0
LINE
  5
E3
330
1E
100
AcDbEntity
  8
0
100
AcDbLine
 10
380.854
 20
106.046
 30
0.0
 11
386.2999999999999
 21
106.046
 31
0.0
  0
LINE
  5
E4
330
1E
100
AcDbEntity
  8
0
100
AcDbLine
 10
380.733
 20
106.046
 30
0.0
 11
386.079
 21
106.046
 31
0.0
  0
LINE
  5
E5
330
1E
100
AcDbEntity
  8
0
100
AcDbLine
 10
375.086
 20
106.046
 30
0.0
 11
380.733
 21
106.046
 31
0.0
  0
LINE
  5
E6
330
1E
100
AcDbEntity
  8
0
100
AcDbLine
 10
381.8529999999999
 20
106.046
 30
0.0
 11
387.8159999999999
 21
106.046
 31
0.0
  0
LINE
  5
E7
330
1E
100
AcDbEntity
  8
0
100
AcDbLine
 10
374.296
 20
106.046
 30
0.0
 11
381.8529999999999
 21
106.046
 31
0.0
  0
LINE
  5
E8
330
1E
100
AcDbEntity
  8
0
100
AcDbLine
 10
373.3869999999999
 20
106.046
 30
0.0
 11
380.854
 21
106.046
 31
0.0
  0
LINE
  5
E9
330
1E
100
AcDbEntity
  8
0
100
AcDbLine
 10
386.079
 20
106.046
 30
0.0
 11
391.3519999999999
 21
106.046
 31
0.0
  0
LINE
  5
EA
330
1E
100
AcDbEntity
  8
0
100
AcDbLine
 10
365.243
 20
106.046
 30
0.0
 11
374.296
 21
106.046
 31
0.0
  0
LINE
  5
EB
330
1E
100
AcDbEntity
  8
0
100
AcDbLine
 10
356.651
 20
106.046
 30
0.0
 11
365.243
 21
106.046
 31
0.0
  0
LINE
  5
EC
330
1E
100
AcDbEntity
  8
0
100
AcDbLine
 10
153.782
 20
106.046
 30
0.0
 11
199.72
 21
106.046
 31
0.0
  0
LINE
  5
ED
330
1E
100
AcDbEntity
  8
0
100
AcDbLine
 10
107.902
 20
106.046
 30
0.0
 11
153.782
 21
106.046
 31
0.0
  0
LINE
  5
EE
330
1E
100
AcDbEntity
  8
0
100
AcDbLine
 10
354.14807582221
 20
106.046
 30
0.0
 11
356.651
 21
106.046
 31
0.0
  0
LINE
  5
EF
330
1E
100
AcDbEntity
  8
0
100
AcDbLine
 10
354.14807582221
 20
106.046
 30
0.0
 11
356.058
 21
106.046
 31
0.0
  0
LINE
  5
F0
330
1E
100
AcDbEntity
  8
0
100
AcDbLine
 10
66.328
 20
133.6889999999999
 30
0.0
 11
131.0379999999999
 21
133.6949999999999
 31
0.0
  0
LINE
  5
F1
330
1E
100
AcDbEntity
  8
0
100
AcDbLine
 10
24.443
 20
133.6899999999999
 30
0.0
 11
33.12599999999999
 21
133.685
 31
0.0
  0
LINE
  5
F2
330
1E
100
AcDbEntity
  8
0
100
AcDbLine
 10
131.0379999999999
 20
133.6949999999999
 30
0.0
 11
197.412
 21
133.6959999999999
 31
0.0
  0
LINE
  5
F3
330
1E
100
AcDbEntity
  8
0
100
AcDbLine
 10
245.5009999999999
 20
133.6999999999999
 30
0.0
 11
309.7259999999999
 21
133.786
 31
0.0
  0
LINE
  5
F4
330
1E
100
AcDbEntity
  8
0
100
AcDbLine
 10
197.412
 20
133.6959999999999
 30
0.0
 11
245.5009999999999
 21
133.6999999999999
 31
0.0
  0
LINE
  5
F5
330
1E
100
AcDbEntity
  8
0
100
AcDbLine
 10
11.96199999999999
 20
133.726
 30
0.0
 11
13.609
 21
133.722
 31
0.0
  0
LINE
  5
F6
330
1E
100
AcDbEntity
  8
0
100
AcDbLine
 10
17.83599999999999
 20
133.706
 30
0.0
 11
24.443
 21
133.6899999999999
 31
0.0
  0
LINE
  5
F7
330
1E
100
AcDbEntity
  8
0
100
AcDbLine
 10
13.609
 20
133.722
 30
0.0
 11
17.83999999999999
 21
133.705
 31
0.0
  0
LINE
  5
F8
330
1E
100
AcDbEntity
  8
0
100
AcDbLine
 10
13.609
 20
133.722
 30
0.0
 11
17.83599999999999
 21
133.706
 31
0.0
  0
LINE
  5
F9
330
1E
100
AcDbEntity
  8
0
100
AcDbLine
 10
17.83999999999999
 20
133.705
 30
0.0
 11
24.443
 21
133.6899999999999
 31
0.0
  0
LINE
  5
FA
330
1E
100
AcDbEntity
  8
0
100
AcDbLine
 10
337.66326064468
 20
133.851960359048
 30
0.0
 11
337.893
 21
141.2839999999999
 31
0.0
  0
LINE
  5
FB
330
1E
100
AcDbEntity
  8
0
100
AcDbLine
 10
309.7259999999999
 20
133.786
 30
0.0
 11
360.128
 21
133.905
 31
0.0
  0
LINE
  5
FD
330
1E
100
AcDbEntity
  8
0
100
AcDbLine
 10
337.893
 20
141.2839999999999
 30
0.0
 11
338.344
 21
180.4109999999999
 31
0.0
  0
LINE
  5
FE
330
1E
100
AcDbEntity
  8
0
100
AcDbLine
 10
360.128
 20
133.905
 30
0.0
 11
371.234
 21
133.953
 31
0.0
  0
LINE
  5
FF
330
1E
100
AcDbEntity
  8
0
100
AcDbLine
 10
10.987
 20
133.703
 30
0.0
 11
11.96199999999999
 21
133.726
 31
0.0
  0
LINE
  5
100
330
1E
100
AcDbEntity
  8
0
100
AcDbLine
 10
10.987
 20
133.702
 30
0.0
 11
11.96199999999999
 21
133.726
 31
0.0
  0
LINE
  5
101
330
1E
100
AcDbEntity
  8
0
100
AcDbLine
 10
371.234
 20
133.953
 30
0.0
 11
377.614
 21
133.983
 31
0.0
  0
LINE
  5
102
330
1E
100
AcDbEntity
  8
0
100
AcDbLine
 10
377.614
 20
133.983
 30
0.0
 11
386.095
 21
133.9949999999999
 31
0.0
  0
LINE
  5
103
330
1E
100
AcDbEntity
  8
0
100
AcDbLine
 10
66.32699999999999
 20
133.6889999999999
 30
0.0
 11
131.0349999999999
 21
133.6959999999999
 31
0.0
  0
LINE
  5
104
330
1E
100
AcDbEntity
  8
0
100
AcDbLine
 10
7.201000000000009
 20
133.63
 30
0.0
 11
8.713000000000009
 21
133.6689999999999
 31
0.0
  0
LINE
  5
105
330
1E
100
AcDbEntity
  8
0
100
AcDbLine
 10
7.201000000000009
 20
133.63
 30
0.0
 11
8.714000000000009
 21
133.6689999999999
 31
0.0
  0
LINE
  5
106
330
1E
100
AcDbEntity
  8
0
100
AcDbLine
 10
391.353
 20
106.046
 30
0.0
 11
395.939
 21
106.046
 31
0.0
  0
LINE
  5
107
330
1E
100
AcDbEntity
  8
0
100
AcDbLine
 10
391.3519999999999
 20
106.046
 30
0.0
 11
395.939
 21
106.046
 31
0.0
  0
LINE
  5
108
330
1E
100
AcDbEntity
  8
0
100
AcDbLine
 10
387.8159999999999
 20
106.046
 30
0.0
 11
391.8
 21
106.046
 31
0.0
  0
LINE
  5
109
330
1E
100
AcDbEntity
  8
0
100
AcDbLine
 10
386.2999999999999
 20
106.046
 30
0.0
 11
391.353
 21
106.046
 31
0.0
  0
LINE
  5
10A
330
1E
100
AcDbEntity
  8
0
100
AcDbLine
 10
394.319
 20
106.046
 30
0.0
 11
395.5899999999999
 21
106.046
 31
0.0
  0
LINE
  5
10B
330
1E
100
AcDbEntity
  8
0
100
AcDbLine
 10
395.939
 20
106.046
 30
0.0
 11
401.044
 21
106.046
 31
0.0
  0
LINE
  5
10C
330
1E
100
AcDbEntity
  8
0
100
AcDbLine
 10
395.939
 20
106.046
 30
0.0
 11
401.045
 21
106.046
 31
0.0
  0
LINE
  5
10D
330
1E
100
AcDbEntity
  8
0
100
AcDbLine
 10
395.5899999999999
 20
106.046
 30
0.0
 11
396.788
 21
106.046
 31
0.0
  0
LINE
  5
10E
330
1E
100
AcDbEntity
  8
0
100
AcDbLine
 10
393.934
 20
106.046
 30
0.0
 11
394.319
 21
106.046
 31
0.0
  0
LINE
  5
10F
330
1E
100
AcDbEntity
  8
0
100
AcDbLine
 10
397.0299999999999
 20
106.046
 30
0.0
 11
397.719
 21
106.046
 31
0.0
  0
LINE
  5
110
330
1E
100
AcDbEntity
  8
0
100
AcDbLine
 10
397.719
 20
106.046
 30
0.0
 11
398.759
 21
106.046
 31
0.0
  0
LINE
  5
111
330
1E
100
AcDbEntity
  8
0
100
AcDbLine
 10
401.045
 20
106.046
 30
0.0
 11
405.159
 21
106.046
 31
0.0
  0
LINE
  5
112
330
1E
100
AcDbEntity
  8
0
100
AcDbLine
 10
401.044
 20
106.046
 30
0.0
 11
405.16
 21
106.046
 31
0.0
  0
LINE
  5
113
330
1E
100
AcDbEntity
  8
0
100
AcDbLine
 10
398.759
 20
106.046
 30
0.0
 11
401.0559999999999
 21
106.046
 31
0.0
  0
LINE
  5
114
330
1E
100
AcDbEntity
  8
0
100
AcDbLine
 10
401.0559999999999
 20
106.046
 30
0.0
 11
404.724
 21
106.046
 31
0.0
  0
LINE
  5
115
330
1E
100
AcDbEntity
  8
0
100
AcDbLine
 10
405.159
 20
106.046
 30
0.0
 11
408.184
 21
106.046
 31
0.0
  0
LINE
  5
116
330
1E
100
AcDbEntity
  8
0
100
AcDbLine
 10
408.184
 20
106.046
 30
0.0
 11
410.06
 21
106.046
 31
0.0
  0
LINE
  5
117
330
1E
100
AcDbEntity
  8
0
100
AcDbLine
 10
408.556
 20
106.046
 30
0.0
 11
410.06
 21
106.046
 31
0.0
  0
LINE
  5
118
330
1E
100
AcDbEntity
  8
0
100
AcDbLine
 10
405.16
 20
106.046
 30
0.0
 11
408.556
 21
106.046
 31
0.0
  0
LINE
  5
119
330
1E
100
AcDbEntity
  8
0
100
AcDbLine
 10
408.0479999999999
 20
106.046
 30
0.0
 11
411.3769999999999
 21
106.046
 31
0.0
  0
LINE
  5
11A
330
1E
100
AcDbEntity
  8
0
100
AcDbLine
 10
404.724
 20
106.046
 30
0.0
 11
408.0479999999999
 21
106.046
 31
0.0
  0
LINE
  5
11B
330
1E
100
AcDbEntity
  8
0
100
AcDbLine
 10
396.788
 20
106.046
 30
0.0
 11
397.0299999999999
 21
106.046
 31
0.0
  0
LINE
  5
11C
330
1E
100
AcDbEntity
  8
0
100
AcDbLine
 10
393.4419999999999
 20
106.046
 30
0.0
 11
393.934
 21
106.046
 31
0.0
  0
LINE
  5
11D
330
1E
100
AcDbEntity
  8
0
100
AcDbLine
 10
404.5309999999999
 20
133.923
 30
0.0
 11
405.159
 21
133.9189999999999
 31
0.0
  0
LINE
  5
11E
330
1E
100
AcDbEntity
  8
0
100
AcDbLine
 10
405.159
 20
133.9189999999999
 30
0.0
 11
405.9509999999999
 21
133.912
 31
0.0
  0
LINE
  5
11F
330
1E
100
AcDbEntity
  8
0
100
AcDbLine
 10
391.8
 20
106.046
 30
0.0
 11
393.4419999999999
 21
106.046
 31
0.0
  0
LINE
  5
120
330
1E
100
AcDbEntity
  8
0
100
AcDbLine
 10
411.3769999999999
 20
106.046
 30
0.0
 11
430.874
 21
106.046
 31
0.0
  0
LINE
  5
121
330
1E
100
AcDbEntity
  8
0
100
AcDbLine
 10
412.044
 20
106.046
 30
0.0
 11
412.656
 21
106.046
 31
0.0
  0
LINE
  5
122
330
1E
100
AcDbEntity
  8
0
100
AcDbLine
 10
410.854
 20
106.046
 30
0.0
 11
412.044
 21
106.046
 31
0.0
  0
LINE
  5
123
330
1E
100
AcDbEntity
  8
0
100
AcDbLine
 10
410.709
 20
106.046
 30
0.0
 11
412.042
 21
106.046
 31
0.0
  0
LINE
  5
124
330
1E
100
AcDbEntity
  8
0
100
AcDbLine
 10
412.656
 20
106.046
 30
0.0
 11
413.7039999999999
 21
106.046
 31
0.0
  0
LINE
  5
125
330
1E
100
AcDbEntity
  8
0
100
AcDbLine
 10
412.4069999999999
 20
106.046
 30
0.0
 11
413.3119999999999
 21
106.046
 31
0.0
  0
LINE
  5
126
330
1E
100
AcDbEntity
  8
0
100
AcDbLine
 10
412.042
 20
106.046
 30
0.0
 11
412.4069999999999
 21
106.046
 31
0.0
  0
LINE
  5
127
330
1E
100
AcDbEntity
  8
0
100
AcDbLine
 10
413.7039999999999
 20
106.046
 30
0.0
 11
415.022
 21
106.046
 31
0.0
  0
LINE
  5
128
330
1E
100
AcDbEntity
  8
0
100
AcDbLine
 10
413.3119999999999
 20
106.046
 30
0.0
 11
415.022
 21
106.046
 31
0.0
  0
LINE
  5
129
330
1E
100
AcDbEntity
  8
0
100
AcDbLine
 10
413.3119999999999
 20
106.046
 30
0.0
 11
415.0249999999999
 21
106.046
 31
0.0
  0
LINE
  5
12A
330
1E
100
AcDbEntity
  8
0
100
AcDbLine
 10
410.06
 20
106.046
 30
0.0
 11
410.854
 21
106.046
 31
0.0
  0
LINE
  5
12B
330
1E
100
AcDbEntity
  8
0
100
AcDbLine
 10
410.06
 20
106.046
 30
0.0
 11
410.709
 21
106.046
 31
0.0
  0
LINE
  5
12D
330
1E
100
AcDbEntity
  8
0
100
AcDbLine
 10
393.234
 20
133.983
 30
0.0
 11
399.348
 21
133.9579999999999
 31
0.0
  0
LINE
  5
12F
330
1E
100
AcDbEntity
  8
0
100
AcDbLine
 10
399.348
 20
133.9579999999999
 30
0.0
 11
402.5409999999999
 21
133.9389999999999
 31
0.0
  0
LINE
  5
130
330
1E
100
AcDbEntity
  8
0
100
AcDbLine
 10
402.5409999999999
 20
133.9389999999999
 30
0.0
 11
404.5309999999999
 21
133.923
 31
0.0
  0
LINE
  5
131
330
1E
100
AcDbEntity
  8
0
100
AcDbLine
 10
386.095
 20
133.9949999999999
 30
0.0
 11
393.234
 21
133.983
 31
0.0
  0
LINE
  5
133
330
1E
100
AcDbEntity
  8
0
100
AcDbLine
 10
339.9449999999999
 20
183.0609999999999
 30
0.0
 11
341.5169999999999
 21
183.402
 31
0.0
  0
LINE
  5
13C
330
1E
100
AcDbEntity
  8
0
100
AcDbLine
 10
398.2799999999999
 20
183.3309999999999
 30
0.0
 11
418.5569999999999
 21
183.3309999999999
 31
0.0
  0
LINE
  5
13E
330
1E
100
AcDbEntity
  8
0
100
AcDbLine
 10
341.5169999999999
 20
183.402
 30
0.0
 11
398.2799999999999
 21
183.3309999999999
 31
0.0
  0
LINE
  5
144
330
1E
100
AcDbEntity
  8
0
100
AcDbLine
 10
338.776
 20
181.9569999999999
 30
0.0
 11
339.9449999999999
 21
183.0609999999999
 31
0.0
  0
LINE
  5
145
330
1E
100
AcDbEntity
  8
0
100
AcDbLine
 10
338.344
 20
180.4109999999999
 30
0.0
 11
338.776
 21
181.9569999999999
 31
0.0
  0
LINE
  5
146
330
1E
100
AcDbEntity
  8
0
100
AcDbLine
 10
447.055
 20
106.046
 30
0.0
 11
453.61
 21
106.046
 31
0.0
  0
LINE
  5
147
330
1E
100
AcDbEntity
  8
0
100
AcDbLine
 10
415.0249999999999
 20
106.046
 30
0.0
 11
432.018
 21
106.046
 31
0.0
  0
LINE
  5
148
330
1E
100
AcDbEntity
  8
0
100
AcDbLine
 10
430.874
 20
106.046
 30
0.0
 11
447.055
 21
106.046
 31
0.0
  0
LINE
  5
149
330
1E
100
AcDbEntity
  8
0
100
AcDbLine
 10
448.938
 20
106.046
 30
0.0
 11
457.167
 21
106.046
 31
0.0
  0
LINE
  5
14A
330
1E
100
AcDbEntity
  8
0
100
AcDbLine
 10
448.937
 20
106.046
 30
0.0
 11
457.167
 21
106.046
 31
0.0
  0
LINE
  5
14B
330
1E
100
AcDbEntity
  8
0
100
AcDbLine
 10
432.018
 20
106.046
 30
0.0
 11
448.937
 21
106.046
 31
0.0
  0
LINE
  5
14C
330
1E
100
AcDbEntity
  8
0
100
AcDbLine
 10
432.018
 20
106.046
 30
0.0
 11
448.938
 21
106.046
 31
0.0
  0
LINE
  5
14D
330
1E
100
AcDbEntity
  8
0
100
AcDbLine
 10
453.61
 20
106.046
 30
0.0
 11
457.389
 21
106.046
 31
0.0
  0
LINE
  5
14F
330
1E
100
AcDbEntity
  8
0
100
AcDbLine
 10
457.167
 20
106.046
 30
0.0
 11
464.4809999999999
 21
106.046
 31
0.0
  0
LINE
  5
150
330
1E
100
AcDbEntity
  8
0
100
AcDbLine
 10
457.167
 20
106.046
 30
0.0
 11
464.48
 21
106.046
 31
0.0
  0
LINE
  5
151
330
1E
100
AcDbEntity
  8
0
100
AcDbLine
 10
461.6159999999999
 20
106.046
 30
0.0
 11
462.209
 21
106.046
 31
0.0
  0
LINE
  5
152
330
1E
100
AcDbEntity
  8
0
100
AcDbLine
 10
462.209
 20
106.046
 30
0.0
 11
465.038
 21
106.046
 31
0.0
  0
LINE
  5
153
330
1E
100
AcDbEntity
  8
0
100
AcDbLine
 10
464.48
 20
106.046
 30
0.0
 11
470.3459999999999
 21
106.046
 31
0.0
  0
LINE
  5
154
330
1E
100
AcDbEntity
  8
0
100
AcDbLine
 10
465.038
 20
106.046
 30
0.0
 11
465.9819999999999
 21
106.046
 31
0.0
  0
LINE
  5
155
330
1E
100
AcDbEntity
  8
0
100
AcDbLine
 10
470.3459999999999
 20
106.046
 30
0.0
 11
474.514
 21
106.046
 31
0.0
  0
LINE
  5
156
330
1E
100
AcDbEntity
  8
0
100
AcDbLine
 10
464.4809999999999
 20
106.046
 30
0.0
 11
470.347
 21
106.046
 31
0.0
  0
LINE
  5
157
330
1E
100
AcDbEntity
  8
0
100
AcDbLine
 10
470.347
 20
106.046
 30
0.0
 11
474.514
 21
106.046
 31
0.0
  0
LINE
  5
158
330
1E
100
AcDbEntity
  8
0
100
AcDbLine
 10
460.204
 20
106.046
 30
0.0
 11
461.6159999999999
 21
106.046
 31
0.0
  0
LINE
  5
159
330
1E
100
AcDbEntity
  8
0
100
AcDbLine
 10
457.389
 20
106.046
 30
0.0
 11
460.204
 21
106.046
 31
0.0
  0
LINE
  5
15E
330
1E
100
AcDbEntity
  8
0
100
AcDbLine
 10
476.2129999999999
 20
106.046
 30
0.0
 11
479.053
 21
106.046
 31
0.0
  0
LINE
  5
15F
330
1E
100
AcDbEntity
  8
0
100
AcDbLine
 10
476.214
 20
106.046
 30
0.0
 11
479.053
 21
106.046
 31
0.0
  0
LINE
  5
160
330
1E
100
AcDbEntity
  8
0
100
AcDbLine
 10
479.053
 20
106.046
 30
0.0
 11
480.0
 21
106.046
 31
0.0
  0
LINE
  5
161
330
1E
100
AcDbEntity
  8
0
100
AcDbLine
 10
478.4930000000001
 20
180.4109999999999
 30
0.0
 11
480.0
 21
106.046
 31
0.0
  0
LINE
  5
162
330
1E
100
AcDbEntity
  8
0
100
AcDbLine
 10
474.514
 20
106.046
 30
0.0
 11
476.214
 21
106.046
 31
0.0
  0
LINE
  5
163
330
1E
100
AcDbEntity
  8
0
100
AcDbLine
 10
474.514
 20
106.046
 30
0.0
 11
476.2129999999999
 21
106.046
 31
0.0
  0
LINE
  5
167
330
1E
100
AcDbEntity
  8
0
100
AcDbLine
 10
478.061
 20
181.9569999999999
 30
0.0
 11
478.4930000000001
 21
180.4109999999999
 31
0.0
  0
LINE
  5
173
330
1E
100
AcDbEntity
  8
0
100
AcDbLine
 10
418.5569999999999
 20
183.3309999999999
 30
0.0
 11
438.7869999999999
 21
183.3309999999999
 31
0.0
  0
LINE
  5
174
330
1E
100
AcDbEntity
  8
0
100
AcDbLine
 10
415.022
 20
106.046
 30
0.0
 11
432.018
 21
106.046
 31
0.0
  0
LINE
  5
179
330
1E
100
AcDbEntity
  8
0
  6
Continuous
100
AcDbLine
 10
438.7869999999999
 20
183.3309999999999
 30
0.0
 11
475.0946270120464
 21
183.3309999999999
 31
0.0
  0
LINE
  5
17A
330
1E
100
AcDbEntity
  8
0
  6
Continuous
100
AcDbLine
 10
475.0946270120464
 20
183.3309999999999
 30
0.0
 11
476.8935000257863
 21
182.8239798732434
 31
0.0
  0
LINE
  5
17B
330
1E
100
AcDbEntity
  8
0
  6
Continuous
100
AcDbLine
 10
476.8935000257863
 20
182.8239798732434
 30
0.0
 11
478.061
 21
181.9569999999999
 31
0.0
  0
LINE
  5
17C
330
1E
100
AcDbEntity
  8
0
  6
Continuous
100
AcDbLine
 10
3.071000000000009
 20
131.441
 30
0.0
 11
3.493512299112126
 21
132.5555125227285
 31
0.0
  0
LINE
  5
17D
330
1E
100
AcDbEntity
  8
0
  6
Continuous
100
AcDbLine
 10
3.493512299112126
 20
132.5555125227285
 30
0.0
 11
4.479064727329159
 21
133.1811068060583
 31
0.0
  0
LINE
  5
17E
330
1E
100
AcDbEntity
  8
0
  6
Continuous
100
AcDbLine
 10
4.479064727329159
 20
133.1811068060583
 30
0.0
 11
5.584482821901701
 21
133.5138698492887
 31
0.0
  0
LINE
  5
17F
330
1E
100
AcDbEntity
  8
0
  6
Continuous
100
AcDbLine
 10
5.584482821901701
 20
133.5138698492887
 30
0.0
 11
6.403000000000009
 21
133.597
 31
0.0
  0
ENDSEC
  0
SECTION
  2
OBJECTS
  0
DICTIONARY
  5
C
330
0
100
AcDbDictionary
281
     1
  3
ACAD_GROUP
350
D
  3
ACAD_LAYOUT
350
19
  3
ACAD_MLINESTYLE
350
16
  3
ACAD_PLOTSETTINGS
350
18
  3
ACAD_PLOTSTYLENAME
350
E
  3
AcDbVariableDictionary
350
181
  0
DICTIONARY
  5
D
102
{ACAD_REACTORS
330
C
102
}
330
C
100
AcDbDictionary
281
     1
  0
DICTIONARY
  5
19
102
{ACAD_REACTORS
330
C
102
}
330
C
100
AcDbDictionary
281
     1
  3
Layout1
350
1D
  3
Model
350
21
  0
DICTIONARY
  5
16
102
{ACAD_REACTORS
330
C
102
}
330
C
100
AcDbDictionary
281
     1
  3
Standard
350
17
  0
DICTIONARY
  5
18
102
{ACAD_REACTORS
330
C
102
}
330
C
100
AcDbDictionary
281
     1
  0
ACDBDICTIONARYWDFLT
  5
E
102
{ACAD_REACTORS
330
C
102
}
330
C
100
AcDbDictionary
281
     1
  3
Normal
350
F
100
AcDbDictionaryWithDefault
340
F
  0
DICTIONARY
  5
181
102
{ACAD_REACTORS
330
C
102
}
330
C
100
AcDbDictionary
281
     1
  3
DIMASSOC
350
182
  0
LAYOUT
  5
1D
102
{ACAD_REACTORS
330
19
102
}
330
19
100
AcDbPlotSettings
  1

  2
C:\Programme\AutoCAD LT 2002 Deu\plotters\DWF ePlot (optimized for plotting).pc3
  4

  6

 40
0.0
 41
0.0
 42
0.0
 43
0.0
 44
0.0
 45
0.0
 46
0.0
 47
0.0
 48
0.0
 49
0.0
140
0.0
141
0.0
142
1.0
143
1.0
 70
   688
 72
     0
 73
     0
 74
     5
  7

 75
    16
147
1.0
148
0.0
149
0.0
100
AcDbLayout
  1
Layout1
 70
     1
 71
     1
 10
0.0
 20
0.0
 11
12.0
 21
9.0
 12
0.0
 22
0.0
 32
0.0
 14
1.000000000000000E+20
 24
1.000000000000000E+20
 34
1.000000000000000E+20
 15
-1.000000000000000E+20
 25
-1.000000000000000E+20
 35
-1.000000000000000E+20
146
0.0
 13
0.0
 23
0.0
 33
0.0
 16
1.0
 26
0.0
 36
0.0
 17
0.0
 27
1.0
 37
0.0
 76
     0
330
1A
  0
LAYOUT
  5
21
102
{ACAD_REACTORS
330
19
102
}
330
19
100
AcDbPlotSettings
  1

  2
C:\Programme\AutoCAD LT 2002 Deu\plotters\DWF ePlot (optimized for plotting).pc3
  4

  6

 40
0.0
 41
0.0
 42
0.0
 43
0.0
 44
0.0
 45
0.0
 46
0.0
 47
0.0
 48
0.0
 49
0.0
140
0.0
141
0.0
142
1.0
143
1.0
 70
  1712
 72
     0
 73
     0
 74
     0
  7

 75
     0
147
1.0
148
0.0
149
0.0
100
AcDbLayout
  1
Model
 70
     1
 71
     0
 10
0.0
 20
0.0
 11
12.0
 21
9.0
 12
0.0
 22
0.0
 32
0.0
 14
0.0
 24
0.0
 34
0.0
 15
0.0
 25
0.0
 35
0.0
146
0.0
 13
0.0
 23
0.0
 33
0.0
 16
1.0
 26
0.0
 36
0.0
 17
0.0
 27
1.0
 37
0.0
 76
     0
330
1E
  0
MLINESTYLE
  5
17
102
{ACAD_REACTORS
330
16
102
}
330
16
100
AcDbMlineStyle
  2
STANDARD
 70
     0
  3

 62
   256
 51
90.0
 52
90.0
 71
     2
 49
0.5
 62
   256
  6
BYLAYER
 49
-0.5
 62
   256
  6
BYLAYER
  0
ACDBPLACEHOLDER
  5
F
102
{ACAD_REACTORS
330
E
102
}
330
E
  0
DICTIONARYVAR
  5
182
102
{ACAD_REACTORS
330
181
102
}
330
181
100
DictionaryVariables
280
     0
  1
1
  0
ENDSEC
  0
EOF
