  0
SECTION
  2
HEADER
  9
$ACADVER
  1
AC1015
  9
$ACADMAINTVER
 70
    13
  9
$DWGCODEPAGE
  3
ANSI_1252
  9
$INSBASE
 10
0.0
 20
0.0
 30
0.0
  9
$EXTMIN
 10
0.141500000000066
 20
-0.0150000000000567
 30
0.0
  9
$EXTMAX
 10
239.8585
 20
2155.015
 30
0.0
  9
$LIMMIN
 10
0.0
 20
0.0
  9
$LIMMAX
 10
12.0
 20
9.0
  9
$ORTHOMODE
 70
     0
  9
$REGENMODE
 70
     1
  9
$FILLMODE
 70
     1
  9
$QTEXTMODE
 70
     0
  9
$MIRRTEXT
 70
     1
  9
$LTSCALE
 40
1.0
  9
$ATTMODE
 70
     1
  9
$TEXTSIZE
 40
0.2
  9
$TRACEWID
 40
0.05
  9
$TEXTSTYLE
  7
Standard
  9
$CLAYER
  8
0
  9
$CELTYPE
  6
Continuous
  9
$CECOLOR
 62
   256
  9
$CELTSCALE
 40
1.0
  9
$DISPSILH
 70
     0
  9
$DIMSCALE
 40
1.0
  9
$DIMASZ
 40
0.18
  9
$DIMEXO
 40
0.0625
  9
$DIMDLI
 40
0.38
  9
$DIMRND
 40
0.0
  9
$DIMDLE
 40
0.0
  9
$DIMEXE
 40
0.18
  9
$DIMTP
 40
0.0
  9
$DIMTM
 40
0.0
  9
$DIMTXT
 40
0.18
  9
$DIMCEN
 40
0.09
  9
$DIMTSZ
 40
0.0
  9
$DIMTOL
 70
     0
  9
$DIMLIM
 70
     0
  9
$DIMTIH
 70
     1
  9
$DIMTOH
 70
     1
  9
$DIMSE1
 70
     0
  9
$DIMSE2
 70
     0
  9
$DIMTAD
 70
     0
  9
$DIMZIN
 70
     0
  9
$DIMBLK
  1

  9
$DIMASO
 70
     1
  9
$DIMSHO
 70
     1
  9
$DIMPOST
  1

  9
$DIMAPOST
  1

  9
$DIMALT
 70
     0
  9
$DIMALTD
 70
     2
  9
$DIMALTF
 40
25.4
  9
$DIMLFAC
 40
1.0
  9
$DIMTOFL
 70
     0
  9
$DIMTVP
 40
0.0
  9
$DIMTIX
 70
     0
  9
$DIMSOXD
 70
     0
  9
$DIMSAH
 70
     0
  9
$DIMBLK1
  1

  9
$DIMBLK2
  1

  9
$DIMSTYLE
  2
Standard
  9
$DIMCLRD
 70
     0
  9
$DIMCLRE
 70
     0
  9
$DIMCLRT
 70
     0
  9
$DIMTFAC
 40
1.0
  9
$DIMGAP
 40
0.09
  9
$DIMJUST
 70
     0
  9
$DIMSD1
 70
     0
  9
$DIMSD2
 70
     0
  9
$DIMTOLJ
 70
     1
  9
$DIMTZIN
 70
     0
  9
$DIMALTZ
 70
     0
  9
$DIMALTTZ
 70
     0
  9
$DIMUPT
 70
     0
  9
$DIMDEC
 70
     4
  9
$DIMTDEC
 70
     4
  9
$DIMALTU
 70
     2
  9
$DIMALTTD
 70
     2
  9
$DIMTXSTY
  7
Standard
  9
$DIMAUNIT
 70
     0
  9
$DIMADEC
 70
     0
  9
$DIMALTRND
 40
0.0
  9
$DIMAZIN
 70
     0
  9
$DIMDSEP
 70
    46
  9
$DIMATFIT
 70
     3
  9
$DIMFRAC
 70
     0
  9
$DIMLDRBLK
  1

  9
$DIMLUNIT
 70
     2
  9
$DIMLWD
 70
    -2
  9
$DIMLWE
 70
    -2
  9
$DIMTMOVE
 70
     0
  9
$LUNITS
 70
     2
  9
$LUPREC
 70
     4
  9
$SKETCHINC
 40
0.1
  9
$FILLETRAD
 40
0.0
  9
$AUNITS
 70
     0
  9
$AUPREC
 70
     0
  9
$MENU
  1
.
  9
$ELEVATION
 40
0.0
  9
$PELEVATION
 40
0.0
  9
$THICKNESS
 40
0.0
  9
$LIMCHECK
 70
     0
  9
$CHAMFERA
 40
0.0
  9
$CHAMFERB
 40
0.0
  9
$CHAMFERC
 40
0.0
  9
$CHAMFERD
 40
0.0
  9
$SKPOLY
 70
     0
  9
$TDCREATE
 40
2454875.778743472
  9
$TDUCREATE
 40
2454875.737076805
  9
$TDUPDATE
 40
2454875.786842257
  9
$TDUUPDATE
 40
2454875.745175590
  9
$TDINDWG
 40
0.0080989583
  9
$TDUSRTIMER
 40
0.0080989583
  9
$USRTIMER
 70
     1
  9
$ANGBASE
 50
0.0
  9
$ANGDIR
 70
     0
  9
$PDMODE
 70
     0
  9
$PDSIZE
 40
0.0
  9
$PLINEWID
 40
0.0
  9
$SPLFRAME
 70
     0
  9
$SPLINETYPE
 70
     6
  9
$SPLINESEGS
 70
     8
  9
$HANDSEED
  5
49A
  9
$SURFTAB1
 70
     6
  9
$SURFTAB2
 70
     6
  9
$SURFTYPE
 70
     6
  9
$SURFU
 70
     6
  9
$SURFV
 70
     6
  9
$UCSBASE
  2

  9
$UCSNAME
  2

  9
$UCSORG
 10
0.0
 20
0.0
 30
0.0
  9
$UCSXDIR
 10
1.0
 20
0.0
 30
0.0
  9
$UCSYDIR
 10
0.0
 20
1.0
 30
0.0
  9
$UCSORTHOREF
  2

  9
$UCSORTHOVIEW
 70
     1
  9
$UCSORGTOP
 10
0.0
 20
0.0
 30
0.0
  9
$UCSORGBOTTOM
 10
0.0
 20
0.0
 30
0.0
  9
$UCSORGLEFT
 10
0.0
 20
0.0
 30
0.0
  9
$UCSORGRIGHT
 10
0.0
 20
0.0
 30
0.0
  9
$UCSORGFRONT
 10
0.0
 20
0.0
 30
0.0
  9
$UCSORGBACK
 10
0.0
 20
0.0
 30
0.0
  9
$PUCSBASE
  2

  9
$PUCSNAME
  2

  9
$PUCSORG
 10
0.0
 20
0.0
 30
0.0
  9
$PUCSXDIR
 10
1.0
 20
0.0
 30
0.0
  9
$PUCSYDIR
 10
0.0
 20
1.0
 30
0.0
  9
$PUCSORTHOREF
  2

  9
$PUCSORTHOVIEW
 70
     0
  9
$PUCSORGTOP
 10
0.0
 20
0.0
 30
0.0
  9
$PUCSORGBOTTOM
 10
0.0
 20
0.0
 30
0.0
  9
$PUCSORGLEFT
 10
0.0
 20
0.0
 30
0.0
  9
$PUCSORGRIGHT
 10
0.0
 20
0.0
 30
0.0
  9
$PUCSORGFRONT
 10
0.0
 20
0.0
 30
0.0
  9
$PUCSORGBACK
 10
0.0
 20
0.0
 30
0.0
  9
$USERI1
 70
     0
  9
$USERI2
 70
     0
  9
$USERI3
 70
     0
  9
$USERI4
 70
     0
  9
$USERI5
 70
     0
  9
$USERR1
 40
0.0
  9
$USERR2
 40
0.0
  9
$USERR3
 40
0.0
  9
$USERR4
 40
0.0
  9
$USERR5
 40
0.0
  9
$WORLDVIEW
 70
     1
  9
$SHADEDGE
 70
     3
  9
$SHADEDIF
 70
    70
  9
$TILEMODE
 70
     1
  9
$MAXACTVP
 70
    64
  9
$PINSBASE
 10
0.0
 20
0.0
 30
0.0
  9
$PLIMCHECK
 70
     0
  9
$PEXTMIN
 10
1.000000000000000E+20
 20
1.000000000000000E+20
 30
1.000000000000000E+20
  9
$PEXTMAX
 10
-1.000000000000000E+20
 20
-1.000000000000000E+20
 30
-1.000000000000000E+20
  9
$PLIMMIN
 10
0.0
 20
0.0
  9
$PLIMMAX
 10
12.0
 20
9.0
  9
$UNITMODE
 70
     0
  9
$VISRETAIN
 70
     1
  9
$PLINEGEN
 70
     0
  9
$PSLTSCALE
 70
     1
  9
$TREEDEPTH
 70
  3020
  9
$CMLSTYLE
  2
Standard
  9
$CMLJUST
 70
     0
  9
$CMLSCALE
 40
1.0
  9
$PROXYGRAPHICS
 70
     1
  9
$MEASUREMENT
 70
     0
  9
$CELWEIGHT
370
    -1
  9
$ENDCAPS
280
     0
  9
$JOINSTYLE
280
     0
  9
$LWDISPLAY
290
     0
  9
$INSUNITS
 70
     0
  9
$HYPERLINKBASE
  1

  9
$STYLESHEET
  1

  9
$XEDIT
290
     1
  9
$CEPSNTYPE
380
     0
  9
$PSTYLEMODE
290
     1
  9
$FINGERPRINTGUID
  2
{C0151BB8-1EBD-4340-9208-5EC2216E772D}
  9
$VERSIONGUID
  2
{0743B3D8-1C1E-4506-B1A9-026061E41F40}
  9
$EXTNAMES
290
     1
  9
$PSVPSCALE
 40
0.0
  9
$OLESTARTUP
290
     0
  0
ENDSEC
  0
SECTION
  2
CLASSES
  0
CLASS
  1
ACDBDICTIONARYWDFLT
  2
AcDbDictionaryWithDefault
  3
AutoCAD 2000
 90
        0
280
     0
281
     0
  0
CLASS
  1
ACDBPLACEHOLDER
  2
AcDbPlaceHolder
  3
AutoCAD 2000
 90
        0
280
     0
281
     0
  0
CLASS
  1
LAYOUT
  2
AcDbLayout
  3
AutoCAD 2000
 90
        0
280
     0
281
     0
  0
CLASS
  1
DICTIONARYVAR
  2
AcDbDictionaryVar
  3
AutoCAD 2000
 90
        0
280
     0
281
     0
  0
ENDSEC
  0
SECTION
  2
TABLES
  0
TABLE
  2
VPORT
  5
8
330
0
100
AcDbSymbolTable
 70
     2
  0
VPORT
  5
499
330
8
100
AcDbSymbolTableRecord
100
AcDbViewportTableRecord
  2
*Active
 70
     0
 10
0.0
 20
0.0
 11
1.0
 21
1.0
 12
120.0
 22
1077.499999999999
 13
0.0
 23
0.0
 14
1.0
 24
1.0
 15
0.0
 25
0.0
 16
0.0
 26
0.0
 36
1.0
 17
0.0
 27
0.0
 37
0.0
 40
2168.640715789473
 41
1.968387776606954
 42
50.0
 43
0.0
 44
0.0
 50
0.0
 51
0.0
 71
     0
 72
   100
 73
     1
 74
     3
 75
     0
 76
     0
 77
     0
 78
     0
281
     0
 65
     1
110
0.0
120
0.0
130
0.0
111
1.0
121
0.0
131
0.0
112
0.0
122
1.0
132
0.0
 79
     1
146
0.0
  0
ENDTAB
  0
TABLE
  2
LTYPE
  5
5
330
0
100
AcDbSymbolTable
 70
     1
  0
LTYPE
  5
13
330
5
100
AcDbSymbolTableRecord
100
AcDbLinetypeTableRecord
  2
ByBlock
 70
     0
  3

 72
    65
 73
     0
 40
0.0
  0
LTYPE
  5
14
330
5
100
AcDbSymbolTableRecord
100
AcDbLinetypeTableRecord
  2
ByLayer
 70
     0
  3

 72
    65
 73
     0
 40
0.0
  0
LTYPE
  5
15
330
5
100
AcDbSymbolTableRecord
100
AcDbLinetypeTableRecord
  2
Continuous
 70
     0
  3
Solid line
 72
    65
 73
     0
 40
0.0
  0
ENDTAB
  0
TABLE
  2
LAYER
  5
2
330
0
100
AcDbSymbolTable
 70
     1
  0
LAYER
  5
10
330
2
100
AcDbSymbolTableRecord
100
AcDbLayerTableRecord
  2
0
 70
     0
 62
     7
  6
Continuous
370
    -3
390
F
  0
ENDTAB
  0
TABLE
  2
STYLE
  5
3
330
0
100
AcDbSymbolTable
 70
     1
  0
STYLE
  5
11
330
3
100
AcDbSymbolTableRecord
100
AcDbTextStyleTableRecord
  2
Standard
 70
     0
 40
0.0
 41
1.0
 50
0.0
 71
     0
 42
0.2
  3
txt
  4

  0
ENDTAB
  0
TABLE
  2
VIEW
  5
6
330
0
100
AcDbSymbolTable
 70
     0
  0
ENDTAB
  0
TABLE
  2
UCS
  5
7
330
0
100
AcDbSymbolTable
 70
     0
  0
ENDTAB
  0
TABLE
  2
APPID
  5
9
330
0
100
AcDbSymbolTable
 70
     1
  0
APPID
  5
12
330
9
100
AcDbSymbolTableRecord
100
AcDbRegAppTableRecord
  2
ACAD
 70
     0
  0
ENDTAB
  0
TABLE
  2
DIMSTYLE
  5
A
330
0
100
AcDbSymbolTable
 70
     1
100
AcDbDimStyleTable
 71
     0
  0
DIMSTYLE
105
485
330
A
100
AcDbSymbolTableRecord
100
AcDbDimStyleTableRecord
  2
Standard
 70
     0
340
11
  0
ENDTAB
  0
TABLE
  2
BLOCK_RECORD
  5
1
330
0
100
AcDbSymbolTable
 70
     0
  0
BLOCK_RECORD
  5
1E
330
1
100
AcDbSymbolTableRecord
100
AcDbBlockTableRecord
  2
*Model_Space
340
21
  0
BLOCK_RECORD
  5
1A
330
1
100
AcDbSymbolTableRecord
100
AcDbBlockTableRecord
  2
*Paper_Space
340
1D
  0
ENDTAB
  0
ENDSEC
  0
SECTION
  2
BLOCKS
  0
BLOCK
  5
1F
330
1E
100
AcDbEntity
  8
0
100
AcDbBlockBegin
  2
*Model_Space
 70
     0
 10
0.0
 20
0.0
 30
0.0
  3
*Model_Space
  1

  0
ENDBLK
  5
20
330
1E
100
AcDbEntity
  8
0
100
AcDbBlockEnd
  0
BLOCK
  5
1B
330
1A
100
AcDbEntity
 67
     1
  8
0
100
AcDbBlockBegin
  2
*Paper_Space
 70
     0
 10
0.0
 20
0.0
 30
0.0
  3
*Paper_Space
  1

  0
ENDBLK
  5
1C
330
1A
100
AcDbEntity
 67
     1
  8
0
100
AcDbBlockEnd
  0
ENDSEC
  0
SECTION
  2
ENTITIES
  0
LINE
  5
25
330
1E
100
AcDbEntity
  8
0
100
AcDbLine
 10
29.9296
 20
374.0009999999999
 30
0.0
 11
31.9295
 21
324.0009999999999
 31
0.0
  0
LINE
  5
28
330
1E
100
AcDbEntity
  8
0
100
AcDbLine
 10
20.0836
 20
375.551
 30
0.0
 11
22.1205
 21
322.3329999999999
 31
0.0
  0
LINE
  5
2A
330
1E
100
AcDbEntity
  8
0
100
AcDbLine
 10
31.9295
 20
324.0009999999999
 30
0.0
 11
54.9282
 21
224.0009999999999
 31
0.0
  0
LINE
  5
2B
330
1E
100
AcDbEntity
  8
0
100
AcDbLine
 10
22.1205
 20
322.3329999999999
 30
0.0
 11
45.62319999999999
 21
220.342
 31
0.0
  0
LINE
  5
2E
330
1E
100
AcDbEntity
  8
0
100
AcDbLine
 10
54.9282
 20
224.0009999999999
 30
0.0
 11
84.9281
 21
189.0009999999999
 31
0.0
  0
LINE
  5
2F
330
1E
100
AcDbEntity
  8
0
100
AcDbLine
 10
45.62319999999999
 20
220.342
 30
0.0
 11
78.72709999999999
 21
181.157
 31
0.0
  0
LINE
  5
30
330
1E
100
AcDbEntity
  8
0
100
AcDbLine
 10
78.72709999999999
 20
181.157
 30
0.0
 11
109.0584999999999
 21
169.6299999999999
 31
0.0
  0
LINE
  5
31
330
1E
100
AcDbEntity
  8
0
100
AcDbLine
 10
84.9281
 20
189.0009999999999
 30
0.0
 11
111.8144999999999
 21
179.113
 31
0.0
  0
LINE
  5
32
330
1E
100
AcDbEntity
  8
0
100
AcDbLine
 10
83.6438
 20
768.983
 30
0.0
 11
84.04380000000001
 21
768.983
 31
0.0
  0
LINE
  5
33
330
1E
100
AcDbEntity
  8
0
100
AcDbLine
 10
84.04380000000001
 20
768.983
 30
0.0
 11
85.04380000000001
 21
768.983
 31
0.0
  0
LINE
  5
34
330
1E
100
AcDbEntity
  8
0
100
AcDbLine
 10
85.04380000000001
 20
768.983
 30
0.0
 11
86.74379999999999
 21
768.983
 31
0.0
  0
LINE
  5
35
330
1E
100
AcDbEntity
  8
0
100
AcDbLine
 10
72.9008
 20
808.9689999999999
 30
0.0
 11
73.40040000000001
 21
809.4699999999999
 31
0.0
  0
LINE
  5
36
330
1E
100
AcDbEntity
  8
0
100
AcDbLine
 10
72.9008
 20
808.9689999999999
 30
0.0
 11
72.93089999999999
 21
770.9689999999999
 31
0.0
  0
LINE
  5
37
330
1E
100
AcDbEntity
  8
0
100
AcDbLine
 10
72.93089999999999
 20
770.9689999999999
 30
0.0
 11
73.43129999999999
 21
770.47
 31
0.0
  0
LINE
  5
38
330
1E
100
AcDbEntity
  8
0
100
AcDbLine
 10
73.43129999999999
 20
770.47
 30
0.0
 11
73.93170000000001
 21
769.97
 31
0.0
  0
LINE
  5
39
330
1E
100
AcDbEntity
  8
0
100
AcDbLine
 10
73.43129999999999
 20
770.47
 30
0.0
 11
73.93089999999999
 21
770.97
 31
0.0
  0
LINE
  5
3A
330
1E
100
AcDbEntity
  8
0
100
AcDbLine
 10
73.90000000000009
 20
809.97
 30
0.0
 11
93.9
 21
809.9860000000001
 31
0.0
  0
LINE
  5
3B
330
1E
100
AcDbEntity
  8
0
100
AcDbLine
 10
73.90000000000009
 20
809.97
 30
0.0
 11
82.1415
 21
809.9765932
 31
0.0
  0
LINE
  5
3C
330
1E
100
AcDbEntity
  8
0
100
AcDbLine
 10
73.9
 20
809.97
 30
0.0
 11
105.8995
 21
809.9949999999999
 31
0.0
  0
LINE
  5
3D
330
1E
100
AcDbEntity
  8
0
100
AcDbLine
 10
73.9
 20
809.97
 30
0.0
 11
82.1415
 21
809.9765932
 31
0.0
  0
LINE
  5
3E
330
1E
100
AcDbEntity
  8
0
100
AcDbLine
 10
73.9
 20
809.97
 30
0.0
 11
93.9
 21
809.9860000000001
 31
0.0
  0
LINE
  5
3F
330
1E
100
AcDbEntity
  8
0
100
AcDbLine
 10
73.40040000000001
 20
809.4699999999999
 30
0.0
 11
73.9
 21
809.97
 31
0.0
  0
LINE
  5
40
330
1E
100
AcDbEntity
  8
0
100
AcDbLine
 10
73.40040000000001
 20
809.4699999999999
 30
0.0
 11
73.90080000000001
 21
808.97
 31
0.0
  0
LINE
  5
41
330
1E
100
AcDbEntity
  8
0
100
AcDbLine
 10
73.93089999999999
 20
770.97
 30
0.0
 11
104.9304999999999
 21
770.995
 31
0.0
  0
LINE
  5
42
330
1E
100
AcDbEntity
  8
0
100
AcDbLine
 10
73.90080000000001
 20
808.97
 30
0.0
 11
104.9004999999999
 21
808.9949999999999
 31
0.0
  0
LINE
  5
43
330
1E
100
AcDbEntity
  8
0
100
AcDbLine
 10
73.90080000000001
 20
808.97
 30
0.0
 11
73.93089999999999
 21
770.97
 31
0.0
  0
LINE
  5
44
330
1E
100
AcDbEntity
  8
0
100
AcDbLine
 10
73.93170000000001
 20
769.97
 30
0.0
 11
83.61064794248859
 21
769.977561725341
 31
0.0
  0
LINE
  5
45
330
1E
100
AcDbEntity
  8
0
100
AcDbLine
 10
73.93170000000001
 20
769.97
 30
0.0
 11
105.9315
 21
769.995
 31
0.0
  0
LINE
  5
46
330
1E
100
AcDbEntity
  8
0
100
AcDbLine
 10
81.6417
 20
882.985
 30
0.0
 11
81.6417
 21
883.4850000000001
 31
0.0
  0
LINE
  5
47
330
1E
100
AcDbEntity
  8
0
100
AcDbLine
 10
81.6417
 20
882.985
 30
0.0
 11
82.1415
 21
882.985
 31
0.0
  0
LINE
  5
48
330
1E
100
AcDbEntity
  8
0
100
AcDbLine
 10
81.6417
 20
884.9849999999999
 30
0.0
 11
81.6417
 21
884.485
 31
0.0
  0
LINE
  5
49
330
1E
100
AcDbEntity
  8
0
100
AcDbLine
 10
81.6417
 20
884.9849999999999
 30
0.0
 11
82.1415
 21
884.9849999999999
 31
0.0
  0
LINE
  5
4A
330
1E
100
AcDbEntity
  8
0
100
AcDbLine
 10
81.6417
 20
884.485
 30
0.0
 11
81.6417
 21
883.4850000000001
 31
0.0
  0
LINE
  5
4B
330
1E
100
AcDbEntity
  8
0
100
AcDbLine
 10
81.6417
 20
884.485
 30
0.0
 11
81.6417
 21
884.9849999999999
 31
0.0
  0
LINE
  5
4C
330
1E
100
AcDbEntity
  8
0
100
AcDbLine
 10
81.6417
 20
884.485
 30
0.0
 11
82.29269999999999
 21
884.485
 31
0.0
  0
LINE
  5
4D
330
1E
100
AcDbEntity
  8
0
100
AcDbLine
 10
81.6417
 20
883.4850000000001
 30
0.0
 11
81.6417
 21
882.985
 31
0.0
  0
LINE
  5
4E
330
1E
100
AcDbEntity
  8
0
100
AcDbLine
 10
81.6417
 20
883.4850000000001
 30
0.0
 11
81.6417
 21
884.485
 31
0.0
  0
LINE
  5
4F
330
1E
100
AcDbEntity
  8
0
100
AcDbLine
 10
81.6417
 20
883.4850000000001
 30
0.0
 11
82.29269999999999
 21
883.4850000000001
 31
0.0
  0
LINE
  5
50
330
1E
100
AcDbEntity
  8
0
100
AcDbLine
 10
82.1415
 20
882.985
 30
0.0
 11
82.1415
 21
809.9765932
 31
0.0
  0
LINE
  5
52
330
1E
100
AcDbEntity
  8
0
100
AcDbLine
 10
82.9044
 20
883.4850000000001
 30
0.0
 11
82.9044
 21
884.485
 31
0.0
  0
LINE
  5
53
330
1E
100
AcDbEntity
  8
0
100
AcDbLine
 10
82.7515
 20
882.985
 30
0.0
 11
82.9044
 21
883.4850000000001
 31
0.0
  0
LINE
  5
55
330
1E
100
AcDbEntity
  8
0
100
AcDbLine
 10
82.44559999999999
 20
882.985
 30
0.0
 11
82.7515
 21
882.985
 31
0.0
  0
LINE
  5
56
330
1E
100
AcDbEntity
  8
0
100
AcDbLine
 10
82.44559999999999
 20
882.985
 30
0.0
 11
83.18254234527691
 21
882.985
 31
0.0
  0
LINE
  5
57
330
1E
100
AcDbEntity
  8
0
100
AcDbLine
 10
82.29269999999999
 20
884.485
 30
0.0
 11
82.44559999999999
 21
884.9849999999999
 31
0.0
  0
LINE
  5
58
330
1E
100
AcDbEntity
  8
0
100
AcDbLine
 10
82.29269999999999
 20
884.485
 30
0.0
 11
82.29269999999999
 21
883.4850000000001
 31
0.0
  0
LINE
  5
59
330
1E
100
AcDbEntity
  8
0
100
AcDbLine
 10
82.44559999999999
 20
884.9849999999999
 30
0.0
 11
82.7515
 21
884.9849999999999
 31
0.0
  0
LINE
  5
5A
330
1E
100
AcDbEntity
  8
0
100
AcDbLine
 10
82.7515
 20
884.9849999999999
 30
0.0
 11
82.9044
 21
884.485
 31
0.0
  0
LINE
  5
5C
330
1E
100
AcDbEntity
  8
0
100
AcDbLine
 10
82.9044
 20
884.485
 30
0.0
 11
82.9044
 21
883.4850000000001
 31
0.0
  0
LINE
  5
5E
330
1E
100
AcDbEntity
  8
0
100
AcDbLine
 10
82.29269999999999
 20
883.4850000000001
 30
0.0
 11
82.44559999999999
 21
882.985
 31
0.0
  0
LINE
  5
5F
330
1E
100
AcDbEntity
  8
0
100
AcDbLine
 10
82.29269999999999
 20
883.4850000000001
 30
0.0
 11
82.29269999999999
 21
884.485
 31
0.0
  0
LINE
  5
60
330
1E
100
AcDbEntity
  8
0
100
AcDbLine
 10
82.1415
 20
809.9765932
 30
0.0
 11
82.1415
 21
882.985
 31
0.0
  0
LINE
  5
61
330
1E
100
AcDbEntity
  8
0
100
AcDbLine
 10
81.6417
 20
889.785
 30
0.0
 11
82.1415
 21
889.785
 31
0.0
  0
LINE
  5
62
330
1E
100
AcDbEntity
  8
0
100
AcDbLine
 10
81.6417
 20
889.785
 30
0.0
 11
81.6417
 21
890.2849999999999
 31
0.0
  0
LINE
  5
63
330
1E
100
AcDbEntity
  8
0
100
AcDbLine
 10
81.6417
 20
890.2849999999999
 30
0.0
 11
81.6417
 21
889.785
 31
0.0
  0
LINE
  5
64
330
1E
100
AcDbEntity
  8
0
100
AcDbLine
 10
81.6417
 20
890.2849999999999
 30
0.0
 11
82.29269999999999
 21
890.2849999999999
 31
0.0
  0
LINE
  5
65
330
1E
100
AcDbEntity
  8
0
100
AcDbLine
 10
81.6417
 20
890.2849999999999
 30
0.0
 11
81.6417
 21
891.285
 31
0.0
  0
LINE
  5
66
330
1E
100
AcDbEntity
  8
0
100
AcDbLine
 10
81.6417
 20
896.5850000000001
 30
0.0
 11
82.1415
 21
896.5850000000001
 31
0.0
  0
LINE
  5
67
330
1E
100
AcDbEntity
  8
0
100
AcDbLine
 10
81.6417
 20
896.5850000000001
 30
0.0
 11
81.6417
 21
897.085
 31
0.0
  0
LINE
  5
68
330
1E
100
AcDbEntity
  8
0
100
AcDbLine
 10
81.6417
 20
891.7849999999999
 30
0.0
 11
82.1415
 21
891.7849999999999
 31
0.0
  0
LINE
  5
69
330
1E
100
AcDbEntity
  8
0
100
AcDbLine
 10
81.6417
 20
891.7849999999999
 30
0.0
 11
81.6417
 21
891.285
 31
0.0
  0
LINE
  5
6A
330
1E
100
AcDbEntity
  8
0
100
AcDbLine
 10
81.6417
 20
891.285
 30
0.0
 11
81.6417
 21
891.7849999999999
 31
0.0
  0
LINE
  5
6B
330
1E
100
AcDbEntity
  8
0
100
AcDbLine
 10
81.6417
 20
891.285
 30
0.0
 11
82.29269999999999
 21
891.285
 31
0.0
  0
LINE
  5
6C
330
1E
100
AcDbEntity
  8
0
100
AcDbLine
 10
81.6417
 20
891.285
 30
0.0
 11
81.6417
 21
890.2849999999999
 31
0.0
  0
LINE
  5
6D
330
1E
100
AcDbEntity
  8
0
100
AcDbLine
 10
81.6417
 20
897.085
 30
0.0
 11
81.6417
 21
896.5850000000001
 31
0.0
  0
LINE
  5
6E
330
1E
100
AcDbEntity
  8
0
100
AcDbLine
 10
81.6417
 20
897.085
 30
0.0
 11
82.29269999999999
 21
897.085
 31
0.0
  0
LINE
  5
6F
330
1E
100
AcDbEntity
  8
0
100
AcDbLine
 10
81.6417
 20
897.085
 30
0.0
 11
81.6417
 21
898.085
 31
0.0
  0
LINE
  5
70
330
1E
100
AcDbEntity
  8
0
100
AcDbLine
 10
81.6417
 20
898.5850000000001
 30
0.0
 11
82.1415
 21
898.5850000000001
 31
0.0
  0
LINE
  5
71
330
1E
100
AcDbEntity
  8
0
100
AcDbLine
 10
81.6417
 20
898.5850000000001
 30
0.0
 11
81.6417
 21
898.085
 31
0.0
  0
LINE
  5
72
330
1E
100
AcDbEntity
  8
0
100
AcDbLine
 10
81.6417
 20
898.085
 30
0.0
 11
81.6417
 21
898.5850000000001
 31
0.0
  0
LINE
  5
73
330
1E
100
AcDbEntity
  8
0
100
AcDbLine
 10
81.6417
 20
898.085
 30
0.0
 11
82.29269999999999
 21
898.085
 31
0.0
  0
LINE
  5
74
330
1E
100
AcDbEntity
  8
0
100
AcDbLine
 10
81.6417
 20
898.085
 30
0.0
 11
81.6417
 21
897.085
 31
0.0
  0
LINE
  5
75
330
1E
100
AcDbEntity
  8
0
100
AcDbLine
 10
82.1415
 20
896.5850000000001
 30
0.0
 11
82.1415
 21
891.7849999999999
 31
0.0
  0
LINE
  5
76
330
1E
100
AcDbEntity
  8
0
100
AcDbLine
 10
82.1415
 20
889.785
 30
0.0
 11
82.1415
 21
884.9849999999999
 31
0.0
  0
LINE
  5
77
330
1E
100
AcDbEntity
  8
0
100
AcDbLine
 10
81.6417
 20
903.3849999999999
 30
0.0
 11
81.6417
 21
903.885
 31
0.0
  0
LINE
  5
78
330
1E
100
AcDbEntity
  8
0
100
AcDbLine
 10
81.6417
 20
903.3849999999999
 30
0.0
 11
82.1415
 21
903.3849999999999
 31
0.0
  0
LINE
  5
79
330
1E
100
AcDbEntity
  8
0
100
AcDbLine
 10
81.6417
 20
910.1849999999998
 30
0.0
 11
82.1415
 21
910.1849999999998
 31
0.0
  0
LINE
  5
7A
330
1E
100
AcDbEntity
  8
0
100
AcDbLine
 10
81.6417
 20
910.1849999999998
 30
0.0
 11
81.6417
 21
910.6849999999999
 31
0.0
  0
LINE
  5
7B
330
1E
100
AcDbEntity
  8
0
100
AcDbLine
 10
81.6417
 20
905.385
 30
0.0
 11
81.6417
 21
904.8849999999999
 31
0.0
  0
LINE
  5
7C
330
1E
100
AcDbEntity
  8
0
100
AcDbLine
 10
81.6417
 20
905.385
 30
0.0
 11
82.1415
 21
905.385
 31
0.0
  0
LINE
  5
7D
330
1E
100
AcDbEntity
  8
0
100
AcDbLine
 10
81.6417
 20
904.8849999999999
 30
0.0
 11
81.6417
 21
905.385
 31
0.0
  0
LINE
  5
7E
330
1E
100
AcDbEntity
  8
0
100
AcDbLine
 10
81.6417
 20
904.8849999999999
 30
0.0
 11
81.6417
 21
903.885
 31
0.0
  0
LINE
  5
7F
330
1E
100
AcDbEntity
  8
0
100
AcDbLine
 10
81.6417
 20
904.8849999999999
 30
0.0
 11
82.1415
 21
904.8849999999999
 31
0.0
  0
LINE
  5
80
330
1E
100
AcDbEntity
  8
0
100
AcDbLine
 10
81.6417
 20
903.885
 30
0.0
 11
81.6417
 21
904.8849999999999
 31
0.0
  0
LINE
  5
81
330
1E
100
AcDbEntity
  8
0
100
AcDbLine
 10
81.6417
 20
903.885
 30
0.0
 11
82.29269999999999
 21
903.885
 31
0.0
  0
LINE
  5
82
330
1E
100
AcDbEntity
  8
0
100
AcDbLine
 10
81.6417
 20
903.885
 30
0.0
 11
81.6417
 21
903.3849999999999
 31
0.0
  0
LINE
  5
83
330
1E
100
AcDbEntity
  8
0
100
AcDbLine
 10
81.6417
 20
910.6849999999999
 30
0.0
 11
81.6417
 21
910.1849999999998
 31
0.0
  0
LINE
  5
84
330
1E
100
AcDbEntity
  8
0
100
AcDbLine
 10
81.6417
 20
910.6849999999999
 30
0.0
 11
82.1415
 21
910.6849999999999
 31
0.0
  0
LINE
  5
85
330
1E
100
AcDbEntity
  8
0
100
AcDbLine
 10
81.6417
 20
910.6849999999999
 30
0.0
 11
81.6417
 21
911.6849999999999
 31
0.0
  0
LINE
  5
86
330
1E
100
AcDbEntity
  8
0
100
AcDbLine
 10
81.6417
 20
912.185
 30
0.0
 11
82.1415
 21
912.185
 31
0.0
  0
LINE
  5
87
330
1E
100
AcDbEntity
  8
0
100
AcDbLine
 10
81.6417
 20
912.185
 30
0.0
 11
81.6417
 21
911.6849999999999
 31
0.0
  0
LINE
  5
88
330
1E
100
AcDbEntity
  8
0
100
AcDbLine
 10
81.6417
 20
911.6849999999999
 30
0.0
 11
81.6417
 21
912.185
 31
0.0
  0
LINE
  5
89
330
1E
100
AcDbEntity
  8
0
100
AcDbLine
 10
81.6417
 20
911.6849999999999
 30
0.0
 11
82.1415
 21
911.6849999999999
 31
0.0
  0
LINE
  5
8A
330
1E
100
AcDbEntity
  8
0
100
AcDbLine
 10
81.6417
 20
911.6849999999999
 30
0.0
 11
81.6417
 21
910.6849999999999
 31
0.0
  0
LINE
  5
8B
330
1E
100
AcDbEntity
  8
0
100
AcDbLine
 10
82.1415
 20
910.1849999999998
 30
0.0
 11
82.1415
 21
905.385
 31
0.0
  0
LINE
  5
8C
330
1E
100
AcDbEntity
  8
0
100
AcDbLine
 10
82.1415
 20
903.3849999999999
 30
0.0
 11
82.1415
 21
898.5850000000001
 31
0.0
  0
LINE
  5
8D
330
1E
100
AcDbEntity
  8
0
100
AcDbLine
 10
81.6417
 20
916.985
 30
0.0
 11
81.6417
 21
917.4850000000001
 31
0.0
  0
LINE
  5
8E
330
1E
100
AcDbEntity
  8
0
100
AcDbLine
 10
81.6417
 20
916.985
 30
0.0
 11
82.1415
 21
916.985
 31
0.0
  0
LINE
  5
8F
330
1E
100
AcDbEntity
  8
0
100
AcDbLine
 10
81.6417
 20
923.7849999999999
 30
0.0
 11
81.6417
 21
924.285
 31
0.0
  0
LINE
  5
90
330
1E
100
AcDbEntity
  8
0
100
AcDbLine
 10
81.6417
 20
923.7849999999999
 30
0.0
 11
82.1415
 21
923.7849999999999
 31
0.0
  0
LINE
  5
91
330
1E
100
AcDbEntity
  8
0
100
AcDbLine
 10
81.6417
 20
918.9849999999999
 30
0.0
 11
81.6417
 21
918.485
 31
0.0
  0
LINE
  5
92
330
1E
100
AcDbEntity
  8
0
100
AcDbLine
 10
81.6417
 20
918.9849999999999
 30
0.0
 11
82.1415
 21
918.9849999999999
 31
0.0
  0
LINE
  5
93
330
1E
100
AcDbEntity
  8
0
100
AcDbLine
 10
81.6417
 20
918.485
 30
0.0
 11
81.6417
 21
918.9849999999999
 31
0.0
  0
LINE
  5
94
330
1E
100
AcDbEntity
  8
0
100
AcDbLine
 10
81.6417
 20
918.485
 30
0.0
 11
81.6417
 21
917.4850000000001
 31
0.0
  0
LINE
  5
95
330
1E
100
AcDbEntity
  8
0
100
AcDbLine
 10
81.6417
 20
918.485
 30
0.0
 11
82.1415
 21
918.485
 31
0.0
  0
LINE
  5
96
330
1E
100
AcDbEntity
  8
0
100
AcDbLine
 10
81.6417
 20
917.4850000000001
 30
0.0
 11
81.6417
 21
918.485
 31
0.0
  0
LINE
  5
97
330
1E
100
AcDbEntity
  8
0
100
AcDbLine
 10
81.6417
 20
917.4850000000001
 30
0.0
 11
82.1415
 21
917.4850000000001
 31
0.0
  0
LINE
  5
98
330
1E
100
AcDbEntity
  8
0
100
AcDbLine
 10
81.6417
 20
917.4850000000001
 30
0.0
 11
81.6417
 21
916.985
 31
0.0
  0
LINE
  5
99
330
1E
100
AcDbEntity
  8
0
100
AcDbLine
 10
81.6417
 20
925.7849999999999
 30
0.0
 11
81.6417
 21
925.285
 31
0.0
  0
LINE
  5
9A
330
1E
100
AcDbEntity
  8
0
100
AcDbLine
 10
81.6417
 20
925.7849999999999
 30
0.0
 11
82.1415
 21
925.7849999999999
 31
0.0
  0
LINE
  5
9B
330
1E
100
AcDbEntity
  8
0
100
AcDbLine
 10
81.6417
 20
925.285
 30
0.0
 11
81.6417
 21
925.7849999999999
 31
0.0
  0
LINE
  5
9C
330
1E
100
AcDbEntity
  8
0
100
AcDbLine
 10
81.6417
 20
925.285
 30
0.0
 11
81.6417
 21
924.285
 31
0.0
  0
LINE
  5
9D
330
1E
100
AcDbEntity
  8
0
100
AcDbLine
 10
81.6417
 20
925.285
 30
0.0
 11
82.1415
 21
925.285
 31
0.0
  0
LINE
  5
9E
330
1E
100
AcDbEntity
  8
0
100
AcDbLine
 10
81.6417
 20
924.285
 30
0.0
 11
81.6417
 21
925.285
 31
0.0
  0
LINE
  5
9F
330
1E
100
AcDbEntity
  8
0
100
AcDbLine
 10
81.6417
 20
924.285
 30
0.0
 11
82.1415
 21
924.285
 31
0.0
  0
LINE
  5
A0
330
1E
100
AcDbEntity
  8
0
100
AcDbLine
 10
81.6417
 20
924.285
 30
0.0
 11
81.6417
 21
923.7849999999999
 31
0.0
  0
LINE
  5
A1
330
1E
100
AcDbEntity
  8
0
100
AcDbLine
 10
82.1415
 20
923.7849999999999
 30
0.0
 11
82.1415
 21
918.9849999999999
 31
0.0
  0
LINE
  5
A2
330
1E
100
AcDbEntity
  8
0
100
AcDbLine
 10
82.1415
 20
916.985
 30
0.0
 11
82.1415
 21
912.185
 31
0.0
  0
LINE
  5
A3
330
1E
100
AcDbEntity
  8
0
100
AcDbLine
 10
81.6417
 20
930.5850000000001
 30
0.0
 11
82.1415
 21
930.5850000000001
 31
0.0
  0
LINE
  5
A4
330
1E
100
AcDbEntity
  8
0
100
AcDbLine
 10
81.6417
 20
930.5850000000001
 30
0.0
 11
81.6417
 21
931.085
 31
0.0
  0
LINE
  5
A5
330
1E
100
AcDbEntity
  8
0
100
AcDbLine
 10
81.6417
 20
931.085
 30
0.0
 11
81.6417
 21
930.5850000000001
 31
0.0
  0
LINE
  5
A6
330
1E
100
AcDbEntity
  8
0
100
AcDbLine
 10
81.6417
 20
931.085
 30
0.0
 11
82.1415
 21
931.085
 31
0.0
  0
LINE
  5
A7
330
1E
100
AcDbEntity
  8
0
100
AcDbLine
 10
81.6417
 20
931.085
 30
0.0
 11
81.6417
 21
932.085
 31
0.0
  0
LINE
  5
A8
330
1E
100
AcDbEntity
  8
0
100
AcDbLine
 10
81.6417
 20
939.385
 30
0.0
 11
81.6417
 21
938.8849999999999
 31
0.0
  0
LINE
  5
A9
330
1E
100
AcDbEntity
  8
0
100
AcDbLine
 10
81.6417
 20
939.385
 30
0.0
 11
82.1415
 21
939.385
 31
0.0
  0
LINE
  5
AA
330
1E
100
AcDbEntity
  8
0
100
AcDbLine
 10
81.6417
 20
938.8849999999999
 30
0.0
 11
81.6417
 21
937.8849999999999
 31
0.0
  0
LINE
  5
AB
330
1E
100
AcDbEntity
  8
0
100
AcDbLine
 10
81.6417
 20
938.8849999999999
 30
0.0
 11
81.6417
 21
939.385
 31
0.0
  0
LINE
  5
AC
330
1E
100
AcDbEntity
  8
0
100
AcDbLine
 10
81.6417
 20
938.8849999999999
 30
0.0
 11
82.1415
 21
938.8849999999999
 31
0.0
  0
LINE
  5
AD
330
1E
100
AcDbEntity
  8
0
100
AcDbLine
 10
81.6417
 20
944.185
 30
0.0
 11
81.6417
 21
944.6849999999999
 31
0.0
  0
LINE
  5
AE
330
1E
100
AcDbEntity
  8
0
100
AcDbLine
 10
81.6417
 20
944.185
 30
0.0
 11
82.1415
 21
944.185
 31
0.0
  0
LINE
  5
AF
330
1E
100
AcDbEntity
  8
0
100
AcDbLine
 10
81.6417
 20
937.8849999999999
 30
0.0
 11
81.6417
 21
937.385
 31
0.0
  0
LINE
  5
B0
330
1E
100
AcDbEntity
  8
0
100
AcDbLine
 10
81.6417
 20
937.8849999999999
 30
0.0
 11
82.1415
 21
937.8849999999999
 31
0.0
  0
LINE
  5
B1
330
1E
100
AcDbEntity
  8
0
100
AcDbLine
 10
81.6417
 20
937.8849999999999
 30
0.0
 11
81.6417
 21
938.8849999999999
 31
0.0
  0
LINE
  5
B2
330
1E
100
AcDbEntity
  8
0
100
AcDbLine
 10
81.6417
 20
937.385
 30
0.0
 11
81.6417
 21
937.8849999999999
 31
0.0
  0
LINE
  5
B3
330
1E
100
AcDbEntity
  8
0
100
AcDbLine
 10
81.6417
 20
937.385
 30
0.0
 11
82.1415
 21
937.385
 31
0.0
  0
LINE
  5
B4
330
1E
100
AcDbEntity
  8
0
100
AcDbLine
 10
81.6417
 20
932.585
 30
0.0
 11
82.1415
 21
932.585
 31
0.0
  0
LINE
  5
B5
330
1E
100
AcDbEntity
  8
0
100
AcDbLine
 10
81.6417
 20
932.585
 30
0.0
 11
81.6417
 21
932.085
 31
0.0
  0
LINE
  5
B6
330
1E
100
AcDbEntity
  8
0
100
AcDbLine
 10
81.6417
 20
932.085
 30
0.0
 11
81.6417
 21
932.585
 31
0.0
  0
LINE
  5
B7
330
1E
100
AcDbEntity
  8
0
100
AcDbLine
 10
81.6417
 20
932.085
 30
0.0
 11
82.1415
 21
932.085
 31
0.0
  0
LINE
  5
B8
330
1E
100
AcDbEntity
  8
0
100
AcDbLine
 10
81.6417
 20
932.085
 30
0.0
 11
81.6417
 21
931.085
 31
0.0
  0
LINE
  5
B9
330
1E
100
AcDbEntity
  8
0
100
AcDbLine
 10
81.6417
 20
946.185
 30
0.0
 11
82.1415
 21
946.185
 31
0.0
  0
LINE
  5
BA
330
1E
100
AcDbEntity
  8
0
100
AcDbLine
 10
81.6417
 20
946.185
 30
0.0
 11
81.6417
 21
945.6849999999999
 31
0.0
  0
LINE
  5
BB
330
1E
100
AcDbEntity
  8
0
100
AcDbLine
 10
81.6417
 20
945.6849999999999
 30
0.0
 11
81.6417
 21
944.6849999999999
 31
0.0
  0
LINE
  5
BC
330
1E
100
AcDbEntity
  8
0
100
AcDbLine
 10
81.6417
 20
945.6849999999999
 30
0.0
 11
82.1415
 21
945.6849999999999
 31
0.0
  0
LINE
  5
BD
330
1E
100
AcDbEntity
  8
0
100
AcDbLine
 10
81.6417
 20
945.6849999999999
 30
0.0
 11
81.6417
 21
946.185
 31
0.0
  0
LINE
  5
BE
330
1E
100
AcDbEntity
  8
0
100
AcDbLine
 10
81.6417
 20
944.6849999999999
 30
0.0
 11
81.6417
 21
944.185
 31
0.0
  0
LINE
  5
BF
330
1E
100
AcDbEntity
  8
0
100
AcDbLine
 10
81.6417
 20
944.6849999999999
 30
0.0
 11
81.6417
 21
945.6849999999999
 31
0.0
  0
LINE
  5
C0
330
1E
100
AcDbEntity
  8
0
100
AcDbLine
 10
81.6417
 20
944.6849999999999
 30
0.0
 11
82.1415
 21
944.6849999999999
 31
0.0
  0
LINE
  5
C1
330
1E
100
AcDbEntity
  8
0
100
AcDbLine
 10
82.1415
 20
944.185
 30
0.0
 11
82.1415
 21
939.385
 31
0.0
  0
LINE
  5
C2
330
1E
100
AcDbEntity
  8
0
100
AcDbLine
 10
82.1415
 20
937.385
 30
0.0
 11
82.1415
 21
932.585
 31
0.0
  0
LINE
  5
C3
330
1E
100
AcDbEntity
  8
0
100
AcDbLine
 10
82.1415
 20
930.5850000000001
 30
0.0
 11
82.1415
 21
925.7849999999999
 31
0.0
  0
LINE
  5
C4
330
1E
100
AcDbEntity
  8
0
100
AcDbLine
 10
82.1415
 20
939.385
 30
0.0
 11
82.1415
 21
944.185
 31
0.0
  0
LINE
  5
C5
330
1E
100
AcDbEntity
  8
0
100
AcDbLine
 10
81.6417
 20
950.985
 30
0.0
 11
81.6417
 21
951.485
 31
0.0
  0
LINE
  5
C6
330
1E
100
AcDbEntity
  8
0
100
AcDbLine
 10
81.6417
 20
950.985
 30
0.0
 11
82.1415
 21
950.985
 31
0.0
  0
LINE
  5
C7
330
1E
100
AcDbEntity
  8
0
100
AcDbLine
 10
81.6417
 20
952.9849999999999
 30
0.0
 11
81.6417
 21
952.485
 31
0.0
  0
LINE
  5
C8
330
1E
100
AcDbEntity
  8
0
100
AcDbLine
 10
81.6417
 20
952.9849999999999
 30
0.0
 11
82.1415
 21
952.9849999999999
 31
0.0
  0
LINE
  5
C9
330
1E
100
AcDbEntity
  8
0
100
AcDbLine
 10
81.6417
 20
952.485
 30
0.0
 11
81.6417
 21
952.9849999999999
 31
0.0
  0
LINE
  5
CA
330
1E
100
AcDbEntity
  8
0
100
AcDbLine
 10
81.6417
 20
952.485
 30
0.0
 11
81.6417
 21
951.485
 31
0.0
  0
LINE
  5
CB
330
1E
100
AcDbEntity
  8
0
100
AcDbLine
 10
81.6417
 20
952.485
 30
0.0
 11
82.1415
 21
952.485
 31
0.0
  0
LINE
  5
CC
330
1E
100
AcDbEntity
  8
0
100
AcDbLine
 10
81.6417
 20
951.485
 30
0.0
 11
81.6417
 21
952.485
 31
0.0
  0
LINE
  5
CD
330
1E
100
AcDbEntity
  8
0
100
AcDbLine
 10
81.6417
 20
951.485
 30
0.0
 11
82.1415
 21
951.485
 31
0.0
  0
LINE
  5
CE
330
1E
100
AcDbEntity
  8
0
100
AcDbLine
 10
81.6417
 20
951.485
 30
0.0
 11
81.6417
 21
950.985
 31
0.0
  0
LINE
  5
CF
330
1E
100
AcDbEntity
  8
0
100
AcDbLine
 10
82.1415
 20
950.985
 30
0.0
 11
82.1415
 21
946.185
 31
0.0
  0
LINE
  5
D0
330
1E
100
AcDbEntity
  8
0
100
AcDbLine
 10
3.83317251889365
 20
2031.23078143415
 30
0.0
 11
7.78657000000007
 21
2027.285
 31
0.0
  0
LINE
  5
D1
330
1E
100
AcDbEntity
  8
0
100
AcDbLine
 10
3.83317251889429
 20
2031.23078143415
 30
0.0
 11
7.78657000000007
 21
2027.285
 31
0.0
  0
LINE
  5
D2
330
1E
100
AcDbEntity
  8
0
100
AcDbLine
 10
7.46902853292903
 20
2027.60587337476
 30
0.0
 11
12.5257000000001
 21
2022.555
 31
0.0
  0
LINE
  5
D3
330
1E
100
AcDbEntity
  8
0
100
AcDbLine
 10
7.469028532928559
 20
2027.60587337476
 30
0.0
 11
12.5257000000001
 21
2022.555
 31
0.0
  0
LINE
  5
D4
330
1E
100
AcDbEntity
  8
0
100
AcDbLine
 10
3.768760000000069
 20
2031.295
 30
0.0
 11
7.74072000000007
 21
2027.335
 31
0.0
  0
LINE
  5
D5
330
1E
100
AcDbEntity
  8
0
100
AcDbLine
 10
12.5257000000001
 20
2022.555
 30
0.0
 11
17.2694000000001
 21
2017.815
 31
0.0
  0
LINE
  5
D6
330
1E
100
AcDbEntity
  8
0
100
AcDbLine
 10
7.78657000000007
 20
2027.285
 30
0.0
 11
12.1712242481585
 21
2022.90910682883
 31
0.0
  0
LINE
  5
D7
330
1E
100
AcDbEntity
  8
0
100
AcDbLine
 10
7.78657000000007
 20
2027.285
 30
0.0
 11
12.1712242481583
 21
2022.90910682883
 31
0.0
  0
LINE
  5
D8
330
1E
100
AcDbEntity
  8
0
100
AcDbLine
 10
14.4251000000001
 20
2031.965
 30
0.0
 11
16.1274000000001
 21
2030.264999999999
 31
0.0
  0
LINE
  5
D9
330
1E
100
AcDbEntity
  8
0
100
AcDbLine
 10
14.4251000000001
 20
2031.965
 30
0.0
 11
16.1470000000001
 21
2030.245
 31
0.0
  0
LINE
  5
DA
330
1E
100
AcDbEntity
  8
0
100
AcDbLine
 10
7.74072000000007
 20
2027.335
 30
0.0
 11
12.5257000000001
 21
2022.555
 31
0.0
  0
LINE
  5
DB
330
1E
100
AcDbEntity
  8
0
100
AcDbLine
 10
13.1189487390627
 20
2033.269011149439
 30
0.0
 11
13.2745000000001
 21
2033.115
 31
0.0
  0
LINE
  5
DC
330
1E
100
AcDbEntity
  8
0
100
AcDbLine
 10
13.1189487390628
 20
2033.269011149439
 30
0.0
 11
13.2745000000001
 21
2033.115
 31
0.0
  0
LINE
  5
DD
330
1E
100
AcDbEntity
  8
0
100
AcDbLine
 10
0.141500000000066
 20
2034.925
 30
0.0
 11
1.084147000000069
 21
2033.974999999999
 31
0.0
  0
LINE
  5
DE
330
1E
100
AcDbEntity
  8
0
100
AcDbLine
 10
0.141500000000066
 20
2034.925
 30
0.0
 11
5.79381000000007
 21
2040.585
 31
0.0
  0
LINE
  5
DF
330
1E
100
AcDbEntity
  8
0
100
AcDbLine
 10
0.141500000000066
 20
2034.925
 30
0.0
 11
5.79381000000007
 21
2040.585
 31
0.0
  0
LINE
  5
E0
330
1E
100
AcDbEntity
  8
0
100
AcDbLine
 10
0.141500000000066
 20
2034.925
 30
0.0
 11
1.084147000000069
 21
2033.974999999999
 31
0.0
  0
LINE
  5
E1
330
1E
100
AcDbEntity
  8
0
100
AcDbLine
 10
1.084147000000069
 20
2033.974999999999
 30
0.0
 11
3.768760000000069
 21
2031.295
 31
0.0
  0
LINE
  5
E2
330
1E
100
AcDbEntity
  8
0
100
AcDbLine
 10
13.2745000000001
 20
2033.115
 30
0.0
 11
14.4251000000001
 21
2031.965
 31
0.0
  0
LINE
  5
E3
330
1E
100
AcDbEntity
  8
0
100
AcDbLine
 10
13.39310000000009
 20
2032.995
 30
0.0
 11
18.1781000000001
 21
2028.214999999999
 31
0.0
  0
LINE
  5
E4
330
1E
100
AcDbEntity
  8
0
100
AcDbLine
 10
17.2694000000001
 20
2017.815
 30
0.0
 11
21.2826000000001
 21
2013.815
 31
0.0
  0
LINE
  5
E5
330
1E
100
AcDbEntity
  8
0
100
AcDbLine
 10
17.9252214104585
 20
2028.467614348589
 30
0.0
 11
18.0330244975507
 21
2028.360025981379
 31
0.0
  0
LINE
  5
E6
330
1E
100
AcDbEntity
  8
0
100
AcDbLine
 10
18.1781000000001
 20
2028.214999999999
 30
0.0
 11
22.9217000000001
 21
2023.484999999999
 31
0.0
  0
LINE
  5
E7
330
1E
100
AcDbEntity
  8
0
100
AcDbLine
 10
21.1901682703168
 20
2025.21156739215
 30
0.0
 11
21.9310000000001
 21
2024.475
 31
0.0
  0
LINE
  5
E8
330
1E
100
AcDbEntity
  8
0
100
AcDbLine
 10
21.19016827031669
 20
2025.21156739215
 30
0.0
 11
21.9310000000001
 21
2024.475
 31
0.0
  0
LINE
  5
E9
330
1E
100
AcDbEntity
  8
0
100
AcDbLine
 10
21.2826000000001
 20
2013.815
 30
0.0
 11
23.9672000000001
 21
2011.135
 31
0.0
  0
LINE
  5
EA
330
1E
100
AcDbEntity
  8
0
100
AcDbLine
 10
17.925221410459
 20
2028.467614348589
 30
0.0
 11
18.0330244975508
 21
2028.360025981379
 31
0.0
  0
LINE
  5
EB
330
1E
100
AcDbEntity
  8
0
100
AcDbLine
 10
21.0042000000001
 20
2031.045
 30
0.0
 11
25.7479000000001
 21
2026.314999999999
 31
0.0
  0
LINE
  5
EC
330
1E
100
AcDbEntity
  8
0
100
AcDbLine
 10
21.0042000000001
 20
2031.045
 30
0.0
 11
24.3925000000001
 21
2027.665
 31
0.0
  0
LINE
  5
ED
330
1E
100
AcDbEntity
  8
0
100
AcDbLine
 10
16.1470000000001
 20
2030.245
 30
0.0
 11
16.57775801843429
 21
2029.81479570986
 31
0.0
  0
LINE
  5
EE
330
1E
100
AcDbEntity
  8
0
100
AcDbLine
 10
16.1470000000001
 20
2030.245
 30
0.0
 11
16.5777580184344
 21
2029.81479570986
 31
0.0
  0
LINE
  5
EF
330
1E
100
AcDbEntity
  8
0
100
AcDbLine
 10
16.1274000000001
 20
2030.264999999999
 30
0.0
 11
18.1781000000001
 21
2028.214999999999
 31
0.0
  0
LINE
  5
F0
330
1E
100
AcDbEntity
  8
0
100
AcDbLine
 10
9.42114000000007
 20
2036.964999999999
 30
0.0
 11
9.48661289713589
 21
2036.89949060011
 31
0.0
  0
LINE
  5
F1
330
1E
100
AcDbEntity
  8
0
100
AcDbLine
 10
9.42114000000007
 20
2036.964999999999
 30
0.0
 11
9.486612897135689
 21
2036.89949060011
 31
0.0
  0
LINE
  5
F2
330
1E
100
AcDbEntity
  8
0
100
AcDbLine
 10
6.73653000000007
 20
2039.645
 30
0.0
 11
9.42114000000007
 21
2036.964999999999
 31
0.0
  0
LINE
  5
F3
330
1E
100
AcDbEntity
  8
0
100
AcDbLine
 10
5.79381000000007
 20
2040.585
 30
0.0
 11
6.73646000000007
 21
2039.645
 31
0.0
  0
LINE
  5
F4
330
1E
100
AcDbEntity
  8
0
100
AcDbLine
 10
5.79381000000007
 20
2040.585
 30
0.0
 11
6.73653000000007
 21
2039.645
 31
0.0
  0
LINE
  5
F5
330
1E
100
AcDbEntity
  8
0
100
AcDbLine
 10
8.619970000000069
 20
2043.414999999999
 30
0.0
 11
21.6620421409167
 21
2056.474765123069
 31
0.0
  0
LINE
  5
F6
330
1E
100
AcDbEntity
  8
0
100
AcDbLine
 10
8.619970000000069
 20
2043.414999999999
 30
0.0
 11
9.56262000000007
 21
2042.475
 31
0.0
  0
LINE
  5
F7
330
1E
100
AcDbEntity
  8
0
100
AcDbLine
 10
6.73646000000007
 20
2039.645
 30
0.0
 11
9.421070000000069
 21
2036.964999999999
 31
0.0
  0
LINE
  5
F8
330
1E
100
AcDbEntity
  8
0
100
AcDbLine
 10
12.1583000000001
 20
2039.874999999999
 30
0.0
 11
12.8317000000001
 21
2039.205
 31
0.0
  0
LINE
  5
F9
330
1E
100
AcDbEntity
  8
0
100
AcDbLine
 10
12.1583000000001
 20
2039.874999999999
 30
0.0
 11
12.87020583351219
 21
2033.517626929039
 31
0.0
  0
LINE
  5
FA
330
1E
100
AcDbEntity
  8
0
100
AcDbLine
 10
9.56262000000007
 20
2042.475
 30
0.0
 11
12.2472000000001
 21
2039.795
 31
0.0
  0
LINE
  5
FB
330
1E
100
AcDbEntity
  8
0
100
AcDbLine
 10
9.421070000000069
 20
2036.964999999999
 30
0.0
 11
13.39310000000009
 21
2032.995
 31
0.0
  0
LINE
  5
FC
330
1E
100
AcDbEntity
  8
0
100
AcDbLine
 10
12.3423916060574
 20
2039.699856325269
 30
0.0
 11
14.0022117799381
 21
2038.0391272947
 31
0.0
  0
LINE
  5
FD
330
1E
100
AcDbEntity
  8
0
100
AcDbLine
 10
12.3423916060579
 20
2039.69985632526
 30
0.0
 11
14.0022117799381
 21
2038.0391272947
 31
0.0
  0
LINE
  5
FE
330
1E
100
AcDbEntity
  8
0
100
AcDbLine
 10
12.8317000000001
 20
2039.205
 30
0.0
 11
14.5319990753013
 21
2037.51135137741
 31
0.0
  0
LINE
  5
FF
330
1E
100
AcDbEntity
  8
0
100
AcDbLine
 10
12.8317000000001
 20
2039.205
 30
0.0
 11
14.5319990753011
 21
2037.51135137741
 31
0.0
  0
LINE
  5
100
330
1E
100
AcDbEntity
  8
0
100
AcDbLine
 10
12.8317000000001
 20
2039.205
 30
0.0
 11
14.5064709471563
 21
2037.53686665151
 31
0.0
  0
LINE
  5
101
330
1E
100
AcDbEntity
  8
0
100
AcDbLine
 10
12.8317000000001
 20
2039.205
 30
0.0
 11
14.5064709471563
 21
2037.53686665151
 31
0.0
  0
LINE
  5
102
330
1E
100
AcDbEntity
  8
0
100
AcDbLine
 10
12.2472000000001
 20
2039.795
 30
0.0
 11
16.2192000000001
 21
2035.825
 31
0.0
  0
LINE
  5
103
330
1E
100
AcDbEntity
  8
0
100
AcDbLine
 10
16.2192000000001
 20
2035.825
 30
0.0
 11
21.0042000000001
 21
2031.045
 31
0.0
  0
LINE
  5
104
330
1E
100
AcDbEntity
  8
0
100
AcDbLine
 10
21.3101000000001
 20
2056.824999999999
 30
0.0
 11
21.54110000000009
 21
2056.594999999999
 31
0.0
  0
LINE
  5
105
330
1E
100
AcDbEntity
  8
0
100
AcDbLine
 10
21.3091000000001
 20
2057.535
 30
0.0
 11
21.3101000000001
 21
2056.824999999999
 31
0.0
  0
LINE
  5
107
330
1E
100
AcDbEntity
  8
0
100
AcDbLine
 10
21.3091000000001
 20
2057.535
 30
0.0
 11
107.9094999999999
 21
2144.265
 31
0.0
  0
LINE
  5
108
330
1E
100
AcDbEntity
  8
0
100
AcDbLine
 10
21.9310000000001
 20
2024.475
 30
0.0
 11
22.81092666664549
 21
2023.5954557439
 31
0.0
  0
LINE
  5
109
330
1E
100
AcDbEntity
  8
0
100
AcDbLine
 10
21.9310000000001
 20
2024.475
 30
0.0
 11
22.81092666664549
 21
2023.5954557439
 31
0.0
  0
LINE
  5
10B
330
1E
100
AcDbEntity
  8
0
100
AcDbLine
 10
22.9217000000001
 20
2023.484999999999
 30
0.0
 11
26.9350000000001
 21
2019.474999999999
 31
0.0
  0
LINE
  5
10C
330
1E
100
AcDbEntity
  8
0
100
AcDbLine
 10
23.6147831645932
 20
2022.7924867341
 30
0.0
 11
30.56230000000009
 21
2015.855
 31
0.0
  0
LINE
  5
10D
330
1E
100
AcDbEntity
  8
0
100
AcDbLine
 10
24.3925000000001
 20
2027.665
 30
0.0
 11
27.2591000000001
 21
2024.805
 31
0.0
  0
LINE
  5
10E
330
1E
100
AcDbEntity
  8
0
100
AcDbLine
 10
23.9672000000001
 20
2011.135
 30
0.0
 11
24.9100000000001
 21
2010.194999999999
 31
0.0
  0
LINE
  5
10F
330
1E
100
AcDbEntity
  8
0
100
AcDbLine
 10
23.6147831645941
 20
2022.7924867341
 30
0.0
 11
30.56230000000009
 21
2015.855
 31
0.0
  0
LINE
  5
110
330
1E
100
AcDbEntity
  8
0
100
AcDbLine
 10
24.9100000000001
 20
2010.194999999999
 30
0.0
 11
30.56230000000009
 21
2015.855
 31
0.0
  0
LINE
  5
111
330
1E
100
AcDbEntity
  8
0
100
AcDbLine
 10
23.4929816126348
 20
2022.914188132789
 30
0.0
 11
29.8501000000001
 21
2022.215
 31
0.0
  0
LINE
  5
112
330
1E
100
AcDbEntity
  8
0
100
AcDbLine
 10
22.92863436799899
 20
2029.12612347732
 30
0.0
 11
23.2499233006906
 21
2028.804777836569
 31
0.0
  0
LINE
  5
113
330
1E
100
AcDbEntity
  8
0
100
AcDbLine
 10
22.92863436799899
 20
2029.12612347732
 30
0.0
 11
23.2499233006903
 21
2028.804777836569
 31
0.0
  0
LINE
  5
115
330
1E
100
AcDbEntity
  8
0
100
AcDbLine
 10
26.9350000000001
 20
2019.474999999999
 30
0.0
 11
29.6196000000001
 21
2016.795
 31
0.0
  0
LINE
  5
116
330
1E
100
AcDbEntity
  8
0
100
AcDbLine
 10
26.9352000000001
 20
2019.474999999999
 30
0.0
 11
29.6197000000001
 21
2016.795
 31
0.0
  0
LINE
  5
117
330
1E
100
AcDbEntity
  8
0
100
AcDbLine
 10
26.8350530668259
 20
2019.57486475021
 30
0.0
 11
26.9352000000001
 21
2019.474999999999
 31
0.0
  0
LINE
  5
118
330
1E
100
AcDbEntity
  8
0
100
AcDbLine
 10
26.8350530668257
 20
2019.57486475021
 30
0.0
 11
26.9352000000001
 21
2019.474999999999
 31
0.0
  0
LINE
  5
119
330
1E
100
AcDbEntity
  8
0
100
AcDbLine
 10
26.7566311111126
 20
2019.65322222222
 30
0.0
 11
26.9352000000001
 21
2019.474999999999
 31
0.0
  0
LINE
  5
11A
330
1E
100
AcDbEntity
  8
0
100
AcDbLine
 10
26.7566311111127
 20
2019.65322222222
 30
0.0
 11
26.9352000000001
 21
2019.474999999999
 31
0.0
  0
LINE
  5
11B
330
1E
100
AcDbEntity
  8
0
100
AcDbLine
 10
27.2591000000001
 20
2024.805
 30
0.0
 11
29.17680000000009
 21
2022.885
 31
0.0
  0
LINE
  5
11C
330
1E
100
AcDbEntity
  8
0
100
AcDbLine
 10
27.3055347033041
 20
2024.75860730583
 30
0.0
 11
29.17680000000009
 21
2022.885
 31
0.0
  0
LINE
  5
11D
330
1E
100
AcDbEntity
  8
0
100
AcDbLine
 10
27.3055347033042
 20
2024.75860730583
 30
0.0
 11
29.1767999999995
 21
2022.885
 31
0.0
  0
LINE
  5
11E
330
1E
100
AcDbEntity
  8
0
100
AcDbLine
 10
27.1666290322577
 20
2024.89725806452
 30
0.0
 11
27.2224423700625
 21
2024.84163338385
 31
0.0
  0
LINE
  5
11F
330
1E
100
AcDbEntity
  8
0
100
AcDbLine
 10
25.7479000000001
 20
2026.314999999999
 30
0.0
 11
29.7611000000001
 21
2022.305
 31
0.0
  0
LINE
  5
120
330
1E
100
AcDbEntity
  8
0
100
AcDbLine
 10
27.1666290322574
 20
2024.89725806452
 30
0.0
 11
27.2224423700625
 21
2024.84163338385
 31
0.0
  0
LINE
  5
121
330
1E
100
AcDbEntity
  8
0
100
AcDbLine
 10
28.12282156105009
 20
2023.940297560899
 30
0.0
 11
29.5866130434771
 21
2022.479347826089
 31
0.0
  0
LINE
  5
122
330
1E
100
AcDbEntity
  8
0
100
AcDbLine
 10
28.12282156105009
 20
2023.940297560899
 30
0.0
 11
29.5866130434773
 21
2022.479347826089
 31
0.0
  0
LINE
  5
124
330
1E
100
AcDbEntity
  8
0
100
AcDbLine
 10
29.6196000000001
 20
2016.795
 30
0.0
 11
30.56230000000009
 21
2015.855
 31
0.0
  0
LINE
  5
125
330
1E
100
AcDbEntity
  8
0
100
AcDbLine
 10
29.6197000000001
 20
2016.795
 30
0.0
 11
30.56230000000009
 21
2015.855
 31
0.0
  0
LINE
  5
126
330
1E
100
AcDbEntity
  8
0
100
AcDbLine
 10
29.17680000000009
 20
2022.885
 30
0.0
 11
29.8501000000001
 21
2022.215
 31
0.0
  0
LINE
  5
127
330
1E
100
AcDbEntity
  8
0
100
AcDbLine
 10
29.7611000000001
 20
2022.305
 30
0.0
 11
32.4457000000001
 21
2019.625
 31
0.0
  0
LINE
  5
128
330
1E
100
AcDbEntity
  8
0
100
AcDbLine
 10
32.4457000000001
 20
2019.625
 30
0.0
 11
33.3884000000001
 21
2018.685
 31
0.0
  0
LINE
  5
129
330
1E
100
AcDbEntity
  8
0
100
AcDbLine
 10
29.4490961394861
 20
2016.965211706089
 30
0.0
 11
29.6197000000001
 21
2016.795
 31
0.0
  0
LINE
  5
12A
330
1E
100
AcDbEntity
  8
0
100
AcDbLine
 10
29.4490961394872
 20
2016.965211706089
 30
0.0
 11
29.6197000000001
 21
2016.795
 31
0.0
  0
LINE
  5
12B
330
1E
100
AcDbEntity
  8
0
100
AcDbLine
 10
33.3884000000001
 20
2018.685
 30
0.0
 11
47.51930000000011
 21
2032.834999999999
 31
0.0
  0
LINE
  5
130
330
1E
100
AcDbEntity
  8
0
100
AcDbLine
 10
46.8119640249441
 20
2033.54031008439
 30
0.0
 11
100.8774999999999
 21
2087.705
 31
0.0
  0
LINE
  5
131
330
1E
100
AcDbEntity
  8
0
100
AcDbLine
 10
46.81200145525489
 20
2033.540347583339
 30
0.0
 11
47.51930000000011
 21
2032.834999999999
 31
0.0
  0
LINE
  5
132
330
1E
100
AcDbEntity
  8
0
100
AcDbLine
 10
46.8119640249441
 20
2033.54031008439
 30
0.0
 11
100.8774999999999
 21
2087.705
 31
0.0
  0
LINE
  5
140
330
1E
100
AcDbEntity
  8
0
100
AcDbLine
 10
21.54110000000009
 20
2056.594999999999
 30
0.0
 11
21.6620421409167
 21
2056.474765123069
 31
0.0
  0
LINE
  5
142
330
1E
100
AcDbEntity
  8
0
100
AcDbLine
 10
82.1415
 20
974.4849999999999
 30
0.0
 11
82.64149999999998
 21
974.985
 31
0.0
  0
LINE
  5
143
330
1E
100
AcDbEntity
  8
0
100
AcDbLine
 10
82.1415
 20
974.4849999999999
 30
0.0
 11
82.1415
 21
955.485
 31
0.0
  0
LINE
  5
144
330
1E
100
AcDbEntity
  8
0
100
AcDbLine
 10
82.1415
 20
974.4849999999999
 30
0.0
 11
82.5415
 21
974.4849999999999
 31
0.0
  0
LINE
  5
145
330
1E
100
AcDbEntity
  8
0
100
AcDbLine
 10
82.1415
 20
955.485
 30
0.0
 11
82.5415
 21
955.485
 31
0.0
  0
LINE
  5
146
330
1E
100
AcDbEntity
  8
0
100
AcDbLine
 10
82.1415
 20
955.485
 30
0.0
 11
83.14149999999999
 21
954.9850000000001
 31
0.0
  0
LINE
  5
147
330
1E
100
AcDbEntity
  8
0
100
AcDbLine
 10
82.1415
 20
955.485
 30
0.0
 11
82.1415
 21
974.4849999999999
 31
0.0
  0
LINE
  5
148
330
1E
100
AcDbEntity
  8
0
100
AcDbLine
 10
82.1415
 20
954.485
 30
0.0
 11
83.14149999999999
 21
954.9850000000001
 31
0.0
  0
LINE
  5
149
330
1E
100
AcDbEntity
  8
0
100
AcDbLine
 10
82.1415
 20
954.485
 30
0.0
 11
82.1415
 21
952.9849999999999
 31
0.0
  0
LINE
  5
14A
330
1E
100
AcDbEntity
  8
0
100
AcDbLine
 10
82.1415
 20
954.485
 30
0.0
 11
82.5415
 21
954.485
 31
0.0
  0
LINE
  5
14B
330
1E
100
AcDbEntity
  8
0
100
AcDbLine
 10
82.1415
 20
952.9849999999999
 30
0.0
 11
82.1415
 21
954.485
 31
0.0
  0
LINE
  5
14C
330
1E
100
AcDbEntity
  8
0
100
AcDbLine
 10
82.1415
 20
946.185
 30
0.0
 11
82.1415
 21
950.985
 31
0.0
  0
LINE
  5
14D
330
1E
100
AcDbEntity
  8
0
100
AcDbLine
 10
82.1415
 20
932.585
 30
0.0
 11
82.1415
 21
937.385
 31
0.0
  0
LINE
  5
14E
330
1E
100
AcDbEntity
  8
0
100
AcDbLine
 10
82.1415
 20
925.7849999999999
 30
0.0
 11
82.1415
 21
930.5850000000001
 31
0.0
  0
LINE
  5
14F
330
1E
100
AcDbEntity
  8
0
100
AcDbLine
 10
82.1415
 20
918.9849999999999
 30
0.0
 11
82.1415
 21
923.7849999999999
 31
0.0
  0
LINE
  5
150
330
1E
100
AcDbEntity
  8
0
100
AcDbLine
 10
82.1415
 20
912.185
 30
0.0
 11
82.1415
 21
916.985
 31
0.0
  0
LINE
  5
151
330
1E
100
AcDbEntity
  8
0
100
AcDbLine
 10
82.1415
 20
905.385
 30
0.0
 11
82.1415
 21
910.1849999999998
 31
0.0
  0
LINE
  5
152
330
1E
100
AcDbEntity
  8
0
100
AcDbLine
 10
82.1415
 20
898.5850000000001
 30
0.0
 11
82.1415
 21
903.3849999999999
 31
0.0
  0
LINE
  5
153
330
1E
100
AcDbEntity
  8
0
100
AcDbLine
 10
82.29269999999999
 20
890.2849999999999
 30
0.0
 11
82.44559999999999
 21
889.785
 31
0.0
  0
LINE
  5
154
330
1E
100
AcDbEntity
  8
0
100
AcDbLine
 10
82.29269999999999
 20
890.2849999999999
 30
0.0
 11
82.29269999999999
 21
891.285
 31
0.0
  0
LINE
  5
155
330
1E
100
AcDbEntity
  8
0
100
AcDbLine
 10
82.29269999999999
 20
891.285
 30
0.0
 11
82.44559999999999
 21
891.7849999999999
 31
0.0
  0
LINE
  5
156
330
1E
100
AcDbEntity
  8
0
100
AcDbLine
 10
82.29269999999999
 20
891.285
 30
0.0
 11
82.29269999999999
 21
890.2849999999999
 31
0.0
  0
LINE
  5
157
330
1E
100
AcDbEntity
  8
0
100
AcDbLine
 10
82.44559999999999
 20
889.785
 30
0.0
 11
82.7515
 21
889.785
 31
0.0
  0
LINE
  5
158
330
1E
100
AcDbEntity
  8
0
100
AcDbLine
 10
82.44559999999999
 20
889.785
 30
0.0
 11
83.23299999999999
 21
889.785
 31
0.0
  0
LINE
  5
159
330
1E
100
AcDbEntity
  8
0
100
AcDbLine
 10
82.29269999999999
 20
938.8849999999999
 30
0.0
 11
82.44559999999999
 21
939.385
 31
0.0
  0
LINE
  5
15A
330
1E
100
AcDbEntity
  8
0
100
AcDbLine
 10
82.29269999999999
 20
938.8849999999999
 30
0.0
 11
82.29269999999999
 21
937.8849999999999
 31
0.0
  0
LINE
  5
15B
330
1E
100
AcDbEntity
  8
0
100
AcDbLine
 10
82.29269999999999
 20
951.485
 30
0.0
 11
82.29269999999999
 21
952.485
 31
0.0
  0
LINE
  5
15C
330
1E
100
AcDbEntity
  8
0
100
AcDbLine
 10
82.29269999999999
 20
951.485
 30
0.0
 11
82.44559999999999
 21
950.985
 31
0.0
  0
LINE
  5
15D
330
1E
100
AcDbEntity
  8
0
100
AcDbLine
 10
82.29269999999999
 20
952.485
 30
0.0
 11
82.44559999999999
 21
952.9849999999999
 31
0.0
  0
LINE
  5
15E
330
1E
100
AcDbEntity
  8
0
100
AcDbLine
 10
82.29269999999999
 20
952.485
 30
0.0
 11
82.29269999999999
 21
951.485
 31
0.0
  0
LINE
  5
15F
330
1E
100
AcDbEntity
  8
0
100
AcDbLine
 10
82.29269999999999
 20
945.6849999999999
 30
0.0
 11
82.29269999999999
 21
944.6849999999999
 31
0.0
  0
LINE
  5
160
330
1E
100
AcDbEntity
  8
0
100
AcDbLine
 10
82.29269999999999
 20
945.6849999999999
 30
0.0
 11
82.44559999999999
 21
946.185
 31
0.0
  0
LINE
  5
161
330
1E
100
AcDbEntity
  8
0
100
AcDbLine
 10
82.29269999999999
 20
944.6849999999999
 30
0.0
 11
82.44559999999999
 21
944.185
 31
0.0
  0
LINE
  5
162
330
1E
100
AcDbEntity
  8
0
100
AcDbLine
 10
82.29269999999999
 20
944.6849999999999
 30
0.0
 11
82.29269999999999
 21
945.6849999999999
 31
0.0
  0
LINE
  5
163
330
1E
100
AcDbEntity
  8
0
100
AcDbLine
 10
82.29269999999999
 20
937.8849999999999
 30
0.0
 11
82.44559999999999
 21
937.385
 31
0.0
  0
LINE
  5
164
330
1E
100
AcDbEntity
  8
0
100
AcDbLine
 10
82.29269999999999
 20
937.8849999999999
 30
0.0
 11
82.29269999999999
 21
938.8849999999999
 31
0.0
  0
LINE
  5
165
330
1E
100
AcDbEntity
  8
0
100
AcDbLine
 10
82.29269999999999
 20
931.085
 30
0.0
 11
82.44559999999999
 21
930.5850000000001
 31
0.0
  0
LINE
  5
166
330
1E
100
AcDbEntity
  8
0
100
AcDbLine
 10
82.29269999999999
 20
931.085
 30
0.0
 11
82.29269999999999
 21
932.085
 31
0.0
  0
LINE
  5
167
330
1E
100
AcDbEntity
  8
0
100
AcDbLine
 10
82.29269999999999
 20
932.085
 30
0.0
 11
82.44559999999999
 21
932.585
 31
0.0
  0
LINE
  5
168
330
1E
100
AcDbEntity
  8
0
100
AcDbLine
 10
82.29269999999999
 20
932.085
 30
0.0
 11
82.29269999999999
 21
931.085
 31
0.0
  0
LINE
  5
169
330
1E
100
AcDbEntity
  8
0
100
AcDbLine
 10
82.29269999999999
 20
924.285
 30
0.0
 11
82.29269999999999
 21
925.285
 31
0.0
  0
LINE
  5
16A
330
1E
100
AcDbEntity
  8
0
100
AcDbLine
 10
82.29269999999999
 20
924.285
 30
0.0
 11
82.44559999999999
 21
923.7849999999999
 31
0.0
  0
LINE
  5
16B
330
1E
100
AcDbEntity
  8
0
100
AcDbLine
 10
82.29269999999999
 20
925.285
 30
0.0
 11
82.44559999999999
 21
925.7849999999999
 31
0.0
  0
LINE
  5
16C
330
1E
100
AcDbEntity
  8
0
100
AcDbLine
 10
82.29269999999999
 20
925.285
 30
0.0
 11
82.29269999999999
 21
924.285
 31
0.0
  0
LINE
  5
16D
330
1E
100
AcDbEntity
  8
0
100
AcDbLine
 10
82.29269999999999
 20
917.4850000000001
 30
0.0
 11
82.29269999999999
 21
918.485
 31
0.0
  0
LINE
  5
16E
330
1E
100
AcDbEntity
  8
0
100
AcDbLine
 10
82.29269999999999
 20
917.4850000000001
 30
0.0
 11
82.44559999999999
 21
916.985
 31
0.0
  0
LINE
  5
16F
330
1E
100
AcDbEntity
  8
0
100
AcDbLine
 10
82.29269999999999
 20
918.485
 30
0.0
 11
82.44559999999999
 21
918.9849999999999
 31
0.0
  0
LINE
  5
170
330
1E
100
AcDbEntity
  8
0
100
AcDbLine
 10
82.29269999999999
 20
918.485
 30
0.0
 11
82.29269999999999
 21
917.4850000000001
 31
0.0
  0
LINE
  5
171
330
1E
100
AcDbEntity
  8
0
100
AcDbLine
 10
82.29269999999999
 20
910.6849999999999
 30
0.0
 11
82.44559999999999
 21
910.1849999999998
 31
0.0
  0
LINE
  5
172
330
1E
100
AcDbEntity
  8
0
100
AcDbLine
 10
82.29269999999999
 20
910.6849999999999
 30
0.0
 11
82.29269999999999
 21
911.6849999999999
 31
0.0
  0
LINE
  5
173
330
1E
100
AcDbEntity
  8
0
100
AcDbLine
 10
82.29269999999999
 20
911.6849999999999
 30
0.0
 11
82.44559999999999
 21
912.185
 31
0.0
  0
LINE
  5
174
330
1E
100
AcDbEntity
  8
0
100
AcDbLine
 10
82.29269999999999
 20
911.6849999999999
 30
0.0
 11
82.29269999999999
 21
910.6849999999999
 31
0.0
  0
LINE
  5
175
330
1E
100
AcDbEntity
  8
0
100
AcDbLine
 10
82.29269999999999
 20
903.885
 30
0.0
 11
82.29269999999999
 21
904.8849999999999
 31
0.0
  0
LINE
  5
176
330
1E
100
AcDbEntity
  8
0
100
AcDbLine
 10
82.29269999999999
 20
903.885
 30
0.0
 11
82.44559999999999
 21
903.3849999999999
 31
0.0
  0
LINE
  5
177
330
1E
100
AcDbEntity
  8
0
100
AcDbLine
 10
82.29269999999999
 20
904.8849999999999
 30
0.0
 11
82.44559999999999
 21
905.385
 31
0.0
  0
LINE
  5
178
330
1E
100
AcDbEntity
  8
0
100
AcDbLine
 10
82.29269999999999
 20
904.8849999999999
 30
0.0
 11
82.29269999999999
 21
903.885
 31
0.0
  0
LINE
  5
179
330
1E
100
AcDbEntity
  8
0
100
AcDbLine
 10
82.29269999999999
 20
897.085
 30
0.0
 11
82.44559999999999
 21
896.5850000000001
 31
0.0
  0
LINE
  5
17A
330
1E
100
AcDbEntity
  8
0
100
AcDbLine
 10
82.29269999999999
 20
897.085
 30
0.0
 11
82.29269999999999
 21
898.085
 31
0.0
  0
LINE
  5
17B
330
1E
100
AcDbEntity
  8
0
100
AcDbLine
 10
82.44559999999999
 20
903.3849999999999
 30
0.0
 11
82.7515
 21
903.3849999999999
 31
0.0
  0
LINE
  5
17C
330
1E
100
AcDbEntity
  8
0
100
AcDbLine
 10
82.44559999999999
 20
903.3849999999999
 30
0.0
 11
83.23299999999999
 21
903.3849999999999
 31
0.0
  0
LINE
  5
17D
330
1E
100
AcDbEntity
  8
0
100
AcDbLine
 10
82.44559999999999
 20
939.385
 30
0.0
 11
82.7515
 21
939.385
 31
0.0
  0
LINE
  5
17E
330
1E
100
AcDbEntity
  8
0
100
AcDbLine
 10
82.44559999999999
 20
950.985
 30
0.0
 11
82.7515
 21
950.985
 31
0.0
  0
LINE
  5
180
330
1E
100
AcDbEntity
  8
0
100
AcDbLine
 10
82.44559999999999
 20
952.9849999999999
 30
0.0
 11
82.7515
 21
952.9849999999999
 31
0.0
  0
LINE
  5
181
330
1E
100
AcDbEntity
  8
0
100
AcDbLine
 10
82.44559999999999
 20
946.185
 30
0.0
 11
82.7515
 21
946.185
 31
0.0
  0
LINE
  5
182
330
1E
100
AcDbEntity
  8
0
100
AcDbLine
 10
82.44559999999999
 20
944.185
 30
0.0
 11
82.7515
 21
944.185
 31
0.0
  0
LINE
  5
185
330
1E
100
AcDbEntity
  8
0
100
AcDbLine
 10
82.44559999999999
 20
937.385
 30
0.0
 11
82.7515
 21
937.385
 31
0.0
  0
LINE
  5
186
330
1E
100
AcDbEntity
  8
0
100
AcDbLine
 10
82.44559999999999
 20
930.5850000000001
 30
0.0
 11
82.7515
 21
930.5850000000001
 31
0.0
  0
LINE
  5
188
330
1E
100
AcDbEntity
  8
0
100
AcDbLine
 10
82.44559999999999
 20
932.585
 30
0.0
 11
82.7515
 21
932.585
 31
0.0
  0
LINE
  5
189
330
1E
100
AcDbEntity
  8
0
100
AcDbLine
 10
82.44559999999999
 20
923.7849999999999
 30
0.0
 11
82.7515
 21
923.7849999999999
 31
0.0
  0
LINE
  5
18B
330
1E
100
AcDbEntity
  8
0
100
AcDbLine
 10
82.44559999999999
 20
925.7849999999999
 30
0.0
 11
82.7515
 21
925.7849999999999
 31
0.0
  0
LINE
  5
18C
330
1E
100
AcDbEntity
  8
0
100
AcDbLine
 10
82.44559999999999
 20
916.985
 30
0.0
 11
82.7515
 21
916.985
 31
0.0
  0
LINE
  5
18E
330
1E
100
AcDbEntity
  8
0
100
AcDbLine
 10
82.44559999999999
 20
918.9849999999999
 30
0.0
 11
82.7515
 21
918.9849999999999
 31
0.0
  0
LINE
  5
18F
330
1E
100
AcDbEntity
  8
0
100
AcDbLine
 10
82.44559999999999
 20
910.1849999999998
 30
0.0
 11
82.7515
 21
910.1849999999998
 31
0.0
  0
LINE
  5
191
330
1E
100
AcDbEntity
  8
0
100
AcDbLine
 10
82.44559999999999
 20
912.185
 30
0.0
 11
82.7515
 21
912.185
 31
0.0
  0
LINE
  5
192
330
1E
100
AcDbEntity
  8
0
100
AcDbLine
 10
82.44559999999999
 20
905.385
 30
0.0
 11
82.7515
 21
905.385
 31
0.0
  0
LINE
  5
193
330
1E
100
AcDbEntity
  8
0
100
AcDbLine
 10
82.29269999999999
 20
898.085
 30
0.0
 11
82.44559999999999
 21
898.5850000000001
 31
0.0
  0
LINE
  5
194
330
1E
100
AcDbEntity
  8
0
100
AcDbLine
 10
82.29269999999999
 20
898.085
 30
0.0
 11
82.29269999999999
 21
897.085
 31
0.0
  0
LINE
  5
195
330
1E
100
AcDbEntity
  8
0
100
AcDbLine
 10
82.44559999999999
 20
896.5850000000001
 30
0.0
 11
82.7515
 21
896.5850000000001
 31
0.0
  0
LINE
  5
196
330
1E
100
AcDbEntity
  8
0
100
AcDbLine
 10
82.44559999999999
 20
896.5850000000001
 30
0.0
 11
83.23299999999999
 21
896.5850000000001
 31
0.0
  0
LINE
  5
197
330
1E
100
AcDbEntity
  8
0
100
AcDbLine
 10
82.44559999999999
 20
898.5850000000001
 30
0.0
 11
82.7515
 21
898.5850000000001
 31
0.0
  0
LINE
  5
198
330
1E
100
AcDbEntity
  8
0
100
AcDbLine
 10
82.44559999999999
 20
891.7849999999999
 30
0.0
 11
82.7515
 21
891.7849999999999
 31
0.0
  0
LINE
  5
199
330
1E
100
AcDbEntity
  8
0
100
AcDbLine
 10
82.7515
 20
939.385
 30
0.0
 11
82.9044
 21
938.8849999999999
 31
0.0
  0
LINE
  5
19B
330
1E
100
AcDbEntity
  8
0
100
AcDbLine
 10
82.7515
 20
950.985
 30
0.0
 11
82.9044
 21
951.485
 31
0.0
  0
LINE
  5
19D
330
1E
100
AcDbEntity
  8
0
100
AcDbLine
 10
82.7515
 20
952.9849999999999
 30
0.0
 11
82.9044
 21
952.485
 31
0.0
  0
LINE
  5
1A0
330
1E
100
AcDbEntity
  8
0
100
AcDbLine
 10
82.7515
 20
946.185
 30
0.0
 11
82.9044
 21
945.6849999999999
 31
0.0
  0
LINE
  5
1A1
330
1E
100
AcDbEntity
  8
0
100
AcDbLine
 10
82.7515
 20
944.185
 30
0.0
 11
82.9044
 21
944.6849999999999
 31
0.0
  0
LINE
  5
1A3
330
1E
100
AcDbEntity
  8
0
100
AcDbLine
 10
82.7515
 20
937.385
 30
0.0
 11
82.9044
 21
937.8849999999999
 31
0.0
  0
LINE
  5
1A5
330
1E
100
AcDbEntity
  8
0
100
AcDbLine
 10
82.7515
 20
930.5850000000001
 30
0.0
 11
82.9044
 21
931.085
 31
0.0
  0
LINE
  5
1A8
330
1E
100
AcDbEntity
  8
0
100
AcDbLine
 10
82.7515
 20
932.585
 30
0.0
 11
82.9044
 21
932.085
 31
0.0
  0
LINE
  5
1A9
330
1E
100
AcDbEntity
  8
0
100
AcDbLine
 10
82.7515
 20
923.7849999999999
 30
0.0
 11
82.9044
 21
924.285
 31
0.0
  0
LINE
  5
1AB
330
1E
100
AcDbEntity
  8
0
100
AcDbLine
 10
82.7515
 20
925.7849999999999
 30
0.0
 11
82.9044
 21
925.285
 31
0.0
  0
LINE
  5
1AD
330
1E
100
AcDbEntity
  8
0
100
AcDbLine
 10
82.7515
 20
916.985
 30
0.0
 11
82.9044
 21
917.4850000000001
 31
0.0
  0
LINE
  5
1AF
330
1E
100
AcDbEntity
  8
0
100
AcDbLine
 10
82.7515
 20
918.9849999999999
 30
0.0
 11
82.9044
 21
918.485
 31
0.0
  0
LINE
  5
1B1
330
1E
100
AcDbEntity
  8
0
100
AcDbLine
 10
82.7515
 20
910.1849999999998
 30
0.0
 11
82.9044
 21
910.6849999999999
 31
0.0
  0
LINE
  5
1B4
330
1E
100
AcDbEntity
  8
0
100
AcDbLine
 10
82.7515
 20
912.185
 30
0.0
 11
82.9044
 21
911.6849999999999
 31
0.0
  0
LINE
  5
1B5
330
1E
100
AcDbEntity
  8
0
100
AcDbLine
 10
82.7515
 20
903.3849999999999
 30
0.0
 11
82.9044
 21
903.885
 31
0.0
  0
LINE
  5
1B6
330
1E
100
AcDbEntity
  8
0
100
AcDbLine
 10
82.7515
 20
903.3849999999999
 30
0.0
 11
83.3420211726384
 21
903.3849999999999
 31
0.0
  0
LINE
  5
1B7
330
1E
100
AcDbEntity
  8
0
100
AcDbLine
 10
82.7515
 20
905.385
 30
0.0
 11
82.9044
 21
904.8849999999999
 31
0.0
  0
LINE
  5
1B8
330
1E
100
AcDbEntity
  8
0
100
AcDbLine
 10
82.7515
 20
905.385
 30
0.0
 11
83.35765635179148
 21
905.385
 31
0.0
  0
LINE
  5
1B9
330
1E
100
AcDbEntity
  8
0
100
AcDbLine
 10
82.7515
 20
896.5850000000001
 30
0.0
 11
82.9044
 21
897.085
 31
0.0
  0
LINE
  5
1BA
330
1E
100
AcDbEntity
  8
0
100
AcDbLine
 10
82.7515
 20
896.5850000000001
 30
0.0
 11
83.2888615635179
 21
896.5850000000001
 31
0.0
  0
LINE
  5
1BB
330
1E
100
AcDbEntity
  8
0
100
AcDbLine
 10
82.7515
 20
898.5850000000001
 30
0.0
 11
83.304496742671
 21
898.5850000000001
 31
0.0
  0
LINE
  5
1BC
330
1E
100
AcDbEntity
  8
0
100
AcDbLine
 10
82.7515
 20
898.5850000000001
 30
0.0
 11
82.9044
 21
898.085
 31
0.0
  0
LINE
  5
1BD
330
1E
100
AcDbEntity
  8
0
100
AcDbLine
 10
82.7515
 20
889.785
 30
0.0
 11
82.9044
 21
890.2849999999999
 31
0.0
  0
LINE
  5
1BE
330
1E
100
AcDbEntity
  8
0
100
AcDbLine
 10
82.7515
 20
889.785
 30
0.0
 11
83.2357019543974
 21
889.785
 31
0.0
  0
LINE
  5
1C0
330
1E
100
AcDbEntity
  8
0
100
AcDbLine
 10
82.9044
 20
890.2849999999999
 30
0.0
 11
82.9044
 21
891.285
 31
0.0
  0
LINE
  5
1C1
330
1E
100
AcDbEntity
  8
0
100
AcDbLine
 10
82.9044
 20
938.8849999999999
 30
0.0
 11
82.9044
 21
937.8849999999999
 31
0.0
  0
LINE
  5
1C3
330
1E
100
AcDbEntity
  8
0
100
AcDbLine
 10
82.9044
 20
952.485
 30
0.0
 11
82.9044
 21
951.485
 31
0.0
  0
LINE
  5
1C6
330
1E
100
AcDbEntity
  8
0
100
AcDbLine
 10
82.9044
 20
951.485
 30
0.0
 11
82.9044
 21
952.485
 31
0.0
  0
LINE
  5
1C7
330
1E
100
AcDbEntity
  8
0
100
AcDbLine
 10
82.9044
 20
945.6849999999999
 30
0.0
 11
82.9044
 21
944.6849999999999
 31
0.0
  0
LINE
  5
1CA
330
1E
100
AcDbEntity
  8
0
100
AcDbLine
 10
82.9044
 20
944.6849999999999
 30
0.0
 11
82.9044
 21
945.6849999999999
 31
0.0
  0
LINE
  5
1CC
330
1E
100
AcDbEntity
  8
0
100
AcDbLine
 10
82.9044
 20
937.8849999999999
 30
0.0
 11
82.9044
 21
938.8849999999999
 31
0.0
  0
LINE
  5
1CE
330
1E
100
AcDbEntity
  8
0
100
AcDbLine
 10
82.9044
 20
931.085
 30
0.0
 11
82.9044
 21
932.085
 31
0.0
  0
LINE
  5
1D0
330
1E
100
AcDbEntity
  8
0
100
AcDbLine
 10
82.9044
 20
932.085
 30
0.0
 11
82.9044
 21
931.085
 31
0.0
  0
LINE
  5
1D2
330
1E
100
AcDbEntity
  8
0
100
AcDbLine
 10
82.9044
 20
925.285
 30
0.0
 11
82.9044
 21
924.285
 31
0.0
  0
LINE
  5
1D3
330
1E
100
AcDbEntity
  8
0
100
AcDbLine
 10
82.9044
 20
924.285
 30
0.0
 11
82.9044
 21
925.285
 31
0.0
  0
LINE
  5
1D6
330
1E
100
AcDbEntity
  8
0
100
AcDbLine
 10
82.9044
 20
918.485
 30
0.0
 11
82.9044
 21
917.4850000000001
 31
0.0
  0
LINE
  5
1D7
330
1E
100
AcDbEntity
  8
0
100
AcDbLine
 10
82.9044
 20
917.4850000000001
 30
0.0
 11
82.9044
 21
918.485
 31
0.0
  0
LINE
  5
1DA
330
1E
100
AcDbEntity
  8
0
100
AcDbLine
 10
82.9044
 20
910.6849999999999
 30
0.0
 11
82.9044
 21
911.6849999999999
 31
0.0
  0
LINE
  5
1DC
330
1E
100
AcDbEntity
  8
0
100
AcDbLine
 10
82.9044
 20
911.6849999999999
 30
0.0
 11
82.9044
 21
910.6849999999999
 31
0.0
  0
LINE
  5
1DE
330
1E
100
AcDbEntity
  8
0
100
AcDbLine
 10
82.9044
 20
904.8849999999999
 30
0.0
 11
82.9044
 21
903.885
 31
0.0
  0
LINE
  5
1DF
330
1E
100
AcDbEntity
  8
0
100
AcDbLine
 10
82.9044
 20
903.885
 30
0.0
 11
82.9044
 21
904.8849999999999
 31
0.0
  0
LINE
  5
1E2
330
1E
100
AcDbEntity
  8
0
100
AcDbLine
 10
82.9044
 20
897.085
 30
0.0
 11
82.9044
 21
898.085
 31
0.0
  0
LINE
  5
1E4
330
1E
100
AcDbEntity
  8
0
100
AcDbLine
 10
82.9044
 20
898.085
 30
0.0
 11
82.9044
 21
897.085
 31
0.0
  0
LINE
  5
1E6
330
1E
100
AcDbEntity
  8
0
100
AcDbLine
 10
82.9044
 20
891.285
 30
0.0
 11
82.9044
 21
890.2849999999999
 31
0.0
  0
LINE
  5
1E7
330
1E
100
AcDbEntity
  8
0
100
AcDbLine
 10
82.7515
 20
891.7849999999999
 30
0.0
 11
83.2513371335505
 21
891.7849999999999
 31
0.0
  0
LINE
  5
1E8
330
1E
100
AcDbEntity
  8
0
100
AcDbLine
 10
82.7515
 20
891.7849999999999
 30
0.0
 11
82.9044
 21
891.285
 31
0.0
  0
LINE
  5
1E9
330
1E
100
AcDbEntity
  8
0
100
AcDbLine
 10
83.5415
 20
954.9850000000001
 30
0.0
 11
84.6415
 21
954.9850000000001
 31
0.0
  0
LINE
  5
1EA
330
1E
100
AcDbEntity
  8
0
100
AcDbLine
 10
82.5415
 20
954.485
 30
0.0
 11
83.7415
 21
954.485
 31
0.0
  0
LINE
  5
1EB
330
1E
100
AcDbEntity
  8
0
100
AcDbLine
 10
82.5415
 20
974.4849999999999
 30
0.0
 11
83.7415
 21
974.4849999999999
 31
0.0
  0
LINE
  5
1EC
330
1E
100
AcDbEntity
  8
0
100
AcDbLine
 10
83.04149999999999
 20
974.985
 30
0.0
 11
84.14149999999999
 21
974.985
 31
0.0
  0
LINE
  5
1ED
330
1E
100
AcDbEntity
  8
0
100
AcDbLine
 10
82.64149999999998
 20
974.985
 30
0.0
 11
83.04149999999999
 21
974.985
 31
0.0
  0
LINE
  5
1EE
330
1E
100
AcDbEntity
  8
0
100
AcDbLine
 10
82.5415
 20
955.485
 30
0.0
 11
83.7415
 21
955.485
 31
0.0
  0
LINE
  5
1EF
330
1E
100
AcDbEntity
  8
0
100
AcDbLine
 10
83.14149999999999
 20
954.9850000000001
 30
0.0
 11
83.5415
 21
954.9850000000001
 31
0.0
  0
LINE
  5
1F0
330
1E
100
AcDbEntity
  8
0
100
AcDbLine
 10
82.1415
 20
891.7849999999999
 30
0.0
 11
82.1415
 21
896.5850000000001
 31
0.0
  0
LINE
  5
1F1
330
1E
100
AcDbEntity
  8
0
100
AcDbLine
 10
82.1415
 20
884.9849999999999
 30
0.0
 11
82.1415
 21
889.785
 31
0.0
  0
LINE
  5
1F2
330
1E
100
AcDbEntity
  8
0
100
AcDbLine
 10
84.4711
 20
938.8849999999999
 30
0.0
 11
84.76170000000001
 21
939.385
 31
0.0
  0
LINE
  5
1F3
330
1E
100
AcDbEntity
  8
0
100
AcDbLine
 10
84.4711
 20
938.8849999999999
 30
0.0
 11
84.4711
 21
937.8849999999999
 31
0.0
  0
LINE
  5
1F4
330
1E
100
AcDbEntity
  8
0
100
AcDbLine
 10
84.4711
 20
951.485
 30
0.0
 11
84.4711
 21
952.485
 31
0.0
  0
LINE
  5
1F5
330
1E
100
AcDbEntity
  8
0
100
AcDbLine
 10
84.4711
 20
951.485
 30
0.0
 11
84.76170000000001
 21
950.985
 31
0.0
  0
LINE
  5
1F6
330
1E
100
AcDbEntity
  8
0
100
AcDbLine
 10
84.4711
 20
952.485
 30
0.0
 11
84.76170000000001
 21
952.9849999999999
 31
0.0
  0
LINE
  5
1F7
330
1E
100
AcDbEntity
  8
0
100
AcDbLine
 10
84.4711
 20
952.485
 30
0.0
 11
84.4711
 21
951.485
 31
0.0
  0
LINE
  5
1F8
330
1E
100
AcDbEntity
  8
0
100
AcDbLine
 10
84.4711
 20
945.6849999999999
 30
0.0
 11
84.4711
 21
944.6849999999999
 31
0.0
  0
LINE
  5
1F9
330
1E
100
AcDbEntity
  8
0
100
AcDbLine
 10
84.4711
 20
945.6849999999999
 30
0.0
 11
84.76170000000001
 21
946.185
 31
0.0
  0
LINE
  5
1FA
330
1E
100
AcDbEntity
  8
0
100
AcDbLine
 10
84.4711
 20
944.6849999999999
 30
0.0
 11
84.76170000000001
 21
944.185
 31
0.0
  0
LINE
  5
1FB
330
1E
100
AcDbEntity
  8
0
100
AcDbLine
 10
84.4711
 20
944.6849999999999
 30
0.0
 11
84.4711
 21
945.6849999999999
 31
0.0
  0
LINE
  5
1FC
330
1E
100
AcDbEntity
  8
0
100
AcDbLine
 10
84.4711
 20
937.8849999999999
 30
0.0
 11
84.76170000000001
 21
937.385
 31
0.0
  0
LINE
  5
1FD
330
1E
100
AcDbEntity
  8
0
100
AcDbLine
 10
84.4711
 20
937.8849999999999
 30
0.0
 11
84.4711
 21
938.8849999999999
 31
0.0
  0
LINE
  5
1FE
330
1E
100
AcDbEntity
  8
0
100
AcDbLine
 10
84.4711
 20
931.085
 30
0.0
 11
84.76170000000001
 21
930.5850000000001
 31
0.0
  0
LINE
  5
1FF
330
1E
100
AcDbEntity
  8
0
100
AcDbLine
 10
84.4711
 20
931.085
 30
0.0
 11
84.4711
 21
932.085
 31
0.0
  0
LINE
  5
200
330
1E
100
AcDbEntity
  8
0
100
AcDbLine
 10
84.4711
 20
932.085
 30
0.0
 11
84.76170000000001
 21
932.585
 31
0.0
  0
LINE
  5
201
330
1E
100
AcDbEntity
  8
0
100
AcDbLine
 10
84.4711
 20
932.085
 30
0.0
 11
84.4711
 21
931.085
 31
0.0
  0
LINE
  5
202
330
1E
100
AcDbEntity
  8
0
100
AcDbLine
 10
84.4711
 20
925.285
 30
0.0
 11
84.76170000000001
 21
925.7849999999999
 31
0.0
  0
LINE
  5
203
330
1E
100
AcDbEntity
  8
0
100
AcDbLine
 10
84.4711
 20
925.285
 30
0.0
 11
84.4711
 21
924.285
 31
0.0
  0
LINE
  5
204
330
1E
100
AcDbEntity
  8
0
100
AcDbLine
 10
84.4711
 20
924.285
 30
0.0
 11
84.76170000000001
 21
923.7849999999999
 31
0.0
  0
LINE
  5
205
330
1E
100
AcDbEntity
  8
0
100
AcDbLine
 10
84.4711
 20
924.285
 30
0.0
 11
84.4711
 21
925.285
 31
0.0
  0
LINE
  5
206
330
1E
100
AcDbEntity
  8
0
100
AcDbLine
 10
84.4711
 20
918.485
 30
0.0
 11
84.76170000000001
 21
918.9849999999999
 31
0.0
  0
LINE
  5
207
330
1E
100
AcDbEntity
  8
0
100
AcDbLine
 10
84.4711
 20
918.485
 30
0.0
 11
84.4711
 21
917.4850000000001
 31
0.0
  0
LINE
  5
208
330
1E
100
AcDbEntity
  8
0
100
AcDbLine
 10
84.4711
 20
917.4850000000001
 30
0.0
 11
84.76170000000001
 21
916.985
 31
0.0
  0
LINE
  5
209
330
1E
100
AcDbEntity
  8
0
100
AcDbLine
 10
84.4711
 20
917.4850000000001
 30
0.0
 11
84.4711
 21
918.485
 31
0.0
  0
LINE
  5
20A
330
1E
100
AcDbEntity
  8
0
100
AcDbLine
 10
84.4711
 20
910.6849999999999
 30
0.0
 11
84.76170000000001
 21
910.1849999999998
 31
0.0
  0
LINE
  5
20B
330
1E
100
AcDbEntity
  8
0
100
AcDbLine
 10
84.4711
 20
910.6849999999999
 30
0.0
 11
84.4711
 21
911.6849999999999
 31
0.0
  0
LINE
  5
20C
330
1E
100
AcDbEntity
  8
0
100
AcDbLine
 10
84.4711
 20
911.6849999999999
 30
0.0
 11
84.76170000000001
 21
912.185
 31
0.0
  0
LINE
  5
20D
330
1E
100
AcDbEntity
  8
0
100
AcDbLine
 10
84.4711
 20
911.6849999999999
 30
0.0
 11
84.4711
 21
910.6849999999999
 31
0.0
  0
LINE
  5
20E
330
1E
100
AcDbEntity
  8
0
100
AcDbLine
 10
84.4711
 20
904.8849999999999
 30
0.0
 11
84.76170000000001
 21
905.385
 31
0.0
  0
LINE
  5
20F
330
1E
100
AcDbEntity
  8
0
100
AcDbLine
 10
84.4711
 20
904.8849999999999
 30
0.0
 11
84.4711
 21
903.885
 31
0.0
  0
LINE
  5
210
330
1E
100
AcDbEntity
  8
0
100
AcDbLine
 10
84.4711
 20
903.885
 30
0.0
 11
84.76170000000001
 21
903.3849999999999
 31
0.0
  0
LINE
  5
211
330
1E
100
AcDbEntity
  8
0
100
AcDbLine
 10
84.4711
 20
903.885
 30
0.0
 11
84.4711
 21
904.8849999999999
 31
0.0
  0
LINE
  5
212
330
1E
100
AcDbEntity
  8
0
100
AcDbLine
 10
84.4711
 20
897.085
 30
0.0
 11
84.76170000000001
 21
896.5850000000001
 31
0.0
  0
LINE
  5
213
330
1E
100
AcDbEntity
  8
0
100
AcDbLine
 10
84.4711
 20
897.085
 30
0.0
 11
84.4711
 21
898.085
 31
0.0
  0
LINE
  5
214
330
1E
100
AcDbEntity
  8
0
100
AcDbLine
 10
84.4711
 20
898.085
 30
0.0
 11
84.76170000000001
 21
898.5850000000001
 31
0.0
  0
LINE
  5
215
330
1E
100
AcDbEntity
  8
0
100
AcDbLine
 10
84.4711
 20
898.085
 30
0.0
 11
84.4711
 21
897.085
 31
0.0
  0
LINE
  5
216
330
1E
100
AcDbEntity
  8
0
100
AcDbLine
 10
84.4711
 20
890.2849999999999
 30
0.0
 11
84.76170000000001
 21
889.785
 31
0.0
  0
LINE
  5
217
330
1E
100
AcDbEntity
  8
0
100
AcDbLine
 10
84.4711
 20
890.2849999999999
 30
0.0
 11
84.4711
 21
891.285
 31
0.0
  0
LINE
  5
218
330
1E
100
AcDbEntity
  8
0
100
AcDbLine
 10
84.4711
 20
891.285
 30
0.0
 11
84.76170000000001
 21
891.7849999999999
 31
0.0
  0
LINE
  5
219
330
1E
100
AcDbEntity
  8
0
100
AcDbLine
 10
84.4711
 20
891.285
 30
0.0
 11
84.4711
 21
890.2849999999999
 31
0.0
  0
LINE
  5
21A
330
1E
100
AcDbEntity
  8
0
100
AcDbLine
 10
84.4711
 20
884.485
 30
0.0
 11
84.76170000000001
 21
884.9849999999999
 31
0.0
  0
LINE
  5
21B
330
1E
100
AcDbEntity
  8
0
100
AcDbLine
 10
84.4711
 20
884.485
 30
0.0
 11
84.4711
 21
883.4850000000001
 31
0.0
  0
LINE
  5
21C
330
1E
100
AcDbEntity
  8
0
100
AcDbLine
 10
85.34299999999999
 20
882.985
 30
0.0
 11
85.63360000000001
 21
883.4850000000001
 31
0.0
  0
LINE
  5
21D
330
1E
100
AcDbEntity
  8
0
100
AcDbLine
 10
85.34299999999999
 20
882.985
 30
0.0
 11
85.64149999999999
 21
882.985
 31
0.0
  0
LINE
  5
21F
330
1E
100
AcDbEntity
  8
0
100
AcDbLine
 10
85.63360000000001
 20
883.4850000000001
 30
0.0
 11
85.63360000000001
 21
884.485
 31
0.0
  0
LINE
  5
220
330
1E
100
AcDbEntity
  8
0
100
AcDbLine
 10
84.76170000000001
 20
884.9849999999999
 30
0.0
 11
85.34299999999999
 21
884.9849999999999
 31
0.0
  0
LINE
  5
221
330
1E
100
AcDbEntity
  8
0
100
AcDbLine
 10
85.34299999999999
 20
889.785
 30
0.0
 11
85.64149999999999
 21
889.785
 31
0.0
  0
LINE
  5
222
330
1E
100
AcDbEntity
  8
0
100
AcDbLine
 10
85.34299999999999
 20
889.785
 30
0.0
 11
85.63360000000001
 21
890.2849999999999
 31
0.0
  0
LINE
  5
223
330
1E
100
AcDbEntity
  8
0
100
AcDbLine
 10
84.76170000000001
 20
889.785
 30
0.0
 11
85.34299999999999
 21
889.785
 31
0.0
  0
LINE
  5
224
330
1E
100
AcDbEntity
  8
0
100
AcDbLine
 10
84.76170000000001
 20
889.785
 30
0.0
 11
85.37460000000001
 21
889.785
 31
0.0
  0
LINE
  5
225
330
1E
100
AcDbEntity
  8
0
100
AcDbLine
 10
85.34299999999999
 20
896.5850000000001
 30
0.0
 11
85.64149999999999
 21
896.5850000000001
 31
0.0
  0
LINE
  5
226
330
1E
100
AcDbEntity
  8
0
100
AcDbLine
 10
85.34299999999999
 20
896.5850000000001
 30
0.0
 11
85.63360000000001
 21
897.085
 31
0.0
  0
LINE
  5
227
330
1E
100
AcDbEntity
  8
0
100
AcDbLine
 10
84.76170000000001
 20
896.5850000000001
 30
0.0
 11
85.34299999999999
 21
896.5850000000001
 31
0.0
  0
LINE
  5
228
330
1E
100
AcDbEntity
  8
0
100
AcDbLine
 10
84.76170000000001
 20
896.5850000000001
 30
0.0
 11
85.37460000000001
 21
896.5850000000001
 31
0.0
  0
LINE
  5
229
330
1E
100
AcDbEntity
  8
0
100
AcDbLine
 10
84.76170000000001
 20
939.385
 30
0.0
 11
85.34299999999999
 21
939.385
 31
0.0
  0
LINE
  5
22A
330
1E
100
AcDbEntity
  8
0
100
AcDbLine
 10
84.76170000000001
 20
950.985
 30
0.0
 11
85.34299999999999
 21
950.985
 31
0.0
  0
LINE
  5
22B
330
1E
100
AcDbEntity
  8
0
100
AcDbLine
 10
84.76170000000001
 20
950.985
 30
0.0
 11
85.37460000000001
 21
950.985
 31
0.0
  0
LINE
  5
22C
330
1E
100
AcDbEntity
  8
0
100
AcDbLine
 10
84.76170000000001
 20
952.9849999999999
 30
0.0
 11
85.34299999999999
 21
952.9849999999999
 31
0.0
  0
LINE
  5
22D
330
1E
100
AcDbEntity
  8
0
100
AcDbLine
 10
84.76170000000001
 20
946.185
 30
0.0
 11
85.34299999999999
 21
946.185
 31
0.0
  0
LINE
  5
22E
330
1E
100
AcDbEntity
  8
0
100
AcDbLine
 10
84.76170000000001
 20
944.185
 30
0.0
 11
85.34299999999999
 21
944.185
 31
0.0
  0
LINE
  5
22F
330
1E
100
AcDbEntity
  8
0
100
AcDbLine
 10
84.76170000000001
 20
944.185
 30
0.0
 11
85.37460000000001
 21
944.185
 31
0.0
  0
LINE
  5
230
330
1E
100
AcDbEntity
  8
0
100
AcDbLine
 10
84.76170000000001
 20
937.385
 30
0.0
 11
85.34299999999999
 21
937.385
 31
0.0
  0
LINE
  5
231
330
1E
100
AcDbEntity
  8
0
100
AcDbLine
 10
84.76170000000001
 20
937.385
 30
0.0
 11
85.37460000000001
 21
937.385
 31
0.0
  0
LINE
  5
232
330
1E
100
AcDbEntity
  8
0
100
AcDbLine
 10
84.76170000000001
 20
930.5850000000001
 30
0.0
 11
85.34299999999999
 21
930.5850000000001
 31
0.0
  0
LINE
  5
233
330
1E
100
AcDbEntity
  8
0
100
AcDbLine
 10
84.76170000000001
 20
930.5850000000001
 30
0.0
 11
85.34566938110749
 21
930.5850000000001
 31
0.0
  0
LINE
  5
234
330
1E
100
AcDbEntity
  8
0
100
AcDbLine
 10
84.76170000000001
 20
932.585
 30
0.0
 11
85.34299999999999
 21
932.585
 31
0.0
  0
LINE
  5
235
330
1E
100
AcDbEntity
  8
0
100
AcDbLine
 10
84.76170000000001
 20
925.7849999999999
 30
0.0
 11
85.34299999999999
 21
925.7849999999999
 31
0.0
  0
LINE
  5
236
330
1E
100
AcDbEntity
  8
0
100
AcDbLine
 10
84.76170000000001
 20
923.7849999999999
 30
0.0
 11
85.34299999999999
 21
923.7849999999999
 31
0.0
  0
LINE
  5
237
330
1E
100
AcDbEntity
  8
0
100
AcDbLine
 10
84.76170000000001
 20
923.7849999999999
 30
0.0
 11
85.26149999999999
 21
923.7849999999999
 31
0.0
  0
LINE
  5
238
330
1E
100
AcDbEntity
  8
0
100
AcDbLine
 10
84.76170000000001
 20
918.9849999999999
 30
0.0
 11
85.34299999999999
 21
918.9849999999999
 31
0.0
  0
LINE
  5
239
330
1E
100
AcDbEntity
  8
0
100
AcDbLine
 10
84.76170000000001
 20
916.985
 30
0.0
 11
85.34299999999999
 21
916.985
 31
0.0
  0
LINE
  5
23A
330
1E
100
AcDbEntity
  8
0
100
AcDbLine
 10
84.76170000000001
 20
916.985
 30
0.0
 11
85.1773306188925
 21
916.985
 31
0.0
  0
LINE
  5
23B
330
1E
100
AcDbEntity
  8
0
100
AcDbLine
 10
84.76170000000001
 20
910.1849999999998
 30
0.0
 11
85.34299999999999
 21
910.1849999999998
 31
0.0
  0
LINE
  5
23C
330
1E
100
AcDbEntity
  8
0
100
AcDbLine
 10
84.76170000000001
 20
910.1849999999998
 30
0.0
 11
85.093161237785
 21
910.1849999999998
 31
0.0
  0
LINE
  5
23D
330
1E
100
AcDbEntity
  8
0
100
AcDbLine
 10
84.76170000000001
 20
912.185
 30
0.0
 11
85.34299999999999
 21
912.185
 31
0.0
  0
LINE
  5
23E
330
1E
100
AcDbEntity
  8
0
100
AcDbLine
 10
84.76170000000001
 20
905.385
 30
0.0
 11
85.34299999999999
 21
905.385
 31
0.0
  0
LINE
  5
23F
330
1E
100
AcDbEntity
  8
0
100
AcDbLine
 10
85.34299999999999
 20
910.1849999999998
 30
0.0
 11
85.64149999999999
 21
910.1849999999998
 31
0.0
  0
LINE
  5
240
330
1E
100
AcDbEntity
  8
0
100
AcDbLine
 10
85.34299999999999
 20
910.1849999999998
 30
0.0
 11
85.63360000000001
 21
910.6849999999999
 31
0.0
  0
LINE
  5
241
330
1E
100
AcDbEntity
  8
0
100
AcDbLine
 10
85.34299999999999
 20
939.385
 30
0.0
 11
85.63360000000001
 21
938.8849999999999
 31
0.0
  0
LINE
  5
242
330
1E
100
AcDbEntity
  8
0
100
AcDbLine
 10
85.34299999999999
 20
939.385
 30
0.0
 11
85.64149999999999
 21
939.385
 31
0.0
  0
LINE
  5
243
330
1E
100
AcDbEntity
  8
0
100
AcDbLine
 10
85.34299999999999
 20
950.985
 30
0.0
 11
85.63360000000001
 21
951.485
 31
0.0
  0
LINE
  5
244
330
1E
100
AcDbEntity
  8
0
100
AcDbLine
 10
85.34299999999999
 20
950.985
 30
0.0
 11
85.64149999999999
 21
950.985
 31
0.0
  0
LINE
  5
245
330
1E
100
AcDbEntity
  8
0
100
AcDbLine
 10
85.34299999999999
 20
952.9849999999999
 30
0.0
 11
85.63360000000001
 21
952.485
 31
0.0
  0
LINE
  5
246
330
1E
100
AcDbEntity
  8
0
100
AcDbLine
 10
85.34299999999999
 20
952.9849999999999
 30
0.0
 11
85.64149999999999
 21
952.9849999999999
 31
0.0
  0
LINE
  5
247
330
1E
100
AcDbEntity
  8
0
100
AcDbLine
 10
85.34299999999999
 20
946.185
 30
0.0
 11
85.64149999999999
 21
946.185
 31
0.0
  0
LINE
  5
248
330
1E
100
AcDbEntity
  8
0
100
AcDbLine
 10
85.34299999999999
 20
946.185
 30
0.0
 11
85.63360000000001
 21
945.6849999999999
 31
0.0
  0
LINE
  5
249
330
1E
100
AcDbEntity
  8
0
100
AcDbLine
 10
85.34299999999999
 20
944.185
 30
0.0
 11
85.63360000000001
 21
944.6849999999999
 31
0.0
  0
LINE
  5
24A
330
1E
100
AcDbEntity
  8
0
100
AcDbLine
 10
85.34299999999999
 20
944.185
 30
0.0
 11
85.64149999999999
 21
944.185
 31
0.0
  0
LINE
  5
24B
330
1E
100
AcDbEntity
  8
0
100
AcDbLine
 10
85.34299999999999
 20
937.385
 30
0.0
 11
85.63360000000001
 21
937.8849999999999
 31
0.0
  0
LINE
  5
24C
330
1E
100
AcDbEntity
  8
0
100
AcDbLine
 10
85.34299999999999
 20
937.385
 30
0.0
 11
85.64149999999999
 21
937.385
 31
0.0
  0
LINE
  5
24D
330
1E
100
AcDbEntity
  8
0
100
AcDbLine
 10
85.34299999999999
 20
930.5850000000001
 30
0.0
 11
85.64149999999999
 21
930.5850000000001
 31
0.0
  0
LINE
  5
24E
330
1E
100
AcDbEntity
  8
0
100
AcDbLine
 10
85.34299999999999
 20
930.5850000000001
 30
0.0
 11
85.63360000000001
 21
931.085
 31
0.0
  0
LINE
  5
24F
330
1E
100
AcDbEntity
  8
0
100
AcDbLine
 10
85.34299999999999
 20
932.585
 30
0.0
 11
85.64149999999999
 21
932.585
 31
0.0
  0
LINE
  5
250
330
1E
100
AcDbEntity
  8
0
100
AcDbLine
 10
85.34299999999999
 20
932.585
 30
0.0
 11
85.63360000000001
 21
932.085
 31
0.0
  0
LINE
  5
251
330
1E
100
AcDbEntity
  8
0
100
AcDbLine
 10
85.34299999999999
 20
925.7849999999999
 30
0.0
 11
85.63360000000001
 21
925.285
 31
0.0
  0
LINE
  5
252
330
1E
100
AcDbEntity
  8
0
100
AcDbLine
 10
85.34299999999999
 20
925.7849999999999
 30
0.0
 11
85.64149999999999
 21
925.7849999999999
 31
0.0
  0
LINE
  5
253
330
1E
100
AcDbEntity
  8
0
100
AcDbLine
 10
85.34299999999999
 20
923.7849999999999
 30
0.0
 11
85.63360000000001
 21
924.285
 31
0.0
  0
LINE
  5
254
330
1E
100
AcDbEntity
  8
0
100
AcDbLine
 10
85.34299999999999
 20
923.7849999999999
 30
0.0
 11
85.64149999999999
 21
923.7849999999999
 31
0.0
  0
LINE
  5
255
330
1E
100
AcDbEntity
  8
0
100
AcDbLine
 10
85.34299999999999
 20
918.9849999999999
 30
0.0
 11
85.63360000000001
 21
918.485
 31
0.0
  0
LINE
  5
256
330
1E
100
AcDbEntity
  8
0
100
AcDbLine
 10
85.34299999999999
 20
918.9849999999999
 30
0.0
 11
85.64149999999999
 21
918.9849999999999
 31
0.0
  0
LINE
  5
257
330
1E
100
AcDbEntity
  8
0
100
AcDbLine
 10
85.34299999999999
 20
916.985
 30
0.0
 11
85.63360000000001
 21
917.4850000000001
 31
0.0
  0
LINE
  5
258
330
1E
100
AcDbEntity
  8
0
100
AcDbLine
 10
85.34299999999999
 20
916.985
 30
0.0
 11
85.64149999999999
 21
916.985
 31
0.0
  0
LINE
  5
259
330
1E
100
AcDbEntity
  8
0
100
AcDbLine
 10
85.34299999999999
 20
912.185
 30
0.0
 11
85.64149999999999
 21
912.185
 31
0.0
  0
LINE
  5
25A
330
1E
100
AcDbEntity
  8
0
100
AcDbLine
 10
85.34299999999999
 20
912.185
 30
0.0
 11
85.63360000000001
 21
911.6849999999999
 31
0.0
  0
LINE
  5
25B
330
1E
100
AcDbEntity
  8
0
100
AcDbLine
 10
85.34299999999999
 20
905.385
 30
0.0
 11
85.63360000000001
 21
904.8849999999999
 31
0.0
  0
LINE
  5
25C
330
1E
100
AcDbEntity
  8
0
100
AcDbLine
 10
85.34299999999999
 20
905.385
 30
0.0
 11
85.64149999999999
 21
905.385
 31
0.0
  0
LINE
  5
25D
330
1E
100
AcDbEntity
  8
0
100
AcDbLine
 10
85.34299999999999
 20
903.3849999999999
 30
0.0
 11
85.63360000000001
 21
903.885
 31
0.0
  0
LINE
  5
25E
330
1E
100
AcDbEntity
  8
0
100
AcDbLine
 10
85.34299999999999
 20
903.3849999999999
 30
0.0
 11
85.64149999999999
 21
903.3849999999999
 31
0.0
  0
LINE
  5
25F
330
1E
100
AcDbEntity
  8
0
100
AcDbLine
 10
84.76170000000001
 20
903.3849999999999
 30
0.0
 11
85.34299999999999
 21
903.3849999999999
 31
0.0
  0
LINE
  5
260
330
1E
100
AcDbEntity
  8
0
100
AcDbLine
 10
84.76170000000001
 20
903.3849999999999
 30
0.0
 11
85.0089918566775
 21
903.3849999999999
 31
0.0
  0
LINE
  5
261
330
1E
100
AcDbEntity
  8
0
100
AcDbLine
 10
84.76170000000001
 20
898.5850000000001
 30
0.0
 11
85.34299999999999
 21
898.5850000000001
 31
0.0
  0
LINE
  5
262
330
1E
100
AcDbEntity
  8
0
100
AcDbLine
 10
85.34299999999999
 20
898.5850000000001
 30
0.0
 11
85.64149999999999
 21
898.5850000000001
 31
0.0
  0
LINE
  5
263
330
1E
100
AcDbEntity
  8
0
100
AcDbLine
 10
85.34299999999999
 20
898.5850000000001
 30
0.0
 11
85.63360000000001
 21
898.085
 31
0.0
  0
LINE
  5
264
330
1E
100
AcDbEntity
  8
0
100
AcDbLine
 10
84.76170000000001
 20
891.7849999999999
 30
0.0
 11
85.34299999999999
 21
891.7849999999999
 31
0.0
  0
LINE
  5
265
330
1E
100
AcDbEntity
  8
0
100
AcDbLine
 10
85.63360000000001
 20
903.885
 30
0.0
 11
85.63360000000001
 21
904.8849999999999
 31
0.0
  0
LINE
  5
267
330
1E
100
AcDbEntity
  8
0
100
AcDbLine
 10
85.63360000000001
 20
938.8849999999999
 30
0.0
 11
85.63360000000001
 21
937.8849999999999
 31
0.0
  0
LINE
  5
269
330
1E
100
AcDbEntity
  8
0
100
AcDbLine
 10
85.63360000000001
 20
952.485
 30
0.0
 11
85.63360000000001
 21
951.485
 31
0.0
  0
LINE
  5
26C
330
1E
100
AcDbEntity
  8
0
100
AcDbLine
 10
85.63360000000001
 20
951.485
 30
0.0
 11
85.63360000000001
 21
952.485
 31
0.0
  0
LINE
  5
26D
330
1E
100
AcDbEntity
  8
0
100
AcDbLine
 10
85.63360000000001
 20
945.6849999999999
 30
0.0
 11
85.63360000000001
 21
944.6849999999999
 31
0.0
  0
LINE
  5
270
330
1E
100
AcDbEntity
  8
0
100
AcDbLine
 10
85.63360000000001
 20
944.6849999999999
 30
0.0
 11
85.63360000000001
 21
945.6849999999999
 31
0.0
  0
LINE
  5
272
330
1E
100
AcDbEntity
  8
0
100
AcDbLine
 10
85.63360000000001
 20
937.8849999999999
 30
0.0
 11
85.63360000000001
 21
938.8849999999999
 31
0.0
  0
LINE
  5
274
330
1E
100
AcDbEntity
  8
0
100
AcDbLine
 10
85.63360000000001
 20
932.085
 30
0.0
 11
85.63360000000001
 21
931.085
 31
0.0
  0
LINE
  5
275
330
1E
100
AcDbEntity
  8
0
100
AcDbLine
 10
85.63360000000001
 20
931.085
 30
0.0
 11
85.63360000000001
 21
932.085
 31
0.0
  0
LINE
  5
277
330
1E
100
AcDbEntity
  8
0
100
AcDbLine
 10
85.63360000000001
 20
924.285
 30
0.0
 11
85.63360000000001
 21
925.285
 31
0.0
  0
LINE
  5
279
330
1E
100
AcDbEntity
  8
0
100
AcDbLine
 10
85.63360000000001
 20
925.285
 30
0.0
 11
85.63360000000001
 21
924.285
 31
0.0
  0
LINE
  5
27B
330
1E
100
AcDbEntity
  8
0
100
AcDbLine
 10
85.63360000000001
 20
917.4850000000001
 30
0.0
 11
85.63360000000001
 21
918.485
 31
0.0
  0
LINE
  5
27D
330
1E
100
AcDbEntity
  8
0
100
AcDbLine
 10
85.63360000000001
 20
918.485
 30
0.0
 11
85.63360000000001
 21
917.4850000000001
 31
0.0
  0
LINE
  5
280
330
1E
100
AcDbEntity
  8
0
100
AcDbLine
 10
85.63360000000001
 20
911.6849999999999
 30
0.0
 11
85.63360000000001
 21
910.6849999999999
 31
0.0
  0
LINE
  5
281
330
1E
100
AcDbEntity
  8
0
100
AcDbLine
 10
85.63360000000001
 20
910.6849999999999
 30
0.0
 11
85.63360000000001
 21
911.6849999999999
 31
0.0
  0
LINE
  5
283
330
1E
100
AcDbEntity
  8
0
100
AcDbLine
 10
85.63360000000001
 20
904.8849999999999
 30
0.0
 11
85.63360000000001
 21
903.885
 31
0.0
  0
LINE
  5
286
330
1E
100
AcDbEntity
  8
0
100
AcDbLine
 10
85.63360000000001
 20
898.085
 30
0.0
 11
85.63360000000001
 21
897.085
 31
0.0
  0
LINE
  5
287
330
1E
100
AcDbEntity
  8
0
100
AcDbLine
 10
85.63360000000001
 20
897.085
 30
0.0
 11
85.63360000000001
 21
898.085
 31
0.0
  0
LINE
  5
28A
330
1E
100
AcDbEntity
  8
0
100
AcDbLine
 10
85.63360000000001
 20
891.285
 30
0.0
 11
85.63360000000001
 21
890.2849999999999
 31
0.0
  0
LINE
  5
28B
330
1E
100
AcDbEntity
  8
0
100
AcDbLine
 10
85.63360000000001
 20
890.2849999999999
 30
0.0
 11
85.63360000000001
 21
891.285
 31
0.0
  0
LINE
  5
28D
330
1E
100
AcDbEntity
  8
0
100
AcDbLine
 10
85.34299999999999
 20
891.7849999999999
 30
0.0
 11
85.64149999999999
 21
891.7849999999999
 31
0.0
  0
LINE
  5
28E
330
1E
100
AcDbEntity
  8
0
100
AcDbLine
 10
85.34299999999999
 20
891.7849999999999
 30
0.0
 11
85.63360000000001
 21
891.285
 31
0.0
  0
LINE
  5
28F
330
1E
100
AcDbEntity
  8
0
100
AcDbLine
 10
85.34299999999999
 20
884.9849999999999
 30
0.0
 11
85.63360000000001
 21
884.485
 31
0.0
  0
LINE
  5
290
330
1E
100
AcDbEntity
  8
0
100
AcDbLine
 10
85.34299999999999
 20
884.9849999999999
 30
0.0
 11
85.64149999999999
 21
884.9849999999999
 31
0.0
  0
LINE
  5
291
330
1E
100
AcDbEntity
  8
0
100
AcDbLine
 10
85.63360000000001
 20
884.485
 30
0.0
 11
85.63360000000001
 21
883.4850000000001
 31
0.0
  0
LINE
  5
293
330
1E
100
AcDbEntity
  8
0
100
AcDbLine
 10
84.76170000000001
 20
882.985
 30
0.0
 11
85.34299999999999
 21
882.985
 31
0.0
  0
LINE
  5
294
330
1E
100
AcDbEntity
  8
0
100
AcDbLine
 10
84.76170000000001
 20
882.985
 30
0.0
 11
85.37460000000001
 21
882.985
 31
0.0
  0
LINE
  5
295
330
1E
100
AcDbEntity
  8
0
100
AcDbLine
 10
84.4711
 20
883.4850000000001
 30
0.0
 11
84.76170000000001
 21
882.985
 31
0.0
  0
LINE
  5
296
330
1E
100
AcDbEntity
  8
0
100
AcDbLine
 10
84.4711
 20
883.4850000000001
 30
0.0
 11
84.4711
 21
884.485
 31
0.0
  0
LINE
  5
297
330
1E
100
AcDbEntity
  8
0
100
AcDbLine
 10
85.64149999999999
 20
954.485
 30
0.0
 11
88.14149999999999
 21
954.485
 31
0.0
  0
LINE
  5
298
330
1E
100
AcDbEntity
  8
0
100
AcDbLine
 10
88.14149999999999
 20
954.485
 30
0.0
 11
91.0415
 21
954.485
 31
0.0
  0
LINE
  5
299
330
1E
100
AcDbEntity
  8
0
100
AcDbLine
 10
84.14149999999999
 20
974.985
 30
0.0
 11
86.0415
 21
974.985
 31
0.0
  0
LINE
  5
29A
330
1E
100
AcDbEntity
  8
0
100
AcDbLine
 10
83.7415
 20
974.4849999999999
 30
0.0
 11
85.64149999999999
 21
974.4849999999999
 31
0.0
  0
LINE
  5
29B
330
1E
100
AcDbEntity
  8
0
100
AcDbLine
 10
83.7415
 20
955.485
 30
0.0
 11
85.64149999999999
 21
955.485
 31
0.0
  0
LINE
  5
29C
330
1E
100
AcDbEntity
  8
0
100
AcDbLine
 10
86.34149999999999
 20
954.9850000000001
 30
0.0
 11
88.6415
 21
954.9850000000001
 31
0.0
  0
LINE
  5
29D
330
1E
100
AcDbEntity
  8
0
100
AcDbLine
 10
86.0415
 20
974.985
 30
0.0
 11
88.4415
 21
974.985
 31
0.0
  0
LINE
  5
29E
330
1E
100
AcDbEntity
  8
0
100
AcDbLine
 10
85.64149999999999
 20
974.4849999999999
 30
0.0
 11
88.14149999999999
 21
974.4849999999999
 31
0.0
  0
LINE
  5
29F
330
1E
100
AcDbEntity
  8
0
100
AcDbLine
 10
88.14149999999999
 20
974.4849999999999
 30
0.0
 11
91.0415
 21
974.4849999999999
 31
0.0
  0
LINE
  5
2A0
330
1E
100
AcDbEntity
  8
0
100
AcDbLine
 10
85.64149999999999
 20
955.485
 30
0.0
 11
88.14149999999999
 21
955.485
 31
0.0
  0
LINE
  5
2A1
330
1E
100
AcDbEntity
  8
0
100
AcDbLine
 10
88.4415
 20
974.985
 30
0.0
 11
91.1415
 21
974.985
 31
0.0
  0
LINE
  5
2A2
330
1E
100
AcDbEntity
  8
0
100
AcDbLine
 10
88.14149999999999
 20
955.485
 30
0.0
 11
91.0415
 21
955.485
 31
0.0
  0
LINE
  5
2A3
330
1E
100
AcDbEntity
  8
0
100
AcDbLine
 10
88.6415
 20
954.9850000000001
 30
0.0
 11
91.34149999999999
 21
954.9850000000001
 31
0.0
  0
LINE
  5
2A4
330
1E
100
AcDbEntity
  8
0
100
AcDbLine
 10
84.6415
 20
954.9850000000001
 30
0.0
 11
86.34149999999999
 21
954.9850000000001
 31
0.0
  0
LINE
  5
2A5
330
1E
100
AcDbEntity
  8
0
100
AcDbLine
 10
83.7415
 20
954.485
 30
0.0
 11
85.64149999999999
 21
954.485
 31
0.0
  0
LINE
  5
2A6
330
1E
100
AcDbEntity
  8
0
100
AcDbLine
 10
83.61064794248859
 20
769.977561725341
 30
0.0
 11
83.6438
 21
768.983
 31
0.0
  0
LINE
  5
2A7
330
1E
100
AcDbEntity
  8
0
100
AcDbLine
 10
86.74379999999999
 20
768.983
 30
0.0
 11
88.94379999999999
 21
768.983
 31
0.0
  0
LINE
  5
2A8
330
1E
100
AcDbEntity
  8
0
100
AcDbLine
 10
89.4428312861272
 20
768.983
 30
0.0
 11
89.57259999999999
 21
761.697
 31
0.0
  0
LINE
  5
2A9
330
1E
100
AcDbEntity
  8
0
100
AcDbLine
 10
96.8438
 20
768.983
 30
0.0
 11
99.3438
 21
768.983
 31
0.0
  0
LINE
  5
2AA
330
1E
100
AcDbEntity
  8
0
100
AcDbLine
 10
94.14379999999999
 20
768.983
 30
0.0
 11
96.8438
 21
768.983
 31
0.0
  0
LINE
  5
2AB
330
1E
100
AcDbEntity
  8
0
100
AcDbLine
 10
109.9975
 20
89.98510000000001
 30
0.0
 11
110.3814999999999
 21
89.9854
 31
0.0
  0
LINE
  5
2AC
330
1E
100
AcDbEntity
  8
0
100
AcDbLine
 10
109.9975
 20
89.98510000000001
 30
0.0
 11
110.0694999999999
 21
-0.0150000000000567
 31
0.0
  0
LINE
  5
2AD
330
1E
100
AcDbEntity
  8
0
100
AcDbLine
 10
109.9975
 20
89.98510000000001
 30
0.0
 11
110.0694999999999
 21
-0.01500000000005
 31
0.0
  0
LINE
  5
2AE
330
1E
100
AcDbEntity
  8
0
100
AcDbLine
 10
110.9975
 20
89.98589999999991
 30
0.0
 11
111.3625
 21
89.9862
 31
0.0
  0
LINE
  5
2AF
330
1E
100
AcDbEntity
  8
0
100
AcDbLine
 10
111.3625
 20
89.9862
 30
0.0
 11
112.4435
 21
89.9870999999999
 31
0.0
  0
LINE
  5
2B0
330
1E
100
AcDbEntity
  8
0
100
AcDbLine
 10
110.3814999999999
 20
89.9854
 30
0.0
 11
111.5194999999999
 21
89.9863
 31
0.0
  0
LINE
  5
2B1
330
1E
100
AcDbEntity
  8
0
100
AcDbLine
 10
111.5194999999999
 20
89.9863
 30
0.0
 11
113.3685
 21
89.9878
 31
0.0
  0
LINE
  5
2B2
330
1E
100
AcDbEntity
  8
0
100
AcDbLine
 10
112.4435
 20
89.9870999999999
 30
0.0
 11
114.1995
 21
89.9885
 31
0.0
  0
LINE
  5
2B3
330
1E
100
AcDbEntity
  8
0
100
AcDbLine
 10
114.1995
 20
89.9885
 30
0.0
 11
114.947056936665
 21
89.98906944667201
 31
0.0
  0
LINE
  5
2B4
330
1E
100
AcDbEntity
  8
0
100
AcDbLine
 10
115.8555
 20
89.9897999999999
 30
0.0
 11
118.8865
 21
89.99219999999999
 31
0.0
  0
LINE
  5
2B5
330
1E
100
AcDbEntity
  8
0
100
AcDbLine
 10
113.3685
 20
89.9878
 30
0.0
 11
114.947056936665
 21
89.98906944667201
 31
0.0
  0
LINE
  5
2B6
330
1E
100
AcDbEntity
  8
0
100
AcDbLine
 10
113.3685
 20
89.9878
 30
0.0
 11
115.8555
 21
89.9897999999999
 31
0.0
  0
LINE
  5
2B7
330
1E
100
AcDbEntity
  8
0
100
AcDbLine
 10
122.3435
 20
89.9948999999999
 30
0.0
 11
126.0955
 21
89.9978999999999
 31
0.0
  0
LINE
  5
2B8
330
1E
100
AcDbEntity
  8
0
100
AcDbLine
 10
118.8865
 20
89.99219999999999
 30
0.0
 11
122.3435
 21
89.9948999999999
 31
0.0
  0
LINE
  5
2B9
330
1E
100
AcDbEntity
  8
0
100
AcDbLine
 10
130.0685
 20
0.0009479999999421
 30
0.0
 11
133.9704999999999
 21
0.0039379999999418
 31
0.0
  0
LINE
  5
2BA
330
1E
100
AcDbEntity
  8
0
100
AcDbLine
 10
133.9704999999999
 20
0.0039379999999418
 30
0.0
 11
137.7224999999999
 21
0.0069279999999416
 31
0.0
  0
LINE
  5
2BB
330
1E
100
AcDbEntity
  8
0
100
AcDbLine
 10
137.7224999999999
 20
0.0069279999999416
 30
0.0
 11
141.1805
 21
0.0099179999999414
 31
0.0
  0
LINE
  5
2BC
330
1E
100
AcDbEntity
  8
0
100
AcDbLine
 10
141.1805
 20
0.0099179999999414
 30
0.0
 11
144.2115
 21
0.0119099999999412
 31
0.0
  0
LINE
  5
2BD
330
1E
100
AcDbEntity
  8
0
100
AcDbLine
 10
144.2115
 20
0.0119099999999412
 30
0.0
 11
146.6985
 21
0.0139039999999411
 31
0.0
  0
LINE
  5
2BE
330
1E
100
AcDbEntity
  8
0
100
AcDbLine
 10
146.6985
 20
0.0139039999999411
 30
0.0
 11
148.5465
 21
0.0158989999999409
 31
0.0
  0
LINE
  5
2BF
330
1E
100
AcDbEntity
  8
0
100
AcDbLine
 10
123.1682245755179
 20
89.99555942796542
 30
0.0
 11
126.2904999999999
 21
89.9981
 31
0.0
  0
LINE
  5
2C0
330
1E
100
AcDbEntity
  8
0
100
AcDbLine
 10
129.9975
 20
90.00089999999991
 30
0.0
 11
133.7045
 21
90.0038999999999
 31
0.0
  0
LINE
  5
2C1
330
1E
100
AcDbEntity
  8
0
100
AcDbLine
 10
126.2904999999999
 20
89.9981
 30
0.0
 11
129.9975
 21
90.00089999999991
 31
0.0
  0
LINE
  5
2C3
330
1E
100
AcDbEntity
  8
0
100
AcDbLine
 10
133.7045
 20
90.0038999999999
 30
0.0
 11
137.2684999999999
 21
90.0066999999999
 31
0.0
  0
LINE
  5
2C5
330
1E
100
AcDbEntity
  8
0
100
AcDbLine
 10
137.293500040296
 20
90.00671978694199
 30
0.0
 11
137.821219256725
 21
90.0071374642518
 31
0.0
  0
LINE
  5
2C6
330
1E
100
AcDbEntity
  8
0
100
AcDbLine
 10
137.2935000280069
 20
90.00671375268758
 30
0.0
 11
137.6514999999999
 21
90.00699999999991
 31
0.0
  0
LINE
  5
2C7
330
1E
100
AcDbEntity
  8
0
100
AcDbLine
 10
147.556521234439
 20
90.01490418049108
 30
0.0
 11
148.6324999999999
 21
90.01579999999989
 31
0.0
  0
LINE
  5
2C8
330
1E
100
AcDbEntity
  8
0
100
AcDbLine
 10
147.556521234439
 20
90.01490418049108
 30
0.0
 11
148.4755
 21
90.0155999999999
 31
0.0
  0
LINE
  5
2C9
330
1E
100
AcDbEntity
  8
0
100
AcDbLine
 10
147.556521234439
 20
90.01490418049108
 30
0.0
 11
148.4755
 21
90.0155999999999
 31
0.0
  0
LINE
  5
2CA
330
1E
100
AcDbEntity
  8
0
100
AcDbLine
 10
147.556521234439
 20
90.01490418049108
 30
0.0
 11
148.6324999999999
 21
90.01579999999989
 31
0.0
  0
LINE
  5
2CB
330
1E
100
AcDbEntity
  8
0
100
AcDbLine
 10
148.6324999999999
 20
90.01579999999989
 30
0.0
 11
148.9975
 21
90.0160999999999
 31
0.0
  0
LINE
  5
2CC
330
1E
100
AcDbEntity
  8
0
100
AcDbLine
 10
149.6134999999999
 20
90.01649999999999
 30
0.0
 11
149.9975
 21
90.01690000000001
 31
0.0
  0
LINE
  5
2CD
330
1E
100
AcDbEntity
  8
0
100
AcDbLine
 10
148.4755
 20
90.0155999999999
 30
0.0
 11
149.6134999999999
 21
90.01649999999999
 31
0.0
  0
LINE
  5
2CE
330
1E
100
AcDbEntity
  8
0
100
AcDbLine
 10
146.6264999999999
 20
90.0141999999999
 30
0.0
 11
148.4755
 21
90.0155999999999
 31
0.0
  0
LINE
  5
2CF
330
1E
100
AcDbEntity
  8
0
100
AcDbLine
 10
144.1394999999999
 20
90.01219999999991
 30
0.0
 11
146.6264999999999
 21
90.0141999999999
 31
0.0
  0
LINE
  5
2D0
330
1E
100
AcDbEntity
  8
0
100
AcDbLine
 10
141.1084999999999
 20
90.00979999999989
 30
0.0
 11
144.1394999999999
 21
90.01219999999991
 31
0.0
  0
LINE
  5
2D1
330
1E
100
AcDbEntity
  8
0
100
AcDbLine
 10
137.6514999999999
 20
90.00699999999991
 30
0.0
 11
141.1084999999999
 21
90.00979999999989
 31
0.0
  0
LINE
  5
2D2
330
1E
100
AcDbEntity
  8
0
100
AcDbLine
 10
137.6514999999999
 20
90.00699999999991
 30
0.0
 11
137.821219256725
 21
90.0071374642518
 31
0.0
  0
LINE
  5
2D3
330
1E
100
AcDbEntity
  8
0
100
AcDbLine
 10
137.6514999999999
 20
90.00699999999991
 30
0.0
 11
137.821219256725
 21
90.0071374642518
 31
0.0
  0
LINE
  5
2D4
330
1E
100
AcDbEntity
  8
0
100
AcDbLine
 10
133.8994999999999
 20
90.0039999999999
 30
0.0
 11
137.6514999999999
 21
90.00699999999991
 31
0.0
  0
LINE
  5
2D5
330
1E
100
AcDbEntity
  8
0
100
AcDbLine
 10
133.8994999999999
 20
90.0039999999999
 30
0.0
 11
137.2763000000039
 21
90.0066999999999
 31
0.0
  0
LINE
  5
2D6
330
1E
100
AcDbEntity
  8
0
100
AcDbLine
 10
129.9975
 20
90.00089999999991
 30
0.0
 11
133.8994999999999
 21
90.0039999999999
 31
0.0
  0
LINE
  5
2D7
330
1E
100
AcDbEntity
  8
0
100
AcDbLine
 10
129.9975
 20
90.00089999999991
 30
0.0
 11
133.7045
 21
90.0038999999999
 31
0.0
  0
LINE
  5
2D8
330
1E
100
AcDbEntity
  8
0
100
AcDbLine
 10
126.0955
 20
89.9978999999999
 30
0.0
 11
129.9975
 21
90.00089999999991
 31
0.0
  0
LINE
  5
2D9
330
1E
100
AcDbEntity
  8
0
100
AcDbLine
 10
148.5465
 20
0.0158989999999409
 30
0.0
 11
149.6845
 21
0.0168959999999409
 31
0.0
  0
LINE
  5
2DA
330
1E
100
AcDbEntity
  8
0
100
AcDbLine
 10
149.9975
 20
90.01690000000001
 30
0.0
 11
150.0685
 21
0.0168949999999409
 31
0.0
  0
LINE
  5
2DB
330
1E
100
AcDbEntity
  8
0
100
AcDbLine
 10
149.9975
 20
90.01690000000001
 30
0.0
 11
150.0685
 21
0.0168949999999363
 31
0.0
  0
LINE
  5
2DC
330
1E
100
AcDbEntity
  8
0
100
AcDbLine
 10
149.6845
 20
0.0168959999999409
 30
0.0
 11
150.0685
 21
0.0168949999999409
 31
0.0
  0
LINE
  5
2DD
330
1E
100
AcDbEntity
  8
0
100
AcDbLine
 10
126.1675
 20
-0.0020420000000577
 30
0.0
 11
130.0685
 21
0.0009479999999421
 31
0.0
  0
LINE
  5
2DE
330
1E
100
AcDbEntity
  8
0
100
AcDbLine
 10
122.4154999999999
 20
-0.0050320000000575
 30
0.0
 11
126.1675
 21
-0.0020420000000577
 31
0.0
  0
LINE
  5
2DF
330
1E
100
AcDbEntity
  8
0
100
AcDbLine
 10
118.9575
 20
-0.0080230000000573
 30
0.0
 11
122.4154999999999
 21
-0.0050320000000575
 31
0.0
  0
LINE
  5
2E0
330
1E
100
AcDbEntity
  8
0
100
AcDbLine
 10
115.9264999999999
 20
-0.0100150000000571
 30
0.0
 11
118.9575
 21
-0.0080230000000573
 31
0.0
  0
LINE
  5
2E1
330
1E
100
AcDbEntity
  8
0
100
AcDbLine
 10
113.4395
 20
-0.0120080000000569
 30
0.0
 11
115.9264999999999
 21
-0.0100150000000571
 31
0.0
  0
LINE
  5
2E2
330
1E
100
AcDbEntity
  8
0
100
AcDbLine
 10
111.5914999999999
 20
-0.0140030000000568
 30
0.0
 11
113.4395
 21
-0.0120080000000569
 31
0.0
  0
LINE
  5
2E3
330
1E
100
AcDbEntity
  8
0
100
AcDbLine
 10
110.4535
 20
-0.0150000000000567
 30
0.0
 11
111.5914999999999
 21
-0.0140030000000568
 31
0.0
  0
LINE
  5
2E4
330
1E
100
AcDbEntity
  8
0
100
AcDbLine
 10
110.0694999999999
 20
-0.0150000000000567
 30
0.0
 11
110.4535
 21
-0.0150000000000567
 31
0.0
  0
LINE
  5
2E5
330
1E
100
AcDbEntity
  8
0
100
AcDbLine
 10
208.8964999999999
 20
133.0089999999999
 30
0.0
 11
208.8994999999999
 21
136.206
 31
0.0
  0
LINE
  5
2E6
330
1E
100
AcDbEntity
  8
0
100
AcDbLine
 10
208.8964999999999
 20
133.0089999999999
 30
0.0
 11
218.8965
 21
133.001
 31
0.0
  0
LINE
  5
2E7
330
1E
100
AcDbEntity
  8
0
100
AcDbLine
 10
208.8994999999999
 20
136.206
 30
0.0
 11
208.9065
 21
145.31
 31
0.0
  0
LINE
  5
2E8
330
1E
100
AcDbEntity
  8
0
100
AcDbLine
 10
149.3274999999999
 20
154.4299999999999
 30
0.0
 11
150.4095
 21
156.0529999999999
 31
0.0
  0
LINE
  5
2E9
330
1E
100
AcDbEntity
  8
0
100
AcDbLine
 10
148.9474999999999
 20
152.5159999999999
 30
0.0
 11
149.3274999999999
 21
154.4299999999999
 31
0.0
  0
LINE
  5
2EA
330
1E
100
AcDbEntity
  8
0
100
AcDbLine
 10
148.9474999999999
 20
152.5159999999999
 30
0.0
 11
148.9975
 21
90.0160999999999
 31
0.0
  0
LINE
  5
2EE
330
1E
100
AcDbEntity
  8
0
100
AcDbLine
 10
129.9275
 20
165.205
 30
0.0
 11
134.6587658229719
 21
166.2380899777689
 31
0.0
  0
LINE
  5
2F5
330
1E
100
AcDbEntity
  8
0
100
AcDbLine
 10
109.0584999999999
 20
169.6299999999999
 30
0.0
 11
129.9275
 21
165.205
 31
0.0
  0
LINE
  5
2F6
330
1E
100
AcDbEntity
  8
0
100
AcDbLine
 10
150.9084999999999
 20
169.46
 30
0.0
 11
181.1284999999999
 21
181.157
 31
0.0
  0
LINE
  5
2F7
330
1E
100
AcDbEntity
  8
0
100
AcDbLine
 10
110.9346407417119
 20
169.2321887593039
 30
0.0
 11
110.9975
 21
89.98589999999991
 31
0.0
  0
LINE
  5
2F8
330
1E
100
AcDbEntity
  8
0
100
AcDbLine
 10
110.9346407417119
 20
169.2321887593039
 30
0.0
 11
110.9975
 21
89.98589999999991
 31
0.0
  0
LINE
  5
2F9
330
1E
100
AcDbEntity
  8
0
100
AcDbLine
 10
152.0305
 20
157.1379999999999
 30
0.0
 11
153.9435
 21
157.52
 31
0.0
  0
LINE
  5
2FA
330
1E
100
AcDbEntity
  8
0
100
AcDbLine
 10
150.4095
 20
156.0529999999999
 30
0.0
 11
152.0305
 21
157.1379999999999
 31
0.0
  0
LINE
  5
2FB
330
1E
100
AcDbEntity
  8
0
100
AcDbLine
 10
153.9435
 20
157.52
 30
0.0
 11
208.9163923940589
 21
157.563978313915
 31
0.0
  0
LINE
  5
2FC
330
1E
100
AcDbEntity
  8
0
100
AcDbLine
 10
208.9065
 20
145.31
 30
0.0
 11
208.9175
 21
158.936
 31
0.0
  0
LINE
  5
2FD
330
1E
100
AcDbEntity
  8
0
100
AcDbLine
 10
208.9065
 20
145.31
 30
0.0
 11
208.9163923940589
 21
157.563978313915
 31
0.0
  0
LINE
  5
2FE
330
1E
100
AcDbEntity
  8
0
100
AcDbLine
 10
218.8965
 20
133.001
 30
0.0
 11
218.8994999999999
 21
136.1979999999999
 31
0.0
  0
LINE
  5
2FF
330
1E
100
AcDbEntity
  8
0
100
AcDbLine
 10
218.8994999999999
 20
136.1979999999999
 30
0.0
 11
218.9064999999999
 21
145.302
 31
0.0
  0
LINE
  5
300
330
1E
100
AcDbEntity
  8
0
100
AcDbLine
 10
218.9064999999999
 20
145.302
 30
0.0
 11
218.9175
 21
158.928
 31
0.0
  0
LINE
  5
301
330
1E
100
AcDbEntity
  8
0
100
AcDbLine
 10
218.9175
 20
158.928
 30
0.0
 11
218.9305
 21
175.0009999999999
 31
0.0
  0
LINE
  5
302
330
1E
100
AcDbEntity
  8
0
100
AcDbLine
 10
208.9175
 20
158.936
 30
0.0
 11
208.9304999999999
 21
175.009
 31
0.0
  0
LINE
  5
305
330
1E
100
AcDbEntity
  8
0
100
AcDbLine
 10
111.8144999999999
 20
179.113
 30
0.0
 11
129.9275
 21
175.0959999999999
 31
0.0
  0
LINE
  5
306
330
1E
100
AcDbEntity
  8
0
100
AcDbLine
 10
134.014125427744
 20
175.9091389839429
 30
0.0
 11
147.9275
 21
179.0009999999999
 31
0.0
  0
LINE
  5
307
330
1E
100
AcDbEntity
  8
0
100
AcDbLine
 10
147.9275
 20
179.0009999999999
 30
0.0
 11
174.9285
 21
189.0009999999999
 31
0.0
  0
LINE
  5
308
330
1E
100
AcDbEntity
  8
0
100
AcDbLine
 10
181.1284999999999
 20
181.157
 30
0.0
 11
214.2335
 21
220.342
 31
0.0
  0
LINE
  5
30A
330
1E
100
AcDbEntity
  8
0
100
AcDbLine
 10
208.9275
 20
178.4779999999999
 30
0.0
 11
208.9304999999999
 21
175.064
 31
0.0
  0
LINE
  5
30B
330
1E
100
AcDbEntity
  8
0
100
AcDbLine
 10
208.9245
 20
181.7609999999999
 30
0.0
 11
208.9275
 21
178.4779999999999
 31
0.0
  0
LINE
  5
30C
330
1E
100
AcDbEntity
  8
0
100
AcDbLine
 10
174.9285
 20
189.0009999999999
 30
0.0
 11
204.9285
 21
224.0009999999999
 31
0.0
  0
LINE
  5
30D
330
1E
100
AcDbEntity
  8
0
100
AcDbLine
 10
208.9185
 20
189.614
 30
0.0
 11
208.9205
 21
187.438
 31
0.0
  0
LINE
  5
30E
330
1E
100
AcDbEntity
  8
0
100
AcDbLine
 10
208.9205
 20
187.438
 30
0.0
 11
208.9225
 21
184.7859999999999
 31
0.0
  0
LINE
  5
30F
330
1E
100
AcDbEntity
  8
0
100
AcDbLine
 10
208.9225
 20
184.7859999999999
 30
0.0
 11
208.9245
 21
181.7609999999999
 31
0.0
  0
LINE
  5
310
330
1E
100
AcDbEntity
  8
0
100
AcDbLine
 10
208.9305180544919
 20
175.033180982602
 30
0.0
 11
208.9424999999999
 21
191.0809999999999
 31
0.0
  0
LINE
  5
311
330
1E
100
AcDbEntity
  8
0
100
AcDbLine
 10
208.9304999999999
 20
175.009
 30
0.0
 11
208.9424999999999
 21
191.0809999999999
 31
0.0
  0
LINE
  5
312
330
1E
100
AcDbEntity
  8
0
100
AcDbLine
 10
218.9305
 20
175.0009999999999
 30
0.0
 11
218.9424999999999
 21
191.0729999999999
 31
0.0
  0
LINE
  5
313
330
1E
100
AcDbEntity
  8
0
100
AcDbLine
 10
149.2944999999999
 20
195.6029999999999
 30
0.0
 11
150.3795
 21
193.982
 31
0.0
  0
LINE
  5
314
330
1E
100
AcDbEntity
  8
0
100
AcDbLine
 10
148.9125
 20
197.5159999999999
 30
0.0
 11
149.2944999999999
 21
195.6029999999999
 31
0.0
  0
LINE
  5
315
330
1E
100
AcDbEntity
  8
0
100
AcDbLine
 10
152.0024999999999
 20
192.8989999999999
 30
0.0
 11
153.9165
 21
192.52
 31
0.0
  0
LINE
  5
316
330
1E
100
AcDbEntity
  8
0
100
AcDbLine
 10
150.3795
 20
193.982
 30
0.0
 11
152.0024999999999
 21
192.8989999999999
 31
0.0
  0
LINE
  5
317
330
1E
100
AcDbEntity
  8
0
100
AcDbLine
 10
190.7532977734399
 20
192.5494694382189
 30
0.0
 11
208.9165
 21
192.564
 31
0.0
  0
LINE
  5
318
330
1E
100
AcDbEntity
  8
0
100
AcDbLine
 10
190.7532977734399
 20
192.5494694382189
 30
0.0
 11
208.9165
 21
192.564
 31
0.0
  0
LINE
  5
319
330
1E
100
AcDbEntity
  8
0
100
AcDbLine
 10
153.9165
 20
192.52
 30
0.0
 11
177.961273559012
 21
192.5392358188469
 31
0.0
  0
LINE
  5
31A
330
1E
100
AcDbEntity
  8
0
100
AcDbLine
 10
208.9165
 20
192.564
 30
0.0
 11
208.9165
 21
192.227
 31
0.0
  0
LINE
  5
31B
330
1E
100
AcDbEntity
  8
0
100
AcDbLine
 10
208.9165
 20
192.227
 30
0.0
 11
208.9175
 21
191.232
 31
0.0
  0
LINE
  5
31C
330
1E
100
AcDbEntity
  8
0
100
AcDbLine
 10
208.9165
 20
192.227
 30
0.0
 11
208.9165
 21
192.564
 31
0.0
  0
LINE
  5
31D
330
1E
100
AcDbEntity
  8
0
100
AcDbLine
 10
208.9175
 20
191.232
 30
0.0
 11
208.9185
 21
189.614
 31
0.0
  0
LINE
  5
31E
330
1E
100
AcDbEntity
  8
0
100
AcDbLine
 10
208.9424999999999
 20
191.0809999999999
 30
0.0
 11
208.9535
 21
204.707
 31
0.0
  0
LINE
  5
31F
330
1E
100
AcDbEntity
  8
0
100
AcDbLine
 10
218.9424999999999
 20
191.0729999999999
 30
0.0
 11
218.9534999999999
 21
204.699
 31
0.0
  0
LINE
  5
320
330
1E
100
AcDbEntity
  8
0
100
AcDbLine
 10
208.9535
 20
204.707
 30
0.0
 11
208.9615
 21
213.812
 31
0.0
  0
LINE
  5
321
330
1E
100
AcDbEntity
  8
0
100
AcDbLine
 10
218.9534999999999
 20
204.699
 30
0.0
 11
218.9614999999999
 21
213.804
 31
0.0
  0
LINE
  5
322
330
1E
100
AcDbEntity
  8
0
100
AcDbLine
 10
204.9285
 20
224.0009999999999
 30
0.0
 11
227.9285
 21
324.0009999999999
 31
0.0
  0
LINE
  5
323
330
1E
100
AcDbEntity
  8
0
100
AcDbLine
 10
214.2335
 20
220.342
 30
0.0
 11
237.7375
 21
322.3329999999999
 31
0.0
  0
LINE
  5
324
330
1E
100
AcDbEntity
  8
0
100
AcDbLine
 10
211.415995422004
 20
217.0070380036619
 30
0.0
 11
218.9634999999999
 21
217.0009999999999
 31
0.0
  0
LINE
  5
325
330
1E
100
AcDbEntity
  8
0
100
AcDbLine
 10
208.9615
 20
213.812
 30
0.0
 11
208.9616814009609
 21
214.10196943654
 31
0.0
  0
LINE
  5
326
330
1E
100
AcDbEntity
  8
0
100
AcDbLine
 10
227.9285
 20
324.0009999999999
 30
0.0
 11
229.9294999999999
 21
374.0009999999999
 31
0.0
  0
LINE
  5
327
330
1E
100
AcDbEntity
  8
0
100
AcDbLine
 10
237.7375
 20
322.3329999999999
 30
0.0
 11
239.8585
 21
375.116
 31
0.0
  0
LINE
  5
328
330
1E
100
AcDbEntity
  8
0
100
AcDbLine
 10
218.9614999999999
 20
213.804
 30
0.0
 11
218.9634999999999
 21
217.0009999999999
 31
0.0
  0
LINE
  5
329
330
1E
100
AcDbEntity
  8
0
100
AcDbLine
 10
104.6435
 20
768.983
 30
0.0
 11
104.677200669084
 21
769.994020072523
 31
0.0
  0
LINE
  5
32A
330
1E
100
AcDbEntity
  8
0
100
AcDbLine
 10
104.2435
 20
768.983
 30
0.0
 11
104.6435
 21
768.983
 31
0.0
  0
LINE
  5
32B
330
1E
100
AcDbEntity
  8
0
100
AcDbLine
 10
103.2434999999999
 20
768.983
 30
0.0
 11
104.2435
 21
768.983
 31
0.0
  0
LINE
  5
32C
330
1E
100
AcDbEntity
  8
0
100
AcDbLine
 10
101.5434999999999
 20
768.983
 30
0.0
 11
103.2434999999999
 21
768.983
 31
0.0
  0
LINE
  5
32D
330
1E
100
AcDbEntity
  8
0
100
AcDbLine
 10
99.3438
 20
768.983
 30
0.0
 11
101.5434999999999
 21
768.983
 31
0.0
  0
LINE
  5
32E
330
1E
100
AcDbEntity
  8
0
100
AcDbLine
 10
99.2653046712977
 20
768.983
 30
0.0
 11
99.3438
 21
768.983
 31
0.0
  0
LINE
  5
32F
330
1E
100
AcDbEntity
  8
0
100
AcDbLine
 10
99.2653046712977
 20
768.983
 30
0.0
 11
99.2706
 21
760.0679999999999
 31
0.0
  0
LINE
  5
330
330
1E
100
AcDbEntity
  8
0
100
AcDbLine
 10
91.0415
 20
974.4849999999999
 30
0.0
 11
94.14149999999999
 21
974.4849999999999
 31
0.0
  0
LINE
  5
331
330
1E
100
AcDbEntity
  8
0
100
AcDbLine
 10
91.0415
 20
955.485
 30
0.0
 11
94.14149999999999
 21
955.485
 31
0.0
  0
LINE
  5
332
330
1E
100
AcDbEntity
  8
0
100
AcDbLine
 10
94.14149999999999
 20
954.9850000000001
 30
0.0
 11
96.9415
 21
954.9850000000001
 31
0.0
  0
LINE
  5
333
330
1E
100
AcDbEntity
  8
0
100
AcDbLine
 10
104.9304999999999
 20
770.995
 30
0.0
 11
105.9315
 21
769.995
 31
0.0
  0
LINE
  5
334
330
1E
100
AcDbEntity
  8
0
100
AcDbLine
 10
104.9004999999999
 20
808.9949999999999
 30
0.0
 11
105.8995
 21
809.9949999999999
 31
0.0
  0
LINE
  5
335
330
1E
100
AcDbEntity
  8
0
100
AcDbLine
 10
104.9004999999999
 20
808.9949999999999
 30
0.0
 11
104.9304999999999
 21
770.995
 31
0.0
  0
LINE
  5
336
330
1E
100
AcDbEntity
  8
0
100
AcDbLine
 10
105.8995
 20
809.9949999999999
 30
0.0
 11
112.8994999999999
 21
810.0010000000001
 31
0.0
  0
LINE
  5
337
330
1E
100
AcDbEntity
  8
0
100
AcDbLine
 10
105.9315
 20
769.995
 30
0.0
 11
112.9315
 21
770.001
 31
0.0
  0
LINE
  5
338
330
1E
100
AcDbEntity
  8
0
100
AcDbLine
 10
104.677200669084
 20
769.994020072523
 30
0.0
 11
105.9315
 21
769.995
 31
0.0
  0
LINE
  5
339
330
1E
100
AcDbEntity
  8
0
100
AcDbLine
 10
110.45810424766
 20
769.9988799464979
 30
0.0
 11
110.926544110385
 21
179.439563163403
 31
0.0
  0
LINE
  5
33A
330
1E
100
AcDbEntity
  8
0
100
AcDbLine
 10
110.45810424766
 20
769.9988799464979
 30
0.0
 11
110.926544110385
 21
179.439563163403
 31
0.0
  0
LINE
  5
33B
330
1E
100
AcDbEntity
  8
0
100
AcDbLine
 10
102.6414999999999
 20
954.485
 30
0.0
 11
104.5414999999999
 21
954.485
 31
0.0
  0
LINE
  5
33C
330
1E
100
AcDbEntity
  8
0
100
AcDbLine
 10
104.5414999999999
 20
954.485
 30
0.0
 11
105.7414999999999
 21
954.485
 31
0.0
  0
LINE
  5
33D
330
1E
100
AcDbEntity
  8
0
100
AcDbLine
 10
161.1925
 20
924.0449999999999
 30
0.0
 11
161.1955
 21
974.0010000000001
 31
0.0
  0
LINE
  5
33E
330
1E
100
AcDbEntity
  8
0
100
AcDbLine
 10
161.1925
 20
924.0449999999999
 30
0.0
 11
229.9294999999999
 21
374.0009999999999
 31
0.0
  0
LINE
  5
33F
330
1E
100
AcDbEntity
  8
0
100
AcDbLine
 10
170.9745
 20
925.121
 30
0.0
 11
171.038499387485
 21
974.00053219199
 31
0.0
  0
LINE
  5
340
330
1E
100
AcDbEntity
  8
0
100
AcDbLine
 10
170.9745
 20
925.121
 30
0.0
 11
239.8585
 21
375.116
 31
0.0
  0
LINE
  5
341
330
1E
100
AcDbEntity
  8
0
100
AcDbLine
 10
112.8994999999999
 20
810.0010000000001
 30
0.0
 11
112.9315
 21
770.001
 31
0.0
  0
LINE
  5
342
330
1E
100
AcDbEntity
  8
0
100
AcDbLine
 10
106.1414999999999
 20
954.485
 30
0.0
 11
106.1414999999999
 21
809.995207428571
 31
0.0
  0
LINE
  5
343
330
1E
100
AcDbEntity
  8
0
100
AcDbLine
 10
105.7414999999999
 20
954.485
 30
0.0
 11
106.1414999999999
 21
954.485
 31
0.0
  0
LINE
  5
344
330
1E
100
AcDbEntity
  8
0
100
AcDbLine
 10
106.1414999999999
 20
809.995207428571
 30
0.0
 11
106.1414999999999
 21
954.485
 31
0.0
  0
LINE
  5
345
330
1E
100
AcDbEntity
  8
0
100
AcDbLine
 10
106.1414999999999
 20
809.995207428571
 30
0.0
 11
110.426375691213
 21
809.9988801791639
 31
0.0
  0
LINE
  5
346
330
1E
100
AcDbEntity
  8
0
100
AcDbLine
 10
100.1414999999999
 20
954.485
 30
0.0
 11
102.6414999999999
 21
954.485
 31
0.0
  0
LINE
  5
347
330
1E
100
AcDbEntity
  8
0
100
AcDbLine
 10
101.9414999999999
 20
954.9850000000001
 30
0.0
 11
103.6414999999999
 21
954.9850000000001
 31
0.0
  0
LINE
  5
348
330
1E
100
AcDbEntity
  8
0
100
AcDbLine
 10
103.6414999999999
 20
954.9850000000001
 30
0.0
 11
104.7414999999999
 21
954.9850000000001
 31
0.0
  0
LINE
  5
349
330
1E
100
AcDbEntity
  8
0
100
AcDbLine
 10
105.1414999999999
 20
954.9850000000001
 30
0.0
 11
106.1414999999999
 21
954.485
 31
0.0
  0
LINE
  5
34A
330
1E
100
AcDbEntity
  8
0
100
AcDbLine
 10
105.1414999999999
 20
954.9850000000001
 30
0.0
 11
106.1414999999999
 21
955.485
 31
0.0
  0
LINE
  5
34B
330
1E
100
AcDbEntity
  8
0
100
AcDbLine
 10
104.7414999999999
 20
954.9850000000001
 30
0.0
 11
105.1414999999999
 21
954.9850000000001
 31
0.0
  0
LINE
  5
34C
330
1E
100
AcDbEntity
  8
0
100
AcDbLine
 10
99.6415
 20
954.9850000000001
 30
0.0
 11
101.9414999999999
 21
954.9850000000001
 31
0.0
  0
LINE
  5
34D
330
1E
100
AcDbEntity
  8
0
100
AcDbLine
 10
96.9415
 20
954.9850000000001
 30
0.0
 11
99.6415
 21
954.9850000000001
 31
0.0
  0
LINE
  5
34E
330
1E
100
AcDbEntity
  8
0
100
AcDbLine
 10
97.24150000000001
 20
954.485
 30
0.0
 11
100.1414999999999
 21
954.485
 31
0.0
  0
LINE
  5
34F
330
1E
100
AcDbEntity
  8
0
100
AcDbLine
 10
94.14149999999999
 20
954.485
 30
0.0
 11
97.24150000000001
 21
954.485
 31
0.0
  0
LINE
  5
350
330
1E
100
AcDbEntity
  8
0
100
AcDbLine
 10
102.6414999999999
 20
955.485
 30
0.0
 11
104.5414999999999
 21
955.485
 31
0.0
  0
LINE
  5
351
330
1E
100
AcDbEntity
  8
0
100
AcDbLine
 10
104.5414999999999
 20
955.485
 30
0.0
 11
105.7414999999999
 21
955.485
 31
0.0
  0
LINE
  5
352
330
1E
100
AcDbEntity
  8
0
100
AcDbLine
 10
106.1414999999999
 20
955.485
 30
0.0
 11
106.1414999999999
 21
974.4849999999999
 31
0.0
  0
LINE
  5
353
330
1E
100
AcDbEntity
  8
0
100
AcDbLine
 10
105.7414999999999
 20
955.485
 30
0.0
 11
106.1414999999999
 21
955.485
 31
0.0
  0
LINE
  5
354
330
1E
100
AcDbEntity
  8
0
100
AcDbLine
 10
100.1414999999999
 20
955.485
 30
0.0
 11
102.6414999999999
 21
955.485
 31
0.0
  0
LINE
  5
355
330
1E
100
AcDbEntity
  8
0
100
AcDbLine
 10
97.24150000000001
 20
955.485
 30
0.0
 11
100.1414999999999
 21
955.485
 31
0.0
  0
LINE
  5
356
330
1E
100
AcDbEntity
  8
0
100
AcDbLine
 10
94.14149999999999
 20
974.985
 30
0.0
 11
97.1415
 21
974.985
 31
0.0
  0
LINE
  5
357
330
1E
100
AcDbEntity
  8
0
100
AcDbLine
 10
102.6414999999999
 20
974.4849999999999
 30
0.0
 11
104.5414999999999
 21
974.4849999999999
 31
0.0
  0
LINE
  5
359
330
1E
100
AcDbEntity
  8
0
100
AcDbLine
 10
168.8164999999999
 20
974.0010000000001
 30
0.0
 11
169.6725
 21
974.0010000000001
 31
0.0
  0
LINE
  5
35A
330
1E
100
AcDbEntity
  8
0
100
AcDbLine
 10
167.0004999999999
 20
974.0010000000001
 30
0.0
 11
168.8164999999999
 21
974.0010000000001
 31
0.0
  0
LINE
  5
35B
330
1E
100
AcDbEntity
  8
0
100
AcDbLine
 10
165.0505
 20
974.0010000000001
 30
0.0
 11
167.0004999999999
 21
974.0010000000001
 31
0.0
  0
LINE
  5
35C
330
1E
100
AcDbEntity
  8
0
100
AcDbLine
 10
163.2615
 20
974.0010000000001
 30
0.0
 11
165.0505
 21
974.0010000000001
 31
0.0
  0
LINE
  5
35D
330
1E
100
AcDbEntity
  8
0
100
AcDbLine
 10
161.9085
 20
974.0010000000001
 30
0.0
 11
163.2615
 21
974.0010000000001
 31
0.0
  0
LINE
  5
35E
330
1E
100
AcDbEntity
  8
0
100
AcDbLine
 10
161.1955
 20
974.0010000000001
 30
0.0
 11
161.9085
 21
974.0010000000001
 31
0.0
  0
LINE
  5
35F
330
1E
100
AcDbEntity
  8
0
100
AcDbLine
 10
162.7845
 20
974.0010000000001
 30
0.0
 11
166.2284999999999
 21
974.0010000000001
 31
0.0
  0
LINE
  5
360
330
1E
100
AcDbEntity
  8
0
100
AcDbLine
 10
174.5435
 20
974.0
 30
0.0
 11
175.2285
 21
974.0
 31
0.0
  0
LINE
  5
361
330
1E
100
AcDbEntity
  8
0
100
AcDbLine
 10
175.2285
 20
974.0
 30
0.0
 11
179.2324999999999
 21
1013.995
 31
0.0
  0
LINE
  5
362
330
1E
100
AcDbEntity
  8
0
100
AcDbLine
 10
171.038499387485
 20
974.00053219199
 30
0.0
 11
172.5925
 21
974.0
 31
0.0
  0
LINE
  5
363
330
1E
100
AcDbEntity
  8
0
100
AcDbLine
 10
172.5925
 20
974.0
 30
0.0
 11
174.5435
 21
974.0
 31
0.0
  0
LINE
  5
364
330
1E
100
AcDbEntity
  8
0
100
AcDbLine
 10
169.6725
 20
974.0010000000001
 30
0.0
 11
172.5925
 21
974.0
 31
0.0
  0
LINE
  5
365
330
1E
100
AcDbEntity
  8
0
100
AcDbLine
 10
157.2284999999999
 20
974.0019999999999
 30
0.0
 11
157.9134999999999
 21
974.0019999999999
 31
0.0
  0
LINE
  5
366
330
1E
100
AcDbEntity
  8
0
100
AcDbLine
 10
157.9134999999999
 20
974.0019999999999
 30
0.0
 11
159.8644999999999
 21
974.0019999999999
 31
0.0
  0
LINE
  5
367
330
1E
100
AcDbEntity
  8
0
100
AcDbLine
 10
159.8644999999999
 20
974.0019999999999
 30
0.0
 11
162.7845
 21
974.0010000000001
 31
0.0
  0
LINE
  5
368
330
1E
100
AcDbEntity
  8
0
100
AcDbLine
 10
166.2284999999999
 20
974.0010000000001
 30
0.0
 11
169.6725
 21
974.0010000000001
 31
0.0
  0
LINE
  5
36A
330
1E
100
AcDbEntity
  8
0
100
AcDbLine
 10
106.1414999999999
 20
974.4849999999999
 30
0.0
 11
106.1414999999999
 21
955.485
 31
0.0
  0
LINE
  5
36B
330
1E
100
AcDbEntity
  8
0
100
AcDbLine
 10
104.5414999999999
 20
974.4849999999999
 30
0.0
 11
105.7414999999999
 21
974.4849999999999
 31
0.0
  0
LINE
  5
36C
330
1E
100
AcDbEntity
  8
0
100
AcDbLine
 10
105.7414999999999
 20
974.4849999999999
 30
0.0
 11
106.1414999999999
 21
974.4849999999999
 31
0.0
  0
LINE
  5
36D
330
1E
100
AcDbEntity
  8
0
100
AcDbLine
 10
100.1414999999999
 20
974.4849999999999
 30
0.0
 11
102.6414999999999
 21
974.4849999999999
 31
0.0
  0
LINE
  5
36E
330
1E
100
AcDbEntity
  8
0
100
AcDbLine
 10
96.9212
 20
1040.005
 30
0.0
 11
96.92210000000001
 21
1041.074999999999
 31
0.0
  0
LINE
  5
36F
330
1E
100
AcDbEntity
  8
0
100
AcDbLine
 10
96.9212
 20
1040.005
 30
0.0
 11
98.92125
 21
1040.005
 31
0.0
  0
LINE
  5
370
330
1E
100
AcDbEntity
  8
0
100
AcDbLine
 10
96.92210000000001
 20
1041.074999999999
 30
0.0
 11
96.9245
 21
1044.105
 31
0.0
  0
LINE
  5
371
330
1E
100
AcDbEntity
  8
0
100
AcDbLine
 10
96.9245
 20
1044.105
 30
0.0
 11
96.92810000000001
 21
1048.654999999999
 31
0.0
  0
LINE
  5
372
330
1E
100
AcDbEntity
  8
0
100
AcDbLine
 10
96.92810000000001
 20
1048.654999999999
 30
0.0
 11
96.93240000000001
 21
1054.005
 31
0.0
  0
LINE
  5
373
330
1E
100
AcDbEntity
  8
0
100
AcDbLine
 10
96.93240000000001
 20
1054.005
 30
0.0
 11
96.9367
 21
1059.365
 31
0.0
  0
LINE
  5
374
330
1E
100
AcDbEntity
  8
0
100
AcDbLine
 10
96.9367
 20
1059.365
 30
0.0
 11
96.94029999999999
 21
1063.904999999999
 31
0.0
  0
LINE
  5
375
330
1E
100
AcDbEntity
  8
0
100
AcDbLine
 10
96.94029999999999
 20
1063.904999999999
 30
0.0
 11
96.9428
 21
1066.945
 31
0.0
  0
LINE
  5
376
330
1E
100
AcDbEntity
  8
0
100
AcDbLine
 10
96.94360000000001
 20
1068.005
 30
0.0
 11
106.2215521327009
 21
1068.005
 31
0.0
  0
LINE
  5
377
330
1E
100
AcDbEntity
  8
0
100
AcDbLine
 10
96.9428
 20
1066.945
 30
0.0
 11
96.94360000000001
 21
1068.005
 31
0.0
  0
LINE
  5
378
330
1E
100
AcDbEntity
  8
0
100
AcDbLine
 10
102.2415
 20
974.985
 30
0.0
 11
104.1414999999999
 21
974.985
 31
0.0
  0
LINE
  5
379
330
1E
100
AcDbEntity
  8
0
100
AcDbLine
 10
104.1414999999999
 20
974.985
 30
0.0
 11
105.2415
 21
974.985
 31
0.0
  0
LINE
  5
37C
330
1E
100
AcDbEntity
  8
0
100
AcDbLine
 10
105.6414999999999
 20
974.985
 30
0.0
 11
106.1414999999999
 21
974.4849999999999
 31
0.0
  0
LINE
  5
37D
330
1E
100
AcDbEntity
  8
0
100
AcDbLine
 10
105.2415
 20
974.985
 30
0.0
 11
105.6414999999999
 21
974.985
 31
0.0
  0
LINE
  5
37E
330
1E
100
AcDbEntity
  8
0
100
AcDbLine
 10
110.2495
 20
1032.984999999999
 30
0.0
 11
110.426375691213
 21
809.9988801791639
 31
0.0
  0
LINE
  5
37F
330
1E
100
AcDbEntity
  8
0
100
AcDbLine
 10
130.0685
 20
982.4849999999999
 30
0.0
 11
134.5685
 21
983.0849999999999
 31
0.0
  0
LINE
  5
380
330
1E
100
AcDbEntity
  8
0
100
AcDbLine
 10
125.5684999999999
 20
983.0849999999999
 30
0.0
 11
130.0685
 21
982.4849999999999
 31
0.0
  0
LINE
  5
381
330
1E
100
AcDbEntity
  8
0
100
AcDbLine
 10
130.0685
 20
983.4850000000001
 30
0.0
 11
134.3685
 21
984.0850000000001
 31
0.0
  0
LINE
  5
384
330
1E
100
AcDbEntity
  8
0
100
AcDbLine
 10
134.5685
 20
983.0849999999999
 30
0.0
 11
138.7684999999999
 21
984.7849999999999
 31
0.0
  0
LINE
  5
387
330
1E
100
AcDbEntity
  8
0
100
AcDbLine
 10
125.7685
 20
984.0850000000001
 30
0.0
 11
130.0685
 21
983.4850000000001
 31
0.0
  0
LINE
  5
388
330
1E
100
AcDbEntity
  8
0
100
AcDbLine
 10
121.3684999999999
 20
984.7849999999999
 30
0.0
 11
125.5684999999999
 21
983.0849999999999
 31
0.0
  0
LINE
  5
389
330
1E
100
AcDbEntity
  8
0
100
AcDbLine
 10
121.8685
 20
985.6849999999999
 30
0.0
 11
125.7685
 21
984.0850000000001
 31
0.0
  0
LINE
  5
38A
330
1E
100
AcDbEntity
  8
0
100
AcDbLine
 10
134.3685
 20
984.0850000000001
 30
0.0
 11
138.2684999999999
 21
985.6849999999999
 31
0.0
  0
LINE
  5
38B
330
1E
100
AcDbEntity
  8
0
100
AcDbLine
 10
138.7684999999999
 20
984.7849999999999
 30
0.0
 11
142.4685
 21
987.5849999999999
 31
0.0
  0
LINE
  5
38C
330
1E
100
AcDbEntity
  8
0
100
AcDbLine
 10
138.2684999999999
 20
985.6849999999999
 30
0.0
 11
141.6685
 21
988.385
 31
0.0
  0
LINE
  5
38D
330
1E
100
AcDbEntity
  8
0
100
AcDbLine
 10
114.8684999999999
 20
991.285
 30
0.0
 11
117.6684999999999
 21
987.5849999999999
 31
0.0
  0
LINE
  5
38E
330
1E
100
AcDbEntity
  8
0
100
AcDbLine
 10
113.1685
 20
995.485
 30
0.0
 11
114.8684999999999
 21
991.285
 31
0.0
  0
LINE
  5
38F
330
1E
100
AcDbEntity
  8
0
100
AcDbLine
 10
117.6684999999999
 20
987.5849999999999
 30
0.0
 11
121.3684999999999
 21
984.7849999999999
 31
0.0
  0
LINE
  5
390
330
1E
100
AcDbEntity
  8
0
100
AcDbLine
 10
118.4684999999999
 20
988.385
 30
0.0
 11
121.8685
 21
985.6849999999999
 31
0.0
  0
LINE
  5
391
330
1E
100
AcDbEntity
  8
0
100
AcDbLine
 10
115.7685
 20
991.7849999999999
 30
0.0
 11
118.4684999999999
 21
988.385
 31
0.0
  0
LINE
  5
392
330
1E
100
AcDbEntity
  8
0
100
AcDbLine
 10
114.1685
 20
995.6849999999999
 30
0.0
 11
115.7685
 21
991.7849999999999
 31
0.0
  0
LINE
  5
393
330
1E
100
AcDbEntity
  8
0
100
AcDbLine
 10
112.5685
 20
999.985
 30
0.0
 11
113.1685
 21
1004.485
 31
0.0
  0
LINE
  5
394
330
1E
100
AcDbEntity
  8
0
100
AcDbLine
 10
112.5685
 20
999.985
 30
0.0
 11
113.0602816558309
 21
1003.67336241873
 31
0.0
  0
LINE
  5
395
330
1E
100
AcDbEntity
  8
0
100
AcDbLine
 10
112.5685
 20
999.985
 30
0.0
 11
113.1685
 21
995.485
 31
0.0
  0
LINE
  5
396
330
1E
100
AcDbEntity
  8
0
100
AcDbLine
 10
112.5685
 20
999.985
 30
0.0
 11
113.0467628835519
 21
996.3980283733569
 31
0.0
  0
LINE
  5
397
330
1E
100
AcDbEntity
  8
0
100
AcDbLine
 10
113.1685
 20
1004.485
 30
0.0
 11
114.8684999999999
 21
1008.685
 31
0.0
  0
LINE
  5
398
330
1E
100
AcDbEntity
  8
0
100
AcDbLine
 10
114.8684999999999
 20
1008.685
 30
0.0
 11
117.6684999999999
 21
1012.385
 31
0.0
  0
LINE
  5
399
330
1E
100
AcDbEntity
  8
0
100
AcDbLine
 10
118.4684999999999
 20
1011.584999999999
 30
0.0
 11
121.8685
 21
1014.284999999999
 31
0.0
  0
LINE
  5
39A
330
1E
100
AcDbEntity
  8
0
100
AcDbLine
 10
115.7685
 20
1008.184999999999
 30
0.0
 11
118.4684999999999
 21
1011.584999999999
 31
0.0
  0
LINE
  5
39B
330
1E
100
AcDbEntity
  8
0
100
AcDbLine
 10
114.1685
 20
1004.285
 30
0.0
 11
115.7685
 21
1008.184999999999
 31
0.0
  0
LINE
  5
39C
330
1E
100
AcDbEntity
  8
0
100
AcDbLine
 10
113.5685
 20
999.985
 30
0.0
 11
114.1685
 21
1004.285
 31
0.0
  0
LINE
  5
39D
330
1E
100
AcDbEntity
  8
0
100
AcDbLine
 10
113.5685
 20
999.985
 30
0.0
 11
114.1685
 21
995.6849999999999
 31
0.0
  0
LINE
  5
39E
330
1E
100
AcDbEntity
  8
0
100
AcDbLine
 10
142.4685
 20
987.5849999999999
 30
0.0
 11
145.2684999999999
 21
991.285
 31
0.0
  0
LINE
  5
39F
330
1E
100
AcDbEntity
  8
0
100
AcDbLine
 10
141.6685
 20
988.385
 30
0.0
 11
144.3685
 21
991.7849999999999
 31
0.0
  0
LINE
  5
3A0
330
1E
100
AcDbEntity
  8
0
100
AcDbLine
 10
145.2684999999999
 20
991.285
 30
0.0
 11
146.9685
 21
995.485
 31
0.0
  0
LINE
  5
3A1
330
1E
100
AcDbEntity
  8
0
100
AcDbLine
 10
146.9685
 20
995.485
 30
0.0
 11
147.5685
 21
999.985
 31
0.0
  0
LINE
  5
3A2
330
1E
100
AcDbEntity
  8
0
100
AcDbLine
 10
144.3685
 20
991.7849999999999
 30
0.0
 11
145.9685
 21
995.6849999999999
 31
0.0
  0
LINE
  5
3A3
330
1E
100
AcDbEntity
  8
0
100
AcDbLine
 10
145.2684999999999
 20
1008.685
 30
0.0
 11
146.9685
 21
1004.485
 31
0.0
  0
LINE
  5
3A4
330
1E
100
AcDbEntity
  8
0
100
AcDbLine
 10
141.6685
 20
1011.584999999999
 30
0.0
 11
144.3685
 21
1008.184999999999
 31
0.0
  0
LINE
  5
3A5
330
1E
100
AcDbEntity
  8
0
100
AcDbLine
 10
144.3685
 20
1008.184999999999
 30
0.0
 11
145.9685
 21
1004.285
 31
0.0
  0
LINE
  5
3A6
330
1E
100
AcDbEntity
  8
0
100
AcDbLine
 10
146.9685
 20
1004.485
 30
0.0
 11
147.5685
 21
999.985
 31
0.0
  0
LINE
  5
3A7
330
1E
100
AcDbEntity
  8
0
100
AcDbLine
 10
145.9685
 20
1004.285
 30
0.0
 11
146.5685
 21
999.985
 31
0.0
  0
LINE
  5
3A8
330
1E
100
AcDbEntity
  8
0
100
AcDbLine
 10
145.9685
 20
995.6849999999999
 30
0.0
 11
146.5685
 21
999.985
 31
0.0
  0
LINE
  5
3AA
330
1E
100
AcDbEntity
  8
0
100
AcDbLine
 10
118.9472091436589
 20
986.617328215609
 30
0.0
 11
119.067384875511
 21
986.5263844185319
 31
0.0
  0
LINE
  5
3B0
330
1E
100
AcDbEntity
  8
0
100
AcDbLine
 10
110.2495
 20
1032.984999999999
 30
0.0
 11
110.426375691213
 21
809.9988801791639
 31
0.0
  0
LINE
  5
3B1
330
1E
100
AcDbEntity
  8
0
100
AcDbLine
 10
117.6684999999999
 20
1012.385
 30
0.0
 11
121.3684999999999
 21
1015.185
 31
0.0
  0
LINE
  5
3B2
330
1E
100
AcDbEntity
  8
0
100
AcDbLine
 10
142.4685
 20
1012.385
 30
0.0
 11
145.2684999999999
 21
1008.685
 31
0.0
  0
LINE
  5
3B3
330
1E
100
AcDbEntity
  8
0
100
AcDbLine
 10
154.2214999999999
 20
1014.005
 30
0.0
 11
157.0405
 21
1014.005
 31
0.0
  0
LINE
  5
3B4
330
1E
100
AcDbEntity
  8
0
100
AcDbLine
 10
153.2324999999999
 20
1014.005
 30
0.0
 11
157.2284999999999
 21
974.0019999999999
 31
0.0
  0
LINE
  5
3B5
330
1E
100
AcDbEntity
  8
0
100
AcDbLine
 10
153.2324999999999
 20
1014.005
 30
0.0
 11
154.2214999999999
 21
1014.005
 31
0.0
  0
LINE
  5
3B6
330
1E
100
AcDbEntity
  8
0
100
AcDbLine
 10
153.2645
 20
1014.015
 30
0.0
 11
162.252
 21
1014.024999999999
 31
0.0
  0
LINE
  5
3B7
330
1E
100
AcDbEntity
  8
0
100
AcDbLine
 10
153.2645
 20
1014.015
 30
0.0
 11
154.2534999999999
 21
1014.024999999999
 31
0.0
  0
LINE
  5
3B8
330
1E
100
AcDbEntity
  8
0
100
AcDbLine
 10
161.2574999999999
 20
1014.005
 30
0.0
 11
166.2324999999999
 21
1014.005
 31
0.0
  0
LINE
  5
3B9
330
1E
100
AcDbEntity
  8
0
100
AcDbLine
 10
157.0405
 20
1014.005
 30
0.0
 11
161.2574999999999
 21
1014.005
 31
0.0
  0
LINE
  5
3BA
330
1E
100
AcDbEntity
  8
0
100
AcDbLine
 10
154.2534999999999
 20
1014.024999999999
 30
0.0
 11
157.0714999999999
 21
1014.024999999999
 31
0.0
  0
LINE
  5
3BB
330
1E
100
AcDbEntity
  8
0
100
AcDbLine
 10
157.0714999999999
 20
1014.024999999999
 30
0.0
 11
161.2894999999999
 21
1014.024999999999
 31
0.0
  0
LINE
  5
3BC
330
1E
100
AcDbEntity
  8
0
100
AcDbLine
 10
175.4245
 20
1013.995
 30
0.0
 11
178.2435
 21
1013.995
 31
0.0
  0
LINE
  5
3BD
330
1E
100
AcDbEntity
  8
0
100
AcDbLine
 10
171.2075
 20
1014.005
 30
0.0
 11
175.4245
 21
1013.995
 31
0.0
  0
LINE
  5
3BE
330
1E
100
AcDbEntity
  8
0
100
AcDbLine
 10
166.2324999999999
 20
1014.005
 30
0.0
 11
171.2075
 21
1014.005
 31
0.0
  0
LINE
  5
3BF
330
1E
100
AcDbEntity
  8
0
100
AcDbLine
 10
166.2644999999999
 20
1014.024999999999
 30
0.0
 11
171.2394999999999
 21
1014.035
 31
0.0
  0
LINE
  5
3C0
330
1E
100
AcDbEntity
  8
0
100
AcDbLine
 10
161.2894999999999
 20
1014.024999999999
 30
0.0
 11
166.2644999999999
 21
1014.024999999999
 31
0.0
  0
LINE
  5
3C1
330
1E
100
AcDbEntity
  8
0
100
AcDbLine
 10
121.3684999999999
 20
1015.185
 30
0.0
 11
125.5684999999999
 21
1016.885
 31
0.0
  0
LINE
  5
3C2
330
1E
100
AcDbEntity
  8
0
100
AcDbLine
 10
125.7685
 20
1015.884999999999
 30
0.0
 11
130.0685
 21
1016.485
 31
0.0
  0
LINE
  5
3C3
330
1E
100
AcDbEntity
  8
0
100
AcDbLine
 10
121.8685
 20
1014.284999999999
 30
0.0
 11
125.7685
 21
1015.884999999999
 31
0.0
  0
LINE
  5
3C4
330
1E
100
AcDbEntity
  8
0
100
AcDbLine
 10
125.5684999999999
 20
1016.885
 30
0.0
 11
130.0685
 21
1017.485
 31
0.0
  0
LINE
  5
3C5
330
1E
100
AcDbEntity
  8
0
100
AcDbLine
 10
130.0685
 20
1017.485
 30
0.0
 11
134.5685
 21
1016.885
 31
0.0
  0
LINE
  5
3C6
330
1E
100
AcDbEntity
  8
0
100
AcDbLine
 10
134.215850679872
 20
1016.93201990935
 30
0.0
 11
134.5685
 21
1016.885
 31
0.0
  0
LINE
  5
3C7
330
1E
100
AcDbEntity
  8
0
100
AcDbLine
 10
134.5685
 20
1016.885
 30
0.0
 11
138.7684999999999
 21
1015.185
 31
0.0
  0
LINE
  5
3C8
330
1E
100
AcDbEntity
  8
0
100
AcDbLine
 10
134.5685
 20
1016.885
 30
0.0
 11
135.271845488628
 21
1016.60031254032
 31
0.0
  0
LINE
  5
3C9
330
1E
100
AcDbEntity
  8
0
100
AcDbLine
 10
130.0685
 20
1016.485
 30
0.0
 11
134.3685
 21
1015.884999999999
 31
0.0
  0
LINE
  5
3CA
330
1E
100
AcDbEntity
  8
0
100
AcDbLine
 10
134.3685
 20
1015.884999999999
 30
0.0
 11
138.2684999999999
 21
1014.284999999999
 31
0.0
  0
LINE
  5
3CB
330
1E
100
AcDbEntity
  8
0
100
AcDbLine
 10
138.7684999999999
 20
1015.185
 30
0.0
 11
142.4685
 21
1012.385
 31
0.0
  0
LINE
  5
3CC
330
1E
100
AcDbEntity
  8
0
100
AcDbLine
 10
138.2684999999999
 20
1014.284999999999
 30
0.0
 11
141.6685
 21
1011.584999999999
 31
0.0
  0
LINE
  5
3D0
330
1E
100
AcDbEntity
  8
0
100
AcDbLine
 10
171.2394999999999
 20
1014.035
 30
0.0
 11
175.4565
 21
1014.035
 31
0.0
  0
LINE
  5
3D1
330
1E
100
AcDbEntity
  8
0
100
AcDbLine
 10
171.2394999999999
 20
1014.035
 30
0.0
 11
178.2745
 21
1014.035
 31
0.0
  0
LINE
  5
3D2
330
1E
100
AcDbEntity
  8
0
100
AcDbLine
 10
178.2435
 20
1013.995
 30
0.0
 11
179.2324999999999
 21
1013.995
 31
0.0
  0
LINE
  5
3D3
330
1E
100
AcDbEntity
  8
0
100
AcDbLine
 10
178.2745
 20
1014.035
 30
0.0
 11
179.2645
 21
1014.045
 31
0.0
  0
LINE
  5
3D4
330
1E
100
AcDbEntity
  8
0
100
AcDbLine
 10
175.4565
 20
1014.035
 30
0.0
 11
178.2745
 21
1014.035
 31
0.0
  0
LINE
  5
3D5
330
1E
100
AcDbEntity
  8
0
100
AcDbLine
 10
208.8985
 20
1012.005
 30
0.0
 11
208.9014999999999
 21
1015.205
 31
0.0
  0
LINE
  5
3D6
330
1E
100
AcDbEntity
  8
0
100
AcDbLine
 10
208.8985
 20
1012.005
 30
0.0
 11
218.8985
 21
1012.005
 31
0.0
  0
LINE
  5
3D7
330
1E
100
AcDbEntity
  8
0
100
AcDbLine
 10
208.9014999999999
 20
1015.205
 30
0.0
 11
208.9084999999999
 21
1024.315
 31
0.0
  0
LINE
  5
3D8
330
1E
100
AcDbEntity
  8
0
100
AcDbLine
 10
148.2504999999999
 20
1031.515
 30
0.0
 11
148.6295
 21
1033.425
 31
0.0
  0
LINE
  5
3D9
330
1E
100
AcDbEntity
  8
0
100
AcDbLine
 10
148.2504999999999
 20
1031.515
 30
0.0
 11
148.9125
 21
197.5159999999999
 31
0.0
  0
LINE
  5
3DA
330
1E
100
AcDbEntity
  8
0
100
AcDbLine
 10
148.2504999999999
 20
1031.515
 30
0.0
 11
148.9125
 21
197.5159999999999
 31
0.0
  0
LINE
  5
3DB
330
1E
100
AcDbEntity
  8
0
100
AcDbLine
 10
104.6845
 20
1035.005
 30
0.0
 11
104.9134999999999
 21
1035.005
 31
0.0
  0
LINE
  5
3DC
330
1E
100
AcDbEntity
  8
0
100
AcDbLine
 10
104.9134999999999
 20
1035.005
 30
0.0
 11
104.9215
 21
1040.005
 31
0.0
  0
LINE
  5
3DD
330
1E
100
AcDbEntity
  8
0
100
AcDbLine
 10
104.0344999999999
 20
1035.005
 30
0.0
 11
104.6845
 21
1035.005
 31
0.0
  0
LINE
  5
3DE
330
1E
100
AcDbEntity
  8
0
100
AcDbLine
 10
103.0615
 20
1035.005
 30
0.0
 11
104.0344999999999
 21
1035.005
 31
0.0
  0
LINE
  5
3DF
330
1E
100
AcDbEntity
  8
0
100
AcDbLine
 10
101.9134999999999
 20
1035.005
 30
0.0
 11
103.0615
 21
1035.005
 31
0.0
  0
LINE
  5
3E0
330
1E
100
AcDbEntity
  8
0
100
AcDbLine
 10
100.7654999999999
 20
1035.005
 30
0.0
 11
101.9134999999999
 21
1035.005
 31
0.0
  0
LINE
  5
3E1
330
1E
100
AcDbEntity
  8
0
100
AcDbLine
 10
99.7919
 20
1035.005
 30
0.0
 11
100.7654999999999
 21
1035.005
 31
0.0
  0
LINE
  5
3E2
330
1E
100
AcDbEntity
  8
0
100
AcDbLine
 10
99.1416
 20
1035.005
 30
0.0
 11
99.7919
 21
1035.005
 31
0.0
  0
LINE
  5
3E3
330
1E
100
AcDbEntity
  8
0
100
AcDbLine
 10
98.91330000000001
 20
1035.005
 30
0.0
 11
99.1416
 21
1035.005
 31
0.0
  0
LINE
  5
3E4
330
1E
100
AcDbEntity
  8
0
100
AcDbLine
 10
98.91330000000001
 20
1035.005
 30
0.0
 11
98.92158710141892
 21
1040.217013471
 31
0.0
  0
LINE
  5
3E5
330
1E
100
AcDbEntity
  8
0
100
AcDbLine
 10
109.9814999999999
 20
1034.325
 30
0.0
 11
110.2495
 21
1032.984999999999
 31
0.0
  0
LINE
  5
3E6
330
1E
100
AcDbEntity
  8
0
100
AcDbLine
 10
108.0864999999999
 20
1036.215
 30
0.0
 11
109.2225
 21
1035.455
 31
0.0
  0
LINE
  5
3E7
330
1E
100
AcDbEntity
  8
0
100
AcDbLine
 10
106.7465
 20
1036.815
 30
0.0
 11
106.7465
 21
1036.484999999999
 31
0.0
  0
LINE
  5
3E8
330
1E
100
AcDbEntity
  8
0
100
AcDbLine
 10
106.2464999999999
 20
1036.985
 30
0.0
 11
106.7465
 21
1036.484999999999
 31
0.0
  0
LINE
  5
3E9
330
1E
100
AcDbEntity
  8
0
100
AcDbLine
 10
106.7455
 20
1037.815
 30
0.0
 11
106.7465
 21
1036.815
 31
0.0
  0
LINE
  5
3EA
330
1E
100
AcDbEntity
  8
0
100
AcDbLine
 10
106.2455
 20
1037.305
 30
0.0
 11
106.2455
 21
1038.275
 31
0.0
  0
LINE
  5
3EB
330
1E
100
AcDbEntity
  8
0
100
AcDbLine
 10
106.2455
 20
1037.305
 30
0.0
 11
106.2464999999999
 21
1036.985
 31
0.0
  0
LINE
  5
3EC
330
1E
100
AcDbEntity
  8
0
100
AcDbLine
 10
106.7465
 20
1036.484999999999
 30
0.0
 11
108.0864999999999
 21
1036.215
 31
0.0
  0
LINE
  5
3ED
330
1E
100
AcDbEntity
  8
0
100
AcDbLine
 10
106.7465
 20
1036.484999999999
 30
0.0
 11
106.7465
 21
1036.815
 31
0.0
  0
LINE
  5
3EE
330
1E
100
AcDbEntity
  8
0
100
AcDbLine
 10
109.2225
 20
1035.455
 30
0.0
 11
109.9814999999999
 21
1034.325
 31
0.0
  0
LINE
  5
3EF
330
1E
100
AcDbEntity
  8
0
100
AcDbLine
 10
149.7125
 20
1035.055
 30
0.0
 11
151.3334999999999
 21
1036.135
 31
0.0
  0
LINE
  5
3F0
330
1E
100
AcDbEntity
  8
0
100
AcDbLine
 10
151.3334999999999
 20
1036.135
 30
0.0
 11
153.2465
 21
1036.515
 31
0.0
  0
LINE
  5
3F1
330
1E
100
AcDbEntity
  8
0
100
AcDbLine
 10
148.6295
 20
1033.425
 30
0.0
 11
149.7125
 21
1035.055
 31
0.0
  0
LINE
  5
3F3
330
1E
100
AcDbEntity
  8
0
100
AcDbLine
 10
179.1145
 20
1036.635
 30
0.0
 11
179.2645
 21
1014.045
 31
0.0
  0
LINE
  5
3F4
330
1E
100
AcDbEntity
  8
0
100
AcDbLine
 10
179.1145
 20
1036.635
 30
0.0
 11
208.2465
 21
1036.565
 31
0.0
  0
LINE
  5
3F5
330
1E
100
AcDbEntity
  8
0
100
AcDbLine
 10
153.8415
 20
1036.955
 30
0.0
 11
155.5444999999999
 21
1038.155
 31
0.0
  0
LINE
  5
3F6
330
1E
100
AcDbEntity
  8
0
100
AcDbLine
 10
178.1254999999999
 20
1037.344999999999
 30
0.0
 11
178.9815
 21
1036.734999999999
 31
0.0
  0
LINE
  5
3F7
330
1E
100
AcDbEntity
  8
0
100
AcDbLine
 10
178.9815
 20
1036.734999999999
 30
0.0
 11
179.1145
 21
1036.635
 31
0.0
  0
LINE
  5
3F8
330
1E
100
AcDbEntity
  8
0
100
AcDbLine
 10
153.2465
 20
1036.515
 30
0.0
 11
153.2645
 21
1014.015
 31
0.0
  0
LINE
  5
3F9
330
1E
100
AcDbEntity
  8
0
100
AcDbLine
 10
153.2465
 20
1036.515
 30
0.0
 11
153.8415
 21
1036.955
 31
0.0
  0
LINE
  5
3FA
330
1E
100
AcDbEntity
  8
0
100
AcDbLine
 10
106.7444999999999
 20
1039.434999999999
 30
0.0
 11
106.7455
 21
1037.815
 31
0.0
  0
LINE
  5
3FB
330
1E
100
AcDbEntity
  8
0
100
AcDbLine
 10
106.2455
 20
1038.275
 30
0.0
 11
106.2455
 21
1037.305
 31
0.0
  0
LINE
  5
3FC
330
1E
100
AcDbEntity
  8
0
100
AcDbLine
 10
104.9215
 20
1040.005
 30
0.0
 11
106.2434245283019
 21
1040.005
 31
0.0
  0
LINE
  5
3FD
330
1E
100
AcDbEntity
  8
0
100
AcDbLine
 10
106.7425
 20
1041.605
 30
0.0
 11
106.7444999999999
 21
1039.434999999999
 31
0.0
  0
LINE
  5
3FE
330
1E
100
AcDbEntity
  8
0
100
AcDbLine
 10
106.2434245283019
 20
1040.005
 30
0.0
 11
106.2435
 21
1039.845
 31
0.0
  0
LINE
  5
3FF
330
1E
100
AcDbEntity
  8
0
100
AcDbLine
 10
106.2435
 20
1039.845
 30
0.0
 11
106.2455
 21
1038.275
 31
0.0
  0
LINE
  5
400
330
1E
100
AcDbEntity
  8
0
100
AcDbLine
 10
157.1374999999999
 20
1039.155
 30
0.0
 11
161.2165
 21
1041.275
 31
0.0
  0
LINE
  5
401
330
1E
100
AcDbEntity
  8
0
100
AcDbLine
 10
171.1725
 20
1041.224999999999
 30
0.0
 11
175.3685
 21
1039.185
 31
0.0
  0
LINE
  5
402
330
1E
100
AcDbEntity
  8
0
100
AcDbLine
 10
175.3685
 20
1039.185
 30
0.0
 11
178.1254999999999
 21
1037.344999999999
 31
0.0
  0
LINE
  5
403
330
1E
100
AcDbEntity
  8
0
100
AcDbLine
 10
161.2165
 20
1041.275
 30
0.0
 11
166.2375
 21
1042.175
 31
0.0
  0
LINE
  5
404
330
1E
100
AcDbEntity
  8
0
100
AcDbLine
 10
155.5444999999999
 20
1038.155
 30
0.0
 11
157.1374999999999
 21
1039.155
 31
0.0
  0
LINE
  5
405
330
1E
100
AcDbEntity
  8
0
100
AcDbLine
 10
106.7404999999999
 20
1044.264999999999
 30
0.0
 11
106.7425
 21
1041.605
 31
0.0
  0
LINE
  5
406
330
1E
100
AcDbEntity
  8
0
100
AcDbLine
 10
106.2425
 20
1041.965
 30
0.0
 11
106.2435
 21
1039.845
 31
0.0
  0
LINE
  5
407
330
1E
100
AcDbEntity
  8
0
100
AcDbLine
 10
106.2405
 20
1044.535
 30
0.0
 11
106.2425
 21
1041.965
 31
0.0
  0
LINE
  5
409
330
1E
100
AcDbEntity
  8
0
100
AcDbLine
 10
106.7374999999999
 20
1047.285
 30
0.0
 11
106.7404999999999
 21
1044.264999999999
 31
0.0
  0
LINE
  5
40D
330
1E
100
AcDbEntity
  8
0
100
AcDbLine
 10
166.2375
 20
1042.175
 30
0.0
 11
171.1725
 21
1041.224999999999
 31
0.0
  0
LINE
  5
40F
330
1E
100
AcDbEntity
  8
0
100
AcDbLine
 10
106.7355
 20
1050.565
 30
0.0
 11
106.7374999999999
 21
1047.285
 31
0.0
  0
LINE
  5
410
330
1E
100
AcDbEntity
  8
0
100
AcDbLine
 10
106.2375
 20
1047.474999999999
 30
0.0
 11
106.2405
 21
1044.535
 31
0.0
  0
LINE
  5
411
330
1E
100
AcDbEntity
  8
0
100
AcDbLine
 10
106.7325
 20
1053.984999999999
 30
0.0
 11
106.7355
 21
1050.565
 31
0.0
  0
LINE
  5
412
330
1E
100
AcDbEntity
  8
0
100
AcDbLine
 10
106.2354999999999
 20
1050.665
 30
0.0
 11
106.2375
 21
1047.474999999999
 31
0.0
  0
LINE
  5
413
330
1E
100
AcDbEntity
  8
0
100
AcDbLine
 10
106.2324999999999
 20
1053.984999999999
 30
0.0
 11
106.2354999999999
 21
1050.665
 31
0.0
  0
LINE
  5
41D
330
1E
100
AcDbEntity
  8
0
100
AcDbLine
 10
208.9084999999999
 20
1024.315
 30
0.0
 11
208.9195
 21
1037.935
 31
0.0
  0
LINE
  5
41E
330
1E
100
AcDbEntity
  8
0
100
AcDbLine
 10
218.8985
 20
1012.005
 30
0.0
 11
218.9014999999999
 21
1015.195
 31
0.0
  0
LINE
  5
41F
330
1E
100
AcDbEntity
  8
0
100
AcDbLine
 10
218.9014999999999
 20
1015.195
 30
0.0
 11
218.9084999999999
 21
1024.305
 31
0.0
  0
LINE
  5
420
330
1E
100
AcDbEntity
  8
0
100
AcDbLine
 10
218.9084999999999
 20
1024.305
 30
0.0
 11
218.9195
 21
1037.924999999999
 31
0.0
  0
LINE
  5
421
330
1E
100
AcDbEntity
  8
0
100
AcDbLine
 10
218.9195
 20
1037.924999999999
 30
0.0
 11
218.9325
 21
1054.005
 31
0.0
  0
LINE
  5
422
330
1E
100
AcDbEntity
  8
0
100
AcDbLine
 10
208.9195
 20
1037.935
 30
0.0
 11
208.9325
 21
1054.005
 31
0.0
  0
LINE
  5
423
330
1E
100
AcDbEntity
  8
0
100
AcDbLine
 10
106.7295
 20
1057.395
 30
0.0
 11
106.7325
 21
1053.984999999999
 31
0.0
  0
LINE
  5
424
330
1E
100
AcDbEntity
  8
0
100
AcDbLine
 10
106.2294999999999
 20
1057.295
 30
0.0
 11
106.2324999999999
 21
1053.984999999999
 31
0.0
  0
LINE
  5
425
330
1E
100
AcDbEntity
  8
0
100
AcDbLine
 10
106.7244999999999
 20
1063.705
 30
0.0
 11
106.7275
 21
1060.685
 31
0.0
  0
LINE
  5
426
330
1E
100
AcDbEntity
  8
0
100
AcDbLine
 10
106.7275
 20
1060.685
 30
0.0
 11
106.7295
 21
1057.395
 31
0.0
  0
LINE
  5
427
330
1E
100
AcDbEntity
  8
0
100
AcDbLine
 10
106.2275
 20
1060.484999999999
 30
0.0
 11
106.2294999999999
 21
1057.295
 31
0.0
  0
LINE
  5
428
330
1E
100
AcDbEntity
  8
0
100
AcDbLine
 10
106.2254999999999
 20
1063.425
 30
0.0
 11
106.2275
 21
1060.484999999999
 31
0.0
  0
LINE
  5
429
330
1E
100
AcDbEntity
  8
0
100
AcDbLine
 10
106.7225
 20
1066.355
 30
0.0
 11
106.7244999999999
 21
1063.705
 31
0.0
  0
LINE
  5
42A
330
1E
100
AcDbEntity
  8
0
100
AcDbLine
 10
106.7204999999999
 20
1068.535
 30
0.0
 11
106.7225
 21
1066.355
 31
0.0
  0
LINE
  5
42B
330
1E
100
AcDbEntity
  8
0
100
AcDbLine
 10
106.2224999999999
 20
1066.005
 30
0.0
 11
106.2254999999999
 21
1063.425
 31
0.0
  0
LINE
  5
42C
330
1E
100
AcDbEntity
  8
0
100
AcDbLine
 10
106.2215
 20
1068.115
 30
0.0
 11
106.2224999999999
 21
1066.005
 31
0.0
  0
LINE
  5
42D
330
1E
100
AcDbEntity
  8
0
100
AcDbLine
 10
106.2215
 20
1068.115
 30
0.0
 11
106.2215521327009
 21
1068.005
 31
0.0
  0
LINE
  5
42E
330
1E
100
AcDbEntity
  8
0
100
AcDbLine
 10
106.2205
 20
1069.684999999999
 30
0.0
 11
106.2215
 21
1068.115
 31
0.0
  0
LINE
  5
42F
330
1E
100
AcDbEntity
  8
0
100
AcDbLine
 10
106.2205
 20
1069.684999999999
 30
0.0
 11
106.2224999999999
 21
1066.005
 31
0.0
  0
LINE
  5
436
330
1E
100
AcDbEntity
  8
0
100
AcDbLine
 10
208.9325
 20
1054.005
 30
0.0
 11
208.9455
 21
1070.085
 31
0.0
  0
LINE
  5
437
330
1E
100
AcDbEntity
  8
0
100
AcDbLine
 10
218.9325
 20
1054.005
 30
0.0
 11
218.9455
 21
1070.075
 31
0.0
  0
LINE
  5
438
330
1E
100
AcDbEntity
  8
0
100
AcDbLine
 10
106.7194999999999
 20
1070.154999999999
 30
0.0
 11
106.7204999999999
 21
1068.535
 31
0.0
  0
LINE
  5
439
330
1E
100
AcDbEntity
  8
0
100
AcDbLine
 10
106.7185
 20
1071.145
 30
0.0
 11
106.7194999999999
 21
1070.154999999999
 31
0.0
  0
LINE
  5
43A
330
1E
100
AcDbEntity
  8
0
100
AcDbLine
 10
106.7185
 20
1071.145
 30
0.0
 11
106.7185
 21
1071.484999999999
 31
0.0
  0
LINE
  5
43B
330
1E
100
AcDbEntity
  8
0
100
AcDbLine
 10
106.2195
 20
1070.985
 30
0.0
 11
106.2195
 21
1070.655
 31
0.0
  0
LINE
  5
43C
330
1E
100
AcDbEntity
  8
0
100
AcDbLine
 10
106.2195
 20
1070.985
 30
0.0
 11
106.7185
 21
1071.484999999999
 31
0.0
  0
LINE
  5
43D
330
1E
100
AcDbEntity
  8
0
100
AcDbLine
 10
106.2195
 20
1070.655
 30
0.0
 11
106.2205
 21
1069.684999999999
 31
0.0
  0
LINE
  5
43E
330
1E
100
AcDbEntity
  8
0
100
AcDbLine
 10
106.2195
 20
1070.655
 30
0.0
 11
106.2195
 21
1070.985
 31
0.0
  0
LINE
  5
43F
330
1E
100
AcDbEntity
  8
0
100
AcDbLine
 10
152.6804999999999
 20
1071.075
 30
0.0
 11
153.1575
 21
1071.464999999999
 31
0.0
  0
LINE
  5
440
330
1E
100
AcDbEntity
  8
0
100
AcDbLine
 10
152.6804999999999
 20
1071.075
 30
0.0
 11
153.1545
 21
1071.464999999999
 31
0.0
  0
LINE
  5
441
330
1E
100
AcDbEntity
  8
0
100
AcDbLine
 10
108.0575
 20
1071.755
 30
0.0
 11
109.1925
 21
1072.515
 31
0.0
  0
LINE
  5
442
330
1E
100
AcDbEntity
  8
0
100
AcDbLine
 10
106.7185
 20
1071.484999999999
 30
0.0
 11
108.0575
 21
1071.755
 31
0.0
  0
LINE
  5
443
330
1E
100
AcDbEntity
  8
0
100
AcDbLine
 10
106.7185
 20
1071.484999999999
 30
0.0
 11
106.7185
 21
1071.145
 31
0.0
  0
LINE
  5
444
330
1E
100
AcDbEntity
  8
0
100
AcDbLine
 10
109.1925
 20
1072.515
 30
0.0
 11
109.9505
 21
1073.644999999999
 31
0.0
  0
LINE
  5
445
330
1E
100
AcDbEntity
  8
0
100
AcDbLine
 10
109.9505
 20
1073.644999999999
 30
0.0
 11
110.2154999999999
 21
1074.984999999999
 31
0.0
  0
LINE
  5
446
330
1E
100
AcDbEntity
  8
0
100
AcDbLine
 10
149.6814999999999
 20
1072.984999999999
 30
0.0
 11
151.3044999999999
 21
1071.895
 31
0.0
  0
LINE
  5
447
330
1E
100
AcDbEntity
  8
0
100
AcDbLine
 10
151.3044999999999
 20
1071.895
 30
0.0
 11
153.1575
 21
1071.464999999999
 31
0.0
  0
LINE
  5
448
330
1E
100
AcDbEntity
  8
0
100
AcDbLine
 10
148.2144999999999
 20
1076.515
 30
0.0
 11
148.5965
 21
1074.605
 31
0.0
  0
LINE
  5
449
330
1E
100
AcDbEntity
  8
0
100
AcDbLine
 10
148.5965
 20
1074.605
 30
0.0
 11
149.6814999999999
 21
1072.984999999999
 31
0.0
  0
LINE
  5
44A
330
1E
100
AcDbEntity
  8
0
100
AcDbLine
 10
153.1545
 20
1071.464999999999
 30
0.0
 11
208.2184999999999
 21
1071.565
 31
0.0
  0
LINE
  5
44F
330
1E
100
AcDbEntity
  8
0
100
AcDbLine
 10
208.9455
 20
1070.085
 30
0.0
 11
208.9564999999999
 21
1083.704999999999
 31
0.0
  0
LINE
  5
450
330
1E
100
AcDbEntity
  8
0
100
AcDbLine
 10
218.9455
 20
1070.075
 30
0.0
 11
218.9564999999999
 21
1083.695
 31
0.0
  0
LINE
  5
451
330
1E
100
AcDbEntity
  8
0
100
AcDbLine
 10
208.9564999999999
 20
1083.704999999999
 30
0.0
 11
208.9635
 21
1092.815
 31
0.0
  0
LINE
  5
452
330
1E
100
AcDbEntity
  8
0
100
AcDbLine
 10
218.9564999999999
 20
1083.695
 30
0.0
 11
218.9634999999999
 21
1092.805
 31
0.0
  0
LINE
  5
453
330
1E
100
AcDbEntity
  8
0
100
AcDbLine
 10
100.8774999999999
 20
2087.705
 30
0.0
 11
103.4364999999999
 21
2089.065
 31
0.0
  0
LINE
  5
454
330
1E
100
AcDbEntity
  8
0
100
AcDbLine
 10
109.4154999999999
 20
2084.165
 30
0.0
 11
110.2154999999999
 21
1074.984999999999
 31
0.0
  0
LINE
  5
455
330
1E
100
AcDbEntity
  8
0
100
AcDbLine
 10
108.9904999999999
 20
2145.885
 30
0.0
 11
109.3714999999999
 21
2147.804999999999
 31
0.0
  0
LINE
  5
456
330
1E
100
AcDbEntity
  8
0
100
AcDbLine
 10
107.9094999999999
 20
2144.265
 30
0.0
 11
108.9904999999999
 21
2145.885
 31
0.0
  0
LINE
  5
457
330
1E
100
AcDbEntity
  8
0
100
AcDbLine
 10
106.3255
 20
2088.785
 30
0.0
 11
108.5704999999999
 21
2086.945
 31
0.0
  0
LINE
  5
458
330
1E
100
AcDbEntity
  8
0
100
AcDbLine
 10
108.5704999999999
 20
2086.945
 30
0.0
 11
109.4154999999999
 21
2084.165
 31
0.0
  0
LINE
  5
459
330
1E
100
AcDbEntity
  8
0
100
AcDbLine
 10
103.4364999999999
 20
2089.065
 30
0.0
 11
106.3255
 21
2088.785
 31
0.0
  0
LINE
  5
45A
330
1E
100
AcDbEntity
  8
0
100
AcDbLine
 10
109.3585
 20
2154.985
 30
0.0
 11
109.7234999999999
 21
2154.985
 31
0.0
  0
LINE
  5
45B
330
1E
100
AcDbEntity
  8
0
100
AcDbLine
 10
109.3585
 20
2154.985
 30
0.0
 11
109.3714999999999
 21
2147.804999999999
 31
0.0
  0
LINE
  5
45F
330
1E
100
AcDbEntity
  8
0
100
AcDbLine
 10
114.9235
 20
2154.994999999999
 30
0.0
 11
117.8024999999999
 21
2154.994999999999
 31
0.0
  0
LINE
  5
460
330
1E
100
AcDbEntity
  8
0
100
AcDbLine
 10
112.5604999999999
 20
2154.994999999999
 30
0.0
 11
114.8875
 21
2154.994999999999
 31
0.0
  0
LINE
  5
461
330
1E
100
AcDbEntity
  8
0
100
AcDbLine
 10
109.7234999999999
 20
2154.985
 30
0.0
 11
110.8055
 21
2154.994999999999
 31
0.0
  0
LINE
  5
462
330
1E
100
AcDbEntity
  8
0
100
AcDbLine
 10
110.8055
 20
2154.994999999999
 30
0.0
 11
123.7079839862739
 21
2155.002350586219
 31
0.0
  0
LINE
  5
463
330
1E
100
AcDbEntity
  8
0
100
AcDbLine
 10
110.8055
 20
2154.994999999999
 30
0.0
 11
112.5604999999999
 21
2154.994999999999
 31
0.0
  0
LINE
  5
465
330
1E
100
AcDbEntity
  8
0
100
AcDbLine
 10
119.0410000001119
 20
2154.994999999999
 30
0.0
 11
122.3557785744879
 21
2154.99855758366
 31
0.0
  0
LINE
  5
466
330
1E
100
AcDbEntity
  8
0
100
AcDbLine
 10
117.8024999999999
 20
2154.994999999999
 30
0.0
 11
123.277090539535
 21
2155.00114190895
 31
0.0
  0
LINE
  5
467
330
1E
100
AcDbEntity
  8
0
100
AcDbLine
 10
117.8024999999999
 20
2154.994999999999
 30
0.0
 11
122.1821929332589
 21
2154.99807066741
 31
0.0
  0
LINE
  5
468
330
1E
100
AcDbEntity
  8
0
100
AcDbLine
 10
117.8024999999999
 20
2154.994999999999
 30
0.0
 11
121.0875
 21
2154.994999999999
 31
0.0
  0
LINE
  5
469
330
1E
100
AcDbEntity
  8
0
100
AcDbLine
 10
121.0875
 20
2154.994999999999
 30
0.0
 11
124.6525
 21
2155.005
 31
0.0
  0
LINE
  5
46A
330
1E
100
AcDbEntity
  8
0
100
AcDbLine
 10
128.3584999999999
 20
2155.005
 30
0.0
 11
132.0654999999999
 21
2155.005
 31
0.0
  0
LINE
  5
46B
330
1E
100
AcDbEntity
  8
0
100
AcDbLine
 10
126.71599999968
 20
2155.005
 30
0.0
 11
135.6295
 21
2155.015
 31
0.0
  0
LINE
  5
46C
330
1E
100
AcDbEntity
  8
0
100
AcDbLine
 10
124.6525
 20
2155.005
 30
0.0
 11
133.472536906854
 21
2155.008947915
 31
0.0
  0
LINE
  5
46D
330
1E
100
AcDbEntity
  8
0
100
AcDbLine
 10
124.6525
 20
2155.005
 30
0.0
 11
128.3584999999999
 21
2155.005
 31
0.0
  0
LINE
  5
46E
330
1E
100
AcDbEntity
  8
0
100
AcDbLine
 10
135.6295
 20
2155.015
 30
0.0
 11
138.9145
 21
2155.015
 31
0.0
  0
LINE
  5
46F
330
1E
100
AcDbEntity
  8
0
100
AcDbLine
 10
138.9145
 20
2155.015
 30
0.0
 11
141.7934999999999
 21
2155.015
 31
0.0
  0
LINE
  5
470
330
1E
100
AcDbEntity
  8
0
100
AcDbLine
 10
141.7934999999999
 20
2155.015
 30
0.0
 11
144.1564999999999
 21
2155.015
 31
0.0
  0
LINE
  5
471
330
1E
100
AcDbEntity
  8
0
100
AcDbLine
 10
144.1564999999999
 20
2155.015
 30
0.0
 11
145.9125
 21
2155.015
 31
0.0
  0
LINE
  5
472
330
1E
100
AcDbEntity
  8
0
100
AcDbLine
 10
145.9125
 20
2155.015
 30
0.0
 11
146.9935
 21
2155.015
 31
0.0
  0
LINE
  5
473
330
1E
100
AcDbEntity
  8
0
100
AcDbLine
 10
147.3584999999999
 20
2155.015
 30
0.0
 11
148.2144999999999
 21
1076.515
 31
0.0
  0
LINE
  5
474
330
1E
100
AcDbEntity
  8
0
100
AcDbLine
 10
147.3584999999999
 20
2155.015
 30
0.0
 11
148.2144999999999
 21
1076.515
 31
0.0
  0
LINE
  5
475
330
1E
100
AcDbEntity
  8
0
100
AcDbLine
 10
146.9935
 20
2155.015
 30
0.0
 11
147.3584999999999
 21
2155.015
 31
0.0
  0
LINE
  5
476
330
1E
100
AcDbEntity
  8
0
100
AcDbLine
 10
132.0654999999999
 20
2155.005
 30
0.0
 11
135.6295
 21
2155.015
 31
0.0
  0
LINE
  5
477
330
1E
100
AcDbEntity
  8
0
100
AcDbLine
 10
208.9655
 20
1096.005
 30
0.0
 11
218.9655
 21
1096.005
 31
0.0
  0
LINE
  5
478
330
1E
100
AcDbEntity
  8
0
100
AcDbLine
 10
208.9635
 20
1092.815
 30
0.0
 11
208.9655
 21
1096.005
 31
0.0
  0
LINE
  5
479
330
1E
100
AcDbEntity
  8
0
100
AcDbLine
 10
218.9634999999999
 20
1092.805
 30
0.0
 11
218.9655
 21
1096.005
 31
0.0
  0
LINE
  5
47A
330
1E
100
AcDbEntity
  8
0
100
AcDbLine
 10
99.84149999999999
 20
974.985
 30
0.0
 11
102.2415
 21
974.985
 31
0.0
  0
LINE
  5
47B
330
1E
100
AcDbEntity
  8
0
100
AcDbLine
 10
97.1415
 20
974.985
 30
0.0
 11
99.84149999999999
 21
974.985
 31
0.0
  0
LINE
  5
47C
330
1E
100
AcDbEntity
  8
0
100
AcDbLine
 10
97.24150000000001
 20
974.4849999999999
 30
0.0
 11
100.1414999999999
 21
974.4849999999999
 31
0.0
  0
LINE
  5
47D
330
1E
100
AcDbEntity
  8
0
100
AcDbLine
 10
94.14149999999999
 20
974.4849999999999
 30
0.0
 11
97.24150000000001
 21
974.4849999999999
 31
0.0
  0
LINE
  5
47E
330
1E
100
AcDbEntity
  8
0
100
AcDbLine
 10
94.14149999999999
 20
955.485
 30
0.0
 11
97.24150000000001
 21
955.485
 31
0.0
  0
LINE
  5
47F
330
1E
100
AcDbEntity
  8
0
100
AcDbLine
 10
91.1415
 20
974.985
 30
0.0
 11
94.14149999999999
 21
974.985
 31
0.0
  0
LINE
  5
480
330
1E
100
AcDbEntity
  8
0
100
AcDbLine
 10
91.34149999999999
 20
954.9850000000001
 30
0.0
 11
94.14149999999999
 21
954.9850000000001
 31
0.0
  0
LINE
  5
481
330
1E
100
AcDbEntity
  8
0
100
AcDbLine
 10
91.0415
 20
954.485
 30
0.0
 11
94.14149999999999
 21
954.485
 31
0.0
  0
LINE
  5
482
330
1E
100
AcDbEntity
  8
0
100
AcDbLine
 10
91.44379999999999
 20
768.983
 30
0.0
 11
94.14379999999999
 21
768.983
 31
0.0
  0
LINE
  5
483
330
1E
100
AcDbEntity
  8
0
100
AcDbLine
 10
88.94379999999999
 20
768.983
 30
0.0
 11
89.4428312861272
 21
768.983
 31
0.0
  0
LINE
  5
484
330
1E
100
AcDbEntity
  8
0
100
AcDbLine
 10
88.94379999999999
 20
768.983
 30
0.0
 11
91.44379999999999
 21
768.983
 31
0.0
  0
LINE
  5
489
330
1E
100
AcDbEntity
  8
0
100
AcDbLine
 10
46.81200145525155
 20
2033.540347583343
 30
0.0
 11
21.6620421409167
 21
2056.474765123069
 31
0.0
  0
LINE
  5
48A
330
1E
100
AcDbEntity
  8
0
100
AcDbLine
 10
129.9275
 20
175.0959999999999
 30
0.0
 11
134.014125427744
 21
175.9091389839429
 31
0.0
  0
LINE
  5
48B
330
1E
100
AcDbEntity
  8
0
100
AcDbLine
 10
134.6587658229719
 20
166.2380899777689
 30
0.0
 11
150.9084999999999
 21
169.46
 31
0.0
  0
LINE
  5
48C
330
1E
100
AcDbEntity
  8
0
100
AcDbLine
 10
99.2706
 20
760.0679999999999
 30
0.0
 11
83.61835623617116
 21
587.7524127283732
 31
0.0
  0
LINE
  5
48D
330
1E
100
AcDbEntity
  8
0
100
AcDbLine
 10
83.61835623617116
 20
587.7524127283732
 30
0.0
 11
73.90163844507151
 21
514.3077833258657
 31
0.0
  0
LINE
  5
48E
330
1E
100
AcDbEntity
  8
0
100
AcDbLine
 10
73.90163844507151
 20
514.3077833258657
 30
0.0
 11
53.25360941190047
 21
444.5050337858447
 31
0.0
  0
LINE
  5
48F
330
1E
100
AcDbEntity
  8
0
100
AcDbLine
 10
53.25360941190047
 20
444.5050337858447
 30
0.0
 11
38.67853769470457
 21
405.0513066630956
 31
0.0
  0
LINE
  5
490
330
1E
100
AcDbEntity
  8
0
100
AcDbLine
 10
38.67853769470457
 20
405.0513066630956
 30
0.0
 11
29.9296
 21
374.0009999999999
 31
0.0
  0
LINE
  5
491
330
1E
100
AcDbEntity
  8
0
100
AcDbLine
 10
89.57259999999999
 20
761.697
 30
0.0
 11
76.93811213360823
 21
614.4595502338979
 31
0.0
  0
LINE
  5
492
330
1E
100
AcDbEntity
  8
0
100
AcDbLine
 10
76.93811213360823
 20
614.4595502338979
 30
0.0
 11
68.43598779348576
 21
550.1196255368677
 31
0.0
  0
LINE
  5
493
330
1E
100
AcDbEntity
  8
0
100
AcDbLine
 10
68.43598779348576
 20
550.1196255368677
 30
0.0
 11
59.93385351446159
 21
506.4170368914638
 31
0.0
  0
LINE
  5
494
330
1E
100
AcDbEntity
  8
0
100
AcDbLine
 10
59.93385351446159
 20
506.4170368914638
 30
0.0
 11
44.14418834629032
 21
454.2167201514903
 31
0.0
  0
LINE
  5
495
330
1E
100
AcDbEntity
  8
0
100
AcDbLine
 10
44.14418834629032
 20
454.2167201514903
 30
0.0
 11
27.74722645263136
 21
411.1211131662539
 31
0.0
  0
LINE
  5
496
330
1E
100
AcDbEntity
  8
0
100
AcDbLine
 10
27.74722645263136
 20
411.1211131662539
 30
0.0
 11
20.0836
 21
375.551
 31
0.0
  0
ENDSEC
  0
SECTION
  2
OBJECTS
  0
DICTIONARY
  5
C
330
0
100
AcDbDictionary
281
     1
  3
ACAD_GROUP
350
D
  3
ACAD_LAYOUT
350
19
  3
ACAD_MLINESTYLE
350
16
  3
ACAD_PLOTSETTINGS
350
18
  3
ACAD_PLOTSTYLENAME
350
E
  3
AcDbVariableDictionary
350
497
  0
DICTIONARY
  5
D
102
{ACAD_REACTORS
330
C
102
}
330
C
100
AcDbDictionary
281
     1
  0
DICTIONARY
  5
19
102
{ACAD_REACTORS
330
C
102
}
330
C
100
AcDbDictionary
281
     1
  3
Layout1
350
1D
  3
Model
350
21
  0
DICTIONARY
  5
16
102
{ACAD_REACTORS
330
C
102
}
330
C
100
AcDbDictionary
281
     1
  3
Standard
350
17
  0
DICTIONARY
  5
18
102
{ACAD_REACTORS
330
C
102
}
330
C
100
AcDbDictionary
281
     1
  0
ACDBDICTIONARYWDFLT
  5
E
102
{ACAD_REACTORS
330
C
102
}
330
C
100
AcDbDictionary
281
     1
  3
Normal
350
F
100
AcDbDictionaryWithDefault
340
F
  0
DICTIONARY
  5
497
102
{ACAD_REACTORS
330
C
102
}
330
C
100
AcDbDictionary
281
     1
  3
DIMASSOC
350
498
  0
LAYOUT
  5
1D
102
{ACAD_REACTORS
330
19
102
}
330
19
100
AcDbPlotSettings
  1

  2
hp deskjet 980c series
  4

  6

 40
0.0
 41
0.0
 42
0.0
 43
0.0
 44
0.0
 45
0.0
 46
0.0
 47
0.0
 48
0.0
 49
0.0
140
0.0
141
0.0
142
1.0
143
1.0
 70
   688
 72
     0
 73
     0
 74
     5
  7

 75
    16
147
1.0
148
0.0
149
0.0
100
AcDbLayout
  1
Layout1
 70
     1
 71
     1
 10
0.0
 20
0.0
 11
12.0
 21
9.0
 12
0.0
 22
0.0
 32
0.0
 14
1.000000000000000E+20
 24
1.000000000000000E+20
 34
1.000000000000000E+20
 15
-1.000000000000000E+20
 25
-1.000000000000000E+20
 35
-1.000000000000000E+20
146
0.0
 13
0.0
 23
0.0
 33
0.0
 16
1.0
 26
0.0
 36
0.0
 17
0.0
 27
1.0
 37
0.0
 76
     0
330
1A
  0
LAYOUT
  5
21
102
{ACAD_REACTORS
330
19
102
}
330
19
100
AcDbPlotSettings
  1

  2
hp deskjet 980c series
  4

  6

 40
0.0
 41
0.0
 42
0.0
 43
0.0
 44
0.0
 45
0.0
 46
0.0
 47
0.0
 48
0.0
 49
0.0
140
0.0
141
0.0
142
1.0
143
1.0
 70
  1712
 72
     0
 73
     0
 74
     0
  7

 75
     0
147
1.0
148
0.0
149
0.0
100
AcDbLayout
  1
Model
 70
     1
 71
     0
 10
0.0
 20
0.0
 11
12.0
 21
9.0
 12
0.0
 22
0.0
 32
0.0
 14
0.0
 24
0.0
 34
0.0
 15
0.0
 25
0.0
 35
0.0
146
0.0
 13
0.0
 23
0.0
 33
0.0
 16
1.0
 26
0.0
 36
0.0
 17
0.0
 27
1.0
 37
0.0
 76
     0
330
1E
  0
MLINESTYLE
  5
17
102
{ACAD_REACTORS
330
16
102
}
330
16
100
AcDbMlineStyle
  2
STANDARD
 70
     0
  3

 62
   256
 51
90.0
 52
90.0
 71
     2
 49
0.5
 62
   256
  6
BYLAYER
 49
-0.5
 62
   256
  6
BYLAYER
  0
ACDBPLACEHOLDER
  5
F
102
{ACAD_REACTORS
330
E
102
}
330
E
  0
DICTIONARYVAR
  5
498
102
{ACAD_REACTORS
330
497
102
}
330
497
100
DictionaryVariables
280
     0
  1
1
  0
ENDSEC
  0
EOF
