  0
SECTION
  2
HEADER
  9
$ACADVER
  1
AC1014
  9
$ACADMAINTVER
 70
     9
  9
$DWGCODEPAGE
  3
ANSI_1252
  9
$INSBASE
 10
0.0
 20
0.0
 30
0.0
  9
$EXTMIN
 10
0.0000000000000009
 20
0.0000000000000037
 30
0.0
  9
$EXTMAX
 10
62.0
 20
83.0
 30
0.0
  9
$LIMMIN
 10
0.0
 20
0.0
  9
$LIMMAX
 10
12.0
 20
9.0
  9
$ORTHOMODE
 70
     0
  9
$REGENMODE
 70
     1
  9
$FILLMODE
 70
     1
  9
$QTEXTMODE
 70
     0
  9
$MIRRTEXT
 70
     1
  9
$DRAGMODE
 70
     2
  9
$LTSCALE
 40
1.0
  9
$OSMODE
 70
    37
  9
$ATTMODE
 70
     1
  9
$TEXTSIZE
 40
0.2
  9
$TRACEWID
 40
0.05
  9
$TEXTSTYLE
  7
STANDARD
  9
$CLAYER
  8
0
  9
$CELTYPE
  6
CONTINUOUS
  9
$CECOLOR
 62
   256
  9
$CELTSCALE
 40
1.0
  9
$DELOBJ
 70
     1
  9
$DISPSILH
 70
     0
  9
$DIMSCALE
 40
1.0
  9
$DIMASZ
 40
0.18
  9
$DIMEXO
 40
0.0625
  9
$DIMDLI
 40
0.38
  9
$DIMRND
 40
0.0
  9
$DIMDLE
 40
0.0
  9
$DIMEXE
 40
0.18
  9
$DIMTP
 40
0.0
  9
$DIMTM
 40
0.0
  9
$DIMTXT
 40
0.18
  9
$DIMCEN
 40
0.09
  9
$DIMTSZ
 40
0.0
  9
$DIMTOL
 70
     0
  9
$DIMLIM
 70
     0
  9
$DIMTIH
 70
     1
  9
$DIMTOH
 70
     1
  9
$DIMSE1
 70
     0
  9
$DIMSE2
 70
     0
  9
$DIMTAD
 70
     0
  9
$DIMZIN
 70
     0
  9
$DIMBLK
  1

  9
$DIMASO
 70
     1
  9
$DIMSHO
 70
     1
  9
$DIMPOST
  1

  9
$DIMAPOST
  1

  9
$DIMALT
 70
     0
  9
$DIMALTD
 70
     2
  9
$DIMALTF
 40
25.4
  9
$DIMLFAC
 40
1.0
  9
$DIMTOFL
 70
     0
  9
$DIMTVP
 40
0.0
  9
$DIMTIX
 70
     0
  9
$DIMSOXD
 70
     0
  9
$DIMSAH
 70
     0
  9
$DIMBLK1
  1

  9
$DIMBLK2
  1

  9
$DIMSTYLE
  2
STANDARD
  9
$DIMCLRD
 70
     0
  9
$DIMCLRE
 70
     0
  9
$DIMCLRT
 70
     0
  9
$DIMTFAC
 40
1.0
  9
$DIMGAP
 40
0.09
  9
$DIMJUST
 70
     0
  9
$DIMSD1
 70
     0
  9
$DIMSD2
 70
     0
  9
$DIMTOLJ
 70
     1
  9
$DIMTZIN
 70
     0
  9
$DIMALTZ
 70
     0
  9
$DIMALTTZ
 70
     0
  9
$DIMFIT
 70
     3
  9
$DIMUPT
 70
     0
  9
$DIMUNIT
 70
     2
  9
$DIMDEC
 70
     4
  9
$DIMTDEC
 70
     4
  9
$DIMALTU
 70
     2
  9
$DIMALTTD
 70
     2
  9
$DIMTXSTY
  7
STANDARD
  9
$DIMAUNIT
 70
     0
  9
$LUNITS
 70
     2
  9
$LUPREC
 70
     4
  9
$SKETCHINC
 40
0.1
  9
$FILLETRAD
 40
0.0
  9
$AUNITS
 70
     0
  9
$AUPREC
 70
     0
  9
$MENU
  1
.
  9
$ELEVATION
 40
0.0
  9
$PELEVATION
 40
0.0
  9
$THICKNESS
 40
0.0
  9
$LIMCHECK
 70
     0
  9
$BLIPMODE
 70
     0
  9
$CHAMFERA
 40
0.0
  9
$CHAMFERB
 40
0.0
  9
$CHAMFERC
 40
0.0
  9
$CHAMFERD
 40
0.0
  9
$SKPOLY
 70
     0
  9
$TDCREATE
 40
2454687.467015694
  9
$TDUPDATE
 40
2454687.468298240
  9
$TDINDWG
 40
0.0009123611
  9
$TDUSRTIMER
 40
0.0009123611
  9
$USRTIMER
 70
     1
  9
$ANGBASE
 50
0.0
  9
$ANGDIR
 70
     0
  9
$PDMODE
 70
     0
  9
$PDSIZE
 40
0.0
  9
$PLINEWID
 40
0.0
  9
$COORDS
 70
     1
  9
$SPLFRAME
 70
     0
  9
$SPLINETYPE
 70
     6
  9
$SPLINESEGS
 70
     8
  9
$ATTDIA
 70
     0
  9
$ATTREQ
 70
     1
  9
$HANDLING
 70
 22529
  9
$HANDSEED
  5
32B
  9
$SURFTAB1
 70
     6
  9
$SURFTAB2
 70
     6
  9
$SURFTYPE
 70
     6
  9
$SURFU
 70
     6
  9
$SURFV
 70
     6
  9
$UCSNAME
  2

  9
$UCSORG
 10
0.0
 20
0.0
 30
0.0
  9
$UCSXDIR
 10
1.0
 20
0.0
 30
0.0
  9
$UCSYDIR
 10
0.0
 20
1.0
 30
0.0
  9
$PUCSNAME
  2

  9
$PUCSORG
 10
0.0
 20
0.0
 30
0.0
  9
$PUCSXDIR
 10
1.0
 20
0.0
 30
0.0
  9
$PUCSYDIR
 10
0.0
 20
1.0
 30
0.0
  9
$USERI1
 70
     0
  9
$USERI2
 70
     0
  9
$USERI3
 70
     0
  9
$USERI4
 70
     0
  9
$USERI5
 70
     0
  9
$USERR1
 40
0.0
  9
$USERR2
 40
0.0
  9
$USERR3
 40
0.0
  9
$USERR4
 40
0.0
  9
$USERR5
 40
0.0
  9
$WORLDVIEW
 70
     1
  9
$SHADEDGE
 70
     3
  9
$SHADEDIF
 70
    70
  9
$TILEMODE
 70
     1
  9
$MAXACTVP
 70
    64
  9
$PINSBASE
 10
0.0
 20
0.0
 30
0.0
  9
$PLIMCHECK
 70
     0
  9
$PEXTMIN
 10
1.000000000000000E+20
 20
1.000000000000000E+20
 30
1.000000000000000E+20
  9
$PEXTMAX
 10
-1.000000000000000E+20
 20
-1.000000000000000E+20
 30
-1.000000000000000E+20
  9
$PLIMMIN
 10
0.0
 20
0.0
  9
$PLIMMAX
 10
12.0
 20
9.0
  9
$UNITMODE
 70
     0
  9
$VISRETAIN
 70
     1
  9
$PLINEGEN
 70
     0
  9
$PSLTSCALE
 70
     1
  9
$TREEDEPTH
 70
  3020
  9
$PICKSTYLE
 70
     1
  9
$CMLSTYLE
  2
STANDARD
  9
$CMLJUST
 70
     0
  9
$CMLSCALE
 40
1.0
  9
$PROXYGRAPHICS
 70
     1
  9
$MEASUREMENT
 70
     0
  0
ENDSEC
  0
SECTION
  2
CLASSES
  0
CLASS
  1
ACDBDICTIONARYWDFLT
  2
AcDbDictionaryWithDefault
  3
AutoCAD 2000
 90
        0
280
     0
281
     0
  0
CLASS
  1
ACDBPLACEHOLDER
  2
AcDbPlaceHolder
  3
AutoCAD 2000
 90
        0
280
     0
281
     0
  0
CLASS
  1
LAYOUT
  2
AcDbLayout
  3
AutoCAD 2000
 90
        0
280
     0
281
     0
  0
CLASS
  1
DICTIONARYVAR
  2
AcDbDictionaryVar
  3
AutoCAD 2000
 90
        0
280
     0
281
     0
  0
CLASS
  1
LONG_TRANSACTION
  2
AcDbLongTransaction
  3
AutoCAD 2000
 90
        0
280
     0
281
     0
  0
CLASS
  1
LWPOLYLINE
  2
AcDbPolyline
  3
AutoCAD 2000
 90
        0
280
     0
281
     1
  0
CLASS
  1
HATCH
  2
AcDbHatch
  3
AutoCAD 2000
 90
        0
280
     0
281
     1
  0
CLASS
  1
XRECORD
  2
AcDbXrecord
  3
AutoCAD 2000
 90
        0
280
     0
281
     0
  0
ENDSEC
  0
SECTION
  2
TABLES
  0
TABLE
  2
VPORT
  5
18A
330
0
100
AcDbSymbolTable
 70
     2
  0
VPORT
  5
306
330
18A
100
AcDbSymbolTableRecord
100
AcDbViewportTableRecord
  2
*ACTIVE
 70
     0
 10
0.0
 20
0.0
 11
1.0
 21
1.0
 12
31.00000000000004
 22
41.50000000000001
 13
0.0
 23
0.0
 14
1.0
 24
1.0
 15
0.0
 25
0.0
 16
0.0
 26
0.0
 36
1.0
 17
0.0
 27
0.0
 37
0.0
 40
83.63682864450128
 41
2.043533930857874
 42
50.0
 43
0.0
 44
0.0
 50
0.0
 51
0.0
 71
     0
 72
   100
 73
     1
 74
     3
 75
     0
 76
     0
 77
     0
 78
     0
  0
ENDTAB
  0
TABLE
  2
LTYPE
  5
187
330
0
100
AcDbSymbolTable
 70
     1
  0
LTYPE
  5
195
330
187
100
AcDbSymbolTableRecord
100
AcDbLinetypeTableRecord
  2
BYBLOCK
 70
     0
  3

 72
    65
 73
     0
 40
0.0
  0
LTYPE
  5
196
330
187
100
AcDbSymbolTableRecord
100
AcDbLinetypeTableRecord
  2
BYLAYER
 70
     0
  3

 72
    65
 73
     0
 40
0.0
  0
LTYPE
  5
197
330
187
100
AcDbSymbolTableRecord
100
AcDbLinetypeTableRecord
  2
CONTINUOUS
 70
     0
  3
Solid line
 72
    65
 73
     0
 40
0.0
  0
ENDTAB
  0
TABLE
  2
LAYER
  5
184
330
0
100
AcDbSymbolTable
 70
     1
  0
LAYER
  5
192
330
184
100
AcDbSymbolTableRecord
100
AcDbLayerTableRecord
  2
0
 70
     0
 62
     7
  6
CONTINUOUS
  0
ENDTAB
  0
TABLE
  2
STYLE
  5
185
330
0
100
AcDbSymbolTable
 70
     1
  0
STYLE
  5
193
330
185
100
AcDbSymbolTableRecord
100
AcDbTextStyleTableRecord
  2
STANDARD
 70
     0
 40
0.0
 41
1.0
 50
0.0
 71
     0
 42
0.2
  3
txt
  4

  0
ENDTAB
  0
TABLE
  2
VIEW
  5
188
330
0
100
AcDbSymbolTable
 70
     0
  0
ENDTAB
  0
TABLE
  2
UCS
  5
189
330
0
100
AcDbSymbolTable
 70
     0
  0
ENDTAB
  0
TABLE
  2
APPID
  5
18B
330
0
100
AcDbSymbolTable
 70
     1
  0
APPID
  5
194
330
18B
100
AcDbSymbolTableRecord
100
AcDbRegAppTableRecord
  2
ACAD
 70
     0
  0
ENDTAB
  0
TABLE
  2
DIMSTYLE
  5
18C
330
0
100
AcDbSymbolTable
 70
     1
  0
DIMSTYLE
105
1A5
330
18C
100
AcDbSymbolTableRecord
100
AcDbDimStyleTableRecord
  2
STANDARD
 70
     0
  3

  4

  5

  6

  7

 40
1.0
 41
0.18
 42
0.0625
 43
0.38
 44
0.18
 45
0.0
 46
0.0
 47
0.0
 48
0.0
140
0.18
141
0.09
142
0.0
143
25.4
144
1.0
145
0.0
146
1.0
147
0.09
 71
     0
 72
     0
 73
     1
 74
     1
 75
     0
 76
     0
 77
     0
 78
     0
170
     0
171
     2
172
     0
173
     0
174
     0
175
     0
176
     0
177
     0
178
     0
270
     2
271
     4
272
     4
273
     2
274
     2
340
193
275
     0
280
     0
281
     0
282
     0
283
     1
284
     0
285
     0
286
     0
287
     5
288
     0
  0
ENDTAB
  0
TABLE
  2
BLOCK_RECORD
  5
183
330
0
100
AcDbSymbolTable
 70
     2
  0
BLOCK_RECORD
  5
1A0
102
{ACAD_XDICTIONARY
360
329
102
}
330
183
100
AcDbSymbolTableRecord
100
AcDbBlockTableRecord
  2
*MODEL_SPACE
  0
BLOCK_RECORD
  5
19C
102
{ACAD_XDICTIONARY
360
327
102
}
330
183
100
AcDbSymbolTableRecord
100
AcDbBlockTableRecord
  2
*PAPER_SPACE
  0
BLOCK_RECORD
  5
1A7
330
183
100
AcDbSymbolTableRecord
100
AcDbBlockTableRecord
  2
$MODEL_SPACE
  0
BLOCK_RECORD
  5
1AA
330
183
100
AcDbSymbolTableRecord
100
AcDbBlockTableRecord
  2
$PAPER_SPACE
  0
ENDTAB
  0
ENDSEC
  0
SECTION
  2
BLOCKS
  0
BLOCK
  5
1A1
330
1A0
100
AcDbEntity
  8
0
100
AcDbBlockBegin
  2
*MODEL_SPACE
 70
     0
 10
0.0
 20
0.0
 30
0.0
  3
*MODEL_SPACE
  1

  0
ENDBLK
  5
1A2
330
1A0
100
AcDbEntity
  8
0
100
AcDbBlockEnd
  0
BLOCK
  5
19D
330
19C
100
AcDbEntity
 67
     1
  8
0
100
AcDbBlockBegin
  2
*PAPER_SPACE
 70
     0
 10
0.0
 20
0.0
 30
0.0
  3
*PAPER_SPACE
  1

  0
ENDBLK
  5
19E
330
19C
100
AcDbEntity
 67
     1
  8
0
100
AcDbBlockEnd
  0
BLOCK
  5
1A8
330
1A7
100
AcDbEntity
  8
0
100
AcDbBlockBegin
  2
$MODEL_SPACE
 70
     0
 10
0.0
 20
0.0
 30
0.0
  3
$MODEL_SPACE
  1

  0
ENDBLK
  5
1A9
330
1A7
100
AcDbEntity
  8
0
100
AcDbBlockEnd
  0
BLOCK
  5
1AB
330
1AA
100
AcDbEntity
  8
0
100
AcDbBlockBegin
  2
$PAPER_SPACE
 70
     0
 10
0.0
 20
0.0
 30
0.0
  3
$PAPER_SPACE
  1

  0
ENDBLK
  5
1AC
330
1AA
100
AcDbEntity
  8
0
100
AcDbBlockEnd
  0
ENDSEC
  0
SECTION
  2
ENTITIES
  0
LINE
  5
1AD
330
1A0
100
AcDbEntity
  8
0
100
AcDbLine
 10
1.1
 20
43.91899999999998
 30
0.0
 11
4.2
 21
36.5036
 31
0.0
  0
LINE
  5
1AE
330
1A0
100
AcDbEntity
  8
0
100
AcDbLine
 10
20.0
 20
13.4708
 30
0.0
 11
20.15463955915329
 21
13.0050459540349
 31
0.0
  0
LINE
  5
1AF
330
1A0
100
AcDbEntity
  8
0
100
AcDbLine
 10
20.0
 20
13.4708
 30
0.0
 11
20.0
 21
27.8004
 31
0.0
  0
LINE
  5
1B0
330
1A0
100
AcDbEntity
  8
0
100
AcDbLine
 10
20.0
 20
13.4708
 30
0.0
 11
20.396
 21
14.6637
 31
0.0
  0
LINE
  5
1B1
330
1A0
100
AcDbEntity
  8
0
100
AcDbLine
 10
20.0
 20
12.5268
 30
0.0
 11
20.4231
 21
13.8353
 31
0.0
  0
LINE
  5
1B2
330
1A0
100
AcDbEntity
  8
0
100
AcDbLine
 10
20.0
 20
12.5268
 30
0.0
 11
20.20350704214588
 21
11.8974240495205
 31
0.0
  0
LINE
  5
1B3
330
1A0
100
AcDbEntity
  8
0
100
AcDbLine
 10
20.0
 20
11.268
 30
0.0
 11
20.4231
 21
12.5766
 31
0.0
  0
LINE
  5
1B4
330
1A0
100
AcDbEntity
  8
0
100
AcDbLine
 10
20.0
 20
11.268
 30
0.0
 11
20.2034984888488
 21
10.6386456921684
 31
0.0
  0
LINE
  5
1B5
330
1A0
100
AcDbEntity
  8
0
100
AcDbLine
 10
20.0
 20
10.0092
 30
0.0
 11
20.4231
 21
11.3179
 31
0.0
  0
LINE
  5
1B6
330
1A0
100
AcDbEntity
  8
0
100
AcDbLine
 10
20.0
 20
10.0092
 30
0.0
 11
20.20351074593329
 21
9.379851074937239
 31
0.0
  0
LINE
  5
1B7
330
1A0
100
AcDbEntity
  8
0
100
AcDbLine
 10
20.0
 20
8.75043000000001
 30
0.0
 11
20.4231
 21
10.059
 31
0.0
  0
LINE
  5
1B8
330
1A0
100
AcDbEntity
  8
0
100
AcDbLine
 10
20.0
 20
8.75043000000001
 30
0.0
 11
20.20350104547588
 21
8.121120692742428
 31
0.0
  0
LINE
  5
1B9
330
1A0
100
AcDbEntity
  8
0
100
AcDbLine
 10
20.0
 20
7.491720000000009
 30
0.0
 11
20.4231
 21
8.80031000000001
 31
0.0
  0
LINE
  5
1BA
330
1A0
100
AcDbEntity
  8
0
100
AcDbLine
 10
20.0
 20
7.491720000000009
 30
0.0
 11
20.20350788121249
 21
6.862317404961968
 31
0.0
  0
LINE
  5
1BB
330
1A0
100
AcDbEntity
  8
0
100
AcDbLine
 10
20.0
 20
7.491720000000009
 30
0.0
 11
20.20350788121249
 21
6.862317404961968
 31
0.0
  0
LINE
  5
1BC
330
1A0
100
AcDbEntity
  8
0
100
AcDbLine
 10
20.0
 20
6.232909999999999
 30
0.0
 11
20.4231
 21
7.541470000000009
 31
0.0
  0
LINE
  5
1BD
330
1A0
100
AcDbEntity
  8
0
100
AcDbLine
 10
20.0
 20
6.232909999999999
 30
0.0
 11
20.2035003908996
 21
5.60355942924067
 31
0.0
  0
LINE
  5
1BE
330
1A0
100
AcDbEntity
  8
0
100
AcDbLine
 10
22.2
 20
2.37415
 30
0.0
 11
23.80759999999999
 21
1.433
 31
0.0
  0
LINE
  5
1BF
330
1A0
100
AcDbEntity
  8
0
100
AcDbLine
 10
22.2
 20
2.37407
 30
0.0
 11
23.80759999999999
 21
1.433079999999999
 31
0.0
  0
LINE
  5
1C0
330
1A0
100
AcDbEntity
  8
0
100
AcDbLine
 10
28.3769
 20
0.246700000000004
 30
0.0
 11
31.0
 21
0.0887110000000038
 31
0.0
  0
LINE
  5
1C1
330
1A0
100
AcDbEntity
  8
0
100
AcDbLine
 10
33.6231
 20
0.246700000000004
 30
0.0
 11
36.0769
 21
0.7058340000000041
 31
0.0
  0
LINE
  5
1C2
330
1A0
100
AcDbEntity
  8
0
100
AcDbLine
 10
31.0
 20
0.0887110000000038
 30
0.0
 11
31.0
 21
0.0000000000000037
 31
0.0
  0
LINE
  5
1C3
330
1A0
100
AcDbEntity
  8
0
100
AcDbLine
 10
31.0
 20
0.0887110000000038
 30
0.0
 11
33.6231
 21
0.246700000000004
 31
0.0
  0
LINE
  5
1C4
330
1A0
100
AcDbEntity
  8
0
100
AcDbLine
 10
31.0
 20
0.475205000000004
 30
0.0
 11
33.3692
 21
0.703404000000004
 31
0.0
  0
LINE
  5
1C5
330
1A0
100
AcDbEntity
  8
0
100
AcDbLine
 10
28.3769
 20
0.250082000000004
 30
0.0
 11
31.0
 21
0.0887110000000038
 31
0.0
  0
LINE
  5
1C6
330
1A0
100
AcDbEntity
  8
0
100
AcDbLine
 10
28.1231
 20
0.188212000000004
 30
0.0
 11
31.0
 21
0.0000000000000037
 31
0.0
  0
LINE
  5
1C7
330
1A0
100
AcDbEntity
  8
0
100
AcDbLine
 10
28.1231
 20
0.188212000000004
 30
0.0
 11
31.0
 21
0.0000000000000037
 31
0.0
  0
LINE
  5
1C8
330
1A0
100
AcDbEntity
  8
0
100
AcDbLine
 10
23.80759999999999
 20
1.433
 30
0.0
 11
25.9231
 21
0.7058340000000041
 31
0.0
  0
LINE
  5
1C9
330
1A0
100
AcDbEntity
  8
0
100
AcDbLine
 10
33.3692
 20
0.703404000000004
 30
0.0
 11
35.6539
 21
1.04681
 31
0.0
  0
LINE
  5
1CA
330
1A0
100
AcDbEntity
  8
0
100
AcDbLine
 10
36.0769
 20
0.7058340000000041
 30
0.0
 11
38.1923
 21
1.433
 31
0.0
  0
LINE
  5
1CB
330
1A0
100
AcDbEntity
  8
0
100
AcDbLine
 10
28.6308
 20
0.703404000000004
 30
0.0
 11
31.0
 21
0.475205000000004
 31
0.0
  0
LINE
  5
1CC
330
1A0
100
AcDbEntity
  8
0
100
AcDbLine
 10
25.9231
 20
0.7058340000000041
 30
0.0
 11
28.3769
 21
0.246700000000004
 31
0.0
  0
LINE
  5
1CD
330
1A0
100
AcDbEntity
  8
0
100
AcDbLine
 10
35.6539
 20
1.04681
 30
0.0
 11
37.6
 21
1.694229999999999
 31
0.0
  0
LINE
  5
1CE
330
1A0
100
AcDbEntity
  8
0
100
AcDbLine
 10
38.1923
 20
1.433
 30
0.0
 11
39.8
 21
2.37415
 31
0.0
  0
LINE
  5
1CF
330
1A0
100
AcDbEntity
  8
0
100
AcDbLine
 10
37.6
 20
1.694229999999999
 30
0.0
 11
39.0385
 21
2.565679999999999
 31
0.0
  0
LINE
  5
1D0
330
1A0
100
AcDbEntity
  8
0
100
AcDbLine
 10
39.8
 20
2.37415
 30
0.0
 11
40.81539999999999
 21
3.49838
 31
0.0
  0
LINE
  5
1D1
330
1A0
100
AcDbEntity
  8
0
100
AcDbLine
 10
26.3461
 20
1.04681
 30
0.0
 11
28.6308
 21
0.703404000000004
 31
0.0
  0
LINE
  5
1D2
330
1A0
100
AcDbEntity
  8
0
100
AcDbLine
 10
24.39999999999999
 20
1.694229999999999
 30
0.0
 11
26.3461
 21
1.04681
 31
0.0
  0
LINE
  5
1D3
330
1A0
100
AcDbEntity
  8
0
100
AcDbLine
 10
25.9231
 20
0.7071230000000041
 30
0.0
 11
28.3769
 21
0.250082000000004
 31
0.0
  0
LINE
  5
1D4
330
1A0
100
AcDbEntity
  8
0
100
AcDbLine
 10
23.80759999999999
 20
1.433079999999999
 30
0.0
 11
25.9231
 21
0.7071230000000041
 31
0.0
  0
LINE
  5
1D5
330
1A0
100
AcDbEntity
  8
0
100
AcDbLine
 10
25.5
 20
0.672125000000004
 30
0.0
 11
28.1231
 21
0.188212000000004
 31
0.0
  0
LINE
  5
1D6
330
1A0
100
AcDbEntity
  8
0
100
AcDbLine
 10
23.2154
 20
1.433929999999999
 30
0.0
 11
25.5
 21
0.672125000000004
 31
0.0
  0
LINE
  5
1D7
330
1A0
100
AcDbEntity
  8
0
100
AcDbLine
 10
21.1846
 20
3.49838
 30
0.0
 11
22.2
 21
2.37415
 31
0.0
  0
LINE
  5
1D8
330
1A0
100
AcDbEntity
  8
0
100
AcDbLine
 10
20.8461
 20
4.703670000000008
 30
0.0
 11
21.1846
 21
5.900350000000008
 31
0.0
  0
LINE
  5
1D9
330
1A0
100
AcDbEntity
  8
0
100
AcDbLine
 10
20.8461
 20
4.703670000000008
 30
0.0
 11
21.1846
 21
3.49838
 31
0.0
  0
LINE
  5
1DA
330
1A0
100
AcDbEntity
  8
0
100
AcDbLine
 10
39.0385
 20
2.565679999999999
 30
0.0
 11
39.8
 21
3.61574
 31
0.0
  0
LINE
  5
1DB
330
1A0
100
AcDbEntity
  8
0
100
AcDbLine
 10
40.81539999999999
 20
3.49838
 30
0.0
 11
41.1538
 21
4.703670000000008
 31
0.0
  0
LINE
  5
1DC
330
1A0
100
AcDbEntity
  8
0
100
AcDbLine
 10
39.8
 20
3.61574
 30
0.0
 11
40.30769999999999
 21
4.70159
 31
0.0
  0
LINE
  5
1DD
330
1A0
100
AcDbEntity
  8
0
100
AcDbLine
 10
22.9615
 20
2.565679999999999
 30
0.0
 11
24.39999999999999
 21
1.694229999999999
 31
0.0
  0
LINE
  5
1DE
330
1A0
100
AcDbEntity
  8
0
100
AcDbLine
 10
22.2
 20
3.61574
 30
0.0
 11
22.9615
 21
2.565679999999999
 31
0.0
  0
LINE
  5
1DF
330
1A0
100
AcDbEntity
  8
0
100
AcDbLine
 10
40.9197952691232
 20
3.87020793712025
 30
0.0
 11
41.5769
 21
4.474809999999998
 31
0.0
  0
LINE
  5
1E0
330
1A0
100
AcDbEntity
  8
0
100
AcDbLine
 10
41.1538
 20
4.703670000000008
 30
0.0
 11
41.1538
 21
5.333829999999998
 31
0.0
  0
LINE
  5
1E1
330
1A0
100
AcDbEntity
  8
0
100
AcDbLine
 10
21.69239999999999
 20
4.70159
 30
0.0
 11
22.2
 21
5.78493
 31
0.0
  0
LINE
  5
1E2
330
1A0
100
AcDbEntity
  8
0
100
AcDbLine
 10
21.69239999999999
 20
4.70159
 30
0.0
 11
22.2
 21
3.61574
 31
0.0
  0
LINE
  5
1E3
330
1A0
100
AcDbEntity
  8
0
100
AcDbLine
 10
41.5769
 20
4.474809999999998
 30
0.0
 11
42.0
 21
5.60353
 31
0.0
  0
LINE
  5
1E4
330
1A0
100
AcDbEntity
  8
0
100
AcDbLine
 10
21.1846
 20
3.5034
 30
0.0
 11
22.2
 21
2.37407
 31
0.0
  0
LINE
  5
1E5
330
1A0
100
AcDbEntity
  8
0
100
AcDbLine
 10
21.52309999999999
 20
2.455579999999998
 30
0.0
 11
23.2154
 21
1.433929999999999
 31
0.0
  0
LINE
  5
1E6
330
1A0
100
AcDbEntity
  8
0
100
AcDbLine
 10
20.4231
 20
3.665669999999999
 30
0.0
 11
21.52309999999999
 21
2.455579999999998
 31
0.0
  0
LINE
  5
1E7
330
1A0
100
AcDbEntity
  8
0
100
AcDbLine
 10
20.396
 20
14.6637
 30
0.0
 11
21.45199999999999
 21
15.782
 31
0.0
  0
LINE
  5
1E8
330
1A0
100
AcDbEntity
  8
0
100
AcDbLine
 10
20.4231
 20
13.8353
 30
0.0
 11
21.52309999999999
 21
15.0454
 31
0.0
  0
LINE
  5
1E9
330
1A0
100
AcDbEntity
  8
0
100
AcDbLine
 10
20.4231
 20
12.5766
 30
0.0
 11
21.52309999999999
 21
13.7865
 31
0.0
  0
LINE
  5
1EA
330
1A0
100
AcDbEntity
  8
0
100
AcDbLine
 10
20.4231
 20
11.3179
 30
0.0
 11
21.52309999999999
 21
12.5278
 31
0.0
  0
LINE
  5
1EB
330
1A0
100
AcDbEntity
  8
0
100
AcDbLine
 10
20.4231
 20
10.059
 30
0.0
 11
21.52309999999999
 21
11.269
 31
0.0
  0
LINE
  5
1EC
330
1A0
100
AcDbEntity
  8
0
100
AcDbLine
 10
20.4231
 20
8.80031000000001
 30
0.0
 11
21.52309999999999
 21
10.0102
 31
0.0
  0
LINE
  5
1ED
330
1A0
100
AcDbEntity
  8
0
100
AcDbLine
 10
20.4231
 20
7.541470000000009
 30
0.0
 11
21.52309999999999
 21
8.751400000000009
 31
0.0
  0
LINE
  5
1EE
330
1A0
100
AcDbEntity
  8
0
100
AcDbLine
 10
41.1538
 20
5.333829999999998
 30
0.0
 11
41.1538
 21
4.703670000000008
 31
0.0
  0
LINE
  5
1EF
330
1A0
100
AcDbEntity
  8
0
100
AcDbLine
 10
39.8
 20
5.78493
 30
0.0
 11
40.30769999999999
 21
4.70159
 31
0.0
  0
LINE
  5
1F0
330
1A0
100
AcDbEntity
  8
0
100
AcDbLine
 10
40.81539999999999
 20
5.900350000000008
 30
0.0
 11
41.1538
 21
4.703670000000008
 31
0.0
  0
LINE
  5
1F1
330
1A0
100
AcDbEntity
  8
0
100
AcDbLine
 10
22.2
 20
5.78493
 30
0.0
 11
22.9615
 21
6.835050000000008
 31
0.0
  0
LINE
  5
1F2
330
1A0
100
AcDbEntity
  8
0
100
AcDbLine
 10
21.1846
 20
5.900350000000008
 30
0.0
 11
22.2
 21
7.030509999999999
 31
0.0
  0
LINE
  5
1F3
330
1A0
100
AcDbEntity
  8
0
100
AcDbLine
 10
21.1846
 20
13.4582
 30
0.0
 11
22.2
 21
14.5874
 31
0.0
  0
LINE
  5
1F4
330
1A0
100
AcDbEntity
  8
0
100
AcDbLine
 10
21.1666233392762
 20
13.39440808017299
 30
0.0
 11
21.1846
 21
13.4582
 31
0.0
  0
LINE
  5
1F5
330
1A0
100
AcDbEntity
  8
0
100
AcDbLine
 10
21.1846
 20
12.19929999999999
 30
0.0
 11
22.2
 21
13.3286
 31
0.0
  0
LINE
  5
1F6
330
1A0
100
AcDbEntity
  8
0
100
AcDbLine
 10
21.16670069677008
 20
12.1357931663838
 30
0.0
 11
21.1846
 21
12.19929999999999
 31
0.0
  0
LINE
  5
1F7
330
1A0
100
AcDbEntity
  8
0
100
AcDbLine
 10
21.1846
 20
10.9406
 30
0.0
 11
22.2
 21
12.0699
 31
0.0
  0
LINE
  5
1F8
330
1A0
100
AcDbEntity
  8
0
100
AcDbLine
 10
21.16664942807499
 20
10.8769043708825
 30
0.0
 11
21.1846
 21
10.9406
 31
0.0
  0
LINE
  5
1F9
330
1A0
100
AcDbEntity
  8
0
100
AcDbLine
 10
21.1846
 20
9.681879999999999
 30
0.0
 11
22.2
 21
10.8111
 31
0.0
  0
LINE
  5
1FA
330
1A0
100
AcDbEntity
  8
0
100
AcDbLine
 10
21.1666317464411
 20
9.618120567910567
 30
0.0
 11
21.1846
 21
9.681879999999999
 31
0.0
  0
LINE
  5
1FB
330
1A0
100
AcDbEntity
  8
0
100
AcDbLine
 10
21.1846
 20
8.423040000000009
 30
0.0
 11
22.2
 21
9.552270000000007
 31
0.0
  0
LINE
  5
1FC
330
1A0
100
AcDbEntity
  8
0
100
AcDbLine
 10
21.16664192218619
 20
8.359318798100709
 30
0.0
 11
21.1846
 21
8.423040000000009
 31
0.0
  0
LINE
  5
1FD
330
1A0
100
AcDbEntity
  8
0
100
AcDbLine
 10
21.45199999999999
 20
15.782
 30
0.0
 11
23.212
 21
16.7698
 31
0.0
  0
LINE
  5
1FE
330
1A0
100
AcDbEntity
  8
0
100
AcDbLine
 10
21.52309999999999
 20
15.0454
 30
0.0
 11
23.2154
 21
16.067
 31
0.0
  0
LINE
  5
1FF
330
1A0
100
AcDbEntity
  8
0
100
AcDbLine
 10
21.52309999999999
 20
13.7865
 30
0.0
 11
23.2154
 21
14.8083
 31
0.0
  0
LINE
  5
200
330
1A0
100
AcDbEntity
  8
0
100
AcDbLine
 10
21.52309999999999
 20
12.5278
 30
0.0
 11
23.2154
 21
13.5495
 31
0.0
  0
LINE
  5
201
330
1A0
100
AcDbEntity
  8
0
100
AcDbLine
 10
21.52309999999999
 20
11.269
 30
0.0
 11
23.2154
 21
12.2907
 31
0.0
  0
LINE
  5
202
330
1A0
100
AcDbEntity
  8
0
100
AcDbLine
 10
21.52309999999999
 20
10.0102
 30
0.0
 11
23.2154
 21
11.0319
 31
0.0
  0
LINE
  5
203
330
1A0
100
AcDbEntity
  8
0
100
AcDbLine
 10
21.52309999999999
 20
8.751400000000009
 30
0.0
 11
23.2154
 21
9.773049999999999
 31
0.0
  0
LINE
  5
204
330
1A0
100
AcDbEntity
  8
0
100
AcDbLine
 10
21.1846
 20
7.164279999999999
 30
0.0
 11
22.2
 21
8.293540000000009
 31
0.0
  0
LINE
  5
205
330
1A0
100
AcDbEntity
  8
0
100
AcDbLine
 10
21.16665176880999
 20
7.100596388321778
 30
0.0
 11
21.1846
 21
7.164279999999999
 31
0.0
  0
LINE
  5
206
330
1A0
100
AcDbEntity
  8
0
100
AcDbLine
 10
39.0385
 20
6.835050000000008
 30
0.0
 11
39.8
 21
5.78493
 31
0.0
  0
LINE
  5
207
330
1A0
100
AcDbEntity
  8
0
100
AcDbLine
 10
39.8
 20
7.030509999999999
 30
0.0
 11
40.81539999999999
 21
5.900350000000008
 31
0.0
  0
LINE
  5
208
330
1A0
100
AcDbEntity
  8
0
100
AcDbLine
 10
22.9615
 20
6.835050000000008
 30
0.0
 11
24.39999999999999
 21
7.706930000000007
 31
0.0
  0
LINE
  5
209
330
1A0
100
AcDbEntity
  8
0
100
AcDbLine
 10
22.2
 20
7.030509999999999
 30
0.0
 11
23.80759999999999
 21
7.972569999999998
 31
0.0
  0
LINE
  5
20A
330
1A0
100
AcDbEntity
  8
0
100
AcDbLine
 10
40.81539999999999
 20
6.354989999999999
 30
0.0
 11
41.1538
 21
5.333829999999998
 31
0.0
  0
LINE
  5
20B
330
1A0
100
AcDbEntity
  8
0
100
AcDbLine
 10
41.76405916337751
 20
6.232958364718859
 30
0.0
 11
42.0
 21
6.86237
 31
0.0
  0
LINE
  5
20C
330
1A0
100
AcDbEntity
  8
0
100
AcDbLine
 10
41.5769
 20
6.732250000000009
 30
0.0
 11
42.0
 21
5.60353
 31
0.0
  0
LINE
  5
20D
330
1A0
100
AcDbEntity
  8
0
100
AcDbLine
 10
23.212
 20
16.7698
 30
0.0
 11
25.544
 21
17.51529999999998
 31
0.0
  0
LINE
  5
20E
330
1A0
100
AcDbEntity
  8
0
100
AcDbLine
 10
22.2
 20
15.62129999999999
 30
0.0
 11
23.80759999999999
 21
16.5178
 31
0.0
  0
LINE
  5
20F
330
1A0
100
AcDbEntity
  8
0
100
AcDbLine
 10
21.80160230449919
 20
15.2135250099134
 30
0.0
 11
22.2
 21
15.62129999999999
 31
0.0
  0
LINE
  5
210
330
1A0
100
AcDbEntity
  8
0
100
AcDbLine
 10
23.2154
 20
16.067
 30
0.0
 11
25.5
 21
16.8288
 31
0.0
  0
LINE
  5
211
330
1A0
100
AcDbEntity
  8
0
100
AcDbLine
 10
22.2
 20
14.5874
 30
0.0
 11
23.80759999999999
 21
15.52839999999999
 31
0.0
  0
LINE
  5
212
330
1A0
100
AcDbEntity
  8
0
100
AcDbLine
 10
23.2154
 20
14.8083
 30
0.0
 11
25.5
 21
15.5701
 31
0.0
  0
LINE
  5
213
330
1A0
100
AcDbEntity
  8
0
100
AcDbLine
 10
22.2
 20
13.3286
 30
0.0
 11
23.80759999999999
 21
14.2697
 31
0.0
  0
LINE
  5
214
330
1A0
100
AcDbEntity
  8
0
100
AcDbLine
 10
23.2154
 20
13.5495
 30
0.0
 11
25.5
 21
14.31119999999999
 31
0.0
  0
LINE
  5
215
330
1A0
100
AcDbEntity
  8
0
100
AcDbLine
 10
22.2
 20
12.0699
 30
0.0
 11
23.80759999999999
 21
13.0109
 31
0.0
  0
LINE
  5
216
330
1A0
100
AcDbEntity
  8
0
100
AcDbLine
 10
23.2154
 20
12.2907
 30
0.0
 11
25.5
 21
13.0525
 31
0.0
  0
LINE
  5
217
330
1A0
100
AcDbEntity
  8
0
100
AcDbLine
 10
22.2
 20
10.8111
 30
0.0
 11
23.80759999999999
 21
11.7521
 31
0.0
  0
LINE
  5
218
330
1A0
100
AcDbEntity
  8
0
100
AcDbLine
 10
23.2154
 20
11.0319
 30
0.0
 11
25.5
 21
11.79379999999998
 31
0.0
  0
LINE
  5
219
330
1A0
100
AcDbEntity
  8
0
100
AcDbLine
 10
22.2
 20
9.552270000000007
 30
0.0
 11
23.80759999999999
 21
10.4933
 31
0.0
  0
LINE
  5
21A
330
1A0
100
AcDbEntity
  8
0
100
AcDbLine
 10
23.2154
 20
9.773049999999999
 30
0.0
 11
25.5
 21
10.535
 31
0.0
  0
LINE
  5
21B
330
1A0
100
AcDbEntity
  8
0
100
AcDbLine
 10
22.2
 20
8.293540000000009
 30
0.0
 11
23.80759999999999
 21
9.23456
 31
0.0
  0
LINE
  5
21C
330
1A0
100
AcDbEntity
  8
0
100
AcDbLine
 10
37.6
 20
7.706930000000007
 30
0.0
 11
39.0385
 21
6.835050000000008
 31
0.0
  0
LINE
  5
21D
330
1A0
100
AcDbEntity
  8
0
100
AcDbLine
 10
38.1923
 20
7.972569999999998
 30
0.0
 11
39.8
 21
7.030509999999999
 31
0.0
  0
LINE
  5
21E
330
1A0
100
AcDbEntity
  8
0
100
AcDbLine
 10
24.39999999999999
 20
7.706930000000007
 30
0.0
 11
26.3461
 21
8.351580000000009
 31
0.0
  0
LINE
  5
21F
330
1A0
100
AcDbEntity
  8
0
100
AcDbLine
 10
23.80759999999999
 20
7.972569999999998
 30
0.0
 11
25.9231
 21
8.694129999999997
 31
0.0
  0
LINE
  5
220
330
1A0
100
AcDbEntity
  8
0
100
AcDbLine
 10
39.8
 20
7.304499999999998
 30
0.0
 11
40.81539999999999
 21
6.354989999999999
 31
0.0
  0
LINE
  5
221
330
1A0
100
AcDbEntity
  8
0
100
AcDbLine
 10
41.76408626660577
 20
7.49174836375798
 30
0.0
 11
42.0
 21
8.121109999999999
 31
0.0
  0
LINE
  5
222
330
1A0
100
AcDbEntity
  8
0
100
AcDbLine
 10
40.81539999999999
 20
7.61385
 30
0.0
 11
40.9016191598766
 21
7.353643429081529
 31
0.0
  0
LINE
  5
223
330
1A0
100
AcDbEntity
  8
0
100
AcDbLine
 10
40.4769
 20
7.744470000000007
 30
0.0
 11
41.5769
 21
6.732250000000009
 31
0.0
  0
LINE
  5
224
330
1A0
100
AcDbEntity
  8
0
100
AcDbLine
 10
23.80759999999999
 20
16.5178
 30
0.0
 11
25.9231
 21
17.1992
 31
0.0
  0
LINE
  5
225
330
1A0
100
AcDbEntity
  8
0
100
AcDbLine
 10
25.5
 20
16.8288
 30
0.0
 11
28.1231
 21
17.3127
 31
0.0
  0
LINE
  5
226
330
1A0
100
AcDbEntity
  8
0
100
AcDbLine
 10
23.80759999999999
 20
15.52839999999999
 30
0.0
 11
25.9231
 21
16.2544
 31
0.0
  0
LINE
  5
227
330
1A0
100
AcDbEntity
  8
0
100
AcDbLine
 10
25.5
 20
15.5701
 30
0.0
 11
28.1231
 21
16.05399999999999
 31
0.0
  0
LINE
  5
228
330
1A0
100
AcDbEntity
  8
0
100
AcDbLine
 10
23.80759999999999
 20
14.2697
 30
0.0
 11
25.9231
 21
14.9955
 31
0.0
  0
LINE
  5
229
330
1A0
100
AcDbEntity
  8
0
100
AcDbLine
 10
25.5
 20
14.31119999999999
 30
0.0
 11
28.1231
 21
14.7951
 31
0.0
  0
LINE
  5
22A
330
1A0
100
AcDbEntity
  8
0
100
AcDbLine
 10
23.80759999999999
 20
13.0109
 30
0.0
 11
25.9231
 21
13.7368
 31
0.0
  0
LINE
  5
22B
330
1A0
100
AcDbEntity
  8
0
100
AcDbLine
 10
25.5
 20
13.0525
 30
0.0
 11
28.1231
 21
13.5364
 31
0.0
  0
LINE
  5
22C
330
1A0
100
AcDbEntity
  8
0
100
AcDbLine
 10
23.80759999999999
 20
11.7521
 30
0.0
 11
25.9231
 21
12.4781
 31
0.0
  0
LINE
  5
22D
330
1A0
100
AcDbEntity
  8
0
100
AcDbLine
 10
25.5
 20
11.79379999999998
 30
0.0
 11
28.1231
 21
12.2777
 31
0.0
  0
LINE
  5
22E
330
1A0
100
AcDbEntity
  8
0
100
AcDbLine
 10
23.80759999999999
 20
10.4933
 30
0.0
 11
25.9231
 21
11.2192
 31
0.0
  0
LINE
  5
22F
330
1A0
100
AcDbEntity
  8
0
100
AcDbLine
 10
25.5
 20
10.535
 30
0.0
 11
28.1231
 21
11.0188
 31
0.0
  0
LINE
  5
230
330
1A0
100
AcDbEntity
  8
0
100
AcDbLine
 10
23.80759999999999
 20
9.23456
 30
0.0
 11
25.9231
 21
9.960490000000007
 31
0.0
  0
LINE
  5
231
330
1A0
100
AcDbEntity
  8
0
100
AcDbLine
 10
35.6539
 20
8.351580000000009
 30
0.0
 11
37.6
 21
7.706930000000007
 31
0.0
  0
LINE
  5
232
330
1A0
100
AcDbEntity
  8
0
100
AcDbLine
 10
33.3692
 20
8.692840000000009
 30
0.0
 11
35.6539
 21
8.351580000000009
 31
0.0
  0
LINE
  5
233
330
1A0
100
AcDbEntity
  8
0
100
AcDbLine
 10
36.0769
 20
8.694129999999997
 30
0.0
 11
38.1923
 21
7.972569999999998
 31
0.0
  0
LINE
  5
234
330
1A0
100
AcDbEntity
  8
0
100
AcDbLine
 10
28.6308
 20
8.692840000000009
 30
0.0
 11
31.0
 21
8.925990000000009
 31
0.0
  0
LINE
  5
235
330
1A0
100
AcDbEntity
  8
0
100
AcDbLine
 10
26.3461
 20
8.351580000000009
 30
0.0
 11
28.6308
 21
8.692840000000009
 31
0.0
  0
LINE
  5
236
330
1A0
100
AcDbEntity
  8
0
100
AcDbLine
 10
25.9231
 20
8.694129999999997
 30
0.0
 11
28.3769
 21
9.15607000000001
 31
0.0
  0
LINE
  5
237
330
1A0
100
AcDbEntity
  8
0
100
AcDbLine
 10
38.1923
 20
8.155690000000008
 30
0.0
 11
39.8
 21
7.304499999999998
 31
0.0
  0
LINE
  5
238
330
1A0
100
AcDbEntity
  8
0
100
AcDbLine
 10
39.8
 20
8.563230000000009
 30
0.0
 11
40.81539999999999
 21
7.61385
 31
0.0
  0
LINE
  5
239
330
1A0
100
AcDbEntity
  8
0
100
AcDbLine
 10
41.5769
 20
7.99113
 30
0.0
 11
42.0
 21
6.86237
 31
0.0
  0
LINE
  5
23A
330
1A0
100
AcDbEntity
  8
0
100
AcDbLine
 10
38.7846
 20
8.6583
 30
0.0
 11
40.4769
 21
7.744470000000007
 31
0.0
  0
LINE
  5
23B
330
1A0
100
AcDbEntity
  8
0
100
AcDbLine
 10
25.544
 20
17.51529999999998
 30
0.0
 11
28.184
 21
17.96259999999999
 31
0.0
  0
LINE
  5
23C
330
1A0
100
AcDbEntity
  8
0
100
AcDbLine
 10
25.9231
 20
17.1992
 30
0.0
 11
28.3769
 21
17.62869999999999
 31
0.0
  0
LINE
  5
23D
330
1A0
100
AcDbEntity
  8
0
100
AcDbLine
 10
28.1231
 20
17.3127
 30
0.0
 11
31.0
 21
17.50099999999999
 31
0.0
  0
LINE
  5
23E
330
1A0
100
AcDbEntity
  8
0
100
AcDbLine
 10
25.9231
 20
16.2544
 30
0.0
 11
28.3769
 21
16.7114
 31
0.0
  0
LINE
  5
23F
330
1A0
100
AcDbEntity
  8
0
100
AcDbLine
 10
28.1231
 20
16.05399999999999
 30
0.0
 11
31.0
 21
16.2421
 31
0.0
  0
LINE
  5
240
330
1A0
100
AcDbEntity
  8
0
100
AcDbLine
 10
25.9231
 20
14.9955
 30
0.0
 11
28.3769
 21
15.4527
 31
0.0
  0
LINE
  5
241
330
1A0
100
AcDbEntity
  8
0
100
AcDbLine
 10
28.1231
 20
14.7951
 30
0.0
 11
31.0
 21
14.98339999999999
 31
0.0
  0
LINE
  5
242
330
1A0
100
AcDbEntity
  8
0
100
AcDbLine
 10
25.9231
 20
13.7368
 30
0.0
 11
28.3769
 21
14.19389999999999
 31
0.0
  0
LINE
  5
243
330
1A0
100
AcDbEntity
  8
0
100
AcDbLine
 10
28.1231
 20
13.5364
 30
0.0
 11
31.0
 21
13.7247
 31
0.0
  0
LINE
  5
244
330
1A0
100
AcDbEntity
  8
0
100
AcDbLine
 10
25.9231
 20
12.4781
 30
0.0
 11
28.3769
 21
12.9351
 31
0.0
  0
LINE
  5
245
330
1A0
100
AcDbEntity
  8
0
100
AcDbLine
 10
28.1231
 20
12.2777
 30
0.0
 11
31.0
 21
12.4658
 31
0.0
  0
LINE
  5
246
330
1A0
100
AcDbEntity
  8
0
100
AcDbLine
 10
25.9231
 20
11.2192
 30
0.0
 11
28.3769
 21
11.67629999999999
 31
0.0
  0
LINE
  5
247
330
1A0
100
AcDbEntity
  8
0
100
AcDbLine
 10
28.1231
 20
11.0188
 30
0.0
 11
31.0
 21
11.207
 31
0.0
  0
LINE
  5
248
330
1A0
100
AcDbEntity
  8
0
100
AcDbLine
 10
25.9231
 20
9.960490000000007
 30
0.0
 11
28.3769
 21
10.4176
 31
0.0
  0
LINE
  5
249
330
1A0
100
AcDbEntity
  8
0
100
AcDbLine
 10
31.0
 20
8.925990000000009
 30
0.0
 11
33.3692
 21
8.692840000000009
 31
0.0
  0
LINE
  5
24A
330
1A0
100
AcDbEntity
  8
0
100
AcDbLine
 10
33.6231
 20
9.15607000000001
 30
0.0
 11
36.0769
 21
8.694129999999997
 31
0.0
  0
LINE
  5
24B
330
1A0
100
AcDbEntity
  8
0
100
AcDbLine
 10
28.3769
 20
9.15607000000001
 30
0.0
 11
31.0
 21
9.320200000000008
 31
0.0
  0
LINE
  5
24C
330
1A0
100
AcDbEntity
  8
0
100
AcDbLine
 10
41.76407902019839
 20
8.75050211995039
 30
0.0
 11
42.0
 21
9.379950000000009
 31
0.0
  0
LINE
  5
24D
330
1A0
100
AcDbEntity
  8
0
100
AcDbLine
 10
40.81539999999999
 20
8.872600000000009
 30
0.0
 11
40.90157739330988
 21
8.612537305490539
 31
0.0
  0
LINE
  5
24E
330
1A0
100
AcDbEntity
  8
0
100
AcDbLine
 10
40.4769
 20
9.00331
 30
0.0
 11
41.5769
 21
7.99113
 31
0.0
  0
LINE
  5
24F
330
1A0
100
AcDbEntity
  8
0
100
AcDbLine
 10
36.0769
 20
8.791689999999999
 30
0.0
 11
38.1923
 21
8.155690000000008
 31
0.0
  0
LINE
  5
250
330
1A0
100
AcDbEntity
  8
0
100
AcDbLine
 10
31.0
 20
9.320200000000008
 30
0.0
 11
33.6231
 21
9.19477
 31
0.0
  0
LINE
  5
251
330
1A0
100
AcDbEntity
  8
0
100
AcDbLine
 10
31.0
 20
9.320200000000008
 30
0.0
 11
33.6231
 21
9.15607000000001
 31
0.0
  0
LINE
  5
252
330
1A0
100
AcDbEntity
  8
0
100
AcDbLine
 10
33.6231
 20
9.19477
 30
0.0
 11
36.0769
 21
8.791689999999999
 31
0.0
  0
LINE
  5
253
330
1A0
100
AcDbEntity
  8
0
100
AcDbLine
 10
28.184
 20
17.96259999999999
 30
0.0
 11
31.0
 21
18.1304
 31
0.0
  0
LINE
  5
254
330
1A0
100
AcDbEntity
  8
0
100
AcDbLine
 10
28.3769
 20
17.62869999999999
 30
0.0
 11
31.0
 21
17.7719
 31
0.0
  0
LINE
  5
255
330
1A0
100
AcDbEntity
  8
0
100
AcDbLine
 10
28.3769
 20
16.7114
 30
0.0
 11
31.0
 21
16.8728
 31
0.0
  0
LINE
  5
256
330
1A0
100
AcDbEntity
  8
0
100
AcDbLine
 10
28.3769
 20
15.4527
 30
0.0
 11
31.0
 21
15.6141
 31
0.0
  0
LINE
  5
257
330
1A0
100
AcDbEntity
  8
0
100
AcDbLine
 10
28.3769
 20
14.19389999999999
 30
0.0
 11
31.0
 21
14.35529999999999
 31
0.0
  0
LINE
  5
258
330
1A0
100
AcDbEntity
  8
0
100
AcDbLine
 10
28.3769
 20
12.9351
 30
0.0
 11
31.0
 21
13.0966
 31
0.0
  0
LINE
  5
259
330
1A0
100
AcDbEntity
  8
0
100
AcDbLine
 10
31.0
 20
11.8378
 30
0.0
 11
33.6231
 21
11.7123
 31
0.0
  0
LINE
  5
25A
330
1A0
100
AcDbEntity
  8
0
100
AcDbLine
 10
31.0
 20
18.1304
 30
0.0
 11
33.816
 21
17.96259999999999
 31
0.0
  0
LINE
  5
25B
330
1A0
100
AcDbEntity
  8
0
100
AcDbLine
 10
31.0
 20
17.7719
 30
0.0
 11
33.6231
 21
17.62869999999999
 31
0.0
  0
LINE
  5
25C
330
1A0
100
AcDbEntity
  8
0
100
AcDbLine
 10
31.0
 20
16.8728
 30
0.0
 11
33.6231
 21
16.74749999999999
 31
0.0
  0
LINE
  5
25D
330
1A0
100
AcDbEntity
  8
0
100
AcDbLine
 10
31.0
 20
17.50099999999999
 30
0.0
 11
33.8769
 21
17.3308
 31
0.0
  0
LINE
  5
25E
330
1A0
100
AcDbEntity
  8
0
100
AcDbLine
 10
31.0
 20
15.6141
 30
0.0
 11
33.6231
 21
15.4886
 31
0.0
  0
LINE
  5
25F
330
1A0
100
AcDbEntity
  8
0
100
AcDbLine
 10
31.0
 20
16.2421
 30
0.0
 11
33.8769
 21
16.07199999999998
 31
0.0
  0
LINE
  5
260
330
1A0
100
AcDbEntity
  8
0
100
AcDbLine
 10
31.0
 20
14.35529999999999
 30
0.0
 11
33.6231
 21
14.2299
 31
0.0
  0
LINE
  5
261
330
1A0
100
AcDbEntity
  8
0
100
AcDbLine
 10
31.0
 20
14.98339999999999
 30
0.0
 11
33.8769
 21
14.8132
 31
0.0
  0
LINE
  5
262
330
1A0
100
AcDbEntity
  8
0
100
AcDbLine
 10
31.0
 20
13.0966
 30
0.0
 11
33.6231
 21
12.97109999999998
 31
0.0
  0
LINE
  5
263
330
1A0
100
AcDbEntity
  8
0
100
AcDbLine
 10
31.0
 20
13.7247
 30
0.0
 11
33.8769
 21
13.5545
 31
0.0
  0
LINE
  5
264
330
1A0
100
AcDbEntity
  8
0
100
AcDbLine
 10
31.0
 20
12.4658
 30
0.0
 11
33.8769
 21
12.2956
 31
0.0
  0
LINE
  5
265
330
1A0
100
AcDbEntity
  8
0
100
AcDbLine
 10
28.3769
 20
11.67629999999999
 30
0.0
 11
31.0
 21
11.8378
 31
0.0
  0
LINE
  5
266
330
1A0
100
AcDbEntity
  8
0
100
AcDbLine
 10
31.0
 20
10.579
 30
0.0
 11
33.6231
 21
10.4535
 31
0.0
  0
LINE
  5
267
330
1A0
100
AcDbEntity
  8
0
100
AcDbLine
 10
31.0
 20
11.207
 30
0.0
 11
33.8769
 21
11.0369
 31
0.0
  0
LINE
  5
268
330
1A0
100
AcDbEntity
  8
0
100
AcDbLine
 10
28.3769
 20
10.4176
 30
0.0
 11
31.0
 21
10.579
 31
0.0
  0
LINE
  5
269
330
1A0
100
AcDbEntity
  8
0
100
AcDbLine
 10
33.6231
 20
10.4535
 30
0.0
 11
36.0769
 21
10.05039999999998
 31
0.0
  0
LINE
  5
26A
330
1A0
100
AcDbEntity
  8
0
100
AcDbLine
 10
36.0769
 20
10.05039999999998
 30
0.0
 11
38.1923
 21
9.414420000000008
 31
0.0
  0
LINE
  5
26B
330
1A0
100
AcDbEntity
  8
0
100
AcDbLine
 10
33.6231
 20
11.7123
 30
0.0
 11
36.0769
 21
11.30929999999999
 31
0.0
  0
LINE
  5
26C
330
1A0
100
AcDbEntity
  8
0
100
AcDbLine
 10
33.816
 20
17.96259999999999
 30
0.0
 11
36.45599999999999
 21
17.51529999999998
 31
0.0
  0
LINE
  5
26D
330
1A0
100
AcDbEntity
  8
0
100
AcDbLine
 10
33.6231
 20
17.62869999999999
 30
0.0
 11
36.0769
 21
17.1992
 31
0.0
  0
LINE
  5
26E
330
1A0
100
AcDbEntity
  8
0
100
AcDbLine
 10
33.6231
 20
16.74749999999999
 30
0.0
 11
36.0769
 21
16.3443
 31
0.0
  0
LINE
  5
26F
330
1A0
100
AcDbEntity
  8
0
100
AcDbLine
 10
33.8769
 20
17.3308
 30
0.0
 11
36.5
 21
16.8827
 31
0.0
  0
LINE
  5
270
330
1A0
100
AcDbEntity
  8
0
100
AcDbLine
 10
33.6231
 20
15.4886
 30
0.0
 11
36.0769
 21
15.0856
 31
0.0
  0
LINE
  5
271
330
1A0
100
AcDbEntity
  8
0
100
AcDbLine
 10
33.8769
 20
16.07199999999998
 30
0.0
 11
36.5
 21
15.624
 31
0.0
  0
LINE
  5
272
330
1A0
100
AcDbEntity
  8
0
100
AcDbLine
 10
33.6231
 20
14.2299
 30
0.0
 11
36.0769
 21
13.8268
 31
0.0
  0
LINE
  5
273
330
1A0
100
AcDbEntity
  8
0
100
AcDbLine
 10
33.8769
 20
14.8132
 30
0.0
 11
36.5
 21
14.36519999999999
 31
0.0
  0
LINE
  5
274
330
1A0
100
AcDbEntity
  8
0
100
AcDbLine
 10
33.6231
 20
12.97109999999998
 30
0.0
 11
36.0769
 21
12.568
 31
0.0
  0
LINE
  5
275
330
1A0
100
AcDbEntity
  8
0
100
AcDbLine
 10
33.8769
 20
13.5545
 30
0.0
 11
36.5
 21
13.1064
 31
0.0
  0
LINE
  5
276
330
1A0
100
AcDbEntity
  8
0
100
AcDbLine
 10
33.8769
 20
12.2956
 30
0.0
 11
36.5
 21
11.8477
 31
0.0
  0
LINE
  5
277
330
1A0
100
AcDbEntity
  8
0
100
AcDbLine
 10
36.0769
 20
11.30929999999999
 30
0.0
 11
38.1923
 21
10.67329999999999
 31
0.0
  0
LINE
  5
278
330
1A0
100
AcDbEntity
  8
0
100
AcDbLine
 10
36.45599999999999
 20
17.51529999999998
 30
0.0
 11
38.788
 21
16.7698
 31
0.0
  0
LINE
  5
279
330
1A0
100
AcDbEntity
  8
0
100
AcDbLine
 10
36.0769
 20
17.1992
 30
0.0
 11
38.1923
 21
16.5178
 31
0.0
  0
LINE
  5
27A
330
1A0
100
AcDbEntity
  8
0
100
AcDbLine
 10
36.0769
 20
16.3443
 30
0.0
 11
38.1923
 21
15.70829999999999
 31
0.0
  0
LINE
  5
27B
330
1A0
100
AcDbEntity
  8
0
100
AcDbLine
 10
36.5
 20
16.8827
 30
0.0
 11
38.7846
 21
16.2108
 31
0.0
  0
LINE
  5
27C
330
1A0
100
AcDbEntity
  8
0
100
AcDbLine
 10
36.0769
 20
15.0856
 30
0.0
 11
38.1923
 21
14.4496
 31
0.0
  0
LINE
  5
27D
330
1A0
100
AcDbEntity
  8
0
100
AcDbLine
 10
36.5
 20
15.624
 30
0.0
 11
38.7846
 21
14.9521
 31
0.0
  0
LINE
  5
27E
330
1A0
100
AcDbEntity
  8
0
100
AcDbLine
 10
36.0769
 20
13.8268
 30
0.0
 11
38.1923
 21
13.19069999999999
 31
0.0
  0
LINE
  5
27F
330
1A0
100
AcDbEntity
  8
0
100
AcDbLine
 10
36.5
 20
14.36519999999999
 30
0.0
 11
38.7846
 21
13.6934
 31
0.0
  0
LINE
  5
280
330
1A0
100
AcDbEntity
  8
0
100
AcDbLine
 10
36.0769
 20
12.568
 30
0.0
 11
38.1923
 21
11.932
 31
0.0
  0
LINE
  5
281
330
1A0
100
AcDbEntity
  8
0
100
AcDbLine
 10
36.5
 20
13.1064
 30
0.0
 11
38.7846
 21
12.4346
 31
0.0
  0
LINE
  5
282
330
1A0
100
AcDbEntity
  8
0
100
AcDbLine
 10
36.5
 20
11.8477
 30
0.0
 11
38.7846
 21
11.1759
 31
0.0
  0
LINE
  5
283
330
1A0
100
AcDbEntity
  8
0
100
AcDbLine
 10
33.8769
 20
11.0369
 30
0.0
 11
36.5
 21
10.5889
 31
0.0
  0
LINE
  5
284
330
1A0
100
AcDbEntity
  8
0
100
AcDbLine
 10
36.5
 20
10.5889
 30
0.0
 11
38.7846
 21
9.917030000000007
 31
0.0
  0
LINE
  5
285
330
1A0
100
AcDbEntity
  8
0
100
AcDbLine
 10
31.0
 20
9.948249999999999
 30
0.0
 11
33.8769
 21
9.778069999999999
 31
0.0
  0
LINE
  5
286
330
1A0
100
AcDbEntity
  8
0
100
AcDbLine
 10
33.8769
 20
9.778069999999999
 30
0.0
 11
36.5
 21
9.330050000000008
 31
0.0
  0
LINE
  5
287
330
1A0
100
AcDbEntity
  8
0
100
AcDbLine
 10
39.8
 20
9.822070000000007
 30
0.0
 11
40.81539999999999
 21
8.872600000000009
 31
0.0
  0
LINE
  5
288
330
1A0
100
AcDbEntity
  8
0
100
AcDbLine
 10
41.5769
 20
9.249859999999998
 30
0.0
 11
42.0
 21
8.121109999999999
 31
0.0
  0
LINE
  5
289
330
1A0
100
AcDbEntity
  8
0
100
AcDbLine
 10
38.1923
 20
9.414420000000008
 30
0.0
 11
39.8
 21
8.563230000000009
 31
0.0
  0
LINE
  5
28A
330
1A0
100
AcDbEntity
  8
0
100
AcDbLine
 10
39.8
 20
11.08079999999998
 30
0.0
 11
40.81539999999999
 21
10.13139999999999
 31
0.0
  0
LINE
  5
28B
330
1A0
100
AcDbEntity
  8
0
100
AcDbLine
 10
38.1923
 20
10.67329999999999
 30
0.0
 11
39.8
 21
9.822070000000007
 31
0.0
  0
LINE
  5
28C
330
1A0
100
AcDbEntity
  8
0
100
AcDbLine
 10
39.8
 20
12.3395
 30
0.0
 11
40.81539999999999
 21
11.3901
 31
0.0
  0
LINE
  5
28D
330
1A0
100
AcDbEntity
  8
0
100
AcDbLine
 10
38.1923
 20
11.932
 30
0.0
 11
39.8
 21
11.08079999999998
 31
0.0
  0
LINE
  5
28E
330
1A0
100
AcDbEntity
  8
0
100
AcDbLine
 10
39.8
 20
13.5984
 30
0.0
 11
40.81539999999999
 21
12.6488
 31
0.0
  0
LINE
  5
28F
330
1A0
100
AcDbEntity
  8
0
100
AcDbLine
 10
38.1923
 20
13.19069999999999
 30
0.0
 11
39.8
 21
12.3395
 31
0.0
  0
LINE
  5
290
330
1A0
100
AcDbEntity
  8
0
100
AcDbLine
 10
39.8
 20
14.8571
 30
0.0
 11
40.81539999999999
 21
13.9076
 31
0.0
  0
LINE
  5
291
330
1A0
100
AcDbEntity
  8
0
100
AcDbLine
 10
38.1923
 20
14.4496
 30
0.0
 11
39.8
 21
13.5984
 31
0.0
  0
LINE
  5
292
330
1A0
100
AcDbEntity
  8
0
100
AcDbLine
 10
38.1923
 20
15.70829999999999
 30
0.0
 11
39.8
 21
14.8571
 31
0.0
  0
LINE
  5
293
330
1A0
100
AcDbEntity
  8
0
100
AcDbLine
 10
38.788
 20
16.7698
 30
0.0
 11
40.548
 21
15.782
 31
0.0
  0
LINE
  5
294
330
1A0
100
AcDbEntity
  8
0
100
AcDbLine
 10
38.1923
 20
16.5178
 30
0.0
 11
38.6962469970197
 21
16.2367845849175
 31
0.0
  0
LINE
  5
295
330
1A0
100
AcDbEntity
  8
0
100
AcDbLine
 10
38.7846
 20
16.2108
 30
0.0
 11
40.4769
 21
15.2971
 31
0.0
  0
LINE
  5
296
330
1A0
100
AcDbEntity
  8
0
100
AcDbLine
 10
40.4769
 20
15.2971
 30
0.0
 11
41.5769
 21
14.2849
 31
0.0
  0
LINE
  5
297
330
1A0
100
AcDbEntity
  8
0
100
AcDbLine
 10
38.7846
 20
14.9521
 30
0.0
 11
40.4769
 21
14.0383
 31
0.0
  0
LINE
  5
298
330
1A0
100
AcDbEntity
  8
0
100
AcDbLine
 10
40.4769
 20
14.0383
 30
0.0
 11
41.5769
 21
13.0261
 31
0.0
  0
LINE
  5
299
330
1A0
100
AcDbEntity
  8
0
100
AcDbLine
 10
38.7846
 20
13.6934
 30
0.0
 11
40.4769
 21
12.7796
 31
0.0
  0
LINE
  5
29A
330
1A0
100
AcDbEntity
  8
0
100
AcDbLine
 10
40.4769
 20
12.7796
 30
0.0
 11
41.5769
 21
11.7673
 31
0.0
  0
LINE
  5
29B
330
1A0
100
AcDbEntity
  8
0
100
AcDbLine
 10
38.7846
 20
12.4346
 30
0.0
 11
40.4769
 21
11.52079999999999
 31
0.0
  0
LINE
  5
29C
330
1A0
100
AcDbEntity
  8
0
100
AcDbLine
 10
40.4769
 20
11.52079999999999
 30
0.0
 11
41.5769
 21
10.50859999999999
 31
0.0
  0
LINE
  5
29D
330
1A0
100
AcDbEntity
  8
0
100
AcDbLine
 10
38.7846
 20
11.1759
 30
0.0
 11
40.4769
 21
10.262
 31
0.0
  0
LINE
  5
29E
330
1A0
100
AcDbEntity
  8
0
100
AcDbLine
 10
41.76407812202369
 20
10.00928875579748
 30
0.0
 11
42.0
 21
10.6387
 31
0.0
  0
LINE
  5
29F
330
1A0
100
AcDbEntity
  8
0
100
AcDbLine
 10
40.81539999999999
 20
10.13139999999999
 30
0.0
 11
40.90161761292288
 21
9.87120574114199
 31
0.0
  0
LINE
  5
2A0
330
1A0
100
AcDbEntity
  8
0
100
AcDbLine
 10
40.548
 20
15.782
 30
0.0
 11
41.604
 21
14.6637
 31
0.0
  0
LINE
  5
2A1
330
1A0
100
AcDbEntity
  8
0
100
AcDbLine
 10
40.81539999999999
 20
13.9076
 30
0.0
 11
40.90158705602738
 21
13.6475106926264
 31
0.0
  0
LINE
  5
2A2
330
1A0
100
AcDbEntity
  8
0
100
AcDbLine
 10
41.5769
 20
14.2849
 30
0.0
 11
42.0
 21
13.1562
 31
0.0
  0
LINE
  5
2A3
330
1A0
100
AcDbEntity
  8
0
100
AcDbLine
 10
40.81539999999999
 20
12.6488
 30
0.0
 11
40.90156992664351
 21
12.38878784841708
 31
0.0
  0
LINE
  5
2A4
330
1A0
100
AcDbEntity
  8
0
100
AcDbLine
 10
41.5769
 20
13.0261
 30
0.0
 11
42.0
 21
11.8974
 31
0.0
  0
LINE
  5
2A5
330
1A0
100
AcDbEntity
  8
0
100
AcDbLine
 10
40.81539999999999
 20
11.3901
 30
0.0
 11
40.9015992000016
 21
11.12999951796218
 31
0.0
  0
LINE
  5
2A6
330
1A0
100
AcDbEntity
  8
0
100
AcDbLine
 10
41.604
 20
14.6637
 30
0.0
 11
42.0
 21
13.4708
 31
0.0
  0
LINE
  5
2A7
330
1A0
100
AcDbEntity
  8
0
100
AcDbLine
 10
42.0
 20
23.2328513513513
 30
0.0
 11
46.39999999999999
 21
25.07989999999999
 31
0.0
  0
LINE
  5
2A8
330
1A0
100
AcDbEntity
  8
0
100
AcDbLine
 10
46.39999999999999
 20
25.07989999999999
 30
0.0
 11
52.9
 21
29.99
 31
0.0
  0
LINE
  5
2A9
330
1A0
100
AcDbEntity
  8
0
100
AcDbLine
 10
42.0
 20
13.4708
 30
0.0
 11
42.0
 21
27.8004
 31
0.0
  0
LINE
  5
2AA
330
1A0
100
AcDbEntity
  8
0
100
AcDbLine
 10
41.9446083806712
 20
13.30396771622869
 30
0.0
 11
42.0
 21
13.4708
 31
0.0
  0
LINE
  5
2AB
330
1A0
100
AcDbEntity
  8
0
100
AcDbLine
 10
41.76406561530959
 20
12.5268
 30
0.0
 11
42.0
 21
13.1562
 31
0.0
  0
LINE
  5
2AC
330
1A0
100
AcDbEntity
  8
0
100
AcDbLine
 10
41.76407390687989
 20
11.26802211934609
 30
0.0
 11
42.0
 21
11.8974
 31
0.0
  0
LINE
  5
2AD
330
1A0
100
AcDbEntity
  8
0
100
AcDbLine
 10
41.5769
 20
11.7673
 30
0.0
 11
42.0
 21
10.6387
 31
0.0
  0
LINE
  5
2AE
330
1A0
100
AcDbEntity
  8
0
100
AcDbLine
 10
41.5769
 20
10.50859999999999
 30
0.0
 11
42.0
 21
9.379950000000009
 31
0.0
  0
LINE
  5
2AF
330
1A0
100
AcDbEntity
  8
0
100
AcDbLine
 10
40.4769
 20
10.262
 30
0.0
 11
41.5769
 21
9.249859999999998
 31
0.0
  0
LINE
  5
2B0
330
1A0
100
AcDbEntity
  8
0
100
AcDbLine
 10
38.7846
 20
9.917030000000007
 30
0.0
 11
40.4769
 21
9.00331
 31
0.0
  0
LINE
  5
2B1
330
1A0
100
AcDbEntity
  8
0
100
AcDbLine
 10
36.5
 20
9.330050000000008
 30
0.0
 11
38.7846
 21
8.6583
 31
0.0
  0
LINE
  5
2B2
330
1A0
100
AcDbEntity
  8
0
100
AcDbLine
 10
28.3769
 20
9.158899999999999
 30
0.0
 11
31.0
 21
9.320200000000008
 31
0.0
  0
LINE
  5
2B3
330
1A0
100
AcDbEntity
  8
0
100
AcDbLine
 10
28.1231
 20
9.760090000000008
 30
0.0
 11
31.0
 21
9.948249999999999
 31
0.0
  0
LINE
  5
2B4
330
1A0
100
AcDbEntity
  8
0
100
AcDbLine
 10
25.9231
 20
8.701769999999999
 30
0.0
 11
28.3769
 21
9.158899999999999
 31
0.0
  0
LINE
  5
2B5
330
1A0
100
AcDbEntity
  8
0
100
AcDbLine
 10
25.5
 20
9.27619000000001
 30
0.0
 11
28.1231
 21
9.760090000000008
 31
0.0
  0
LINE
  5
2B6
330
1A0
100
AcDbEntity
  8
0
100
AcDbLine
 10
23.80759999999999
 20
7.975830000000009
 30
0.0
 11
25.9231
 21
8.701769999999999
 31
0.0
  0
LINE
  5
2B7
330
1A0
100
AcDbEntity
  8
0
100
AcDbLine
 10
23.2154
 20
8.514419999999997
 30
0.0
 11
25.5
 21
9.27619000000001
 31
0.0
  0
LINE
  5
2B8
330
1A0
100
AcDbEntity
  8
0
100
AcDbLine
 10
22.2
 20
7.03481
 30
0.0
 11
23.80759999999999
 21
7.975830000000009
 31
0.0
  0
LINE
  5
2B9
330
1A0
100
AcDbEntity
  8
0
100
AcDbLine
 10
21.52309999999999
 20
7.492670000000009
 30
0.0
 11
23.2154
 21
8.514419999999997
 31
0.0
  0
LINE
  5
2BA
330
1A0
100
AcDbEntity
  8
0
100
AcDbLine
 10
21.1846
 20
5.905450000000008
 30
0.0
 11
22.2
 21
7.03481
 31
0.0
  0
LINE
  5
2BB
330
1A0
100
AcDbEntity
  8
0
100
AcDbLine
 10
20.4231
 20
6.282730000000008
 30
0.0
 11
21.52309999999999
 21
7.492670000000009
 31
0.0
  0
LINE
  5
2BC
330
1A0
100
AcDbEntity
  8
0
100
AcDbLine
 10
20.8461
 20
4.70436
 30
0.0
 11
21.1846
 21
5.905450000000008
 31
0.0
  0
LINE
  5
2BD
330
1A0
100
AcDbEntity
  8
0
100
AcDbLine
 10
20.8461
 20
4.70436
 30
0.0
 11
21.1846
 21
3.5034
 31
0.0
  0
LINE
  5
2BE
330
1A0
100
AcDbEntity
  8
0
100
AcDbLine
 10
20.0
 20
4.974179999999999
 30
0.0
 11
20.4231
 21
6.282730000000008
 31
0.0
  0
LINE
  5
2BF
330
1A0
100
AcDbEntity
  8
0
100
AcDbLine
 10
20.0
 20
4.974179999999999
 30
0.0
 11
20.4231
 21
3.665669999999999
 31
0.0
  0
LINE
  5
2C0
330
1A0
100
AcDbEntity
  8
0
100
AcDbLine
 10
20.0
 20
33.04339999999999
 30
0.0
 11
20.0
 21
37.82189999999999
 31
0.0
  0
LINE
  5
2C1
330
1A0
100
AcDbEntity
  8
0
100
AcDbLine
 10
20.0
 20
33.04339999999999
 30
0.0
 11
20.0
 21
27.8004
 31
0.0
  0
LINE
  5
2C2
330
1A0
100
AcDbEntity
  8
0
100
AcDbLine
 10
42.0
 20
33.04339999999999
 30
0.0
 11
42.0
 21
27.8004
 31
0.0
  0
LINE
  5
2C3
330
1A0
100
AcDbEntity
  8
0
100
AcDbLine
 10
42.0
 20
33.04339999999999
 30
0.0
 11
42.0
 21
37.82189999999999
 31
0.0
  0
LINE
  5
2C4
330
1A0
100
AcDbEntity
  8
0
100
AcDbLine
 10
57.8
 20
36.5036
 30
0.0
 11
60.89999999999999
 21
43.91899999999998
 31
0.0
  0
LINE
  5
2C5
330
1A0
100
AcDbEntity
  8
0
100
AcDbLine
 10
52.9
 20
29.99
 30
0.0
 11
57.8
 21
36.5036
 31
0.0
  0
LINE
  5
2C6
330
1A0
100
AcDbEntity
  8
0
100
AcDbLine
 10
42.0
 20
27.8004
 30
0.0
 11
42.0
 21
13.4708
 31
0.0
  0
LINE
  5
2C7
330
1A0
100
AcDbEntity
  8
0
100
AcDbLine
 10
42.0
 20
27.8004
 30
0.0
 11
42.0
 21
33.04339999999999
 31
0.0
  0
LINE
  5
2C8
330
1A0
100
AcDbEntity
  8
0
100
AcDbLine
 10
42.0
 20
37.82189999999999
 30
0.0
 11
42.0
 21
41.99589999999999
 31
0.0
  0
LINE
  5
2C9
330
1A0
100
AcDbEntity
  8
0
100
AcDbLine
 10
42.0
 20
37.82189999999999
 30
0.0
 11
42.0
 21
33.04339999999999
 31
0.0
  0
LINE
  5
2CA
330
1A0
100
AcDbEntity
  8
0
100
AcDbLine
 10
20.0
 20
27.8004
 30
0.0
 11
20.0
 21
13.4708
 31
0.0
  0
LINE
  5
2CB
330
1A0
100
AcDbEntity
  8
0
100
AcDbLine
 10
20.0
 20
27.8004
 30
0.0
 11
20.0
 21
33.04339999999999
 31
0.0
  0
LINE
  5
2CC
330
1A0
100
AcDbEntity
  8
0
100
AcDbLine
 10
60.89999999999999
 20
43.91899999999998
 30
0.0
 11
62.0
 21
51.9355
 31
0.0
  0
LINE
  5
2CD
330
1A0
100
AcDbEntity
  8
0
100
AcDbLine
 10
42.0
 20
41.99589999999999
 30
0.0
 11
42.0
 21
37.82189999999999
 31
0.0
  0
LINE
  5
2CE
330
1A0
100
AcDbEntity
  8
0
100
AcDbLine
 10
42.0
 20
41.99589999999999
 30
0.0
 11
42.0
 21
45.4915
 31
0.0
  0
LINE
  5
2CF
330
1A0
100
AcDbEntity
  8
0
100
AcDbLine
 10
20.0
 20
41.99589999999999
 30
0.0
 11
20.0
 21
37.82189999999999
 31
0.0
  0
LINE
  5
2D0
330
1A0
100
AcDbEntity
  8
0
100
AcDbLine
 10
20.0
 20
41.99589999999999
 30
0.0
 11
20.0
 21
45.4915
 31
0.0
  0
LINE
  5
2D1
330
1A0
100
AcDbEntity
  8
0
100
AcDbLine
 10
20.0
 20
37.82189999999999
 30
0.0
 11
20.0
 21
41.99589999999999
 31
0.0
  0
LINE
  5
2D2
330
1A0
100
AcDbEntity
  8
0
100
AcDbLine
 10
20.0
 20
37.82189999999999
 30
0.0
 11
20.0
 21
33.04339999999999
 31
0.0
  0
LINE
  5
2D3
330
1A0
100
AcDbEntity
  8
0
100
AcDbLine
 10
9.099999999999999
 20
29.99
 30
0.0
 11
15.6
 21
25.07989999999999
 31
0.0
  0
LINE
  5
2D4
330
1A0
100
AcDbEntity
  8
0
100
AcDbLine
 10
15.6
 20
25.07989999999999
 30
0.0
 11
20.0
 21
23.2328513513513
 31
0.0
  0
LINE
  5
2D5
330
1A0
100
AcDbEntity
  8
0
100
AcDbLine
 10
4.2
 20
36.5036
 30
0.0
 11
9.099999999999999
 21
29.99
 31
0.0
  0
LINE
  5
2D6
330
1A0
100
AcDbEntity
  8
0
100
AcDbLine
 10
1.1
 20
59.95219999999999
 30
0.0
 11
4.2
 21
67.3675
 31
0.0
  0
LINE
  5
2D7
330
1A0
100
AcDbEntity
  8
0
100
AcDbLine
 10
4.2
 20
67.3675
 30
0.0
 11
9.099999999999999
 21
73.88110000000001
 31
0.0
  0
LINE
  5
2D8
330
1A0
100
AcDbEntity
  8
0
100
AcDbLine
 10
1.1
 20
59.95219999999999
 30
0.0
 11
4.2
 21
67.3675
 31
0.0
  0
LINE
  5
2D9
330
1A0
100
AcDbEntity
  8
0
100
AcDbLine
 10
20.0
 20
51.52409999999999
 30
0.0
 11
20.0
 21
50.29659999999999
 31
0.0
  0
LINE
  5
2DA
330
1A0
100
AcDbEntity
  8
0
100
AcDbLine
 10
20.0
 20
51.52409999999999
 30
0.0
 11
20.0
 21
51.9355
 31
0.0
  0
LINE
  5
2DB
330
1A0
100
AcDbEntity
  8
0
100
AcDbLine
 10
20.0
 20
50.29659999999999
 30
0.0
 11
20.0
 21
48.2742
 31
0.0
  0
LINE
  5
2DC
330
1A0
100
AcDbEntity
  8
0
100
AcDbLine
 10
20.0
 20
50.29659999999999
 30
0.0
 11
20.0
 21
51.52409999999999
 31
0.0
  0
LINE
  5
2DD
330
1A0
100
AcDbEntity
  8
0
100
AcDbLine
 10
20.0
 20
48.2742
 30
0.0
 11
20.0
 21
45.4915
 31
0.0
  0
LINE
  5
2DE
330
1A0
100
AcDbEntity
  8
0
100
AcDbLine
 10
20.0
 20
48.2742
 30
0.0
 11
20.0
 21
50.29659999999999
 31
0.0
  0
LINE
  5
2DF
330
1A0
100
AcDbEntity
  8
0
100
AcDbLine
 10
20.0
 20
45.4915
 30
0.0
 11
20.0
 21
48.2742
 31
0.0
  0
LINE
  5
2E0
330
1A0
100
AcDbEntity
  8
0
100
AcDbLine
 10
20.0
 20
45.4915
 30
0.0
 11
20.0
 21
41.99589999999999
 31
0.0
  0
LINE
  5
2E1
330
1A0
100
AcDbEntity
  8
0
100
AcDbLine
 10
21.45199999999999
 20
57.4029
 30
0.0
 11
23.212
 21
59.7398
 31
0.0
  0
LINE
  5
2E2
330
1A0
100
AcDbEntity
  8
0
100
AcDbLine
 10
20.396
 20
54.7575
 30
0.0
 11
21.45199999999999
 21
57.4029
 31
0.0
  0
LINE
  5
2E3
330
1A0
100
AcDbEntity
  8
0
100
AcDbLine
 10
20.0
 20
51.9355
 30
0.0
 11
20.396
 21
54.7575
 31
0.0
  0
LINE
  5
2E4
330
1A0
100
AcDbEntity
  8
0
100
AcDbLine
 10
20.0
 20
51.9355
 30
0.0
 11
20.0
 21
51.52409999999999
 31
0.0
  0
LINE
  5
2E5
330
1A0
100
AcDbEntity
  8
0
100
AcDbLine
 10
9.099999999999999
 20
73.88110000000001
 30
0.0
 11
15.6
 21
78.7913
 31
0.0
  0
LINE
  5
2E6
330
1A0
100
AcDbEntity
  8
0
100
AcDbLine
 10
15.6
 20
78.7913
 30
0.0
 11
23.0
 21
81.89770000000001
 31
0.0
  0
LINE
  5
2E7
330
1A0
100
AcDbEntity
  8
0
100
AcDbLine
 10
42.0
 20
50.29659999999999
 30
0.0
 11
42.0
 21
48.2742
 31
0.0
  0
LINE
  5
2E8
330
1A0
100
AcDbEntity
  8
0
100
AcDbLine
 10
42.0
 20
50.29659999999999
 30
0.0
 11
42.0
 21
51.52409999999999
 31
0.0
  0
LINE
  5
2E9
330
1A0
100
AcDbEntity
  8
0
100
AcDbLine
 10
42.0
 20
48.2742
 30
0.0
 11
42.0
 21
45.4915
 31
0.0
  0
LINE
  5
2EA
330
1A0
100
AcDbEntity
  8
0
100
AcDbLine
 10
42.0
 20
48.2742
 30
0.0
 11
42.0
 21
50.29659999999999
 31
0.0
  0
LINE
  5
2EB
330
1A0
100
AcDbEntity
  8
0
100
AcDbLine
 10
42.0
 20
51.9355
 30
0.0
 11
42.0
 21
51.52409999999999
 31
0.0
  0
LINE
  5
2EC
330
1A0
100
AcDbEntity
  8
0
100
AcDbLine
 10
42.0
 20
51.52409999999999
 30
0.0
 11
42.0
 21
51.9355
 31
0.0
  0
LINE
  5
2ED
330
1A0
100
AcDbEntity
  8
0
100
AcDbLine
 10
42.0
 20
51.52409999999999
 30
0.0
 11
42.0
 21
50.29659999999999
 31
0.0
  0
LINE
  5
2EE
330
1A0
100
AcDbEntity
  8
0
100
AcDbLine
 10
41.604
 20
54.7575
 30
0.0
 11
42.0
 21
51.9355
 31
0.0
  0
LINE
  5
2EF
330
1A0
100
AcDbEntity
  8
0
100
AcDbLine
 10
38.788
 20
59.7398
 30
0.0
 11
40.548
 21
57.4029
 31
0.0
  0
LINE
  5
2F0
330
1A0
100
AcDbEntity
  8
0
100
AcDbLine
 10
40.548
 20
57.4029
 30
0.0
 11
41.604
 21
54.7575
 31
0.0
  0
LINE
  5
2F1
330
1A0
100
AcDbEntity
  8
0
100
AcDbLine
 10
42.0
 20
45.4915
 30
0.0
 11
42.0
 21
41.99589999999999
 31
0.0
  0
LINE
  5
2F2
330
1A0
100
AcDbEntity
  8
0
100
AcDbLine
 10
42.0
 20
45.4915
 30
0.0
 11
42.0
 21
48.2742
 31
0.0
  0
LINE
  5
2F3
330
1A0
100
AcDbEntity
  8
0
100
AcDbLine
 10
60.89999999999999
 20
59.95219999999999
 30
0.0
 11
62.0
 21
51.9355
 31
0.0
  0
LINE
  5
2F4
330
1A0
100
AcDbEntity
  8
0
100
AcDbLine
 10
36.45599999999999
 20
61.50339999999999
 30
0.0
 11
38.788
 21
59.7398
 31
0.0
  0
LINE
  5
2F5
330
1A0
100
AcDbEntity
  8
0
100
AcDbLine
 10
33.816
 20
62.5616
 30
0.0
 11
36.45599999999999
 21
61.50339999999999
 31
0.0
  0
LINE
  5
2F6
330
1A0
100
AcDbEntity
  8
0
100
AcDbLine
 10
31.0
 20
83.0
 30
0.0
 11
39.0
 21
81.89770000000001
 31
0.0
  0
LINE
  5
2F7
330
1A0
100
AcDbEntity
  8
0
100
AcDbLine
 10
57.8
 20
67.3675
 30
0.0
 11
60.89999999999999
 21
59.95219999999999
 31
0.0
  0
LINE
  5
2F8
330
1A0
100
AcDbEntity
  8
0
100
AcDbLine
 10
52.9
 20
73.88110000000001
 30
0.0
 11
57.8
 21
67.3675
 31
0.0
  0
LINE
  5
2F9
330
1A0
100
AcDbEntity
  8
0
100
AcDbLine
 10
39.0
 20
81.89770000000001
 30
0.0
 11
46.39999999999999
 21
78.7913
 31
0.0
  0
LINE
  5
2FA
330
1A0
100
AcDbEntity
  8
0
100
AcDbLine
 10
46.39999999999999
 20
78.7913
 30
0.0
 11
52.9
 21
73.88110000000001
 31
0.0
  0
LINE
  5
2FB
330
1A0
100
AcDbEntity
  8
0
100
AcDbLine
 10
31.0
 20
62.9585
 30
0.0
 11
33.816
 21
62.5616
 31
0.0
  0
LINE
  5
2FC
330
1A0
100
AcDbEntity
  8
0
100
AcDbLine
 10
28.184
 20
62.5616
 30
0.0
 11
31.0
 21
62.9585
 31
0.0
  0
LINE
  5
2FD
330
1A0
100
AcDbEntity
  8
0
100
AcDbLine
 10
25.544
 20
61.50339999999999
 30
0.0
 11
28.184
 21
62.5616
 31
0.0
  0
LINE
  5
2FE
330
1A0
100
AcDbEntity
  8
0
100
AcDbLine
 10
23.212
 20
59.7398
 30
0.0
 11
25.544
 21
61.50339999999999
 31
0.0
  0
LINE
  5
2FF
330
1A0
100
AcDbEntity
  8
0
100
AcDbLine
 10
23.0
 20
81.89770000000001
 30
0.0
 11
31.0
 21
83.0
 31
0.0
  0
LINE
  5
300
330
1A0
100
AcDbEntity
  8
0
100
AcDbLine
 10
1.1
 20
43.91899999999998
 30
0.0
 11
4.2
 21
36.5036
 31
0.0
  0
LINE
  5
301
330
1A0
100
AcDbEntity
  8
0
100
AcDbLine
 10
0.0000000000000009
 20
51.9355
 30
0.0
 11
1.1
 21
43.91899999999998
 31
0.0
  0
LINE
  5
302
330
1A0
100
AcDbEntity
  8
0
100
AcDbLine
 10
0.0000000000000009
 20
51.9355
 30
0.0
 11
1.1
 21
59.95219999999999
 31
0.0
  0
ENDSEC
  0
SECTION
  2
OBJECTS
  0
DICTIONARY
  5
18E
330
0
100
AcDbDictionary
  3
ACAD_GROUP
350
18F
  3
ACAD_LAYOUT
350
19B
  3
ACAD_MLINESTYLE
350
198
  3
ACAD_PLOTSETTINGS
350
19A
  3
ACAD_PLOTSTYLENAME
350
190
  3
ACDBHEADERROUNDTRIPXREC
350
307
  3
ACDBVARIABLEDICTIONARY
350
304
  0
DICTIONARY
  5
329
330
1A0
100
AcDbDictionary
280
     1
  3
ACAD_LAYOUTSELFREF
360
32A
  0
DICTIONARY
  5
327
330
19C
100
AcDbDictionary
280
     1
  3
ACAD_LAYOUTSELFREF
360
328
  0
DICTIONARY
  5
18F
102
{ACAD_REACTORS
330
18E
102
}
330
18E
100
AcDbDictionary
  0
DICTIONARY
  5
19B
102
{ACAD_REACTORS
330
18E
102
}
330
18E
100
AcDbDictionary
  0
DICTIONARY
  5
198
102
{ACAD_REACTORS
330
18E
102
}
330
18E
100
AcDbDictionary
  3
STANDARD
350
199
  0
DICTIONARY
  5
19A
102
{ACAD_REACTORS
330
18E
102
}
330
18E
100
AcDbDictionary
  0
ACDBDICTIONARYWDFLT
  5
190
102
{ACAD_REACTORS
330
18E
102
}
330
18E
100
AcDbDictionary
281
     1
  3
Normal
350
191
100
AcDbDictionaryWithDefault
340
191
  0
DICTIONARY
  5
307
102
{ACAD_REACTORS
330
18E
102
}
330
18E
100
AcDbDictionary
  3
CEPSNTYPE
350
311
  3
FINGERPRINTGUID
350
312
  3
HYPERLINKBASE
350
30A
  3
INSUNITS
350
310
  3
LAYOUTDICT
350
30C
  3
LWETCUNION
350
30F
  3
PLOTSETDICT
350
30D
  3
PLOTSTYLNAMDICT
350
30E
  3
PSVPSCALE
350
314
  3
PUCSBASE
350
317
  3
PUCSORGBACK
350
31D
  3
PUCSORGBOTTOM
350
319
  3
PUCSORGFRONT
350
31C
  3
PUCSORGLEFT
350
31A
  3
PUCSORGRIGHT
350
31B
  3
PUCSORGTOP
350
318
  3
PUCSORTHOREF
350
315
  3
PUCSORTHOVIEW
350
316
  3
STYLESHEET
350
30B
  3
TSTACKALIGN
350
308
  3
TSTACKSIZE
350
309
  3
UCSBASE
350
320
  3
UCSORGBACK
350
326
  3
UCSORGBOTTOM
350
322
  3
UCSORGFRONT
350
325
  3
UCSORGLEFT
350
323
  3
UCSORGRIGHT
350
324
  3
UCSORGTOP
350
321
  3
UCSORTHOREF
350
31E
  3
UCSORTHOVIEW
350
31F
  3
VERSIONGUID
350
313
  0
DICTIONARY
  5
304
102
{ACAD_REACTORS
330
18E
102
}
330
18E
100
AcDbDictionary
  3
DIMASSOC
350
305
  0
XRECORD
  5
32A
102
{ACAD_REACTORS
330
329
102
}
330
329
100
AcDbXrecord
340
1A0
  0
XRECORD
  5
328
102
{ACAD_REACTORS
330
327
102
}
330
327
100
AcDbXrecord
340
19C
  0
MLINESTYLE
  5
199
102
{ACAD_REACTORS
330
198
102
}
330
198
100
AcDbMlineStyle
  2
STANDARD
 70
     0
  3

 62
   256
 51
90.0
 52
90.0
 71
     2
 49
0.5
 62
   256
  6
BYLAYER
 49
-0.5
 62
   256
  6
BYLAYER
  0
ACDBPLACEHOLDER
  5
191
102
{ACAD_REACTORS
330
190
102
}
330
190
100
AcDbPlaceHolder
280
     0
  0
XRECORD
  5
311
102
{ACAD_REACTORS
330
307
102
}
330
307
100
AcDbXrecord
 90
        0
  0
XRECORD
  5
312
102
{ACAD_REACTORS
330
307
102
}
330
307
100
AcDbXrecord
  1
{B3EBC7A4-323A-4BD1-B68B-030E847E096B}
  0
XRECORD
  5
30A
102
{ACAD_REACTORS
330
307
102
}
330
307
100
AcDbXrecord
  1

  0
XRECORD
  5
310
102
{ACAD_REACTORS
330
307
102
}
330
307
100
AcDbXrecord
 90
        0
  0
XRECORD
  5
30C
102
{ACAD_REACTORS
330
307
102
}
330
307
100
AcDbXrecord
340
19B
  0
XRECORD
  5
30F
102
{ACAD_REACTORS
330
307
102
}
330
307
100
AcDbXrecord
 90
    10781
  0
XRECORD
  5
30D
102
{ACAD_REACTORS
330
307
102
}
330
307
100
AcDbXrecord
340
19A
  0
XRECORD
  5
30E
102
{ACAD_REACTORS
330
307
102
}
330
307
100
AcDbXrecord
340
190
  0
XRECORD
  5
314
102
{ACAD_REACTORS
330
307
102
}
330
307
100
AcDbXrecord
 40
0.0
  0
XRECORD
  5
317
102
{ACAD_REACTORS
330
307
102
}
330
307
100
AcDbXrecord
340
0
  0
XRECORD
  5
31D
102
{ACAD_REACTORS
330
307
102
}
330
307
100
AcDbXrecord
 10
0.0
 20
0.0
 30
0.0
  0
XRECORD
  5
319
102
{ACAD_REACTORS
330
307
102
}
330
307
100
AcDbXrecord
 10
0.0
 20
0.0
 30
0.0
  0
XRECORD
  5
31C
102
{ACAD_REACTORS
330
307
102
}
330
307
100
AcDbXrecord
 10
0.0
 20
0.0
 30
0.0
  0
XRECORD
  5
31A
102
{ACAD_REACTORS
330
307
102
}
330
307
100
AcDbXrecord
 10
0.0
 20
0.0
 30
0.0
  0
XRECORD
  5
31B
102
{ACAD_REACTORS
330
307
102
}
330
307
100
AcDbXrecord
 10
0.0
 20
0.0
 30
0.0
  0
XRECORD
  5
318
102
{ACAD_REACTORS
330
307
102
}
330
307
100
AcDbXrecord
 10
0.0
 20
0.0
 30
0.0
  0
XRECORD
  5
315
102
{ACAD_REACTORS
330
307
102
}
330
307
100
AcDbXrecord
340
0
  0
XRECORD
  5
316
102
{ACAD_REACTORS
330
307
102
}
330
307
100
AcDbXrecord
 70
     0
  0
XRECORD
  5
30B
102
{ACAD_REACTORS
330
307
102
}
330
307
100
AcDbXrecord
  1

  0
XRECORD
  5
308
102
{ACAD_REACTORS
330
307
102
}
330
307
100
AcDbXrecord
 90
        1
  0
XRECORD
  5
309
102
{ACAD_REACTORS
330
307
102
}
330
307
100
AcDbXrecord
 90
       70
  0
XRECORD
  5
320
102
{ACAD_REACTORS
330
307
102
}
330
307
100
AcDbXrecord
340
0
  0
XRECORD
  5
326
102
{ACAD_REACTORS
330
307
102
}
330
307
100
AcDbXrecord
 10
0.0
 20
0.0
 30
0.0
  0
XRECORD
  5
322
102
{ACAD_REACTORS
330
307
102
}
330
307
100
AcDbXrecord
 10
0.0
 20
0.0
 30
0.0
  0
XRECORD
  5
325
102
{ACAD_REACTORS
330
307
102
}
330
307
100
AcDbXrecord
 10
0.0
 20
0.0
 30
0.0
  0
XRECORD
  5
323
102
{ACAD_REACTORS
330
307
102
}
330
307
100
AcDbXrecord
 10
0.0
 20
0.0
 30
0.0
  0
XRECORD
  5
324
102
{ACAD_REACTORS
330
307
102
}
330
307
100
AcDbXrecord
 10
0.0
 20
0.0
 30
0.0
  0
XRECORD
  5
321
102
{ACAD_REACTORS
330
307
102
}
330
307
100
AcDbXrecord
 10
0.0
 20
0.0
 30
0.0
  0
XRECORD
  5
31E
102
{ACAD_REACTORS
330
307
102
}
330
307
100
AcDbXrecord
340
0
  0
XRECORD
  5
31F
102
{ACAD_REACTORS
330
307
102
}
330
307
100
AcDbXrecord
 70
     0
  0
XRECORD
  5
313
102
{ACAD_REACTORS
330
307
102
}
330
307
100
AcDbXrecord
  1
{F8BAA3A9-55A7-4D97-8773-F0AB0D817AA9}
  0
DICTIONARYVAR
  5
305
102
{ACAD_REACTORS
330
304
102
}
330
304
100
DictionaryVariables
280
     0
  1
1
  0
ENDSEC
  0
EOF
