  0
SECTION
  2
HEADER
  9
$ACADVER
  1
AC1015
  9
$ACADMAINTVER
 70
     6
  9
$DWGCODEPAGE
  3
ANSI_1252
  9
$INSBASE
 10
0.0
 20
0.0
 30
0.0
  9
$EXTMIN
 10
0.07205
 20
0.25
 30
0.0
  9
$EXTMAX
 10
239.92795
 20
91.75
 30
0.0
  9
$LIMMIN
 10
0.0
 20
0.0
  9
$LIMMAX
 10
12.0
 20
9.0
  9
$ORTHOMODE
 70
     0
  9
$REGENMODE
 70
     1
  9
$FILLMODE
 70
     1
  9
$QTEXTMODE
 70
     0
  9
$MIRRTEXT
 70
     1
  9
$LTSCALE
 40
1.0
  9
$ATTMODE
 70
     1
  9
$TEXTSIZE
 40
0.2
  9
$TRACEWID
 40
0.05
  9
$TEXTSTYLE
  7
Standard
  9
$CLAYER
  8
0
  9
$CELTYPE
  6
ByBlock
  9
$CECOLOR
 62
   256
  9
$CELTSCALE
 40
1.0
  9
$DISPSILH
 70
     0
  9
$DIMSCALE
 40
1.0
  9
$DIMASZ
 40
0.18
  9
$DIMEXO
 40
0.0625
  9
$DIMDLI
 40
0.38
  9
$DIMRND
 40
0.0
  9
$DIMDLE
 40
0.0
  9
$DIMEXE
 40
0.18
  9
$DIMTP
 40
0.0
  9
$DIMTM
 40
0.0
  9
$DIMTXT
 40
0.18
  9
$DIMCEN
 40
0.09
  9
$DIMTSZ
 40
0.0
  9
$DIMTOL
 70
     0
  9
$DIMLIM
 70
     0
  9
$DIMTIH
 70
     1
  9
$DIMTOH
 70
     1
  9
$DIMSE1
 70
     0
  9
$DIMSE2
 70
     0
  9
$DIMTAD
 70
     0
  9
$DIMZIN
 70
     0
  9
$DIMBLK
  1

  9
$DIMASO
 70
     1
  9
$DIMSHO
 70
     1
  9
$DIMPOST
  1

  9
$DIMAPOST
  1

  9
$DIMALT
 70
     0
  9
$DIMALTD
 70
     2
  9
$DIMALTF
 40
25.4
  9
$DIMLFAC
 40
1.0
  9
$DIMTOFL
 70
     0
  9
$DIMTVP
 40
0.0
  9
$DIMTIX
 70
     0
  9
$DIMSOXD
 70
     0
  9
$DIMSAH
 70
     0
  9
$DIMBLK1
  1

  9
$DIMBLK2
  1

  9
$DIMSTYLE
  2
Standard
  9
$DIMCLRD
 70
     0
  9
$DIMCLRE
 70
     0
  9
$DIMCLRT
 70
     0
  9
$DIMTFAC
 40
1.0
  9
$DIMGAP
 40
0.09
  9
$DIMJUST
 70
     0
  9
$DIMSD1
 70
     0
  9
$DIMSD2
 70
     0
  9
$DIMTOLJ
 70
     1
  9
$DIMTZIN
 70
     0
  9
$DIMALTZ
 70
     0
  9
$DIMALTTZ
 70
     0
  9
$DIMUPT
 70
     0
  9
$DIMDEC
 70
     4
  9
$DIMTDEC
 70
     4
  9
$DIMALTU
 70
     2
  9
$DIMALTTD
 70
     2
  9
$DIMTXSTY
  7
Standard
  9
$DIMAUNIT
 70
     0
  9
$DIMADEC
 70
     0
  9
$DIMALTRND
 40
0.0
  9
$DIMAZIN
 70
     0
  9
$DIMDSEP
 70
    46
  9
$DIMATFIT
 70
     3
  9
$DIMFRAC
 70
     0
  9
$DIMLDRBLK
  1

  9
$DIMLUNIT
 70
     2
  9
$DIMLWD
 70
    -2
  9
$DIMLWE
 70
    -2
  9
$DIMTMOVE
 70
     2
  9
$LUNITS
 70
     2
  9
$LUPREC
 70
     4
  9
$SKETCHINC
 40
0.1
  9
$FILLETRAD
 40
0.5
  9
$AUNITS
 70
     0
  9
$AUPREC
 70
     0
  9
$MENU
  1
.
  9
$ELEVATION
 40
0.0
  9
$PELEVATION
 40
0.0
  9
$THICKNESS
 40
0.0
  9
$LIMCHECK
 70
     0
  9
$CHAMFERA
 40
0.5
  9
$CHAMFERB
 40
0.5
  9
$CHAMFERC
 40
1.0
  9
$CHAMFERD
 40
0.0
  9
$SKPOLY
 70
     0
  9
$TDCREATE
 40
2456184.618417674
  9
$TDUCREATE
 40
2456184.53508434
  9
$TDUPDATE
 40
2456184.628187639
  9
$TDUUPDATE
 40
2456184.544854306
  9
$TDINDWG
 40
0.0097697917
  9
$TDUSRTIMER
 40
0.0097697917
  9
$USRTIMER
 70
     1
  9
$ANGBASE
 50
0.0
  9
$ANGDIR
 70
     0
  9
$PDMODE
 70
     0
  9
$PDSIZE
 40
0.0
  9
$PLINEWID
 40
0.0
  9
$SPLFRAME
 70
     0
  9
$SPLINETYPE
 70
     6
  9
$SPLINESEGS
 70
     8
  9
$HANDSEED
  5
5E0
  9
$SURFTAB1
 70
     6
  9
$SURFTAB2
 70
     6
  9
$SURFTYPE
 70
     6
  9
$SURFU
 70
     6
  9
$SURFV
 70
     6
  9
$UCSBASE
  2

  9
$UCSNAME
  2

  9
$UCSORG
 10
0.0
 20
0.0
 30
0.0
  9
$UCSXDIR
 10
1.0
 20
0.0
 30
0.0
  9
$UCSYDIR
 10
0.0
 20
1.0
 30
0.0
  9
$UCSORTHOREF
  2

  9
$UCSORTHOVIEW
 70
     0
  9
$UCSORGTOP
 10
0.0
 20
0.0
 30
0.0
  9
$UCSORGBOTTOM
 10
0.0
 20
0.0
 30
0.0
  9
$UCSORGLEFT
 10
0.0
 20
0.0
 30
0.0
  9
$UCSORGRIGHT
 10
0.0
 20
0.0
 30
0.0
  9
$UCSORGFRONT
 10
0.0
 20
0.0
 30
0.0
  9
$UCSORGBACK
 10
0.0
 20
0.0
 30
0.0
  9
$PUCSBASE
  2

  9
$PUCSNAME
  2

  9
$PUCSORG
 10
0.0
 20
0.0
 30
0.0
  9
$PUCSXDIR
 10
1.0
 20
0.0
 30
0.0
  9
$PUCSYDIR
 10
0.0
 20
1.0
 30
0.0
  9
$PUCSORTHOREF
  2

  9
$PUCSORTHOVIEW
 70
     0
  9
$PUCSORGTOP
 10
0.0
 20
0.0
 30
0.0
  9
$PUCSORGBOTTOM
 10
0.0
 20
0.0
 30
0.0
  9
$PUCSORGLEFT
 10
0.0
 20
0.0
 30
0.0
  9
$PUCSORGRIGHT
 10
0.0
 20
0.0
 30
0.0
  9
$PUCSORGFRONT
 10
0.0
 20
0.0
 30
0.0
  9
$PUCSORGBACK
 10
0.0
 20
0.0
 30
0.0
  9
$USERI1
 70
     0
  9
$USERI2
 70
     0
  9
$USERI3
 70
     0
  9
$USERI4
 70
     0
  9
$USERI5
 70
     0
  9
$USERR1
 40
0.0
  9
$USERR2
 40
0.0
  9
$USERR3
 40
0.0
  9
$USERR4
 40
0.0
  9
$USERR5
 40
0.0
  9
$WORLDVIEW
 70
     1
  9
$SHADEDGE
 70
     3
  9
$SHADEDIF
 70
    70
  9
$TILEMODE
 70
     1
  9
$MAXACTVP
 70
    64
  9
$PINSBASE
 10
0.0
 20
0.0
 30
0.0
  9
$PLIMCHECK
 70
     0
  9
$PEXTMIN
 10
1.000000000000E+20
 20
1.000000000000E+20
 30
1.000000000000E+20
  9
$PEXTMAX
 10
-1.000000000000E+20
 20
-1.000000000000E+20
 30
-1.000000000000E+20
  9
$PLIMMIN
 10
0.0
 20
0.0
  9
$PLIMMAX
 10
12.0
 20
9.0
  9
$UNITMODE
 70
     0
  9
$VISRETAIN
 70
     1
  9
$PLINEGEN
 70
     0
  9
$PSLTSCALE
 70
     1
  9
$TREEDEPTH
 70
  3020
  9
$CMLSTYLE
  2
Standard
  9
$CMLJUST
 70
     0
  9
$CMLSCALE
 40
1.0
  9
$PROXYGRAPHICS
 70
     1
  9
$MEASUREMENT
 70
     0
  9
$CELWEIGHT
370
    -1
  9
$ENDCAPS
280
     0
  9
$JOINSTYLE
280
     0
  9
$LWDISPLAY
290
     0
  9
$INSUNITS
 70
     0
  9
$HYPERLINKBASE
  1

  9
$STYLESHEET
  1

  9
$XEDIT
290
     1
  9
$CEPSNTYPE
380
     0
  9
$PSTYLEMODE
290
     1
  9
$FINGERPRINTGUID
  2
{CEF475A5-30C6-406F-8CA8-DB3A453382D3}
  9
$VERSIONGUID
  2
{FAEB1C32-E019-11D5-929B-00C0DF256EC4}
  9
$EXTNAMES
290
     1
  9
$PSVPSCALE
 40
0.0
  9
$OLESTARTUP
290
     0
  0
ENDSEC
  0
SECTION
  2
CLASSES
  0
CLASS
  1
ACDBDICTIONARYWDFLT
  2
AcDbDictionaryWithDefault
  3
ObjectDBX Classes
 90
        0
280
     0
281
     0
  0
CLASS
  1
SCALE
  2
AcDbScale
  3
ObjectDBX Classes
 90
     1153
280
     0
281
     0
  0
CLASS
  1
DICTIONARYVAR
  2
AcDbDictionaryVar
  3
ObjectDBX Classes
 90
        0
280
     0
281
     0
  0
CLASS
  1
ACDBPLACEHOLDER
  2
AcDbPlaceHolder
  3
ObjectDBX Classes
 90
        0
280
     0
281
     0
  0
CLASS
  1
LAYOUT
  2
AcDbLayout
  3
ObjectDBX Classes
 90
        0
280
     0
281
     0
  0
ENDSEC
  0
SECTION
  2
TABLES
  0
TABLE
  2
VPORT
  5
8
330
0
100
AcDbSymbolTable
 70
     1
  0
VPORT
  5
5AD
330
8
100
AcDbSymbolTableRecord
100
AcDbViewportTableRecord
  2
*Active
 70
     0
 10
0.0
 20
0.0
 11
1.0
 21
1.0
 12
119.963975
 22
45.875
 13
0.0
 23
0.0
 14
0.5
 24
0.5
 15
0.5
 25
0.5
 16
0.0
 26
0.0
 36
1.0
 17
0.0
 27
0.0
 37
0.0
 40
131.329917857143
 41
1.863448275862
 42
50.0
 43
0.0
 44
0.0
 50
0.0
 51
0.0
 71
    16
 72
   100
 73
     1
 74
     3
 75
     0
 76
     0
 77
     0
 78
     0
281
     0
 65
     1
110
0.0
120
0.0
130
0.0
111
1.0
121
0.0
131
0.0
112
0.0
122
1.0
132
0.0
 79
     0
146
0.0
  0
ENDTAB
  0
TABLE
  2
LTYPE
  5
5
330
0
100
AcDbSymbolTable
 70
     1
  0
LTYPE
  5
14
330
5
100
AcDbSymbolTableRecord
100
AcDbLinetypeTableRecord
  2
ByBlock
 70
     0
  3

 72
    65
 73
     0
 40
0.0
  0
LTYPE
  5
15
330
5
100
AcDbSymbolTableRecord
100
AcDbLinetypeTableRecord
  2
ByLayer
 70
     0
  3

 72
    65
 73
     0
 40
0.0
  0
LTYPE
  5
16
330
5
100
AcDbSymbolTableRecord
100
AcDbLinetypeTableRecord
  2
Continuous
 70
     0
  3
Solid line
 72
    65
 73
     0
 40
0.0
  0
ENDTAB
  0
TABLE
  2
LAYER
  5
2
330
0
100
AcDbSymbolTable
 70
     1
  0
LAYER
  5
10
330
2
100
AcDbSymbolTableRecord
100
AcDbLayerTableRecord
  2
0
 70
     0
 62
     7
  6
Continuous
370
    -3
390
F
  0
ENDTAB
  0
TABLE
  2
STYLE
  5
3
330
0
100
AcDbSymbolTable
 70
     1
  0
STYLE
  5
11
330
3
100
AcDbSymbolTableRecord
100
AcDbTextStyleTableRecord
  2
Standard
 70
     0
 40
0.0
 41
1.0
 50
0.0
 71
     0
 42
0.2
  3
txt
  4

  0
ENDTAB
  0
TABLE
  2
VIEW
  5
6
330
0
100
AcDbSymbolTable
 70
     0
  0
ENDTAB
  0
TABLE
  2
UCS
  5
7
330
0
100
AcDbSymbolTable
 70
     0
  0
ENDTAB
  0
TABLE
  2
APPID
  5
9
330
0
100
AcDbSymbolTable
 70
     1
  0
APPID
  5
12
330
9
100
AcDbSymbolTableRecord
100
AcDbRegAppTableRecord
  2
ACAD
 70
     0
  0
ENDTAB
  0
TABLE
  2
DIMSTYLE
  5
A
330
0
100
AcDbSymbolTable
 70
     1
100
AcDbDimStyleTable
  0
DIMSTYLE
105
20
330
A
100
AcDbSymbolTableRecord
100
AcDbDimStyleTableRecord
  2
Standard
 70
     0
340
11
  0
ENDTAB
  0
TABLE
  2
BLOCK_RECORD
  5
1
330
0
100
AcDbSymbolTable
 70
     0
  0
BLOCK_RECORD
  5
1D
330
1
100
AcDbSymbolTableRecord
100
AcDbBlockTableRecord
  2
*Model_Space
340
1E
  0
BLOCK_RECORD
  5
1B
330
1
100
AcDbSymbolTableRecord
100
AcDbBlockTableRecord
  2
*Paper_Space
340
1C
  0
ENDTAB
  0
ENDSEC
  0
SECTION
  2
BLOCKS
  0
BLOCK
  5
5B0
330
1D
100
AcDbEntity
  8
0
100
AcDbBlockBegin
  2
*Model_Space
 70
     0
 10
0.0
 20
0.0
 30
0.0
  3
*Model_Space
  1
*Model_Space
  0
ENDBLK
  5
5B1
330
1D
100
AcDbEntity
  8
0
100
AcDbBlockEnd
  0
BLOCK
  5
5AE
330
1B
100
AcDbEntity
 67
     1
  8
0
100
AcDbBlockBegin
  2
*Paper_Space
 70
     0
 10
0.0
 20
0.0
 30
0.0
  3
*Paper_Space
  1
*Paper_Space
  0
ENDBLK
  5
5AF
330
1B
100
AcDbEntity
 67
     1
  8
0
100
AcDbBlockEnd
  0
ENDSEC
  0
SECTION
  2
ENTITIES
  0
LINE
  5
21
330
1D
100
AcDbEntity
  8
0
100
AcDbLine
 10
8.23275
 20
20.34752
 30
0.0
 11
10.80845
 21
19.94495
 31
0.0
  0
LINE
  5
22
330
1D
100
AcDbEntity
  8
0
100
AcDbLine
 10
10.80845
 20
19.94495
 30
0.0
 11
16.17475
 21
19.47935
 31
0.0
  0
LINE
  5
23
330
1D
100
AcDbEntity
  8
0
100
AcDbLine
 10
16.17475
 20
19.47935
 30
0.0
 11
23.83525
 21
19.00886
 31
0.0
  0
LINE
  5
24
330
1D
100
AcDbEntity
  8
0
100
AcDbLine
 10
23.83525
 20
19.00886
 30
0.0
 11
35.49285
 21
18.52716
 31
0.0
  0
LINE
  5
25
330
1D
100
AcDbEntity
  8
0
100
AcDbLine
 10
35.49285
 20
18.52716
 30
0.0
 11
85.58175
 21
9.66995
 31
0.0
  0
LINE
  5
26
330
1D
100
AcDbEntity
  8
0
100
AcDbLine
 10
5.14265
 20
20.95431
 30
0.0
 11
8.23275
 21
20.34752
 31
0.0
  0
LINE
  5
27
330
1D
100
AcDbEntity
  8
0
100
AcDbLine
 10
2.65535
 20
22.7595
 30
0.0
 11
5.14265
 21
20.95431
 31
0.0
  0
LINE
  5
28
330
1D
100
AcDbEntity
  8
0
100
AcDbLine
 10
0.86895
 20
25.263
 30
0.0
 11
2.65535
 21
22.7595
 31
0.0
  0
LINE
  5
29
330
1D
100
AcDbEntity
  8
0
100
AcDbLine
 10
0.65925
 20
25.6684
 30
0.0
 11
0.86895
 21
25.263
 31
0.0
  0
LINE
  5
2A
330
1D
100
AcDbEntity
  8
0
100
AcDbLine
 10
5.00095
 20
36.1524
 30
0.0
 11
7.29455
 21
36.607
 31
0.0
  0
LINE
  5
2B
330
1D
100
AcDbEntity
  8
0
100
AcDbLine
 10
2.39395
 20
34.3607
 30
0.0
 11
5.00095
 21
36.1524
 31
0.0
  0
LINE
  5
2C
330
1D
100
AcDbEntity
  8
0
100
AcDbLine
 10
0.68185
 20
31.8671
 30
0.0
 11
2.39395
 21
34.3607
 31
0.0
  0
LINE
  5
2D
330
1D
100
AcDbEntity
  8
0
100
AcDbLine
 10
8.29125
 20
36.3442
 30
0.0
 11
10.86695
 21
35.9416
 31
0.0
  0
LINE
  5
2E
330
1D
100
AcDbEntity
  8
0
100
AcDbLine
 10
10.86695
 20
35.9416
 30
0.0
 11
16.23325
 21
35.4763
 31
0.0
  0
LINE
  5
2F
330
1D
100
AcDbEntity
  8
0
100
AcDbLine
 10
7.29455
 20
36.607
 30
0.0
 11
10.32445
 21
37.19
 31
0.0
  0
LINE
  5
30
330
1D
100
AcDbEntity
  8
0
100
AcDbLine
 10
10.32445
 20
37.19
 30
0.0
 11
14.83355
 21
37.6335
 31
0.0
  0
LINE
  5
31
330
1D
100
AcDbEntity
  8
0
100
AcDbLine
 10
16.23325
 20
35.4763
 30
0.0
 11
23.89375
 21
35.0052
 31
0.0
  0
LINE
  5
32
330
1D
100
AcDbEntity
  8
0
100
AcDbLine
 10
23.89375
 20
35.0052
 30
0.0
 11
35.55135
 21
34.5237
 31
0.0
  0
LINE
  5
33
330
1D
100
AcDbEntity
  8
0
100
AcDbLine
 10
14.83355
 20
37.6335
 30
0.0
 11
23.32575
 21
38.07
 31
0.0
  0
LINE
  5
34
330
1D
100
AcDbEntity
  8
0
100
AcDbLine
 10
23.32575
 20
38.07
 30
0.0
 11
33.09115
 21
38.4532
 31
0.0
  0
LINE
  5
35
330
1D
100
AcDbEntity
  8
0
100
AcDbLine
 10
35.55135
 20
34.5237
 30
0.0
 11
85.64105
 21
25.6673
 31
0.0
  0
LINE
  5
36
330
1D
100
AcDbEntity
  8
0
100
AcDbLine
 10
33.09115
 20
38.4532
 30
0.0
 11
46.82945
 21
38.7465
 31
0.0
  0
LINE
  5
37
330
1D
100
AcDbEntity
  8
0
100
AcDbLine
 10
46.82945
 20
38.7465
 30
0.0
 11
64.62753
 21
39.0387
 31
0.0
  0
LINE
  5
38
330
1D
100
AcDbEntity
  8
0
100
AcDbLine
 10
64.62753
 20
39.0387
 30
0.0
 11
82.61385
 21
39.1909
 31
0.0
  0
LINE
  5
39
330
1D
100
AcDbEntity
  8
0
100
AcDbLine
 10
0.07205
 20
28.7692
 30
0.0
 11
0.65925
 21
25.6684
 31
0.0
  0
LINE
  5
3A
330
1D
100
AcDbEntity
  8
0
100
AcDbLine
 10
0.07205
 20
28.7692
 30
0.0
 11
0.68185
 21
31.8671
 31
0.0
  0
LINE
  5
3B
330
1D
100
AcDbEntity
  8
0
100
AcDbLine
 10
70.47301
 20
70.75
 30
0.0
 11
70.64233
 21
70.75
 31
0.0
  0
LINE
  5
3C
330
1D
100
AcDbEntity
  8
0
100
AcDbLine
 10
70.473
 20
70.75
 30
0.0
 11
70.64152
 21
70.75
 31
0.0
  0
LINE
  5
3D
330
1D
100
AcDbEntity
  8
0
100
AcDbLine
 10
70.64233
 20
70.75
 30
0.0
 11
70.94136
 21
70.75
 31
0.0
  0
LINE
  5
3E
330
1D
100
AcDbEntity
  8
0
100
AcDbLine
 10
70.94136
 20
70.75
 30
0.0
 11
71.47276
 21
70.75
 31
0.0
  0
LINE
  5
3F
330
1D
100
AcDbEntity
  8
0
100
AcDbLine
 10
70.64152
 20
70.75
 30
0.0
 11
70.94101
 21
70.75
 31
0.0
  0
LINE
  5
40
330
1D
100
AcDbEntity
  8
0
100
AcDbLine
 10
70.94101
 20
70.75
 30
0.0
 11
71.47267
 21
70.75
 31
0.0
  0
LINE
  5
41
330
1D
100
AcDbEntity
  8
0
100
AcDbLine
 10
105.97035
 20
8.75183
 30
0.0
 11
114.12095
 21
8.2255
 31
0.0
  0
LINE
  5
42
330
1D
100
AcDbEntity
  8
0
100
AcDbLine
 10
114.12095
 20
8.2255
 30
0.0
 11
117.707399814369
 21
7.945875464076
 31
0.0
  0
LINE
  5
43
330
1D
100
AcDbEntity
  8
0
100
AcDbLine
 10
112.99885
 20
8.75
 30
0.0
 11
115.09885
 21
8.75
 31
0.0
  0
LINE
  5
44
330
1D
100
AcDbEntity
  8
0
100
AcDbLine
 10
96.16615
 20
9.24128
 30
0.0
 11
105.97035
 21
8.75183
 31
0.0
  0
LINE
  5
45
330
1D
100
AcDbEntity
  8
0
100
AcDbLine
 10
112.49885
 20
8.88398
 30
0.0
 11
112.99885
 21
8.75
 31
0.0
  0
LINE
  5
46
330
1D
100
AcDbEntity
  8
0
100
AcDbLine
 10
112.13285
 20
9.25001
 30
0.0
 11
112.49885
 21
8.88398
 31
0.0
  0
LINE
  5
4F
330
1D
100
AcDbEntity
  8
0
100
AcDbLine
 10
115.98085
 20
8.79037
 30
0.0
 11
116.03485
 21
8.78988
 31
0.0
  0
LINE
  5
51
330
1D
100
AcDbEntity
  8
0
100
AcDbLine
 10
120.24495
 20
4.046
 30
0.0
 11
123.00095
 21
1.966
 31
0.0
  0
LINE
  5
52
330
1D
100
AcDbEntity
  8
0
100
AcDbLine
 10
120.26105
 20
4.74207
 30
0.0
 11
120.44765
 21
4.567728
 31
0.0
  0
LINE
  5
53
330
1D
100
AcDbEntity
  8
0
100
AcDbLine
 10
120.26105
 20
4.74207
 30
0.0
 11
120.44765
 21
4.567728
 31
0.0
  0
LINE
  5
54
330
1D
100
AcDbEntity
  8
0
100
AcDbLine
 10
120.26105
 20
4.74207
 30
0.0
 11
120.44765
 21
4.567728
 31
0.0
  0
LINE
  5
55
330
1D
100
AcDbEntity
  8
0
100
AcDbLine
 10
120.26105
 20
4.74207
 30
0.0
 11
120.44765
 21
4.567728
 31
0.0
  0
LINE
  5
56
330
1D
100
AcDbEntity
  8
0
100
AcDbLine
 10
120.26105
 20
4.74207
 30
0.0
 11
120.447650000008
 21
4.567727999993
 31
0.0
  0
LINE
  5
57
330
1D
100
AcDbEntity
  8
0
100
AcDbLine
 10
120.26105
 20
4.74207
 30
0.0
 11
120.447650000008
 21
4.567727999993
 31
0.0
  0
LINE
  5
58
330
1D
100
AcDbEntity
  8
0
100
AcDbLine
 10
120.26105
 20
4.74207
 30
0.0
 11
120.447650000005
 21
4.567727999996
 31
0.0
  0
LINE
  5
59
330
1D
100
AcDbEntity
  8
0
100
AcDbLine
 10
120.26105
 20
4.74207
 30
0.0
 11
120.44765
 21
4.567728
 31
0.0
  0
LINE
  5
5A
330
1D
100
AcDbEntity
  8
0
100
AcDbLine
 10
120.26105
 20
4.74207
 30
0.0
 11
120.44765
 21
4.567728
 31
0.0
  0
LINE
  5
5B
330
1D
100
AcDbEntity
  8
0
100
AcDbLine
 10
120.26105
 20
4.74207
 30
0.0
 11
120.447650000008
 21
4.567727999993
 31
0.0
  0
LINE
  5
5C
330
1D
100
AcDbEntity
  8
0
100
AcDbLine
 10
120.26105
 20
4.74207
 30
0.0
 11
120.447650000008
 21
4.567727999993
 31
0.0
  0
LINE
  5
5D
330
1D
100
AcDbEntity
  8
0
100
AcDbLine
 10
118.16495
 20
6.802
 30
0.0
 11
120.24495
 21
4.046
 31
0.0
  0
LINE
  5
5E
330
1D
100
AcDbEntity
  8
0
100
AcDbLine
 10
119.848728989471
 20
7.995997025844
 30
0.0
 11
127.37535
 21
12.3415
 31
0.0
  0
LINE
  5
5F
330
1D
100
AcDbEntity
  8
0
100
AcDbLine
 10
119.848728989471
 20
7.995997025844
 30
0.0
 11
121.978663232292
 21
9.225716919271
 31
0.0
  0
LINE
  5
60
330
1D
100
AcDbEntity
  8
0
100
AcDbLine
 10
119.94895
 20
7.75
 30
0.0
 11
121.64895
 21
5.45
 31
0.0
  0
LINE
  5
61
330
1D
100
AcDbEntity
  8
0
100
AcDbLine
 10
120.09063702638
 20
7.558305787839
 30
0.0
 11
127.62535
 21
11.9085
 31
0.0
  0
LINE
  5
62
330
1D
100
AcDbEntity
  8
0
100
AcDbLine
 10
120.09063702638
 20
7.558305787839
 30
0.0
 11
127.62535
 21
11.9085
 31
0.0
  0
LINE
  5
63
330
1D
100
AcDbEntity
  8
0
100
AcDbLine
 10
119.848728989471
 20
7.995997025844
 30
0.0
 11
121.978663232292
 21
9.225716919271
 31
0.0
  0
LINE
  5
64
330
1D
100
AcDbEntity
  8
0
100
AcDbLine
 10
119.848728989471
 20
7.995997025844
 30
0.0
 11
127.37535
 21
12.3415
 31
0.0
  0
LINE
  5
65
330
1D
100
AcDbEntity
  8
0
100
AcDbLine
 10
119.44895
 20
7.55
 30
0.0
 11
121.34895
 21
5.15
 31
0.0
  0
LINE
  5
66
330
1D
100
AcDbEntity
  8
0
100
AcDbLine
 10
119.04895
 20
7.25
 30
0.0
 11
120.94895
 21
4.75
 31
0.0
  0
LINE
  5
67
330
1D
100
AcDbEntity
  8
0
100
AcDbLine
 10
119.04895
 20
7.25
 30
0.0
 11
120.94895
 21
4.75
 31
0.0
  0
LINE
  5
68
330
1D
100
AcDbEntity
  8
0
100
AcDbLine
 10
120.26105
 20
4.7421
 30
0.0
 11
120.648774383709
 21
5.144967916173
 31
0.0
  0
LINE
  5
69
330
1D
100
AcDbEntity
  8
0
100
AcDbLine
 10
120.26105
 20
4.7421
 30
0.0
 11
120.57205
 21
4.45148
 31
0.0
  0
LINE
  5
6A
330
1D
100
AcDbEntity
  8
0
100
AcDbLine
 10
120.26105
 20
4.7421
 30
0.0
 11
120.648774383709
 21
5.144967916173
 31
0.0
  0
LINE
  5
6B
330
1D
100
AcDbEntity
  8
0
100
AcDbLine
 10
120.26105
 20
4.7421
 30
0.0
 11
120.648774383709
 21
5.144967916173
 31
0.0
  0
LINE
  5
6C
330
1D
100
AcDbEntity
  8
0
100
AcDbLine
 10
120.26105
 20
4.7421
 30
0.0
 11
120.648774383709
 21
5.144967916173
 31
0.0
  0
LINE
  5
6D
330
1D
100
AcDbEntity
  8
0
100
AcDbLine
 10
120.26105
 20
4.74207
 30
0.0
 11
120.44765
 21
4.567728
 31
0.0
  0
LINE
  5
6E
330
1D
100
AcDbEntity
  8
0
100
AcDbLine
 10
120.26105
 20
4.74207
 30
0.0
 11
120.44765
 21
4.567728
 31
0.0
  0
LINE
  5
6F
330
1D
100
AcDbEntity
  8
0
100
AcDbLine
 10
120.26105
 20
4.74207
 30
0.0
 11
120.44765
 21
4.567728
 31
0.0
  0
LINE
  5
70
330
1D
100
AcDbEntity
  8
0
100
AcDbLine
 10
120.26105
 20
4.74207
 30
0.0
 11
120.44765
 21
4.567728
 31
0.0
  0
LINE
  5
71
330
1D
100
AcDbEntity
  8
0
100
AcDbLine
 10
116.03485
 20
8.78988
 30
0.0
 11
116.25085
 21
8.80363
 31
0.0
  0
LINE
  5
72
330
1D
100
AcDbEntity
  8
0
100
AcDbLine
 10
115.98085
 20
8.79036
 30
0.0
 11
116.03485
 21
8.78988
 31
0.0
  0
LINE
  5
77
330
1D
100
AcDbEntity
  8
0
100
AcDbLine
 10
115.27125
 20
8.79655
 30
0.0
 11
115.50935
 21
8.85573
 31
0.0
  0
LINE
  5
7A
330
1D
100
AcDbEntity
  8
0
100
AcDbLine
 10
115.27125
 20
8.79654
 30
0.0
 11
115.50935
 21
8.85573
 31
0.0
  0
LINE
  5
7C
330
1D
100
AcDbEntity
  8
0
100
AcDbLine
 10
115.22225
 20
8.87747
 30
0.0
 11
115.24385
 21
8.79678
 31
0.0
  0
LINE
  5
7F
330
1D
100
AcDbEntity
  8
0
100
AcDbLine
 10
115.50935
 20
8.85573
 30
0.0
 11
115.65495
 21
8.97501
 31
0.0
  0
LINE
  5
80
330
1D
100
AcDbEntity
  8
0
100
AcDbLine
 10
115.16535
 20
9.12743
 30
0.0
 11
115.22225
 21
8.87747
 31
0.0
  0
LINE
  5
84
330
1D
100
AcDbEntity
  8
0
100
AcDbLine
 10
115.65495
 20
8.97501
 30
0.0
 11
115.74575
 21
9.1388
 31
0.0
  0
LINE
  5
89
330
1D
100
AcDbEntity
  8
0
100
AcDbLine
 10
115.74575
 20
9.1388
 30
0.0
 11
115.77105
 21
9.2922
 31
0.0
  0
LINE
  5
8A
330
1D
100
AcDbEntity
  8
0
100
AcDbLine
 10
115.74575
 20
9.1388
 30
0.0
 11
115.77105
 21
9.29221
 31
0.0
  0
LINE
  5
8C
330
1D
100
AcDbEntity
  8
0
100
AcDbLine
 10
115.16535
 20
9.12746
 30
0.0
 11
115.22225
 21
8.87748
 31
0.0
  0
LINE
  5
8D
330
1D
100
AcDbEntity
  8
0
100
AcDbLine
 10
115.22225
 20
8.87748
 30
0.0
 11
115.24385
 21
8.79678
 31
0.0
  0
LINE
  5
92
330
1D
100
AcDbEntity
  8
0
100
AcDbLine
 10
116.95185
 20
9.0928
 30
0.0
 11
117.165131642273
 21
9.301545894317
 31
0.0
  0
LINE
  5
93
330
1D
100
AcDbEntity
  8
0
100
AcDbLine
 10
116.61995
 20
8.9032
 30
0.0
 11
116.95185
 21
9.0928
 31
0.0
  0
LINE
  5
94
330
1D
100
AcDbEntity
  8
0
100
AcDbLine
 10
116.25085
 20
8.80363
 30
0.0
 11
116.61995
 21
8.9032
 31
0.0
  0
LINE
  5
95
330
1D
100
AcDbEntity
  8
0
100
AcDbLine
 10
115.12025
 20
9.34039
 30
0.0
 11
115.16535
 21
9.12743
 31
0.0
  0
LINE
  5
97
330
1D
100
AcDbEntity
  8
0
100
AcDbLine
 10
115.12025
 20
9.34042
 30
0.0
 11
115.16535
 21
9.12746
 31
0.0
  0
LINE
  5
98
330
1D
100
AcDbEntity
  8
0
100
AcDbLine
 10
85.58175
 20
9.66995
 30
0.0
 11
96.16615
 21
9.24128
 31
0.0
  0
LINE
  5
99
330
1D
100
AcDbEntity
  8
0
100
AcDbLine
 10
111.99885
 20
9.75002
 30
0.0
 11
112.13285
 21
9.25001
 31
0.0
  0
LINE
  5
9A
330
1D
100
AcDbEntity
  8
0
100
AcDbLine
 10
111.99885
 20
9.884
 30
0.0
 11
111.99885
 21
9.75002
 31
0.0
  0
LINE
  5
9B
330
1D
100
AcDbEntity
  8
0
100
AcDbLine
 10
111.99885
 20
9.88403
 30
0.0
 11
111.99885
 21
10.24984
 31
0.0
  0
LINE
  5
9C
330
1D
100
AcDbEntity
  8
0
100
AcDbLine
 10
111.99885
 20
9.75001
 30
0.0
 11
111.99885
 21
9.88403
 31
0.0
  0
LINE
  5
9D
330
1D
100
AcDbEntity
  8
0
100
AcDbLine
 10
111.99885
 20
9.75001
 30
0.0
 11
111.99885
 21
10.27263
 31
0.0
  0
LINE
  5
9E
330
1D
100
AcDbEntity
  8
0
100
AcDbLine
 10
111.99885
 20
9.75001
 30
0.0
 11
112.13285
 21
9.25001
 31
0.0
  0
LINE
  5
9F
330
1D
100
AcDbEntity
  8
0
100
AcDbLine
 10
111.99885
 20
9.75001
 30
0.0
 11
112.13285
 21
9.25001
 31
0.0
  0
LINE
  5
A1
330
1D
100
AcDbEntity
  8
0
100
AcDbLine
 10
111.99885
 20
10.25
 30
0.0
 11
111.99885
 21
9.884
 31
0.0
  0
LINE
  5
A2
330
1D
100
AcDbEntity
  8
0
100
AcDbLine
 10
111.99885
 20
10.27263
 30
0.0
 11
111.99885
 21
10.62548
 31
0.0
  0
LINE
  5
A3
330
1D
100
AcDbEntity
  8
0
100
AcDbLine
 10
111.99885
 20
10.62548
 30
0.0
 11
111.99885
 21
10.74999
 31
0.0
  0
LINE
  5
A4
330
1D
100
AcDbEntity
  8
0
100
AcDbLine
 10
111.99885
 20
10.27217
 30
0.0
 11
111.99885
 21
9.75001
 31
0.0
  0
LINE
  5
A5
330
1D
100
AcDbEntity
  8
0
100
AcDbLine
 10
111.99885
 20
10.74999
 30
0.0
 11
111.99885
 21
10.25
 31
0.0
  0
LINE
  5
A6
330
1D
100
AcDbEntity
  8
0
100
AcDbLine
 10
111.99885
 20
10.74998
 30
0.0
 11
111.99885
 21
10.883984
 31
0.0
  0
LINE
  5
A7
330
1D
100
AcDbEntity
  8
0
100
AcDbLine
 10
111.99885
 20
10.74968
 30
0.0
 11
111.99885
 21
70.75
 31
0.0
  0
LINE
  5
A8
330
1D
100
AcDbEntity
  8
0
100
AcDbLine
 10
111.99885
 20
10.62588
 30
0.0
 11
111.99885
 21
10.27217
 31
0.0
  0
LINE
  5
AB
330
1D
100
AcDbEntity
  8
0
100
AcDbLine
 10
111.99885
 20
10.74968
 30
0.0
 11
111.99885
 21
10.62588
 31
0.0
  0
LINE
  5
AC
330
1D
100
AcDbEntity
  8
0
100
AcDbLine
 10
111.99885
 20
10.24984
 30
0.0
 11
111.99885
 21
10.74968
 31
0.0
  0
LINE
  5
AE
330
1D
100
AcDbEntity
  8
0
100
AcDbLine
 10
111.99885
 20
11.249986
 30
0.0
 11
111.99885
 21
11.749994
 31
0.0
  0
LINE
  5
AF
330
1D
100
AcDbEntity
  8
0
100
AcDbLine
 10
111.99885
 20
10.883984
 30
0.0
 11
111.99885
 21
11.249986
 31
0.0
  0
LINE
  5
B0
330
1D
100
AcDbEntity
  8
0
100
AcDbLine
 10
111.99885
 20
10.883715
 30
0.0
 11
111.99885
 21
10.74968
 31
0.0
  0
LINE
  5
B1
330
1D
100
AcDbEntity
  8
0
100
AcDbLine
 10
111.99885
 20
11.749994
 30
0.0
 11
111.99885
 21
70.75
 31
0.0
  0
LINE
  5
B2
330
1D
100
AcDbEntity
  8
0
100
AcDbLine
 10
111.99885
 20
11.750292
 30
0.0
 11
111.99885
 21
11.250448
 31
0.0
  0
LINE
  5
B3
330
1D
100
AcDbEntity
  8
0
100
AcDbLine
 10
111.99885
 20
11.250448
 30
0.0
 11
111.99885
 21
10.883715
 31
0.0
  0
LINE
  5
CA
330
1D
100
AcDbEntity
  8
0
100
AcDbLine
 10
114.62245
 20
14.05261
 30
0.0
 11
114.76725
 21
15.67953
 31
0.0
  0
LINE
  5
CB
330
1D
100
AcDbEntity
  8
0
100
AcDbLine
 10
114.62245
 20
14.05261
 30
0.0
 11
114.65695
 21
12.419504
 31
0.0
  0
LINE
  5
CC
330
1D
100
AcDbEntity
  8
0
100
AcDbLine
 10
114.62265
 20
14.05257
 30
0.0
 11
114.65685
 21
12.419429
 31
0.0
  0
LINE
  5
CD
330
1D
100
AcDbEntity
  8
0
100
AcDbLine
 10
114.62265
 20
14.05257
 30
0.0
 11
114.76695
 21
15.67933
 31
0.0
  0
LINE
  5
D7
330
1D
100
AcDbEntity
  8
0
100
AcDbLine
 10
114.94685
 20
10.28841
 30
0.0
 11
115.00835
 21
9.92561
 31
0.0
  0
LINE
  5
D8
330
1D
100
AcDbEntity
  8
0
100
AcDbLine
 10
115.00835
 20
9.92561
 30
0.0
 11
115.06935
 21
9.59596
 31
0.0
  0
LINE
  5
D9
330
1D
100
AcDbEntity
  8
0
100
AcDbLine
 10
114.65695
 20
12.419504
 30
0.0
 11
114.87025
 21
10.80012
 31
0.0
  0
LINE
  5
DA
330
1D
100
AcDbEntity
  8
0
100
AcDbLine
 10
114.76725
 20
15.67953
 30
0.0
 11
115.08915
 21
17.28087
 31
0.0
  0
LINE
  5
DC
330
1D
100
AcDbEntity
  8
0
100
AcDbLine
 10
114.76695
 20
15.67933
 30
0.0
 11
115.08895
 21
17.28066
 31
0.0
  0
LINE
  5
DD
330
1D
100
AcDbEntity
  8
0
100
AcDbLine
 10
114.65685
 20
12.419429
 30
0.0
 11
114.87015
 21
10.80012
 31
0.0
  0
LINE
  5
E2
330
1D
100
AcDbEntity
  8
0
100
AcDbLine
 10
114.87015
 20
10.800135
 30
0.0
 11
114.94685
 21
10.28843
 31
0.0
  0
LINE
  5
E4
330
1D
100
AcDbEntity
  8
0
100
AcDbLine
 10
114.87015
 20
10.800135
 30
0.0
 11
114.94685
 21
10.28841
 31
0.0
  0
LINE
  5
E5
330
1D
100
AcDbEntity
  8
0
100
AcDbLine
 10
114.94685
 20
10.28843
 30
0.0
 11
115.00835
 21
9.92564
 31
0.0
  0
LINE
  5
E7
330
1D
100
AcDbEntity
  8
0
100
AcDbLine
 10
115.06935
 20
9.59596
 30
0.0
 11
115.12025
 21
9.34039
 31
0.0
  0
LINE
  5
EA
330
1D
100
AcDbEntity
  8
0
100
AcDbLine
 10
115.17285
 20
12.720552
 30
0.0
 11
115.17325
 21
14.38902
 31
0.0
  0
LINE
  5
EB
330
1D
100
AcDbEntity
  8
0
100
AcDbLine
 10
115.17285
 20
12.720552
 30
0.0
 11
115.36605
 21
11.063364
 31
0.0
  0
LINE
  5
F1
330
1D
100
AcDbEntity
  8
0
100
AcDbLine
 10
115.08915
 20
17.28087
 30
0.0
 11
115.58445
 21
18.83703
 31
0.0
  0
LINE
  5
F2
330
1D
100
AcDbEntity
  8
0
100
AcDbLine
 10
115.08895
 20
17.28066
 30
0.0
 11
115.58445
 21
18.83718
 31
0.0
  0
LINE
  5
F3
330
1D
100
AcDbEntity
  8
0
100
AcDbLine
 10
115.00835
 20
9.92564
 30
0.0
 11
115.06935
 21
9.59594
 31
0.0
  0
LINE
  5
F4
330
1D
100
AcDbEntity
  8
0
100
AcDbLine
 10
115.06935
 20
9.59594
 30
0.0
 11
115.12025
 21
9.34042
 31
0.0
  0
LINE
  5
F6
330
1D
100
AcDbEntity
  8
0
100
AcDbLine
 10
106.02865
 20
24.7484
 30
0.0
 11
111.99885
 21
24.362892643486
 31
0.0
  0
LINE
  5
F7
330
1D
100
AcDbEntity
  8
0
100
AcDbLine
 10
96.22545
 20
25.2378
 30
0.0
 11
106.02865
 21
24.7484
 31
0.0
  0
LINE
  5
102
330
1D
100
AcDbEntity
  8
0
100
AcDbLine
 10
115.36605
 20
11.063364
 30
0.0
 11
115.75015
 21
9.43976
 31
0.0
  0
LINE
  5
107
330
1D
100
AcDbEntity
  8
0
100
AcDbLine
 10
115.75005
 20
9.43978
 30
0.0
 11
115.77105
 21
9.29221
 31
0.0
  0
LINE
  5
108
330
1D
100
AcDbEntity
  8
0
100
AcDbLine
 10
115.17325
 20
14.38902
 30
0.0
 11
115.36755
 21
16.04593
 31
0.0
  0
LINE
  5
10B
330
1D
100
AcDbEntity
  8
0
100
AcDbLine
 10
115.36755
 20
16.04593
 30
0.0
 11
115.75275
 21
17.66924
 31
0.0
  0
LINE
  5
10C
330
1D
100
AcDbEntity
  8
0
100
AcDbLine
 10
115.58445
 20
18.83703
 30
0.0
 11
116.24775
 21
20.32993
 31
0.0
  0
LINE
  5
10F
330
1D
100
AcDbEntity
  8
0
100
AcDbLine
 10
115.75275
 20
17.66924
 30
0.0
 11
116.32385
 21
19.23696
 31
0.0
  0
LINE
  5
110
330
1D
100
AcDbEntity
  8
0
100
AcDbLine
 10
115.58445
 20
18.83718
 30
0.0
 11
116.24765
 21
20.32981
 31
0.0
  0
LINE
  5
115
330
1D
100
AcDbEntity
  8
0
100
AcDbLine
 10
115.75305
 20
17.6693
 30
0.0
 11
116.32395
 21
19.23707
 31
0.0
  0
LINE
  5
116
330
1D
100
AcDbEntity
  8
0
100
AcDbLine
 10
115.36735
 20
16.04615
 30
0.0
 11
115.75305
 21
17.6693
 31
0.0
  0
LINE
  5
117
330
1D
100
AcDbEntity
  8
0
100
AcDbLine
 10
115.17325
 20
14.38893
 30
0.0
 11
115.36735
 21
16.04615
 31
0.0
  0
LINE
  5
118
330
1D
100
AcDbEntity
  8
0
100
AcDbLine
 10
115.36605
 20
11.063408
 30
0.0
 11
115.74995
 21
9.4397
 31
0.0
  0
LINE
  5
119
330
1D
100
AcDbEntity
  8
0
100
AcDbLine
 10
115.17285
 20
12.720641
 30
0.0
 11
115.36605
 21
11.063408
 31
0.0
  0
LINE
  5
11A
330
1D
100
AcDbEntity
  8
0
100
AcDbLine
 10
115.17285
 20
12.720641
 30
0.0
 11
115.17325
 21
14.38893
 31
0.0
  0
LINE
  5
11B
330
1D
100
AcDbEntity
  8
0
100
AcDbLine
 10
115.74995
 20
9.4397
 30
0.0
 11
115.77095
 21
9.29232
 31
0.0
  0
LINE
  5
120
330
1D
100
AcDbEntity
  8
0
100
AcDbLine
 10
116.32385
 20
19.23696
 30
0.0
 11
117.07305
 21
20.72765
 31
0.0
  0
LINE
  5
122
330
1D
100
AcDbEntity
  8
0
100
AcDbLine
 10
116.44895
 20
13.25
 30
0.0
 11
116.91695
 21
16.578
 31
0.0
  0
LINE
  5
123
330
1D
100
AcDbEntity
  8
0
100
AcDbLine
 10
116.44895
 20
13.25
 30
0.0
 11
116.91695
 21
9.922
 31
0.0
  0
LINE
  5
124
330
1D
100
AcDbEntity
  8
0
100
AcDbLine
 10
116.44895
 20
13.25
 30
0.0
 11
116.91695
 21
16.578
 31
0.0
  0
LINE
  5
125
330
1D
100
AcDbEntity
  8
0
100
AcDbLine
 10
116.44895
 20
13.25
 30
0.0
 11
116.91695
 21
9.922
 31
0.0
  0
LINE
  5
126
330
1D
100
AcDbEntity
  8
0
100
AcDbLine
 10
116.24775
 20
20.32993
 30
0.0
 11
117.07035
 21
21.74104
 31
0.0
  0
LINE
  5
127
330
1D
100
AcDbEntity
  8
0
100
AcDbLine
 10
116.24765
 20
20.32981
 30
0.0
 11
117.07015
 21
21.74086
 31
0.0
  0
LINE
  5
12A
330
1D
100
AcDbEntity
  8
0
100
AcDbLine
 10
116.32395
 20
19.23707
 30
0.0
 11
117.07295
 21
20.7276
 31
0.0
  0
LINE
  5
135
330
1D
100
AcDbEntity
  8
0
100
AcDbLine
 10
116.91695
 20
9.922
 30
0.0
 11
118.16495
 21
6.802
 31
0.0
  0
LINE
  5
136
330
1D
100
AcDbEntity
  8
0
100
AcDbLine
 10
116.91695
 20
16.578
 30
0.0
 11
118.16495
 21
19.698
 31
0.0
  0
LINE
  5
137
330
1D
100
AcDbEntity
  8
0
100
AcDbLine
 10
117.44895
 20
13.25
 30
0.0
 11
117.84895
 21
10.15
 31
0.0
  0
LINE
  5
138
330
1D
100
AcDbEntity
  8
0
100
AcDbLine
 10
117.44895
 20
13.25
 30
0.0
 11
117.84895
 21
16.35
 31
0.0
  0
LINE
  5
139
330
1D
100
AcDbEntity
  8
0
100
AcDbLine
 10
118.34895
 20
10.25
 30
0.0
 11
119.44895
 21
7.55
 31
0.0
  0
LINE
  5
13A
330
1D
100
AcDbEntity
  8
0
100
AcDbLine
 10
117.84895
 20
10.15
 30
0.0
 11
119.04895
 21
7.25
 31
0.0
  0
LINE
  5
13B
330
1D
100
AcDbEntity
  8
0
100
AcDbLine
 10
117.84895
 20
16.35
 30
0.0
 11
119.04895
 21
19.25
 31
0.0
  0
LINE
  5
13C
330
1D
100
AcDbEntity
  8
0
100
AcDbLine
 10
117.84895
 20
16.35
 30
0.0
 11
119.04895
 21
19.25
 31
0.0
  0
LINE
  5
13D
330
1D
100
AcDbEntity
  8
0
100
AcDbLine
 10
118.44895
 20
13.25
 30
0.0
 11
118.84895
 21
10.45
 31
0.0
  0
LINE
  5
13E
330
1D
100
AcDbEntity
  8
0
100
AcDbLine
 10
118.44895
 20
13.25
 30
0.0
 11
118.84895
 21
16.05
 31
0.0
  0
LINE
  5
13F
330
1D
100
AcDbEntity
  8
0
100
AcDbLine
 10
118.84895
 20
10.45
 30
0.0
 11
119.94895
 21
7.75
 31
0.0
  0
LINE
  5
140
330
1D
100
AcDbEntity
  8
0
100
AcDbLine
 10
118.484664285714
 20
13.0
 30
0.0
 11
127.19895
 21
13.0
 31
0.0
  0
LINE
  5
141
330
1D
100
AcDbEntity
  8
0
100
AcDbLine
 10
118.484664285714
 20
13.0
 30
0.0
 11
120.983040909091
 21
13.0
 31
0.0
  0
LINE
  5
142
330
1D
100
AcDbEntity
  8
0
100
AcDbLine
 10
118.484664285714
 20
13.0
 30
0.0
 11
118.84895
 21
10.45
 31
0.0
  0
LINE
  5
143
330
1D
100
AcDbEntity
  8
0
100
AcDbLine
 10
118.84895
 20
16.05
 30
0.0
 11
119.94895
 21
18.75
 31
0.0
  0
LINE
  5
144
330
1D
100
AcDbEntity
  8
0
100
AcDbLine
 10
118.34895
 20
16.25
 30
0.0
 11
119.44895
 21
18.95
 31
0.0
  0
LINE
  5
145
330
1D
100
AcDbEntity
  8
0
100
AcDbLine
 10
118.484664285714
 20
13.5
 30
0.0
 11
118.84895
 21
16.05
 31
0.0
  0
LINE
  5
146
330
1D
100
AcDbEntity
  8
0
100
AcDbLine
 10
118.484664285714
 20
13.5
 30
0.0
 11
127.19895
 21
13.5
 31
0.0
  0
LINE
  5
147
330
1D
100
AcDbEntity
  8
0
100
AcDbLine
 10
117.94895
 20
13.25
 30
0.0
 11
118.34895
 21
10.25
 31
0.0
  0
LINE
  5
148
330
1D
100
AcDbEntity
  8
0
100
AcDbLine
 10
117.94895
 20
13.25
 30
0.0
 11
118.34895
 21
16.25
 31
0.0
  0
LINE
  5
149
330
1D
100
AcDbEntity
  8
0
100
AcDbLine
 10
117.84895
 20
10.15
 30
0.0
 11
119.04895
 21
7.25
 31
0.0
  0
LINE
  5
14A
330
1D
100
AcDbEntity
  8
0
100
AcDbLine
 10
117.44895
 20
13.25
 30
0.0
 11
117.84895
 21
10.15
 31
0.0
  0
LINE
  5
14E
330
1D
100
AcDbEntity
  8
0
100
AcDbLine
 10
117.07035
 20
21.74104
 30
0.0
 11
118.04235
 21
23.0534
 31
0.0
  0
LINE
  5
14F
330
1D
100
AcDbEntity
  8
0
100
AcDbLine
 10
117.07305
 20
20.72765
 30
0.0
 11
117.99015
 21
22.1215
 31
0.0
  0
LINE
  5
150
330
1D
100
AcDbEntity
  8
0
100
AcDbLine
 10
117.07015
 20
21.74086
 30
0.0
 11
118.04275
 21
23.0535
 31
0.0
  0
LINE
  5
151
330
1D
100
AcDbEntity
  8
0
100
AcDbLine
 10
117.07295
 20
20.7276
 30
0.0
 11
117.99015
 21
22.1216
 31
0.0
  0
LINE
  5
152
330
1D
100
AcDbEntity
  8
0
100
AcDbLine
 10
119.94895
 20
18.75
 30
0.0
 11
121.64895
 21
21.05
 31
0.0
  0
LINE
  5
153
330
1D
100
AcDbEntity
  8
0
100
AcDbLine
 10
120.090632018293
 20
18.941687436514
 30
0.0
 11
127.62535
 21
14.5915
 31
0.0
  0
LINE
  5
154
330
1D
100
AcDbEntity
  8
0
100
AcDbLine
 10
119.848732174504
 20
18.504010791965
 30
0.0
 11
127.37535
 21
14.1585
 31
0.0
  0
LINE
  5
155
330
1D
100
AcDbEntity
  8
0
100
AcDbLine
 10
119.848732174504
 20
18.504010791965
 30
0.0
 11
121.978665482271
 21
17.274288705676
 31
0.0
  0
LINE
  5
156
330
1D
100
AcDbEntity
  8
0
100
AcDbLine
 10
119.44895
 20
18.95
 30
0.0
 11
121.34895
 21
21.35
 31
0.0
  0
LINE
  5
157
330
1D
100
AcDbEntity
  8
0
100
AcDbLine
 10
119.04895
 20
19.25
 30
0.0
 11
120.94895
 21
21.75
 31
0.0
  0
LINE
  5
158
330
1D
100
AcDbEntity
  8
0
100
AcDbLine
 10
119.04895
 20
19.25
 30
0.0
 11
120.94895
 21
21.75
 31
0.0
  0
LINE
  5
15C
330
1D
100
AcDbEntity
  8
0
100
AcDbLine
 10
118.16495
 20
19.698
 30
0.0
 11
120.24495
 21
22.454
 31
0.0
  0
LINE
  5
15F
330
1D
100
AcDbEntity
  8
0
100
AcDbLine
 10
117.99015
 20
22.1215
 30
0.0
 11
119.06265
 21
23.3994
 31
0.0
  0
LINE
  5
165
330
1D
100
AcDbEntity
  8
0
100
AcDbLine
 10
118.04235
 20
23.0534
 30
0.0
 11
119.15285
 21
24.2514
 31
0.0
  0
LINE
  5
166
330
1D
100
AcDbEntity
  8
0
100
AcDbLine
 10
118.04275
 20
23.0535
 30
0.0
 11
119.15255
 21
24.2515
 31
0.0
  0
LINE
  5
16A
330
1D
100
AcDbEntity
  8
0
100
AcDbLine
 10
117.99015
 20
22.1216
 30
0.0
 11
119.06265
 21
23.3994
 31
0.0
  0
LINE
  5
172
330
1D
100
AcDbEntity
  8
0
100
AcDbLine
 10
119.15285
 20
24.2514
 30
0.0
 11
120.38775
 21
25.3205
 31
0.0
  0
LINE
  5
179
330
1D
100
AcDbEntity
  8
0
100
AcDbLine
 10
119.15255
 20
24.2515
 30
0.0
 11
120.38765
 21
25.3205
 31
0.0
  0
LINE
  5
17D
330
1D
100
AcDbEntity
  8
0
100
AcDbLine
 10
119.06265
 20
23.3994
 30
0.0
 11
120.27635
 21
24.5441
 31
0.0
  0
LINE
  5
17E
330
1D
100
AcDbEntity
  8
0
100
AcDbLine
 10
120.24495
 20
22.454
 30
0.0
 11
123.00095
 21
24.534
 31
0.0
  0
LINE
  5
18C
330
1D
100
AcDbEntity
  8
0
100
AcDbLine
 10
123.00095
 20
1.966
 30
0.0
 11
126.12095
 21
0.718
 31
0.0
  0
LINE
  5
18D
330
1D
100
AcDbEntity
  8
0
100
AcDbLine
 10
120.883050000001
 20
4.160834999999
 30
0.0
 11
121.19405
 21
3.87017
 31
0.0
  0
LINE
  5
18E
330
1D
100
AcDbEntity
  8
0
100
AcDbLine
 10
120.883050000001
 20
4.160834999999
 30
0.0
 11
121.19405
 21
3.87017
 31
0.0
  0
LINE
  5
18F
330
1D
100
AcDbEntity
  8
0
100
AcDbLine
 10
120.883050000001
 20
4.160834999999
 30
0.0
 11
121.19405
 21
3.87017
 31
0.0
  0
LINE
  5
190
330
1D
100
AcDbEntity
  8
0
100
AcDbLine
 10
121.19405
 20
3.87017
 30
0.0
 11
121.50495
 21
3.57959
 31
0.0
  0
LINE
  5
191
330
1D
100
AcDbEntity
  8
0
100
AcDbLine
 10
121.19405
 20
3.87019
 30
0.0
 11
121.50495
 21
3.57962
 31
0.0
  0
LINE
  5
193
330
1D
100
AcDbEntity
  8
0
100
AcDbLine
 10
121.19405
 20
3.87017
 30
0.0
 11
121.50495
 21
3.57959
 31
0.0
  0
LINE
  5
194
330
1D
100
AcDbEntity
  8
0
100
AcDbLine
 10
121.19405
 20
3.87017
 30
0.0
 11
121.50495
 21
3.57959
 31
0.0
  0
LINE
  5
195
330
1D
100
AcDbEntity
  8
0
100
AcDbLine
 10
120.883050000001
 20
4.160834999999
 30
0.0
 11
121.19405
 21
3.87017
 31
0.0
  0
LINE
  5
196
330
1D
100
AcDbEntity
  8
0
100
AcDbLine
 10
120.44765
 20
4.567728
 30
0.0
 11
120.57205
 21
4.45148
 31
0.0
  0
LINE
  5
197
330
1D
100
AcDbEntity
  8
0
100
AcDbLine
 10
120.44765
 20
4.567728
 30
0.0
 11
120.57205
 21
4.45148
 31
0.0
  0
LINE
  5
198
330
1D
100
AcDbEntity
  8
0
100
AcDbLine
 10
120.44765
 20
4.567728
 30
0.0
 11
120.57205
 21
4.45148
 31
0.0
  0
LINE
  5
199
330
1D
100
AcDbEntity
  8
0
100
AcDbLine
 10
120.44765
 20
4.567728
 30
0.0
 11
120.57205
 21
4.45148
 31
0.0
  0
LINE
  5
19A
330
1D
100
AcDbEntity
  8
0
100
AcDbLine
 10
120.44765
 20
4.567728
 30
0.0
 11
120.57205
 21
4.45148
 31
0.0
  0
LINE
  5
19B
330
1D
100
AcDbEntity
  8
0
100
AcDbLine
 10
120.44765
 20
4.567728
 30
0.0
 11
120.57205
 21
4.45148
 31
0.0
  0
LINE
  5
19C
330
1D
100
AcDbEntity
  8
0
100
AcDbLine
 10
120.44765
 20
4.567728
 30
0.0
 11
120.57205
 21
4.45148
 31
0.0
  0
LINE
  5
19D
330
1D
100
AcDbEntity
  8
0
100
AcDbLine
 10
120.44765
 20
4.567728
 30
0.0
 11
120.57205
 21
4.45148
 31
0.0
  0
LINE
  5
19E
330
1D
100
AcDbEntity
  8
0
100
AcDbLine
 10
120.447649999997
 20
4.567728000003
 30
0.0
 11
120.57205
 21
4.45148
 31
0.0
  0
LINE
  5
19F
330
1D
100
AcDbEntity
  8
0
100
AcDbLine
 10
120.447649999997
 20
4.567728000003
 30
0.0
 11
120.57205
 21
4.45148
 31
0.0
  0
LINE
  5
1A0
330
1D
100
AcDbEntity
  8
0
100
AcDbLine
 10
120.44765
 20
4.567728
 30
0.0
 11
120.57205
 21
4.45148
 31
0.0
  0
LINE
  5
1A1
330
1D
100
AcDbEntity
  8
0
100
AcDbLine
 10
120.883049999979
 20
4.160835000019
 30
0.0
 11
121.19405
 21
3.87017
 31
0.0
  0
LINE
  5
1A2
330
1D
100
AcDbEntity
  8
0
100
AcDbLine
 10
120.883049999979
 20
4.160835000019
 30
0.0
 11
121.19405
 21
3.87017
 31
0.0
  0
LINE
  5
1A3
330
1D
100
AcDbEntity
  8
0
100
AcDbLine
 10
120.88305
 20
4.160835
 30
0.0
 11
121.19405
 21
3.87017
 31
0.0
  0
LINE
  5
1A4
330
1D
100
AcDbEntity
  8
0
100
AcDbLine
 10
120.88305
 20
4.160835
 30
0.0
 11
121.19405
 21
3.87017
 31
0.0
  0
LINE
  5
1A5
330
1D
100
AcDbEntity
  8
0
100
AcDbLine
 10
120.883049999999
 20
4.160835000001
 30
0.0
 11
121.19405
 21
3.87017
 31
0.0
  0
LINE
  5
1A6
330
1D
100
AcDbEntity
  8
0
100
AcDbLine
 10
120.88305
 20
4.160835
 30
0.0
 11
121.19405
 21
3.87017
 31
0.0
  0
LINE
  5
1A7
330
1D
100
AcDbEntity
  8
0
100
AcDbLine
 10
120.883049999981
 20
4.160835000018
 30
0.0
 11
121.19405
 21
3.87017
 31
0.0
  0
LINE
  5
1A8
330
1D
100
AcDbEntity
  8
0
100
AcDbLine
 10
120.883049999981
 20
4.160835000018
 30
0.0
 11
121.19405
 21
3.87017
 31
0.0
  0
LINE
  5
1A9
330
1D
100
AcDbEntity
  8
0
100
AcDbLine
 10
120.883049999981
 20
4.160835000018
 30
0.0
 11
121.19405
 21
3.87017
 31
0.0
  0
LINE
  5
1AA
330
1D
100
AcDbEntity
  8
0
100
AcDbLine
 10
120.883049999979
 20
4.160835000019
 30
0.0
 11
121.19405
 21
3.87017
 31
0.0
  0
LINE
  5
1AB
330
1D
100
AcDbEntity
  8
0
100
AcDbLine
 10
120.57205
 20
4.45148
 30
0.0
 11
121.19405
 21
3.87019
 31
0.0
  0
LINE
  5
1AD
330
1D
100
AcDbEntity
  8
0
100
AcDbLine
 10
120.57205
 20
4.45148
 30
0.0
 11
120.883049999999
 21
4.160835000001
 31
0.0
  0
LINE
  5
1AE
330
1D
100
AcDbEntity
  8
0
100
AcDbLine
 10
120.57205
 20
4.45148
 30
0.0
 11
120.88305
 21
4.160835
 31
0.0
  0
LINE
  5
1AF
330
1D
100
AcDbEntity
  8
0
100
AcDbLine
 10
120.94895
 20
13.25
 30
0.0
 11
121.24895
 21
11.05
 31
0.0
  0
LINE
  5
1B0
330
1D
100
AcDbEntity
  8
0
100
AcDbLine
 10
120.94895
 20
13.25
 30
0.0
 11
121.24895
 21
15.45
 31
0.0
  0
LINE
  5
1B1
330
1D
100
AcDbEntity
  8
0
100
AcDbLine
 10
120.94895
 20
21.75
 30
0.0
 11
123.44895
 21
23.65
 31
0.0
  0
LINE
  5
1B2
330
1D
100
AcDbEntity
  8
0
100
AcDbLine
 10
120.94895
 20
21.75
 30
0.0
 11
123.44895
 21
23.65
 31
0.0
  0
LINE
  5
1B3
330
1D
100
AcDbEntity
  8
0
100
AcDbLine
 10
120.983040909091
 20
13.5
 30
0.0
 11
121.24895
 21
15.45
 31
0.0
  0
LINE
  5
1B4
330
1D
100
AcDbEntity
  8
0
100
AcDbLine
 10
120.983040909091
 20
13.0
 30
0.0
 11
121.24895
 21
11.05
 31
0.0
  0
LINE
  5
1B5
330
1D
100
AcDbEntity
  8
0
100
AcDbLine
 10
120.94895
 20
4.75
 30
0.0
 11
123.44895
 21
2.85
 31
0.0
  0
LINE
  5
1B6
330
1D
100
AcDbEntity
  8
0
100
AcDbLine
 10
120.94895
 20
4.75
 30
0.0
 11
123.44895
 21
2.85
 31
0.0
  0
LINE
  5
1B7
330
1D
100
AcDbEntity
  8
0
100
AcDbLine
 10
120.57205
 20
4.45148
 30
0.0
 11
120.883050000001
 21
4.160834999999
 31
0.0
  0
LINE
  5
1B8
330
1D
100
AcDbEntity
  8
0
100
AcDbLine
 10
120.57205
 20
4.45148
 30
0.0
 11
120.88305
 21
4.160835
 31
0.0
  0
LINE
  5
1B9
330
1D
100
AcDbEntity
  8
0
100
AcDbLine
 10
120.57205
 20
4.45148
 30
0.0
 11
120.883050000001
 21
4.160834999999
 31
0.0
  0
LINE
  5
1BA
330
1D
100
AcDbEntity
  8
0
100
AcDbLine
 10
120.57205
 20
4.45148
 30
0.0
 11
120.88305
 21
4.160835
 31
0.0
  0
LINE
  5
1BB
330
1D
100
AcDbEntity
  8
0
100
AcDbLine
 10
120.44765
 20
4.567728
 30
0.0
 11
120.57205
 21
4.45148
 31
0.0
  0
LINE
  5
1BC
330
1D
100
AcDbEntity
  8
0
100
AcDbLine
 10
120.88305
 20
4.160835
 30
0.0
 11
121.19405
 21
3.87017
 31
0.0
  0
LINE
  5
1BD
330
1D
100
AcDbEntity
  8
0
100
AcDbLine
 10
123.76165
 20
2.01292
 30
0.0
 11
124.16115
 21
1.85998
 31
0.0
  0
LINE
  5
1BE
330
1D
100
AcDbEntity
  8
0
100
AcDbLine
 10
123.76165
 20
2.01292
 30
0.0
 11
124.001493735323
 21
2.62136121297
 31
0.0
  0
LINE
  5
1BF
330
1D
100
AcDbEntity
  8
0
100
AcDbLine
 10
123.74895
 20
3.25
 30
0.0
 11
126.44895
 21
2.15
 31
0.0
  0
LINE
  5
1C0
330
1D
100
AcDbEntity
  8
0
100
AcDbLine
 10
123.44895
 20
2.85
 30
0.0
 11
126.34895
 21
1.65
 31
0.0
  0
LINE
  5
1C1
330
1D
100
AcDbEntity
  8
0
100
AcDbLine
 10
123.44895
 20
2.85
 30
0.0
 11
126.34895
 21
1.65
 31
0.0
  0
LINE
  5
1C2
330
1D
100
AcDbEntity
  8
0
100
AcDbLine
 10
123.76165
 20
2.01293
 30
0.0
 11
124.001490346201
 21
2.621362615365
 31
0.0
  0
LINE
  5
1C3
330
1D
100
AcDbEntity
  8
0
100
AcDbLine
 10
123.76165
 20
2.01293
 30
0.0
 11
124.001490346201
 21
2.621362615365
 31
0.0
  0
LINE
  5
1C4
330
1D
100
AcDbEntity
  8
0
100
AcDbLine
 10
123.76165
 20
2.01292
 30
0.0
 11
124.16115
 21
1.85998
 31
0.0
  0
LINE
  5
1C5
330
1D
100
AcDbEntity
  8
0
100
AcDbLine
 10
123.76165
 20
2.01292
 30
0.0
 11
124.16115
 21
1.85998
 31
0.0
  0
LINE
  5
1C6
330
1D
100
AcDbEntity
  8
0
100
AcDbLine
 10
123.76165
 20
2.01293
 30
0.0
 11
124.001490346201
 21
2.621362615365
 31
0.0
  0
LINE
  5
1C7
330
1D
100
AcDbEntity
  8
0
100
AcDbLine
 10
121.24895
 20
15.45
 30
0.0
 11
121.978665482271
 21
17.274288705676
 31
0.0
  0
LINE
  5
1C8
330
1D
100
AcDbEntity
  8
0
100
AcDbLine
 10
121.24895
 20
15.45
 30
0.0
 11
122.04895
 21
17.45
 31
0.0
  0
LINE
  5
1C9
330
1D
100
AcDbEntity
  8
0
100
AcDbLine
 10
121.24895
 20
11.05
 30
0.0
 11
121.978663232292
 21
9.225716919271
 31
0.0
  0
LINE
  5
1CA
330
1D
100
AcDbEntity
  8
0
100
AcDbLine
 10
121.24895
 20
11.05
 30
0.0
 11
122.04895
 21
9.05
 31
0.0
  0
LINE
  5
1CB
330
1D
100
AcDbEntity
  8
0
100
AcDbLine
 10
121.34895
 20
21.35
 30
0.0
 11
123.74895
 21
23.25
 31
0.0
  0
LINE
  5
1CC
330
1D
100
AcDbEntity
  8
0
100
AcDbLine
 10
121.44895
 20
13.25
 30
0.0
 11
121.74895
 21
11.15
 31
0.0
  0
LINE
  5
1CD
330
1D
100
AcDbEntity
  8
0
100
AcDbLine
 10
121.44895
 20
13.25
 30
0.0
 11
121.74895
 21
15.35
 31
0.0
  0
LINE
  5
1CE
330
1D
100
AcDbEntity
  8
0
100
AcDbLine
 10
121.484664285714
 20
13.0
 30
0.0
 11
123.984664285714
 21
13.0
 31
0.0
  0
LINE
  5
1CF
330
1D
100
AcDbEntity
  8
0
100
AcDbLine
 10
121.34895
 20
5.15
 30
0.0
 11
123.74895
 21
3.25
 31
0.0
  0
LINE
  5
1D0
330
1D
100
AcDbEntity
  8
0
100
AcDbLine
 10
121.50495
 20
3.57962
 30
0.0
 11
121.920627131017
 21
4.011525380427
 31
0.0
  0
LINE
  5
1D1
330
1D
100
AcDbEntity
  8
0
100
AcDbLine
 10
121.50495
 20
3.57959
 30
0.0
 11
121.920643806572
 21
4.011512707005
 31
0.0
  0
LINE
  5
1D2
330
1D
100
AcDbEntity
  8
0
100
AcDbLine
 10
123.757258651544
 20
3.891684909728
 30
0.0
 11
128.10745
 21
11.4264
 31
0.0
  0
LINE
  5
1D3
330
1D
100
AcDbEntity
  8
0
100
AcDbLine
 10
123.757258651544
 20
3.891684909728
 30
0.0
 11
124.999785793891
 21
6.04379438253
 31
0.0
  0
LINE
  5
1D4
330
1D
100
AcDbEntity
  8
0
100
AcDbLine
 10
123.757258651544
 20
3.891684909728
 30
0.0
 11
124.999785793891
 21
6.04379438253
 31
0.0
  0
LINE
  5
1D5
330
1D
100
AcDbEntity
  8
0
100
AcDbLine
 10
123.757258651544
 20
3.891684909728
 30
0.0
 11
128.10745
 21
11.4264
 31
0.0
  0
LINE
  5
1D6
330
1D
100
AcDbEntity
  8
0
100
AcDbLine
 10
121.64895
 20
21.05
 30
0.0
 11
123.94895
 21
22.75
 31
0.0
  0
LINE
  5
1D7
330
1D
100
AcDbEntity
  8
0
100
AcDbLine
 10
121.64895
 20
5.45
 30
0.0
 11
123.94895
 21
3.75
 31
0.0
  0
LINE
  5
1D8
330
1D
100
AcDbEntity
  8
0
100
AcDbLine
 10
122.04895
 20
9.05
 30
0.0
 11
123.44895
 21
7.25
 31
0.0
  0
LINE
  5
1D9
330
1D
100
AcDbEntity
  8
0
100
AcDbLine
 10
123.44895
 20
7.25
 30
0.0
 11
125.24895
 21
5.85
 31
0.0
  0
LINE
  5
1DA
330
1D
100
AcDbEntity
  8
0
100
AcDbLine
 10
122.54895
 20
9.25
 30
0.0
 11
123.84895
 21
7.65
 31
0.0
  0
LINE
  5
1DB
330
1D
100
AcDbEntity
  8
0
100
AcDbLine
 10
122.242745949172
 20
8.800833779636
 30
0.0
 11
123.44895
 21
7.25
 31
0.0
  0
LINE
  5
1DC
330
1D
100
AcDbEntity
  8
0
100
AcDbLine
 10
121.74895
 20
15.35
 30
0.0
 11
122.54895
 21
17.25
 31
0.0
  0
LINE
  5
1DD
330
1D
100
AcDbEntity
  8
0
100
AcDbLine
 10
122.04895
 20
17.45
 30
0.0
 11
123.44895
 21
19.25
 31
0.0
  0
LINE
  5
1DE
330
1D
100
AcDbEntity
  8
0
100
AcDbLine
 10
122.242742242429
 20
17.699161454552
 30
0.0
 11
123.44895
 21
19.25
 31
0.0
  0
LINE
  5
1DF
330
1D
100
AcDbEntity
  8
0
100
AcDbLine
 10
121.74895
 20
11.15
 30
0.0
 11
122.54895
 21
9.25
 31
0.0
  0
LINE
  5
1E0
330
1D
100
AcDbEntity
  8
0
100
AcDbLine
 10
122.54895
 20
17.25
 30
0.0
 11
123.84895
 21
18.85
 31
0.0
  0
LINE
  5
1E1
330
1D
100
AcDbEntity
  8
0
100
AcDbLine
 10
123.44895
 20
19.25
 30
0.0
 11
124.999788545448
 21
20.456207757571
 31
0.0
  0
LINE
  5
1E2
330
1D
100
AcDbEntity
  8
0
100
AcDbLine
 10
123.44895
 20
19.25
 30
0.0
 11
125.24895
 21
20.65
 31
0.0
  0
LINE
  5
1E3
330
1D
100
AcDbEntity
  8
0
100
AcDbLine
 10
123.757262563486
 20
22.608317981707
 30
0.0
 11
124.999788545448
 21
20.456207757571
 31
0.0
  0
LINE
  5
1E4
330
1D
100
AcDbEntity
  8
0
100
AcDbLine
 10
123.757262563486
 20
22.608317981707
 30
0.0
 11
128.10745
 21
15.0736
 31
0.0
  0
LINE
  5
1E5
330
1D
100
AcDbEntity
  8
0
100
AcDbLine
 10
123.757262563486
 20
22.608317981707
 30
0.0
 11
128.10745
 21
15.0736
 31
0.0
  0
LINE
  5
1E6
330
1D
100
AcDbEntity
  8
0
100
AcDbLine
 10
123.757262563486
 20
22.608317981707
 30
0.0
 11
124.999788545448
 21
20.456207757571
 31
0.0
  0
LINE
  5
1E7
330
1D
100
AcDbEntity
  8
0
100
AcDbLine
 10
122.445653921673
 20
17.004671813973
 30
0.0
 11
124.580526225564
 21
15.772098186467
 31
0.0
  0
LINE
  5
1E8
330
1D
100
AcDbEntity
  8
0
100
AcDbLine
 10
122.445651779371
 20
9.495333273993
 30
0.0
 11
124.580525097022
 21
10.727904747742
 31
0.0
  0
LINE
  5
1E9
330
1D
100
AcDbEntity
  8
0
100
AcDbLine
 10
121.19405
 20
3.87017
 30
0.0
 11
121.50495
 21
3.57959
 31
0.0
  0
LINE
  5
1EA
330
1D
100
AcDbEntity
  8
0
100
AcDbLine
 10
121.19405
 20
3.87017
 30
0.0
 11
121.50495
 21
3.57959
 31
0.0
  0
LINE
  5
1EB
330
1D
100
AcDbEntity
  8
0
100
AcDbLine
 10
123.76165
 20
2.01292
 30
0.0
 11
124.16115
 21
1.85998
 31
0.0
  0
LINE
  5
1EC
330
1D
100
AcDbEntity
  8
0
100
AcDbLine
 10
123.84895
 20
7.65
 30
0.0
 11
125.44895
 21
6.35
 31
0.0
  0
LINE
  5
1ED
330
1D
100
AcDbEntity
  8
0
100
AcDbLine
 10
123.84895
 20
7.65
 30
0.0
 11
125.263547003696
 21
6.500639934497
 31
0.0
  0
LINE
  5
1EE
330
1D
100
AcDbEntity
  8
0
100
AcDbLine
 10
123.94895
 20
3.75
 30
0.0
 11
126.64895
 21
2.65
 31
0.0
  0
LINE
  5
1EF
330
1D
100
AcDbEntity
  8
0
100
AcDbLine
 10
124.14895
 20
11.85
 30
0.0
 11
124.580525097022
 21
10.727904747742
 31
0.0
  0
LINE
  5
1F0
330
1D
100
AcDbEntity
  8
0
100
AcDbLine
 10
124.14895
 20
11.85
 30
0.0
 11
124.64895
 21
10.55
 31
0.0
  0
LINE
  5
1F1
330
1D
100
AcDbEntity
  8
0
100
AcDbLine
 10
124.14895
 20
11.85
 30
0.0
 11
124.580525097022
 21
10.727904747742
 31
0.0
  0
LINE
  5
1F2
330
1D
100
AcDbEntity
  8
0
100
AcDbLine
 10
123.84895
 20
18.85
 30
0.0
 11
125.44895
 21
20.15
 31
0.0
  0
LINE
  5
1F3
330
1D
100
AcDbEntity
  8
0
100
AcDbLine
 10
123.84895
 20
18.85
 30
0.0
 11
125.263549487356
 21
19.999362083477
 31
0.0
  0
LINE
  5
1F4
330
1D
100
AcDbEntity
  8
0
100
AcDbLine
 10
123.94895
 20
22.75
 30
0.0
 11
126.64895
 21
23.85
 31
0.0
  0
LINE
  5
1F5
330
1D
100
AcDbEntity
  8
0
100
AcDbLine
 10
124.14895
 20
14.65
 30
0.0
 11
124.580526225564
 21
15.772098186467
 31
0.0
  0
LINE
  5
1F6
330
1D
100
AcDbEntity
  8
0
100
AcDbLine
 10
124.14895
 20
14.65
 30
0.0
 11
124.64895
 21
15.95
 31
0.0
  0
LINE
  5
1F7
330
1D
100
AcDbEntity
  8
0
100
AcDbLine
 10
123.984664285714
 20
13.5
 30
0.0
 11
124.14895
 21
14.65
 31
0.0
  0
LINE
  5
1F8
330
1D
100
AcDbEntity
  8
0
100
AcDbLine
 10
123.94895
 20
13.25
 30
0.0
 11
124.14895
 21
11.85
 31
0.0
  0
LINE
  5
1F9
330
1D
100
AcDbEntity
  8
0
100
AcDbLine
 10
123.94895
 20
13.25
 30
0.0
 11
124.14895
 21
14.65
 31
0.0
  0
LINE
  5
1FA
330
1D
100
AcDbEntity
  8
0
100
AcDbLine
 10
123.984664285714
 20
13.0
 30
0.0
 11
124.14895
 21
11.85
 31
0.0
  0
LINE
  5
1FB
330
1D
100
AcDbEntity
  8
0
100
AcDbLine
 10
124.16115
 20
1.85998
 30
0.0
 11
124.96015
 21
1.5541
 31
0.0
  0
LINE
  5
1FD
330
1D
100
AcDbEntity
  8
0
100
AcDbLine
 10
124.16115
 20
1.85998
 30
0.0
 11
124.96015
 21
1.5541
 31
0.0
  0
LINE
  5
1FE
330
1D
100
AcDbEntity
  8
0
100
AcDbLine
 10
124.194939208035
 20
22.850217825496
 30
0.0
 11
128.54045
 21
15.3236
 31
0.0
  0
LINE
  5
1FF
330
1D
100
AcDbEntity
  8
0
100
AcDbLine
 10
124.194934694402
 20
3.649784013392
 30
0.0
 11
128.54045
 21
11.1764
 31
0.0
  0
LINE
  5
200
330
1D
100
AcDbEntity
  8
0
100
AcDbLine
 10
124.837330133326
 20
10.298826488898
 30
0.0
 11
125.54895
 21
9.35
 31
0.0
  0
LINE
  5
201
330
1D
100
AcDbEntity
  8
0
100
AcDbLine
 10
124.64895
 20
11.95
 30
0.0
 11
125.14895
 21
10.75
 31
0.0
  0
LINE
  5
202
330
1D
100
AcDbEntity
  8
0
100
AcDbLine
 10
124.64895
 20
10.55
 30
0.0
 11
125.54895
 21
9.35
 31
0.0
  0
LINE
  5
203
330
1D
100
AcDbEntity
  8
0
100
AcDbLine
 10
124.837330133326
 20
10.298826488898
 30
0.0
 11
125.54895
 21
9.35
 31
0.0
  0
LINE
  5
204
330
1D
100
AcDbEntity
  8
0
100
AcDbLine
 10
124.64895
 20
14.55
 30
0.0
 11
125.14895
 21
15.75
 31
0.0
  0
LINE
  5
205
330
1D
100
AcDbEntity
  8
0
100
AcDbLine
 10
124.64895
 20
15.95
 30
0.0
 11
125.54895
 21
17.15
 31
0.0
  0
LINE
  5
206
330
1D
100
AcDbEntity
  8
0
100
AcDbLine
 10
124.8373282612
 20
16.201171014934
 30
0.0
 11
125.54895
 21
17.15
 31
0.0
  0
LINE
  5
207
330
1D
100
AcDbEntity
  8
0
100
AcDbLine
 10
124.44895
 20
13.25
 30
0.0
 11
124.64895
 21
11.95
 31
0.0
  0
LINE
  5
208
330
1D
100
AcDbEntity
  8
0
100
AcDbLine
 10
124.44895
 20
13.25
 30
0.0
 11
124.64895
 21
14.55
 31
0.0
  0
LINE
  5
209
330
1D
100
AcDbEntity
  8
0
100
AcDbLine
 10
124.487411538462
 20
13.0
 30
0.0
 11
126.990616666667
 21
13.0
 31
0.0
  0
LINE
  5
20A
330
1D
100
AcDbEntity
  8
0
100
AcDbLine
 10
124.16115
 20
1.85998
 30
0.0
 11
124.96015
 21
1.5541
 31
0.0
  0
LINE
  5
20B
330
1D
100
AcDbEntity
  8
0
100
AcDbLine
 10
124.16115
 20
1.85998
 30
0.0
 11
124.96015
 21
1.5541
 31
0.0
  0
LINE
  5
20C
330
1D
100
AcDbEntity
  8
0
100
AcDbLine
 10
123.76165
 20
2.01293
 30
0.0
 11
124.001490346201
 21
2.621362615365
 31
0.0
  0
LINE
  5
20D
330
1D
100
AcDbEntity
  8
0
100
AcDbLine
 10
120.38775
 20
25.3205
 30
0.0
 11
121.73205
 21
26.248
 31
0.0
  0
LINE
  5
212
330
1D
100
AcDbEntity
  8
0
100
AcDbLine
 10
120.38765
 20
25.3205
 30
0.0
 11
121.73235
 21
26.2481
 31
0.0
  0
LINE
  5
213
330
1D
100
AcDbEntity
  8
0
100
AcDbLine
 10
123.00095
 20
24.534
 30
0.0
 11
126.12095
 21
25.782
 31
0.0
  0
LINE
  5
214
330
1D
100
AcDbEntity
  8
0
100
AcDbLine
 10
123.74895
 20
23.25
 30
0.0
 11
126.44895
 21
24.35
 31
0.0
  0
LINE
  5
215
330
1D
100
AcDbEntity
  8
0
100
AcDbLine
 10
123.44895
 20
23.65
 30
0.0
 11
126.34895
 21
24.85
 31
0.0
  0
LINE
  5
21A
330
1D
100
AcDbEntity
  8
0
100
AcDbLine
 10
120.27635
 20
24.5441
 30
0.0
 11
121.61505
 21
25.5402
 31
0.0
  0
LINE
  5
21B
330
1D
100
AcDbEntity
  8
0
100
AcDbLine
 10
120.27635
 20
24.5441
 30
0.0
 11
121.61485
 21
25.5403
 31
0.0
  0
LINE
  5
21C
330
1D
100
AcDbEntity
  8
0
100
AcDbLine
 10
85.64105
 20
25.6673
 30
0.0
 11
96.22545
 21
25.2378
 31
0.0
  0
LINE
  5
223
330
1D
100
AcDbEntity
  8
0
100
AcDbLine
 10
121.73205
 20
26.248
 30
0.0
 11
123.17035
 21
27.0225
 31
0.0
  0
LINE
  5
224
330
1D
100
AcDbEntity
  8
0
100
AcDbLine
 10
121.61485
 20
25.5403
 30
0.0
 11
123.05995
 21
26.3743
 31
0.0
  0
LINE
  5
228
330
1D
100
AcDbEntity
  8
0
100
AcDbLine
 10
123.05995
 20
26.3743
 30
0.0
 11
124.59175
 21
27.035
 31
0.0
  0
LINE
  5
229
330
1D
100
AcDbEntity
  8
0
100
AcDbLine
 10
121.73235
 20
26.2481
 30
0.0
 11
123.17025
 21
27.0225
 31
0.0
  0
LINE
  5
22E
330
1D
100
AcDbEntity
  8
0
100
AcDbLine
 10
82.61385
 20
39.1909
 30
0.0
 11
103.50205
 21
39.2756
 31
0.0
  0
LINE
  5
22F
330
1D
100
AcDbEntity
  8
0
100
AcDbLine
 10
103.50205
 20
39.2756
 30
0.0
 11
111.99885
 21
39.375902691691
 31
0.0
  0
LINE
  5
232
330
1D
100
AcDbEntity
  8
0
100
AcDbLine
 10
111.99885
 20
70.75
 30
0.0
 11
111.99885
 21
11.750292
 31
0.0
  0
LINE
  5
235
330
1D
100
AcDbEntity
  8
0
100
AcDbLine
 10
123.17035
 20
27.0225
 30
0.0
 11
124.68445
 21
27.6349
 31
0.0
  0
LINE
  5
236
330
1D
100
AcDbEntity
  8
0
100
AcDbLine
 10
124.59175
 20
27.035
 30
0.0
 11
126.19025
 21
27.5133
 31
0.0
  0
LINE
  5
237
330
1D
100
AcDbEntity
  8
0
100
AcDbLine
 10
123.17025
 20
27.0225
 30
0.0
 11
124.68465
 21
27.6348
 31
0.0
  0
LINE
  5
244
330
1D
100
AcDbEntity
  8
0
100
AcDbLine
 10
124.68445
 20
27.6349
 30
0.0
 11
126.25665
 21
28.0776
 31
0.0
  0
LINE
  5
245
330
1D
100
AcDbEntity
  8
0
100
AcDbLine
 10
124.68465
 20
27.6348
 30
0.0
 11
126.25665
 21
28.0776
 31
0.0
  0
LINE
  5
247
330
1D
100
AcDbEntity
  8
0
100
AcDbLine
 10
124.59195
 20
27.035
 30
0.0
 11
126.19035
 21
27.5132
 31
0.0
  0
LINE
  5
248
330
1D
100
AcDbEntity
  8
0
100
AcDbLine
 10
123.05995
 20
26.3742
 30
0.0
 11
124.59195
 21
27.035
 31
0.0
  0
LINE
  5
249
330
1D
100
AcDbEntity
  8
0
100
AcDbLine
 10
121.61505
 20
25.5402
 30
0.0
 11
123.05995
 21
26.3742
 31
0.0
  0
LINE
  5
24A
330
1D
100
AcDbEntity
  8
0
100
AcDbLine
 10
126.12095
 20
0.718
 30
0.0
 11
129.44895
 21
0.25
 31
0.0
  0
LINE
  5
24B
330
1D
100
AcDbEntity
  8
0
100
AcDbLine
 10
129.44895
 20
0.25
 30
0.0
 11
132.77695
 21
0.718
 31
0.0
  0
LINE
  5
24C
330
1D
100
AcDbEntity
  8
0
100
AcDbLine
 10
132.77695
 20
0.718
 30
0.0
 11
135.89695
 21
1.966
 31
0.0
  0
LINE
  5
24D
330
1D
100
AcDbEntity
  8
0
100
AcDbLine
 10
129.87755
 20
0.7502
 30
0.0
 11
130.30605
 21
0.7502
 31
0.0
  0
LINE
  5
24E
330
1D
100
AcDbEntity
  8
0
100
AcDbLine
 10
129.87755
 20
0.7502
 30
0.0
 11
130.30605
 21
0.7502
 31
0.0
  0
LINE
  5
24F
330
1D
100
AcDbEntity
  8
0
100
AcDbLine
 10
129.02035
 20
0.7502
 30
0.0
 11
129.87755
 21
0.7502
 31
0.0
  0
LINE
  5
250
330
1D
100
AcDbEntity
  8
0
100
AcDbLine
 10
125.35965
 20
1.4012
 30
0.0
 11
125.582737128555
 21
1.967053601977
 31
0.0
  0
LINE
  5
251
330
1D
100
AcDbEntity
  8
0
100
AcDbLine
 10
128.59185
 20
0.7502
 30
0.0
 11
128.59185
 21
1.360593548387
 31
0.0
  0
LINE
  5
252
330
1D
100
AcDbEntity
  8
0
100
AcDbLine
 10
128.59185
 20
0.7502
 30
0.0
 11
129.02035
 21
0.7502
 31
0.0
  0
LINE
  5
253
330
1D
100
AcDbEntity
  8
0
100
AcDbLine
 10
128.59185
 20
0.7502
 30
0.0
 11
129.02035
 21
0.7502
 31
0.0
  0
LINE
  5
254
330
1D
100
AcDbEntity
  8
0
100
AcDbLine
 10
128.59185
 20
0.7502
 30
0.0
 11
128.59185
 21
1.360593548387
 31
0.0
  0
LINE
  5
255
330
1D
100
AcDbEntity
  8
0
100
AcDbLine
 10
128.59185
 20
1.360593548387
 30
0.0
 11
128.59185
 21
0.7502
 31
0.0
  0
LINE
  5
256
330
1D
100
AcDbEntity
  8
0
100
AcDbLine
 10
128.59185
 20
0.7502
 30
0.0
 11
129.02035
 21
0.7502
 31
0.0
  0
LINE
  5
257
330
1D
100
AcDbEntity
  8
0
100
AcDbLine
 10
128.59185
 20
0.7502
 30
0.0
 11
128.59185
 21
1.360593548387
 31
0.0
  0
LINE
  5
258
330
1D
100
AcDbEntity
  8
0
100
AcDbLine
 10
128.59185
 20
0.7502
 30
0.0
 11
129.02035
 21
0.7502
 31
0.0
  0
LINE
  5
259
330
1D
100
AcDbEntity
  8
0
100
AcDbLine
 10
124.96015
 20
1.5541
 30
0.0
 11
125.35965
 21
1.4012
 31
0.0
  0
LINE
  5
25B
330
1D
100
AcDbEntity
  8
0
100
AcDbLine
 10
124.96015
 20
1.5541
 30
0.0
 11
125.35965
 21
1.4012
 31
0.0
  0
LINE
  5
25C
330
1D
100
AcDbEntity
  8
0
100
AcDbLine
 10
126.44895
 20
2.15
 30
0.0
 11
129.44895
 21
1.75
 31
0.0
  0
LINE
  5
25D
330
1D
100
AcDbEntity
  8
0
100
AcDbLine
 10
126.34895
 20
1.65
 30
0.0
 11
129.44895
 21
1.25
 31
0.0
  0
LINE
  5
25E
330
1D
100
AcDbEntity
  8
0
100
AcDbLine
 10
125.24895
 20
5.85
 30
0.0
 11
127.24895
 21
5.05
 31
0.0
  0
LINE
  5
25F
330
1D
100
AcDbEntity
  8
0
100
AcDbLine
 10
125.44895
 20
6.35
 30
0.0
 11
127.34895
 21
5.55
 31
0.0
  0
LINE
  5
260
330
1D
100
AcDbEntity
  8
0
100
AcDbLine
 10
125.424658046745
 20
5.779716781302
 30
0.0
 11
127.24895
 21
5.05
 31
0.0
  0
LINE
  5
261
330
1D
100
AcDbEntity
  8
0
100
AcDbLine
 10
125.046145364661
 20
10.996731124814
 30
0.0
 11
127.187864908407
 21
12.233255274779
 31
0.0
  0
LINE
  5
262
330
1D
100
AcDbEntity
  8
0
100
AcDbLine
 10
125.94895
 20
9.75
 30
0.0
 11
126.94895
 21
8.95
 31
0.0
  0
LINE
  5
263
330
1D
100
AcDbEntity
  8
0
100
AcDbLine
 10
125.54895
 20
9.35
 30
0.0
 11
126.497777543895
 21
8.638379342079
 31
0.0
  0
LINE
  5
264
330
1D
100
AcDbEntity
  8
0
100
AcDbLine
 10
125.54895
 20
9.35
 30
0.0
 11
126.74895
 21
8.45
 31
0.0
  0
LINE
  5
265
330
1D
100
AcDbEntity
  8
0
100
AcDbLine
 10
125.14895
 20
10.75
 30
0.0
 11
125.94895
 21
9.75
 31
0.0
  0
LINE
  5
266
330
1D
100
AcDbEntity
  8
0
100
AcDbLine
 10
125.14895
 20
15.75
 30
0.0
 11
125.94895
 21
16.75
 31
0.0
  0
LINE
  5
267
330
1D
100
AcDbEntity
  8
0
100
AcDbLine
 10
125.24895
 20
20.65
 30
0.0
 11
127.24895
 21
21.45
 31
0.0
  0
LINE
  5
268
330
1D
100
AcDbEntity
  8
0
100
AcDbLine
 10
125.94895
 20
16.75
 30
0.0
 11
126.94895
 21
17.55
 31
0.0
  0
LINE
  5
269
330
1D
100
AcDbEntity
  8
0
100
AcDbLine
 10
125.54895
 20
17.15
 30
0.0
 11
126.497778985066
 21
17.8616217388
 31
0.0
  0
LINE
  5
26A
330
1D
100
AcDbEntity
  8
0
100
AcDbLine
 10
125.54895
 20
17.15
 30
0.0
 11
126.74895
 21
18.05
 31
0.0
  0
LINE
  5
26B
330
1D
100
AcDbEntity
  8
0
100
AcDbLine
 10
125.694278186027
 20
20.253296078327
 30
0.0
 11
127.34895
 21
20.95
 31
0.0
  0
LINE
  5
26C
330
1D
100
AcDbEntity
  8
0
100
AcDbLine
 10
125.44895
 20
20.15
 30
0.0
 11
127.34895
 21
20.95
 31
0.0
  0
LINE
  5
26D
330
1D
100
AcDbEntity
  8
0
100
AcDbLine
 10
125.424661294324
 20
20.720284517729
 30
0.0
 11
127.24895
 21
21.45
 31
0.0
  0
LINE
  5
26E
330
1D
100
AcDbEntity
  8
0
100
AcDbLine
 10
125.263549487356
 20
19.999362083477
 30
0.0
 11
126.497778985066
 21
17.8616217388
 31
0.0
  0
LINE
  5
26F
330
1D
100
AcDbEntity
  8
0
100
AcDbLine
 10
125.046146368366
 20
15.503271284077
 30
0.0
 11
127.187864975648
 21
14.266744926944
 31
0.0
  0
LINE
  5
270
330
1D
100
AcDbEntity
  8
0
100
AcDbLine
 10
125.046146368366
 20
15.503271284077
 30
0.0
 11
127.187864975648
 21
14.266744926944
 31
0.0
  0
LINE
  5
271
330
1D
100
AcDbEntity
  8
0
100
AcDbLine
 10
125.046145364661
 20
10.996731124814
 30
0.0
 11
127.187864908407
 21
12.233255274779
 31
0.0
  0
LINE
  5
272
330
1D
100
AcDbEntity
  8
0
100
AcDbLine
 10
125.263547003696
 20
6.500639934497
 30
0.0
 11
126.497777543895
 21
8.638379342079
 31
0.0
  0
LINE
  5
273
330
1D
100
AcDbEntity
  8
0
100
AcDbLine
 10
126.64895
 20
23.85
 30
0.0
 11
129.44895
 21
24.25
 31
0.0
  0
LINE
  5
274
330
1D
100
AcDbEntity
  8
0
100
AcDbLine
 10
126.64895
 20
23.85
 30
0.0
 11
129.19895
 21
24.214285714286
 31
0.0
  0
LINE
  5
275
330
1D
100
AcDbEntity
  8
0
100
AcDbLine
 10
126.64895
 20
2.65
 30
0.0
 11
129.44895
 21
2.25
 31
0.0
  0
LINE
  5
276
330
1D
100
AcDbEntity
  8
0
100
AcDbLine
 10
126.44895
 20
24.35
 30
0.0
 11
129.44895
 21
24.75
 31
0.0
  0
LINE
  5
277
330
1D
100
AcDbEntity
  8
0
100
AcDbLine
 10
126.34895
 20
24.85
 30
0.0
 11
129.44895
 21
25.25
 31
0.0
  0
LINE
  5
278
330
1D
100
AcDbEntity
  8
0
100
AcDbLine
 10
126.94895
 20
8.95
 30
0.0
 11
128.14895
 21
8.45
 31
0.0
  0
LINE
  5
279
330
1D
100
AcDbEntity
  8
0
100
AcDbLine
 10
126.74895
 20
8.45
 30
0.0
 11
128.04895
 21
7.95
 31
0.0
  0
LINE
  5
27A
330
1D
100
AcDbEntity
  8
0
100
AcDbLine
 10
126.926850119459
 20
8.381576877131
 30
0.0
 11
128.04895
 21
7.95
 31
0.0
  0
LINE
  5
27B
330
1D
100
AcDbEntity
  8
0
100
AcDbLine
 10
128.14895
 20
8.45
 30
0.0
 11
129.44895
 21
8.25
 31
0.0
  0
LINE
  5
27C
330
1D
100
AcDbEntity
  8
0
100
AcDbLine
 10
128.14895
 20
8.45
 30
0.0
 11
129.19895
 21
8.288461538462
 31
0.0
  0
LINE
  5
27D
330
1D
100
AcDbEntity
  8
0
100
AcDbLine
 10
128.04895
 20
7.95
 30
0.0
 11
129.19895
 21
7.785714285714
 31
0.0
  0
LINE
  5
27E
330
1D
100
AcDbEntity
  8
0
100
AcDbLine
 10
128.04895
 20
7.95
 30
0.0
 11
129.44895
 21
7.75
 31
0.0
  0
LINE
  5
27F
330
1D
100
AcDbEntity
  8
0
100
AcDbLine
 10
127.34895
 20
5.55
 30
0.0
 11
129.44895
 21
5.25
 31
0.0
  0
LINE
  5
280
330
1D
100
AcDbEntity
  8
0
100
AcDbLine
 10
127.24895
 20
5.05
 30
0.0
 11
129.19895
 21
4.784090909091
 31
0.0
  0
LINE
  5
281
330
1D
100
AcDbEntity
  8
0
100
AcDbLine
 10
127.24895
 20
5.05
 30
0.0
 11
129.44895
 21
4.75
 31
0.0
  0
LINE
  5
282
330
1D
100
AcDbEntity
  8
0
100
AcDbLine
 10
127.04895
 20
12.65
 30
0.0
 11
127.187864908407
 21
12.233255274779
 31
0.0
  0
LINE
  5
283
330
1D
100
AcDbEntity
  8
0
100
AcDbLine
 10
127.04895
 20
12.65
 30
0.0
 11
127.24895
 21
12.05
 31
0.0
  0
LINE
  5
284
330
1D
100
AcDbEntity
  8
0
100
AcDbLine
 10
126.990616666667
 20
13.5
 30
0.0
 11
127.04895
 21
13.85
 31
0.0
  0
LINE
  5
285
330
1D
100
AcDbEntity
  8
0
100
AcDbLine
 10
126.94895
 20
13.25
 30
0.0
 11
127.04895
 21
12.65
 31
0.0
  0
LINE
  5
286
330
1D
100
AcDbEntity
  8
0
100
AcDbLine
 10
126.94895
 20
13.25
 30
0.0
 11
127.04895
 21
13.85
 31
0.0
  0
LINE
  5
287
330
1D
100
AcDbEntity
  8
0
100
AcDbLine
 10
126.990616666667
 20
13.0
 30
0.0
 11
127.04895
 21
12.65
 31
0.0
  0
LINE
  5
288
330
1D
100
AcDbEntity
  8
0
100
AcDbLine
 10
127.24895
 20
12.05
 30
0.0
 11
127.64895
 21
11.45
 31
0.0
  0
LINE
  5
289
330
1D
100
AcDbEntity
  8
0
100
AcDbLine
 10
127.64895
 20
11.45
 30
0.0
 11
128.24895
 21
11.05
 31
0.0
  0
LINE
  5
28A
330
1D
100
AcDbEntity
  8
0
100
AcDbLine
 10
128.04895
 20
11.85
 30
0.0
 11
128.44895
 21
11.55
 31
0.0
  0
LINE
  5
28B
330
1D
100
AcDbEntity
  8
0
100
AcDbLine
 10
127.64895
 20
11.45
 30
0.0
 11
127.989858962599
 21
11.222727358267
 31
0.0
  0
LINE
  5
28C
330
1D
100
AcDbEntity
  8
0
100
AcDbLine
 10
127.74895
 20
12.25
 30
0.0
 11
128.04895
 21
11.85
 31
0.0
  0
LINE
  5
28D
330
1D
100
AcDbEntity
  8
0
100
AcDbLine
 10
127.421677411432
 20
11.790908882851
 30
0.0
 11
127.64895
 21
11.45
 31
0.0
  0
LINE
  5
28E
330
1D
100
AcDbEntity
  8
0
100
AcDbLine
 10
127.54895
 20
12.75
 30
0.0
 11
127.74895
 21
12.25
 31
0.0
  0
LINE
  5
28F
330
1D
100
AcDbEntity
  8
0
100
AcDbLine
 10
127.44895
 20
13.25
 30
0.0
 11
127.54895
 21
12.75
 31
0.0
  0
LINE
  5
290
330
1D
100
AcDbEntity
  8
0
100
AcDbLine
 10
127.44895
 20
13.25
 30
0.0
 11
127.54895
 21
13.75
 31
0.0
  0
LINE
  5
291
330
1D
100
AcDbEntity
  8
0
100
AcDbLine
 10
127.37535
 20
12.3415
 30
0.0
 11
127.62535
 21
11.9085
 31
0.0
  0
LINE
  5
292
330
1D
100
AcDbEntity
  8
0
100
AcDbLine
 10
127.19895
 20
13.0
 30
0.0
 11
127.19895
 21
13.5
 31
0.0
  0
LINE
  5
293
330
1D
100
AcDbEntity
  8
0
100
AcDbLine
 10
127.24895
 20
14.45
 30
0.0
 11
127.64895
 21
15.05
 31
0.0
  0
LINE
  5
294
330
1D
100
AcDbEntity
  8
0
100
AcDbLine
 10
127.04895
 20
13.85
 30
0.0
 11
127.187864975648
 21
14.266744926944
 31
0.0
  0
LINE
  5
295
330
1D
100
AcDbEntity
  8
0
100
AcDbLine
 10
127.04895
 20
13.85
 30
0.0
 11
127.24895
 21
14.45
 31
0.0
  0
LINE
  5
296
330
1D
100
AcDbEntity
  8
0
100
AcDbLine
 10
126.94895
 20
17.55
 30
0.0
 11
128.14895
 21
18.05
 31
0.0
  0
LINE
  5
297
330
1D
100
AcDbEntity
  8
0
100
AcDbLine
 10
126.74895
 20
18.05
 30
0.0
 11
128.04895
 21
18.55
 31
0.0
  0
LINE
  5
298
330
1D
100
AcDbEntity
  8
0
100
AcDbLine
 10
126.926851813533
 20
18.118423774436
 30
0.0
 11
128.04895
 21
18.55
 31
0.0
  0
LINE
  5
299
330
1D
100
AcDbEntity
  8
0
100
AcDbLine
 10
127.34895
 20
20.95
 30
0.0
 11
129.44895
 21
21.25
 31
0.0
  0
LINE
  5
29A
330
1D
100
AcDbEntity
  8
0
100
AcDbLine
 10
127.24895
 20
21.45
 30
0.0
 11
129.19895
 21
21.715909090909
 31
0.0
  0
LINE
  5
29B
330
1D
100
AcDbEntity
  8
0
100
AcDbLine
 10
127.24895
 20
21.45
 30
0.0
 11
129.44895
 21
21.75
 31
0.0
  0
LINE
  5
29C
330
1D
100
AcDbEntity
  8
0
100
AcDbLine
 10
126.763397762897
 20
17.401558210317
 30
0.0
 11
127.989859071538
 21
15.277272714359
 31
0.0
  0
LINE
  5
29D
330
1D
100
AcDbEntity
  8
0
100
AcDbLine
 10
127.54895
 20
13.75
 30
0.0
 11
127.74895
 21
14.25
 31
0.0
  0
LINE
  5
29E
330
1D
100
AcDbEntity
  8
0
100
AcDbLine
 10
127.421677285641
 20
14.709090928462
 30
0.0
 11
127.64895
 21
15.05
 31
0.0
  0
LINE
  5
29F
330
1D
100
AcDbEntity
  8
0
100
AcDbLine
 10
127.74895
 20
14.25
 30
0.0
 11
128.04895
 21
14.65
 31
0.0
  0
LINE
  5
2A0
330
1D
100
AcDbEntity
  8
0
100
AcDbLine
 10
128.04895
 20
14.65
 30
0.0
 11
128.44895
 21
14.95
 31
0.0
  0
LINE
  5
2A1
330
1D
100
AcDbEntity
  8
0
100
AcDbLine
 10
127.64895
 20
15.05
 30
0.0
 11
127.989859071538
 21
15.277272714359
 31
0.0
  0
LINE
  5
2A2
330
1D
100
AcDbEntity
  8
0
100
AcDbLine
 10
127.64895
 20
15.05
 30
0.0
 11
128.24895
 21
15.45
 31
0.0
  0
LINE
  5
2A3
330
1D
100
AcDbEntity
  8
0
100
AcDbLine
 10
128.04895
 20
18.55
 30
0.0
 11
129.19895
 21
18.714285714286
 31
0.0
  0
LINE
  5
2A4
330
1D
100
AcDbEntity
  8
0
100
AcDbLine
 10
128.04895
 20
18.55
 30
0.0
 11
129.44895
 21
18.75
 31
0.0
  0
LINE
  5
2A5
330
1D
100
AcDbEntity
  8
0
100
AcDbLine
 10
128.10745
 20
15.0736
 30
0.0
 11
128.54045
 21
15.3236
 31
0.0
  0
LINE
  5
2A6
330
1D
100
AcDbEntity
  8
0
100
AcDbLine
 10
127.37535
 20
14.1585
 30
0.0
 11
127.62535
 21
14.5915
 31
0.0
  0
LINE
  5
2A7
330
1D
100
AcDbEntity
  8
0
100
AcDbLine
 10
127.19895
 20
13.5
 30
0.0
 11
127.19895
 21
13.0
 31
0.0
  0
LINE
  5
2A8
330
1D
100
AcDbEntity
  8
0
100
AcDbLine
 10
128.24895
 20
15.45
 30
0.0
 11
128.84895
 21
15.65
 31
0.0
  0
LINE
  5
2A9
330
1D
100
AcDbEntity
  8
0
100
AcDbLine
 10
128.14895
 20
18.05
 30
0.0
 11
129.44895
 21
18.25
 31
0.0
  0
LINE
  5
2AA
330
1D
100
AcDbEntity
  8
0
100
AcDbLine
 10
128.14895
 20
18.05
 30
0.0
 11
129.19895
 21
18.211538461538
 31
0.0
  0
LINE
  5
2AB
330
1D
100
AcDbEntity
  8
0
100
AcDbLine
 10
128.44895
 20
14.95
 30
0.0
 11
128.94895
 21
15.15
 31
0.0
  0
LINE
  5
2AC
330
1D
100
AcDbEntity
  8
0
100
AcDbLine
 10
128.432205073056
 20
15.511085024352
 30
0.0
 11
128.84895
 21
15.65
 31
0.0
  0
LINE
  5
2AD
330
1D
100
AcDbEntity
  8
0
100
AcDbLine
 10
128.44895
 20
11.55
 30
0.0
 11
128.94895
 21
11.35
 31
0.0
  0
LINE
  5
2AE
330
1D
100
AcDbEntity
  8
0
100
AcDbLine
 10
128.24895
 20
11.05
 30
0.0
 11
128.84895
 21
10.85
 31
0.0
  0
LINE
  5
2AF
330
1D
100
AcDbEntity
  8
0
100
AcDbLine
 10
128.432204956591
 20
10.98891501447
 30
0.0
 11
128.84895
 21
10.85
 31
0.0
  0
LINE
  5
2B0
330
1D
100
AcDbEntity
  8
0
100
AcDbLine
 10
128.10745
 20
11.4264
 30
0.0
 11
128.54045
 21
11.1764
 31
0.0
  0
LINE
  5
2B1
330
1D
100
AcDbEntity
  8
0
100
AcDbLine
 10
126.763396583303
 20
9.098442733358
 30
0.0
 11
127.989858962599
 21
11.222727358267
 31
0.0
  0
LINE
  5
2B2
330
1D
100
AcDbEntity
  8
0
100
AcDbLine
 10
126.34895
 20
1.65
 30
0.0
 11
129.44895
 21
1.25
 31
0.0
  0
LINE
  5
2B3
330
1D
100
AcDbEntity
  8
0
100
AcDbLine
 10
124.96015
 20
1.5541
 30
0.0
 11
125.35965
 21
1.4012
 31
0.0
  0
LINE
  5
2B4
330
1D
100
AcDbEntity
  8
0
100
AcDbLine
 10
124.96015
 20
1.5541
 30
0.0
 11
125.35965
 21
1.4012
 31
0.0
  0
LINE
  5
2B5
330
1D
100
AcDbEntity
  8
0
100
AcDbLine
 10
124.96015
 20
1.5541
 30
0.0
 11
125.35965
 21
1.4012
 31
0.0
  0
LINE
  5
2B6
330
1D
100
AcDbEntity
  8
0
100
AcDbLine
 10
129.02035
 20
0.7502
 30
0.0
 11
129.87755
 21
0.7502
 31
0.0
  0
LINE
  5
2B7
330
1D
100
AcDbEntity
  8
0
100
AcDbLine
 10
129.87755
 20
0.7502
 30
0.0
 11
130.30605
 21
0.7502
 31
0.0
  0
LINE
  5
2B8
330
1D
100
AcDbEntity
  8
0
100
AcDbLine
 10
129.44895
 20
1.25
 30
0.0
 11
132.54895
 21
1.65
 31
0.0
  0
LINE
  5
2B9
330
1D
100
AcDbEntity
  8
0
100
AcDbLine
 10
129.44895
 20
1.75
 30
0.0
 11
132.44895
 21
2.15
 31
0.0
  0
LINE
  5
2BC
330
1D
100
AcDbEntity
  8
0
100
AcDbLine
 10
129.02035
 20
0.7502
 30
0.0
 11
129.87755
 21
0.7502
 31
0.0
  0
LINE
  5
2BE
330
1D
100
AcDbEntity
  8
0
100
AcDbLine
 10
129.87755
 20
0.7502
 30
0.0
 11
130.30605
 21
0.7502
 31
0.0
  0
LINE
  5
2C0
330
1D
100
AcDbEntity
  8
0
100
AcDbLine
 10
129.02035
 20
0.7502
 30
0.0
 11
129.87755
 21
0.7502
 31
0.0
  0
LINE
  5
2C1
330
1D
100
AcDbEntity
  8
0
100
AcDbLine
 10
130.30605
 20
1.360593548387
 30
0.0
 11
130.30605
 21
0.7502
 31
0.0
  0
LINE
  5
2C2
330
1D
100
AcDbEntity
  8
0
100
AcDbLine
 10
132.54895
 20
1.65
 30
0.0
 11
135.44895
 21
2.85
 31
0.0
  0
LINE
  5
2C3
330
1D
100
AcDbEntity
  8
0
100
AcDbLine
 10
130.30605
 20
0.7502
 30
0.0
 11
130.30605
 21
1.360593548387
 31
0.0
  0
LINE
  5
2C4
330
1D
100
AcDbEntity
  8
0
100
AcDbLine
 10
129.87755
 20
0.7502
 30
0.0
 11
130.30605
 21
0.7502
 31
0.0
  0
LINE
  5
2C5
330
1D
100
AcDbEntity
  8
0
100
AcDbLine
 10
133.53825
 20
1.4012
 30
0.0
 11
133.93775
 21
1.5541
 31
0.0
  0
LINE
  5
2C6
330
1D
100
AcDbEntity
  8
0
100
AcDbLine
 10
133.315224664745
 20
1.967079171619
 30
0.0
 11
133.53825
 21
1.4012
 31
0.0
  0
LINE
  5
2C7
330
1D
100
AcDbEntity
  8
0
100
AcDbLine
 10
133.315224664745
 20
1.967079171619
 30
0.0
 11
133.53825
 21
1.4012
 31
0.0
  0
LINE
  5
2C8
330
1D
100
AcDbEntity
  8
0
100
AcDbLine
 10
133.315224664745
 20
1.967079171619
 30
0.0
 11
133.53825
 21
1.4012
 31
0.0
  0
LINE
  5
2C9
330
1D
100
AcDbEntity
  8
0
100
AcDbLine
 10
133.315224664745
 20
1.967079171619
 30
0.0
 11
133.53825
 21
1.4012
 31
0.0
  0
LINE
  5
2CA
330
1D
100
AcDbEntity
  8
0
100
AcDbLine
 10
133.315224664745
 20
1.967079171619
 30
0.0
 11
133.53825
 21
1.4012
 31
0.0
  0
LINE
  5
2CB
330
1D
100
AcDbEntity
  8
0
100
AcDbLine
 10
133.93775
 20
1.5541
 30
0.0
 11
134.73675
 21
1.85998
 31
0.0
  0
LINE
  5
2CC
330
1D
100
AcDbEntity
  8
0
100
AcDbLine
 10
134.73675
 20
1.85998
 30
0.0
 11
135.13615
 21
2.01292
 31
0.0
  0
LINE
  5
2CD
330
1D
100
AcDbEntity
  8
0
100
AcDbLine
 10
129.44895
 20
2.25
 30
0.0
 11
132.24895
 21
2.65
 31
0.0
  0
LINE
  5
2CE
330
1D
100
AcDbEntity
  8
0
100
AcDbLine
 10
132.44895
 20
2.15
 30
0.0
 11
135.14895
 21
3.25
 31
0.0
  0
LINE
  5
2D0
330
1D
100
AcDbEntity
  8
0
100
AcDbLine
 10
129.69895
 20
2.285714285714
 30
0.0
 11
129.69895
 21
11.0
 31
0.0
  0
LINE
  5
2D1
330
1D
100
AcDbEntity
  8
0
100
AcDbLine
 10
129.69895
 20
2.285714285714
 30
0.0
 11
132.24895
 21
2.65
 31
0.0
  0
LINE
  5
2D2
330
1D
100
AcDbEntity
  8
0
100
AcDbLine
 10
129.19895
 20
2.285714285714
 30
0.0
 11
129.19895
 21
4.784090909091
 31
0.0
  0
LINE
  5
2D3
330
1D
100
AcDbEntity
  8
0
100
AcDbLine
 10
129.19895
 20
2.285714285714
 30
0.0
 11
129.19895
 21
11.0
 31
0.0
  0
LINE
  5
2D5
330
1D
100
AcDbEntity
  8
0
100
AcDbLine
 10
129.19895
 20
7.785714285714
 30
0.0
 11
129.19895
 21
5.285714285714
 31
0.0
  0
LINE
  5
2D6
330
1D
100
AcDbEntity
  8
0
100
AcDbLine
 10
129.19895
 20
4.784090909091
 30
0.0
 11
129.19895
 21
2.285714285714
 31
0.0
  0
LINE
  5
2D7
330
1D
100
AcDbEntity
  8
0
100
AcDbLine
 10
128.94895
 20
15.15
 30
0.0
 11
129.44895
 21
15.25
 31
0.0
  0
LINE
  5
2D8
330
1D
100
AcDbEntity
  8
0
100
AcDbLine
 10
128.84895
 20
15.65
 30
0.0
 11
129.44895
 21
15.75
 31
0.0
  0
LINE
  5
2D9
330
1D
100
AcDbEntity
  8
0
100
AcDbLine
 10
128.94895
 20
11.35
 30
0.0
 11
129.44895
 21
11.25
 31
0.0
  0
LINE
  5
2DA
330
1D
100
AcDbEntity
  8
0
100
AcDbLine
 10
128.84895
 20
10.85
 30
0.0
 11
129.19895
 21
10.791666666667
 31
0.0
  0
LINE
  5
2DB
330
1D
100
AcDbEntity
  8
0
100
AcDbLine
 10
128.84895
 20
10.85
 30
0.0
 11
129.44895
 21
10.75
 31
0.0
  0
LINE
  5
2DC
330
1D
100
AcDbEntity
  8
0
100
AcDbLine
 10
129.19895
 20
15.708333333333
 30
0.0
 11
129.19895
 21
18.211538461538
 31
0.0
  0
LINE
  5
2DD
330
1D
100
AcDbEntity
  8
0
100
AcDbLine
 10
129.19895
 20
18.714285714286
 30
0.0
 11
129.19895
 21
21.214285714286
 31
0.0
  0
LINE
  5
2DE
330
1D
100
AcDbEntity
  8
0
100
AcDbLine
 10
129.19895
 20
21.715909090909
 30
0.0
 11
129.19895
 21
24.214285714286
 31
0.0
  0
LINE
  5
2DF
330
1D
100
AcDbEntity
  8
0
100
AcDbLine
 10
129.19895
 20
18.211538461538
 30
0.0
 11
129.19895
 21
15.708333333333
 31
0.0
  0
LINE
  5
2E0
330
1D
100
AcDbEntity
  8
0
100
AcDbLine
 10
129.19895
 20
21.214285714286
 30
0.0
 11
129.19895
 21
18.714285714286
 31
0.0
  0
LINE
  5
2E1
330
1D
100
AcDbEntity
  8
0
100
AcDbLine
 10
129.19895
 20
24.214285714286
 30
0.0
 11
129.19895
 21
21.715909090909
 31
0.0
  0
LINE
  5
2E2
330
1D
100
AcDbEntity
  8
0
100
AcDbLine
 10
129.19895
 20
24.214285714286
 30
0.0
 11
129.19895
 21
15.5
 31
0.0
  0
LINE
  5
2E3
330
1D
100
AcDbEntity
  8
0
100
AcDbLine
 10
129.19895
 20
15.5
 30
0.0
 11
129.19895
 21
24.214285714286
 31
0.0
  0
LINE
  5
2E4
330
1D
100
AcDbEntity
  8
0
100
AcDbLine
 10
129.19895
 20
15.5
 30
0.0
 11
129.69895
 21
15.5
 31
0.0
  0
LINE
  5
2E5
330
1D
100
AcDbEntity
  8
0
100
AcDbLine
 10
129.19895
 20
10.791666666667
 30
0.0
 11
129.19895
 21
8.288461538462
 31
0.0
  0
LINE
  5
2E6
330
1D
100
AcDbEntity
  8
0
100
AcDbLine
 10
129.19895
 20
11.0
 30
0.0
 11
129.19895
 21
2.285714285714
 31
0.0
  0
LINE
  5
2E7
330
1D
100
AcDbEntity
  8
0
100
AcDbLine
 10
129.19895
 20
11.0
 30
0.0
 11
129.69895
 21
11.0
 31
0.0
  0
LINE
  5
2E8
330
1D
100
AcDbEntity
  8
0
100
AcDbLine
 10
129.19895
 20
8.288461538462
 30
0.0
 11
129.19895
 21
10.791666666667
 31
0.0
  0
LINE
  5
2E9
330
1D
100
AcDbEntity
  8
0
100
AcDbLine
 10
129.44895
 20
15.25
 30
0.0
 11
129.94895
 21
15.15
 31
0.0
  0
LINE
  5
2EA
330
1D
100
AcDbEntity
  8
0
100
AcDbLine
 10
129.44895
 20
15.75
 30
0.0
 11
130.04895
 21
15.65
 31
0.0
  0
LINE
  5
2EB
330
1D
100
AcDbEntity
  8
0
100
AcDbLine
 10
129.44895
 20
18.25
 30
0.0
 11
130.74895
 21
18.05
 31
0.0
  0
LINE
  5
2EC
330
1D
100
AcDbEntity
  8
0
100
AcDbLine
 10
129.44895
 20
18.75
 30
0.0
 11
130.84895
 21
18.55
 31
0.0
  0
LINE
  5
2ED
330
1D
100
AcDbEntity
  8
0
100
AcDbLine
 10
129.44895
 20
21.25
 30
0.0
 11
131.54895
 21
20.95
 31
0.0
  0
LINE
  5
2EE
330
1D
100
AcDbEntity
  8
0
100
AcDbLine
 10
129.44895
 20
21.75
 30
0.0
 11
131.64895
 21
21.45
 31
0.0
  0
LINE
  5
2EF
330
1D
100
AcDbEntity
  8
0
100
AcDbLine
 10
129.44895
 20
24.25
 30
0.0
 11
132.24895
 21
23.85
 31
0.0
  0
LINE
  5
2F0
330
1D
100
AcDbEntity
  8
0
100
AcDbLine
 10
129.44895
 20
11.25
 30
0.0
 11
129.94895
 21
11.35
 31
0.0
  0
LINE
  5
2F1
330
1D
100
AcDbEntity
  8
0
100
AcDbLine
 10
129.44895
 20
10.75
 30
0.0
 11
130.04895
 21
10.85
 31
0.0
  0
LINE
  5
2F2
330
1D
100
AcDbEntity
  8
0
100
AcDbLine
 10
129.44895
 20
8.25
 30
0.0
 11
130.74895
 21
8.45
 31
0.0
  0
LINE
  5
2F3
330
1D
100
AcDbEntity
  8
0
100
AcDbLine
 10
129.44895
 20
7.75
 30
0.0
 11
130.84895
 21
7.95
 31
0.0
  0
LINE
  5
2F4
330
1D
100
AcDbEntity
  8
0
100
AcDbLine
 10
129.44895
 20
5.25
 30
0.0
 11
131.54895
 21
5.55
 31
0.0
  0
LINE
  5
2F5
330
1D
100
AcDbEntity
  8
0
100
AcDbLine
 10
129.44895
 20
4.75
 30
0.0
 11
131.64895
 21
5.05
 31
0.0
  0
LINE
  5
2F6
330
1D
100
AcDbEntity
  8
0
100
AcDbLine
 10
129.19895
 20
5.285714285714
 30
0.0
 11
129.19895
 21
7.785714285714
 31
0.0
  0
LINE
  5
2F7
330
1D
100
AcDbEntity
  8
0
100
AcDbLine
 10
129.44895
 20
24.75
 30
0.0
 11
132.44895
 21
24.35
 31
0.0
  0
LINE
  5
2F8
330
1D
100
AcDbEntity
  8
0
100
AcDbLine
 10
129.69895
 20
8.288461538462
 30
0.0
 11
130.74895
 21
8.45
 31
0.0
  0
LINE
  5
2F9
330
1D
100
AcDbEntity
  8
0
100
AcDbLine
 10
130.04895
 20
10.85
 30
0.0
 11
130.64895
 21
11.05
 31
0.0
  0
LINE
  5
2FA
330
1D
100
AcDbEntity
  8
0
100
AcDbLine
 10
130.74895
 20
8.45
 30
0.0
 11
131.94895
 21
8.95
 31
0.0
  0
LINE
  5
2FB
330
1D
100
AcDbEntity
  8
0
100
AcDbLine
 10
130.74895
 20
8.45
 30
0.0
 11
131.702222674857
 21
8.847196947857
 31
0.0
  0
LINE
  5
2FC
330
1D
100
AcDbEntity
  8
0
100
AcDbLine
 10
130.84895
 20
7.95
 30
0.0
 11
132.14895
 21
8.45
 31
0.0
  0
LINE
  5
2FD
330
1D
100
AcDbEntity
  8
0
100
AcDbLine
 10
129.69895
 20
5.285714285714
 30
0.0
 11
131.54895
 21
5.55
 31
0.0
  0
LINE
  5
2FE
330
1D
100
AcDbEntity
  8
0
100
AcDbLine
 10
131.94895
 20
8.95
 30
0.0
 11
132.94895
 21
9.75
 31
0.0
  0
LINE
  5
2FF
330
1D
100
AcDbEntity
  8
0
100
AcDbLine
 10
131.54895
 20
5.55
 30
0.0
 11
133.44895
 21
6.35
 31
0.0
  0
LINE
  5
300
330
1D
100
AcDbEntity
  8
0
100
AcDbLine
 10
131.54895
 20
5.55
 30
0.0
 11
133.203624751525
 21
6.246705158537
 31
0.0
  0
LINE
  5
301
330
1D
100
AcDbEntity
  8
0
100
AcDbLine
 10
131.64895
 20
5.05
 30
0.0
 11
133.64895
 21
5.85
 31
0.0
  0
LINE
  5
302
330
1D
100
AcDbEntity
  8
0
100
AcDbLine
 10
131.971049880541
 20
8.381576877131
 30
0.0
 11
133.203624751525
 21
6.246705158537
 31
0.0
  0
LINE
  5
303
330
1D
100
AcDbEntity
  8
0
100
AcDbLine
 10
130.465695043409
 20
10.98891501447
 30
0.0
 11
131.702222674857
 21
8.847196947857
 31
0.0
  0
LINE
  5
304
330
1D
100
AcDbEntity
  8
0
100
AcDbLine
 10
130.465695043409
 20
10.98891501447
 30
0.0
 11
131.702222674857
 21
8.847196947857
 31
0.0
  0
LINE
  5
305
330
1D
100
AcDbEntity
  8
0
100
AcDbLine
 10
132.134503416697
 20
9.098442733358
 30
0.0
 11
132.94895
 21
9.75
 31
0.0
  0
LINE
  5
306
330
1D
100
AcDbEntity
  8
0
100
AcDbLine
 10
132.14895
 20
8.45
 30
0.0
 11
133.34895
 21
9.35
 31
0.0
  0
LINE
  5
307
330
1D
100
AcDbEntity
  8
0
100
AcDbLine
 10
132.24895
 20
2.65
 30
0.0
 11
134.94895
 21
3.75
 31
0.0
  0
LINE
  5
308
330
1D
100
AcDbEntity
  8
0
100
AcDbLine
 10
132.24895
 20
2.65
 30
0.0
 11
134.702965305598
 21
3.649784013392
 31
0.0
  0
LINE
  5
309
330
1D
100
AcDbEntity
  8
0
100
AcDbLine
 10
131.971049880541
 20
8.381576877131
 30
0.0
 11
133.203624751525
 21
6.246705158537
 31
0.0
  0
LINE
  5
30A
330
1D
100
AcDbEntity
  8
0
100
AcDbLine
 10
130.64895
 20
11.05
 30
0.0
 11
131.24895
 21
11.45
 31
0.0
  0
LINE
  5
30B
330
1D
100
AcDbEntity
  8
0
100
AcDbLine
 10
129.69895
 20
18.211538461538
 30
0.0
 11
130.74895
 21
18.05
 31
0.0
  0
LINE
  5
30C
330
1D
100
AcDbEntity
  8
0
100
AcDbLine
 10
129.69895
 20
21.214285714286
 30
0.0
 11
131.54895
 21
20.95
 31
0.0
  0
LINE
  5
30D
330
1D
100
AcDbEntity
  8
0
100
AcDbLine
 10
129.69895
 20
15.5
 30
0.0
 11
129.69895
 21
24.214285714286
 31
0.0
  0
LINE
  5
30E
330
1D
100
AcDbEntity
  8
0
100
AcDbLine
 10
130.44895
 20
14.95
 30
0.0
 11
130.84895
 21
14.65
 31
0.0
  0
LINE
  5
30F
330
1D
100
AcDbEntity
  8
0
100
AcDbLine
 10
130.44895
 20
11.55
 30
0.0
 11
130.84895
 21
11.85
 31
0.0
  0
LINE
  5
310
330
1D
100
AcDbEntity
  8
0
100
AcDbLine
 10
129.94895
 20
11.35
 30
0.0
 11
130.44895
 21
11.55
 31
0.0
  0
LINE
  5
311
330
1D
100
AcDbEntity
  8
0
100
AcDbLine
 10
129.94895
 20
15.15
 30
0.0
 11
130.44895
 21
14.95
 31
0.0
  0
LINE
  5
312
330
1D
100
AcDbEntity
  8
0
100
AcDbLine
 10
130.04895
 20
15.65
 30
0.0
 11
130.64895
 21
15.45
 31
0.0
  0
LINE
  5
313
330
1D
100
AcDbEntity
  8
0
100
AcDbLine
 10
130.64895
 20
15.45
 30
0.0
 11
131.24895
 21
15.05
 31
0.0
  0
LINE
  5
314
330
1D
100
AcDbEntity
  8
0
100
AcDbLine
 10
130.465694926944
 20
15.511085024352
 30
0.0
 11
131.702221284077
 21
17.652803631635
 31
0.0
  0
LINE
  5
315
330
1D
100
AcDbEntity
  8
0
100
AcDbLine
 10
130.74895
 20
18.05
 30
0.0
 11
131.94895
 21
17.55
 31
0.0
  0
LINE
  5
316
330
1D
100
AcDbEntity
  8
0
100
AcDbLine
 10
130.74895
 20
18.05
 30
0.0
 11
131.702221284077
 21
17.652803631635
 31
0.0
  0
LINE
  5
317
330
1D
100
AcDbEntity
  8
0
100
AcDbLine
 10
130.465694926944
 20
15.511085024352
 30
0.0
 11
131.702221284077
 21
17.652803631635
 31
0.0
  0
LINE
  5
318
330
1D
100
AcDbEntity
  8
0
100
AcDbLine
 10
130.35745
 20
15.3236
 30
0.0
 11
130.79045
 21
15.0736
 31
0.0
  0
LINE
  5
319
330
1D
100
AcDbEntity
  8
0
100
AcDbLine
 10
130.35745
 20
15.3236
 30
0.0
 11
134.702960791965
 21
22.850217825496
 31
0.0
  0
LINE
  5
31A
330
1D
100
AcDbEntity
  8
0
100
AcDbLine
 10
130.79045
 20
15.0736
 30
0.0
 11
135.140637436514
 21
22.608317981707
 31
0.0
  0
LINE
  5
31B
330
1D
100
AcDbEntity
  8
0
100
AcDbLine
 10
130.79045
 20
15.0736
 30
0.0
 11
135.140637436514
 21
22.608317981707
 31
0.0
  0
LINE
  5
31C
330
1D
100
AcDbEntity
  8
0
100
AcDbLine
 10
129.69895
 20
24.214285714286
 30
0.0
 11
129.69895
 21
15.5
 31
0.0
  0
LINE
  5
31D
330
1D
100
AcDbEntity
  8
0
100
AcDbLine
 10
129.69895
 20
24.214285714286
 30
0.0
 11
132.24895
 21
23.85
 31
0.0
  0
LINE
  5
31E
330
1D
100
AcDbEntity
  8
0
100
AcDbLine
 10
130.35745
 20
11.1764
 30
0.0
 11
130.79045
 21
11.4264
 31
0.0
  0
LINE
  5
31F
330
1D
100
AcDbEntity
  8
0
100
AcDbLine
 10
130.35745
 20
11.1764
 30
0.0
 11
134.702965305598
 21
3.649784013392
 31
0.0
  0
LINE
  5
320
330
1D
100
AcDbEntity
  8
0
100
AcDbLine
 10
130.35745
 20
11.1764
 30
0.0
 11
134.702965305598
 21
3.649784013392
 31
0.0
  0
LINE
  5
321
330
1D
100
AcDbEntity
  8
0
100
AcDbLine
 10
130.84895
 20
11.85
 30
0.0
 11
131.14895
 21
12.25
 31
0.0
  0
LINE
  5
322
330
1D
100
AcDbEntity
  8
0
100
AcDbLine
 10
131.14895
 20
12.25
 30
0.0
 11
131.34895
 21
12.75
 31
0.0
  0
LINE
  5
323
330
1D
100
AcDbEntity
  8
0
100
AcDbLine
 10
131.24895
 20
11.45
 30
0.0
 11
131.64895
 21
12.05
 31
0.0
  0
LINE
  5
324
330
1D
100
AcDbEntity
  8
0
100
AcDbLine
 10
131.24895
 20
11.45
 30
0.0
 11
131.476222588568
 21
11.790908882851
 31
0.0
  0
LINE
  5
325
330
1D
100
AcDbEntity
  8
0
100
AcDbLine
 10
131.64895
 20
12.05
 30
0.0
 11
131.84895
 21
12.65
 31
0.0
  0
LINE
  5
326
330
1D
100
AcDbEntity
  8
0
100
AcDbLine
 10
131.476222588568
 20
11.790908882851
 30
0.0
 11
133.600506575832
 21
10.56444571979
 31
0.0
  0
LINE
  5
327
330
1D
100
AcDbEntity
  8
0
100
AcDbLine
 10
131.476222588568
 20
11.790908882851
 30
0.0
 11
133.600506575832
 21
10.56444571979
 31
0.0
  0
LINE
  5
328
330
1D
100
AcDbEntity
  8
0
100
AcDbLine
 10
131.27255
 20
11.9085
 30
0.0
 11
131.52255
 21
12.3415
 31
0.0
  0
LINE
  5
329
330
1D
100
AcDbEntity
  8
0
100
AcDbLine
 10
131.27255
 20
11.9085
 30
0.0
 11
138.80726297362
 21
7.558305787839
 31
0.0
  0
LINE
  5
32A
330
1D
100
AcDbEntity
  8
0
100
AcDbLine
 10
131.34895
 20
12.75
 30
0.0
 11
131.44895
 21
13.25
 31
0.0
  0
LINE
  5
32B
330
1D
100
AcDbEntity
  8
0
100
AcDbLine
 10
131.14895
 20
14.25
 30
0.0
 11
131.34895
 21
13.75
 31
0.0
  0
LINE
  5
32C
330
1D
100
AcDbEntity
  8
0
100
AcDbLine
 10
131.34895
 20
13.75
 30
0.0
 11
131.44895
 21
13.25
 31
0.0
  0
LINE
  5
32D
330
1D
100
AcDbEntity
  8
0
100
AcDbLine
 10
130.84895
 20
14.65
 30
0.0
 11
131.14895
 21
14.25
 31
0.0
  0
LINE
  5
32E
330
1D
100
AcDbEntity
  8
0
100
AcDbLine
 10
131.24895
 20
15.05
 30
0.0
 11
131.64895
 21
14.45
 31
0.0
  0
LINE
  5
32F
330
1D
100
AcDbEntity
  8
0
100
AcDbLine
 10
130.84895
 20
18.55
 30
0.0
 11
132.14895
 21
18.05
 31
0.0
  0
LINE
  5
330
330
1D
100
AcDbEntity
  8
0
100
AcDbLine
 10
131.476222714359
 20
14.709090928462
 30
0.0
 11
133.600508210318
 21
15.935552237103
 31
0.0
  0
LINE
  5
331
330
1D
100
AcDbEntity
  8
0
100
AcDbLine
 10
131.476222714359
 20
14.709090928462
 30
0.0
 11
133.600508210318
 21
15.935552237103
 31
0.0
  0
LINE
  5
332
330
1D
100
AcDbEntity
  8
0
100
AcDbLine
 10
131.27255
 20
14.5915
 30
0.0
 11
131.52255
 21
14.1585
 31
0.0
  0
LINE
  5
333
330
1D
100
AcDbEntity
  8
0
100
AcDbLine
 10
131.27255
 20
14.5915
 30
0.0
 11
138.807267981707
 21
18.941687436514
 31
0.0
  0
LINE
  5
334
330
1D
100
AcDbEntity
  8
0
100
AcDbLine
 10
131.64895
 20
14.45
 30
0.0
 11
131.84895
 21
13.85
 31
0.0
  0
LINE
  5
335
330
1D
100
AcDbEntity
  8
0
100
AcDbLine
 10
131.54895
 20
20.95
 30
0.0
 11
133.44895
 21
20.15
 31
0.0
  0
LINE
  5
336
330
1D
100
AcDbEntity
  8
0
100
AcDbLine
 10
131.54895
 20
20.95
 30
0.0
 11
133.203621813973
 21
20.253296078327
 31
0.0
  0
LINE
  5
337
330
1D
100
AcDbEntity
  8
0
100
AcDbLine
 10
131.64895
 20
21.45
 30
0.0
 11
133.64895
 21
20.65
 31
0.0
  0
LINE
  5
338
330
1D
100
AcDbEntity
  8
0
100
AcDbLine
 10
131.52255
 20
14.1585
 30
0.0
 11
139.049167825496
 21
18.504010791965
 31
0.0
  0
LINE
  5
339
330
1D
100
AcDbEntity
  8
0
100
AcDbLine
 10
131.69895
 20
13.5
 30
0.0
 11
131.69895
 21
13.0
 31
0.0
  0
LINE
  5
33A
330
1D
100
AcDbEntity
  8
0
100
AcDbLine
 10
131.69895
 20
13.5
 30
0.0
 11
140.413235714286
 21
13.5
 31
0.0
  0
LINE
  5
33B
330
1D
100
AcDbEntity
  8
0
100
AcDbLine
 10
131.84895
 20
12.65
 30
0.0
 11
131.94895
 21
13.25
 31
0.0
  0
LINE
  5
33C
330
1D
100
AcDbEntity
  8
0
100
AcDbLine
 10
131.84895
 20
13.85
 30
0.0
 11
131.94895
 21
13.25
 31
0.0
  0
LINE
  5
33D
330
1D
100
AcDbEntity
  8
0
100
AcDbLine
 10
131.94895
 20
17.55
 30
0.0
 11
132.94895
 21
16.75
 31
0.0
  0
LINE
  5
33E
330
1D
100
AcDbEntity
  8
0
100
AcDbLine
 10
132.134502237103
 20
17.401558210317
 30
0.0
 11
132.94895
 21
16.75
 31
0.0
  0
LINE
  5
33F
330
1D
100
AcDbEntity
  8
0
100
AcDbLine
 10
132.14895
 20
18.05
 30
0.0
 11
133.34895
 21
17.15
 31
0.0
  0
LINE
  5
340
330
1D
100
AcDbEntity
  8
0
100
AcDbLine
 10
132.24895
 20
23.85
 30
0.0
 11
134.94895
 21
22.75
 31
0.0
  0
LINE
  5
341
330
1D
100
AcDbEntity
  8
0
100
AcDbLine
 10
132.24895
 20
23.85
 30
0.0
 11
134.702960791965
 21
22.850217825496
 31
0.0
  0
LINE
  5
342
330
1D
100
AcDbEntity
  8
0
100
AcDbLine
 10
131.971048186467
 20
18.118423774436
 30
0.0
 11
133.203621813973
 21
20.253296078327
 31
0.0
  0
LINE
  5
343
330
1D
100
AcDbEntity
  8
0
100
AcDbLine
 10
131.907283333333
 20
13.0
 30
0.0
 11
134.410488461538
 21
13.0
 31
0.0
  0
LINE
  5
344
330
1D
100
AcDbEntity
  8
0
100
AcDbLine
 10
131.69895
 20
13.0
 30
0.0
 11
140.413235714286
 21
13.0
 31
0.0
  0
LINE
  5
345
330
1D
100
AcDbEntity
  8
0
100
AcDbLine
 10
131.69895
 20
13.0
 30
0.0
 11
131.69895
 21
13.5
 31
0.0
  0
LINE
  5
346
330
1D
100
AcDbEntity
  8
0
100
AcDbLine
 10
131.52255
 20
12.3415
 30
0.0
 11
139.049171010529
 21
7.995997025844
 31
0.0
  0
LINE
  5
347
330
1D
100
AcDbEntity
  8
0
100
AcDbLine
 10
130.79045
 20
11.4264
 30
0.0
 11
135.140641348456
 21
3.891684909728
 31
0.0
  0
LINE
  5
348
330
1D
100
AcDbEntity
  8
0
100
AcDbLine
 10
130.79045
 20
11.4264
 30
0.0
 11
135.140641348456
 21
3.891684909728
 31
0.0
  0
LINE
  5
349
330
1D
100
AcDbEntity
  8
0
100
AcDbLine
 10
129.69895
 20
11.0
 30
0.0
 11
129.69895
 21
2.285714285714
 31
0.0
  0
LINE
  5
34A
330
1D
100
AcDbEntity
  8
0
100
AcDbLine
 10
132.94895
 20
9.75
 30
0.0
 11
133.74895
 21
10.75
 31
0.0
  0
LINE
  5
34B
330
1D
100
AcDbEntity
  8
0
100
AcDbLine
 10
132.94895
 20
9.75
 30
0.0
 11
133.600506575832
 21
10.56444571979
 31
0.0
  0
LINE
  5
34C
330
1D
100
AcDbEntity
  8
0
100
AcDbLine
 10
133.34895
 20
9.35
 30
0.0
 11
134.24895
 21
10.55
 31
0.0
  0
LINE
  5
34D
330
1D
100
AcDbEntity
  8
0
100
AcDbLine
 10
133.634352996304
 20
6.500639934497
 30
0.0
 11
135.04895
 21
7.65
 31
0.0
  0
LINE
  5
34E
330
1D
100
AcDbEntity
  8
0
100
AcDbLine
 10
133.44895
 20
6.35
 30
0.0
 11
135.04895
 21
7.65
 31
0.0
  0
LINE
  5
34F
330
1D
100
AcDbEntity
  8
0
100
AcDbLine
 10
133.64895
 20
5.85
 30
0.0
 11
135.44895
 21
7.25
 31
0.0
  0
LINE
  5
350
330
1D
100
AcDbEntity
  8
0
100
AcDbLine
 10
132.94895
 20
16.75
 30
0.0
 11
133.74895
 21
15.75
 31
0.0
  0
LINE
  5
351
330
1D
100
AcDbEntity
  8
0
100
AcDbLine
 10
132.94895
 20
16.75
 30
0.0
 11
133.600508210318
 21
15.935552237103
 31
0.0
  0
LINE
  5
352
330
1D
100
AcDbEntity
  8
0
100
AcDbLine
 10
132.94895
 20
16.75
 30
0.0
 11
133.600508210318
 21
15.935552237103
 31
0.0
  0
LINE
  5
353
330
1D
100
AcDbEntity
  8
0
100
AcDbLine
 10
133.34895
 20
17.15
 30
0.0
 11
134.24895
 21
15.95
 31
0.0
  0
LINE
  5
354
330
1D
100
AcDbEntity
  8
0
100
AcDbLine
 10
133.44895
 20
20.15
 30
0.0
 11
135.04895
 21
18.85
 31
0.0
  0
LINE
  5
355
330
1D
100
AcDbEntity
  8
0
100
AcDbLine
 10
133.473238705676
 20
20.720284517729
 30
0.0
 11
134.702960791965
 21
22.850217825496
 31
0.0
  0
LINE
  5
356
330
1D
100
AcDbEntity
  8
0
100
AcDbLine
 10
133.851753631634
 20
15.503271284077
 30
0.0
 11
134.24895
 21
14.55
 31
0.0
  0
LINE
  5
357
330
1D
100
AcDbEntity
  8
0
100
AcDbLine
 10
133.74895
 20
15.75
 30
0.0
 11
134.24895
 21
14.55
 31
0.0
  0
LINE
  5
358
330
1D
100
AcDbEntity
  8
0
100
AcDbLine
 10
133.634350512644
 20
19.999362083477
 30
0.0
 11
135.04895
 21
18.85
 31
0.0
  0
LINE
  5
359
330
1D
100
AcDbEntity
  8
0
100
AcDbLine
 10
133.64895
 20
20.65
 30
0.0
 11
135.44895
 21
19.25
 31
0.0
  0
LINE
  5
35A
330
1D
100
AcDbEntity
  8
0
100
AcDbLine
 10
133.851754635339
 20
10.996731124814
 30
0.0
 11
134.24895
 21
11.95
 31
0.0
  0
LINE
  5
35B
330
1D
100
AcDbEntity
  8
0
100
AcDbLine
 10
133.74895
 20
10.75
 30
0.0
 11
134.24895
 21
11.95
 31
0.0
  0
LINE
  5
35C
330
1D
100
AcDbEntity
  8
0
100
AcDbLine
 10
133.473238705676
 20
20.720284517729
 30
0.0
 11
134.702960791965
 21
22.850217825496
 31
0.0
  0
LINE
  5
35D
330
1D
100
AcDbEntity
  8
0
100
AcDbLine
 10
134.060569866674
 20
10.298826488898
 30
0.0
 11
136.198308588262
 21
9.064595185553
 31
0.0
  0
LINE
  5
35E
330
1D
100
AcDbEntity
  8
0
100
AcDbLine
 10
134.24895
 20
14.55
 30
0.0
 11
134.44895
 21
13.25
 31
0.0
  0
LINE
  5
35F
330
1D
100
AcDbEntity
  8
0
100
AcDbLine
 10
134.24895
 20
14.55
 30
0.0
 11
134.410488461538
 21
13.5
 31
0.0
  0
LINE
  5
360
330
1D
100
AcDbEntity
  8
0
100
AcDbLine
 10
134.24895
 20
15.95
 30
0.0
 11
134.74895
 21
14.65
 31
0.0
  0
LINE
  5
361
330
1D
100
AcDbEntity
  8
0
100
AcDbLine
 10
134.74895
 20
14.65
 30
0.0
 11
134.94895
 21
13.25
 31
0.0
  0
LINE
  5
362
330
1D
100
AcDbEntity
  8
0
100
AcDbLine
 10
134.24895
 20
11.95
 30
0.0
 11
134.44895
 21
13.25
 31
0.0
  0
LINE
  5
363
330
1D
100
AcDbEntity
  8
0
100
AcDbLine
 10
134.24895
 20
11.95
 30
0.0
 11
134.410488461538
 21
13.0
 31
0.0
  0
LINE
  5
364
330
1D
100
AcDbEntity
  8
0
100
AcDbLine
 10
134.24895
 20
10.55
 30
0.0
 11
134.74895
 21
11.85
 31
0.0
  0
LINE
  5
365
330
1D
100
AcDbEntity
  8
0
100
AcDbLine
 10
134.74895
 20
11.85
 30
0.0
 11
134.94895
 21
13.25
 31
0.0
  0
LINE
  5
366
330
1D
100
AcDbEntity
  8
0
100
AcDbLine
 10
134.0605717388
 20
16.201171014934
 30
0.0
 11
136.198312083477
 21
17.435400512644
 31
0.0
  0
LINE
  5
367
330
1D
100
AcDbEntity
  8
0
100
AcDbLine
 10
134.060569866674
 20
10.298826488898
 30
0.0
 11
136.198308588262
 21
9.064595185553
 31
0.0
  0
LINE
  5
368
330
1D
100
AcDbEntity
  8
0
100
AcDbLine
 10
133.473241953255
 20
5.779716781302
 30
0.0
 11
134.702965305598
 21
3.649784013392
 31
0.0
  0
LINE
  5
369
330
1D
100
AcDbEntity
  8
0
100
AcDbLine
 10
133.473241953255
 20
5.779716781302
 30
0.0
 11
134.702965305598
 21
3.649784013392
 31
0.0
  0
LINE
  5
36A
330
1D
100
AcDbEntity
  8
0
100
AcDbLine
 10
132.44895
 20
24.35
 30
0.0
 11
135.14895
 21
23.25
 31
0.0
  0
LINE
  5
36B
330
1D
100
AcDbEntity
  8
0
100
AcDbLine
 10
132.54895
 20
24.85
 30
0.0
 11
135.44895
 21
23.65
 31
0.0
  0
LINE
  5
36C
330
1D
100
AcDbEntity
  8
0
100
AcDbLine
 10
129.44895
 20
25.25
 30
0.0
 11
132.54895
 21
24.85
 31
0.0
  0
LINE
  5
36D
330
1D
100
AcDbEntity
  8
0
100
AcDbLine
 10
132.24895
 20
2.65
 30
0.0
 11
134.702965305598
 21
3.649784013392
 31
0.0
  0
LINE
  5
36E
330
1D
100
AcDbEntity
  8
0
100
AcDbLine
 10
135.04895
 20
7.65
 30
0.0
 11
136.34895
 21
9.25
 31
0.0
  0
LINE
  5
36F
330
1D
100
AcDbEntity
  8
0
100
AcDbLine
 10
135.04895
 20
7.65
 30
0.0
 11
136.198308588262
 21
9.064595185553
 31
0.0
  0
LINE
  5
370
330
1D
100
AcDbEntity
  8
0
100
AcDbLine
 10
134.94895
 20
3.75
 30
0.0
 11
137.24895
 21
5.45
 31
0.0
  0
LINE
  5
371
330
1D
100
AcDbEntity
  8
0
100
AcDbLine
 10
135.04895
 20
18.85
 30
0.0
 11
136.34895
 21
17.25
 31
0.0
  0
LINE
  5
372
330
1D
100
AcDbEntity
  8
0
100
AcDbLine
 10
135.04895
 20
18.85
 30
0.0
 11
136.198312083477
 21
17.435400512644
 31
0.0
  0
LINE
  5
373
330
1D
100
AcDbEntity
  8
0
100
AcDbLine
 10
134.94895
 20
22.75
 30
0.0
 11
137.24895
 21
21.05
 31
0.0
  0
LINE
  5
374
330
1D
100
AcDbEntity
  8
0
100
AcDbLine
 10
134.913235714286
 20
13.0
 30
0.0
 11
137.413235714286
 21
13.0
 31
0.0
  0
LINE
  5
375
330
1D
100
AcDbEntity
  8
0
100
AcDbLine
 10
134.896390108972
 20
2.621354527851
 30
0.0
 11
135.13615
 21
2.01293
 31
0.0
  0
LINE
  5
376
330
1D
100
AcDbEntity
  8
0
100
AcDbLine
 10
134.896386720789
 20
2.621353125844
 30
0.0
 11
135.13615
 21
2.01292
 31
0.0
  0
LINE
  5
377
330
1D
100
AcDbEntity
  8
0
100
AcDbLine
 10
135.140637436514
 20
22.608317981707
 30
0.0
 11
137.24895
 21
21.05
 31
0.0
  0
LINE
  5
378
330
1D
100
AcDbEntity
  8
0
100
AcDbLine
 10
135.140637436514
 20
22.608317981707
 30
0.0
 11
137.24895
 21
21.05
 31
0.0
  0
LINE
  5
379
330
1D
100
AcDbEntity
  8
0
100
AcDbLine
 10
135.140641348456
 20
3.891684909728
 30
0.0
 11
137.24895
 21
5.45
 31
0.0
  0
LINE
  5
37A
330
1D
100
AcDbEntity
  8
0
100
AcDbLine
 10
135.140641348456
 20
3.891684909728
 30
0.0
 11
137.24895
 21
5.45
 31
0.0
  0
LINE
  5
37B
330
1D
100
AcDbEntity
  8
0
100
AcDbLine
 10
135.14895
 20
23.25
 30
0.0
 11
137.54895
 21
21.35
 31
0.0
  0
LINE
  5
37C
330
1D
100
AcDbEntity
  8
0
100
AcDbLine
 10
135.44895
 20
19.25
 30
0.0
 11
136.84895
 21
17.45
 31
0.0
  0
LINE
  5
37D
330
1D
100
AcDbEntity
  8
0
100
AcDbLine
 10
135.44895
 20
7.25
 30
0.0
 11
136.84895
 21
9.05
 31
0.0
  0
LINE
  5
37E
330
1D
100
AcDbEntity
  8
0
100
AcDbLine
 10
135.44895
 20
23.65
 30
0.0
 11
137.94895
 21
21.75
 31
0.0
  0
LINE
  5
37F
330
1D
100
AcDbEntity
  8
0
100
AcDbLine
 10
135.14895
 20
3.25
 30
0.0
 11
137.54895
 21
5.15
 31
0.0
  0
LINE
  5
380
330
1D
100
AcDbEntity
  8
0
100
AcDbLine
 10
135.44895
 20
2.85
 30
0.0
 11
137.94895
 21
4.75
 31
0.0
  0
LINE
  5
381
330
1D
100
AcDbEntity
  8
0
100
AcDbLine
 10
128.59185
 20
1.360593548387
 30
0.0
 11
128.59185
 21
0.7502
 31
0.0
  0
LINE
  5
382
330
1D
100
AcDbEntity
  8
0
100
AcDbLine
 10
128.59185
 20
1.360593548387
 30
0.0
 11
128.59185
 21
0.7502
 31
0.0
  0
LINE
  5
383
330
1D
100
AcDbEntity
  8
0
100
AcDbLine
 10
128.59185
 20
1.360593548387
 30
0.0
 11
128.59185
 21
0.7502
 31
0.0
  0
LINE
  5
384
330
1D
100
AcDbEntity
  8
0
100
AcDbLine
 10
128.59185
 20
0.7502
 30
0.0
 11
129.02035
 21
0.7502
 31
0.0
  0
LINE
  5
385
330
1D
100
AcDbEntity
  8
0
100
AcDbLine
 10
128.59185
 20
0.7502
 30
0.0
 11
128.59185
 21
1.360593548387
 31
0.0
  0
LINE
  5
386
330
1D
100
AcDbEntity
  8
0
100
AcDbLine
 10
135.89695
 20
1.966
 30
0.0
 11
138.65295
 21
4.046
 31
0.0
  0
LINE
  5
387
330
1D
100
AcDbEntity
  8
0
100
AcDbLine
 10
136.34895
 20
17.25
 30
0.0
 11
137.14895
 21
15.35
 31
0.0
  0
LINE
  5
388
330
1D
100
AcDbEntity
  8
0
100
AcDbLine
 10
136.452246078327
 20
17.004671813973
 30
0.0
 11
137.14895
 21
15.35
 31
0.0
  0
LINE
  5
389
330
1D
100
AcDbEntity
  8
0
100
AcDbLine
 10
136.452248220629
 20
9.495333273993
 30
0.0
 11
137.14895
 21
11.15
 31
0.0
  0
LINE
  5
38A
330
1D
100
AcDbEntity
  8
0
100
AcDbLine
 10
136.34895
 20
9.25
 30
0.0
 11
137.14895
 21
11.15
 31
0.0
  0
LINE
  5
38B
330
1D
100
AcDbEntity
  8
0
100
AcDbLine
 10
136.655154050828
 20
8.800833779636
 30
0.0
 11
138.80726297362
 21
7.558305787839
 31
0.0
  0
LINE
  5
38C
330
1D
100
AcDbEntity
  8
0
100
AcDbLine
 10
136.84895
 20
17.45
 30
0.0
 11
137.64895
 21
15.45
 31
0.0
  0
LINE
  5
38D
330
1D
100
AcDbEntity
  8
0
100
AcDbLine
 10
136.84895
 20
9.05
 30
0.0
 11
137.64895
 21
11.05
 31
0.0
  0
LINE
  5
38E
330
1D
100
AcDbEntity
  8
0
100
AcDbLine
 10
136.655157757571
 20
17.699161454552
 30
0.0
 11
138.807267981707
 21
18.941687436514
 31
0.0
  0
LINE
  5
38F
330
1D
100
AcDbEntity
  8
0
100
AcDbLine
 10
136.655154050828
 20
8.800833779636
 30
0.0
 11
138.80726297362
 21
7.558305787839
 31
0.0
  0
LINE
  5
390
330
1D
100
AcDbEntity
  8
0
100
AcDbLine
 10
136.977256193428
 20
4.011512707005
 30
0.0
 11
137.39295
 21
3.57959
 31
0.0
  0
LINE
  5
391
330
1D
100
AcDbEntity
  8
0
100
AcDbLine
 10
136.977256193428
 20
4.011512707005
 30
0.0
 11
137.39295
 21
3.57959
 31
0.0
  0
LINE
  5
392
330
1D
100
AcDbEntity
  8
0
100
AcDbLine
 10
136.977256193428
 20
4.011512707005
 30
0.0
 11
137.39295
 21
3.57959
 31
0.0
  0
LINE
  5
393
330
1D
100
AcDbEntity
  8
0
100
AcDbLine
 10
137.14895
 20
15.35
 30
0.0
 11
137.44895
 21
13.25
 31
0.0
  0
LINE
  5
394
330
1D
100
AcDbEntity
  8
0
100
AcDbLine
 10
137.14895
 20
15.35
 30
0.0
 11
137.413235714286
 21
13.5
 31
0.0
  0
LINE
  5
395
330
1D
100
AcDbEntity
  8
0
100
AcDbLine
 10
137.24895
 20
21.05
 30
0.0
 11
138.94895
 21
18.75
 31
0.0
  0
LINE
  5
396
330
1D
100
AcDbEntity
  8
0
100
AcDbLine
 10
137.24895
 20
21.05
 30
0.0
 11
138.807267981707
 21
18.941687436514
 31
0.0
  0
LINE
  5
397
330
1D
100
AcDbEntity
  8
0
100
AcDbLine
 10
137.14895
 20
11.15
 30
0.0
 11
137.44895
 21
13.25
 31
0.0
  0
LINE
  5
398
330
1D
100
AcDbEntity
  8
0
100
AcDbLine
 10
137.14895
 20
11.15
 30
0.0
 11
137.413235714286
 21
13.0
 31
0.0
  0
LINE
  5
399
330
1D
100
AcDbEntity
  8
0
100
AcDbLine
 10
137.24895
 20
5.45
 30
0.0
 11
138.94895
 21
7.75
 31
0.0
  0
LINE
  5
39A
330
1D
100
AcDbEntity
  8
0
100
AcDbLine
 10
137.24895
 20
5.45
 30
0.0
 11
138.80726297362
 21
7.558305787839
 31
0.0
  0
LINE
  5
39B
330
1D
100
AcDbEntity
  8
0
100
AcDbLine
 10
137.24895
 20
5.45
 30
0.0
 11
138.80726297362
 21
7.558305787839
 31
0.0
  0
LINE
  5
39D
330
1D
100
AcDbEntity
  8
0
100
AcDbLine
 10
136.977272868983
 20
4.011525380427
 30
0.0
 11
137.39295
 21
3.57962
 31
0.0
  0
LINE
  5
39E
330
1D
100
AcDbEntity
  8
0
100
AcDbLine
 10
137.39295
 20
3.57962
 30
0.0
 11
137.70395
 21
3.87019
 31
0.0
  0
LINE
  5
39F
330
1D
100
AcDbEntity
  8
0
100
AcDbLine
 10
137.39295
 20
3.57959
 30
0.0
 11
137.70395
 21
3.87017
 31
0.0
  0
LINE
  5
3A0
330
1D
100
AcDbEntity
  8
0
100
AcDbLine
 10
137.70395
 20
3.87017
 30
0.0
 11
138.0149
 21
4.160835
 31
0.0
  0
LINE
  5
3A1
330
1D
100
AcDbEntity
  8
0
100
AcDbLine
 10
137.70395
 20
3.87017
 30
0.0
 11
138.0149
 21
4.160835
 31
0.0
  0
LINE
  5
3A2
330
1D
100
AcDbEntity
  8
0
100
AcDbLine
 10
137.54895
 20
21.35
 30
0.0
 11
139.44895
 21
18.95
 31
0.0
  0
LINE
  5
3A3
330
1D
100
AcDbEntity
  8
0
100
AcDbLine
 10
137.64895
 20
11.05
 30
0.0
 11
137.94895
 21
13.25
 31
0.0
  0
LINE
  5
3A4
330
1D
100
AcDbEntity
  8
0
100
AcDbLine
 10
137.64895
 20
15.45
 30
0.0
 11
137.94895
 21
13.25
 31
0.0
  0
LINE
  5
3A5
330
1D
100
AcDbEntity
  8
0
100
AcDbLine
 10
137.914859090909
 20
13.0
 30
0.0
 11
140.413235714286
 21
13.0
 31
0.0
  0
LINE
  5
3A6
330
1D
100
AcDbEntity
  8
0
100
AcDbLine
 10
137.94895
 20
21.75
 30
0.0
 11
139.84895
 21
19.25
 31
0.0
  0
LINE
  5
3A7
330
1D
100
AcDbEntity
  8
0
100
AcDbLine
 10
137.54895
 20
5.15
 30
0.0
 11
139.44895
 21
7.55
 31
0.0
  0
LINE
  5
3A8
330
1D
100
AcDbEntity
  8
0
100
AcDbLine
 10
137.94895
 20
4.75
 30
0.0
 11
139.84895
 21
7.25
 31
0.0
  0
LINE
  5
3AA
330
1D
100
AcDbEntity
  8
0
100
AcDbLine
 10
137.70395
 20
3.87019
 30
0.0
 11
138.32585
 21
4.45148
 31
0.0
  0
LINE
  5
3AB
330
1D
100
AcDbEntity
  8
0
100
AcDbLine
 10
136.977256193428
 20
4.011512707005
 30
0.0
 11
137.39295
 21
3.57959
 31
0.0
  0
LINE
  5
3AD
330
1D
100
AcDbEntity
  8
0
100
AcDbLine
 10
138.45025
 20
4.567728
 30
0.0
 11
138.63685
 21
4.74207
 31
0.0
  0
LINE
  5
3AE
330
1D
100
AcDbEntity
  8
0
100
AcDbLine
 10
138.45025
 20
4.567728
 30
0.0
 11
138.63685
 21
4.74207
 31
0.0
  0
LINE
  5
3AF
330
1D
100
AcDbEntity
  8
0
100
AcDbLine
 10
138.32585
 20
4.45148
 30
0.0
 11
138.63685
 21
4.7421
 31
0.0
  0
LINE
  5
3B0
330
1D
100
AcDbEntity
  8
0
100
AcDbLine
 10
138.65295
 20
4.046
 30
0.0
 11
140.73295
 21
6.802
 31
0.0
  0
LINE
  5
3B1
330
1D
100
AcDbEntity
  8
0
100
AcDbLine
 10
138.249154620615
 20
5.145006079756
 30
0.0
 11
138.63685
 21
4.7421
 31
0.0
  0
LINE
  5
3B2
330
1D
100
AcDbEntity
  8
0
100
AcDbLine
 10
139.049167825496
 20
18.504010791965
 30
0.0
 11
140.04895
 21
16.05
 31
0.0
  0
LINE
  5
3B3
330
1D
100
AcDbEntity
  8
0
100
AcDbLine
 10
138.65295
 20
22.454
 30
0.0
 11
140.73295
 21
19.698
 31
0.0
  0
LINE
  5
3B4
330
1D
100
AcDbEntity
  8
0
100
AcDbLine
 10
138.94895
 20
18.75
 30
0.0
 11
140.04895
 21
16.05
 31
0.0
  0
LINE
  5
3B5
330
1D
100
AcDbEntity
  8
0
100
AcDbLine
 10
139.049171010529
 20
7.995997025844
 30
0.0
 11
140.04895
 21
10.45
 31
0.0
  0
LINE
  5
3B6
330
1D
100
AcDbEntity
  8
0
100
AcDbLine
 10
138.94895
 20
7.75
 30
0.0
 11
140.04895
 21
10.45
 31
0.0
  0
LINE
  5
3B7
330
1D
100
AcDbEntity
  8
0
100
AcDbLine
 10
139.44895
 20
18.95
 30
0.0
 11
140.54895
 21
16.25
 31
0.0
  0
LINE
  5
3B8
330
1D
100
AcDbEntity
  8
0
100
AcDbLine
 10
139.84895
 20
19.25
 30
0.0
 11
141.04895
 21
16.35
 31
0.0
  0
LINE
  5
3B9
330
1D
100
AcDbEntity
  8
0
100
AcDbLine
 10
139.44895
 20
7.55
 30
0.0
 11
140.54895
 21
10.25
 31
0.0
  0
LINE
  5
3BA
330
1D
100
AcDbEntity
  8
0
100
AcDbLine
 10
140.04895
 20
16.05
 30
0.0
 11
140.44895
 21
13.25
 31
0.0
  0
LINE
  5
3BB
330
1D
100
AcDbEntity
  8
0
100
AcDbLine
 10
140.04895
 20
16.05
 30
0.0
 11
140.413235714286
 21
13.5
 31
0.0
  0
LINE
  5
3BC
330
1D
100
AcDbEntity
  8
0
100
AcDbLine
 10
140.04895
 20
10.45
 30
0.0
 11
140.44895
 21
13.25
 31
0.0
  0
LINE
  5
3BD
330
1D
100
AcDbEntity
  8
0
100
AcDbLine
 10
140.04895
 20
10.45
 30
0.0
 11
140.413235714286
 21
13.0
 31
0.0
  0
LINE
  5
3BE
330
1D
100
AcDbEntity
  8
0
100
AcDbLine
 10
139.84895
 20
7.25
 30
0.0
 11
141.04895
 21
10.15
 31
0.0
  0
LINE
  5
3BF
330
1D
100
AcDbEntity
  8
0
100
AcDbLine
 10
139.84895
 20
7.25
 30
0.0
 11
141.04895
 21
10.15
 31
0.0
  0
LINE
  5
3C2
330
1D
100
AcDbEntity
  8
0
100
AcDbLine
 10
140.73295
 20
6.802
 30
0.0
 11
141.98095
 21
9.922
 31
0.0
  0
LINE
  5
3C3
330
1D
100
AcDbEntity
  8
0
100
AcDbLine
 10
140.73295
 20
19.698
 30
0.0
 11
141.98095
 21
16.578
 31
0.0
  0
LINE
  5
3C4
330
1D
100
AcDbEntity
  8
0
100
AcDbLine
 10
140.54895
 20
16.25
 30
0.0
 11
140.94895
 21
13.25
 31
0.0
  0
LINE
  5
3C5
330
1D
100
AcDbEntity
  8
0
100
AcDbLine
 10
140.54895
 20
10.25
 30
0.0
 11
140.94895
 21
13.25
 31
0.0
  0
LINE
  5
3C6
330
1D
100
AcDbEntity
  8
0
100
AcDbLine
 10
141.04895
 20
16.35
 30
0.0
 11
141.44895
 21
13.25
 31
0.0
  0
LINE
  5
3C7
330
1D
100
AcDbEntity
  8
0
100
AcDbLine
 10
141.04895
 20
10.15
 30
0.0
 11
141.44895
 21
13.25
 31
0.0
  0
LINE
  5
3C8
330
1D
100
AcDbEntity
  8
0
100
AcDbLine
 10
141.98095
 20
9.922
 30
0.0
 11
142.44895
 21
13.25
 31
0.0
  0
LINE
  5
3C9
330
1D
100
AcDbEntity
  8
0
100
AcDbLine
 10
141.98095
 20
16.578
 30
0.0
 11
142.44895
 21
13.25
 31
0.0
  0
LINE
  5
3CD
330
1D
100
AcDbEntity
  8
0
100
AcDbLine
 10
141.77265
 20
9.36019
 30
0.0
 11
142.04585
 21
9.0928
 31
0.0
  0
LINE
  5
3D8
330
1D
100
AcDbEntity
  8
0
100
AcDbLine
 10
141.00755
 20
22.1215
 30
0.0
 11
141.92465
 21
20.72765
 31
0.0
  0
LINE
  5
3DA
330
1D
100
AcDbEntity
  8
0
100
AcDbLine
 10
141.92735
 20
21.74104
 30
0.0
 11
142.74995
 21
20.32993
 31
0.0
  0
LINE
  5
3DB
330
1D
100
AcDbEntity
  8
0
100
AcDbLine
 10
141.92755
 20
21.74086
 30
0.0
 11
142.75005
 21
20.32981
 31
0.0
  0
LINE
  5
3DC
330
1D
100
AcDbEntity
  8
0
100
AcDbLine
 10
141.92465
 20
20.72765
 30
0.0
 11
142.67385
 21
19.23696
 31
0.0
  0
LINE
  5
3DD
330
1D
100
AcDbEntity
  8
0
100
AcDbLine
 10
141.92475
 20
20.7276
 30
0.0
 11
142.67375
 21
19.23707
 31
0.0
  0
LINE
  5
3E0
330
1D
100
AcDbEntity
  8
0
100
AcDbLine
 10
140.95535
 20
23.0534
 30
0.0
 11
141.92735
 21
21.74104
 31
0.0
  0
LINE
  5
3E1
330
1D
100
AcDbEntity
  8
0
100
AcDbLine
 10
140.95495
 20
23.0535
 30
0.0
 11
141.92755
 21
21.74086
 31
0.0
  0
LINE
  5
3E3
330
1D
100
AcDbEntity
  8
0
100
AcDbLine
 10
141.00755
 20
22.1216
 30
0.0
 11
141.92475
 21
20.7276
 31
0.0
  0
LINE
  5
3E9
330
1D
100
AcDbEntity
  8
0
100
AcDbLine
 10
139.93505
 20
23.3994
 30
0.0
 11
141.00755
 21
22.1216
 31
0.0
  0
LINE
  5
3EA
330
1D
100
AcDbEntity
  8
0
100
AcDbLine
 10
139.93505
 20
23.3994
 30
0.0
 11
141.00755
 21
22.1215
 31
0.0
  0
LINE
  5
3EC
330
1D
100
AcDbEntity
  8
0
100
AcDbLine
 10
135.89695
 20
24.534
 30
0.0
 11
138.65295
 21
22.454
 31
0.0
  0
LINE
  5
3EF
330
1D
100
AcDbEntity
  8
0
100
AcDbLine
 10
138.60995
 20
25.3205
 30
0.0
 11
139.84485
 21
24.2514
 31
0.0
  0
LINE
  5
3F2
330
1D
100
AcDbEntity
  8
0
100
AcDbLine
 10
138.72135
 20
24.5441
 30
0.0
 11
139.93505
 21
23.3994
 31
0.0
  0
LINE
  5
3F3
330
1D
100
AcDbEntity
  8
0
100
AcDbLine
 10
139.84485
 20
24.2514
 30
0.0
 11
140.95535
 21
23.0534
 31
0.0
  0
LINE
  5
3FF
330
1D
100
AcDbEntity
  8
0
100
AcDbLine
 10
138.72145
 20
24.5441
 30
0.0
 11
139.93505
 21
23.3994
 31
0.0
  0
LINE
  5
403
330
1D
100
AcDbEntity
  8
0
100
AcDbLine
 10
126.12095
 20
25.782
 30
0.0
 11
129.44895
 21
26.25
 31
0.0
  0
LINE
  5
404
330
1D
100
AcDbEntity
  8
0
100
AcDbLine
 10
132.77695
 20
25.782
 30
0.0
 11
135.89695
 21
24.534
 31
0.0
  0
LINE
  5
40D
330
1D
100
AcDbEntity
  8
0
100
AcDbLine
 10
137.38285
 20
25.5403
 30
0.0
 11
138.72135
 21
24.5441
 31
0.0
  0
LINE
  5
40F
330
1D
100
AcDbEntity
  8
0
100
AcDbLine
 10
137.38265
 20
25.5402
 30
0.0
 11
138.72145
 21
24.5441
 31
0.0
  0
LINE
  5
411
330
1D
100
AcDbEntity
  8
0
100
AcDbLine
 10
142.04585
 20
9.0928
 30
0.0
 11
142.37775
 21
8.9032
 31
0.0
  0
LINE
  5
41D
330
1D
100
AcDbEntity
  8
0
100
AcDbLine
 10
142.37775
 20
8.9032
 30
0.0
 11
142.74685
 21
8.80363
 31
0.0
  0
LINE
  5
422
330
1D
100
AcDbEntity
  8
0
100
AcDbLine
 10
142.74685
 20
8.80363
 30
0.0
 11
142.96285
 21
8.78988
 31
0.0
  0
LINE
  5
426
330
1D
100
AcDbEntity
  8
0
100
AcDbLine
 10
142.96285
 20
8.78988
 30
0.0
 11
143.01685
 21
8.79036
 31
0.0
  0
LINE
  5
429
330
1D
100
AcDbEntity
  8
0
100
AcDbLine
 10
143.23345
 20
9.21404
 30
0.0
 11
143.28115
 21
9.0686
 31
0.0
  0
LINE
  5
432
330
1D
100
AcDbEntity
  8
0
100
AcDbLine
 10
143.22665
 20
9.2922
 30
0.0
 11
143.23345
 21
9.21404
 31
0.0
  0
LINE
  5
433
330
1D
100
AcDbEntity
  8
0
100
AcDbLine
 10
143.22665
 20
9.29221
 30
0.0
 11
143.23345
 21
9.21404
 31
0.0
  0
LINE
  5
434
330
1D
100
AcDbEntity
  8
0
100
AcDbLine
 10
143.22665
 20
9.29221
 30
0.0
 11
143.24765
 21
9.43978
 31
0.0
  0
LINE
  5
435
330
1D
100
AcDbEntity
  8
0
100
AcDbLine
 10
143.24755
 20
9.43976
 30
0.0
 11
143.63175
 21
11.063364
 31
0.0
  0
LINE
  5
436
330
1D
100
AcDbEntity
  8
0
100
AcDbLine
 10
143.22675
 20
9.29232
 30
0.0
 11
143.24775
 21
9.4397
 31
0.0
  0
LINE
  5
441
330
1D
100
AcDbEntity
  8
0
100
AcDbLine
 10
143.48835
 20
8.85573
 30
0.0
 11
143.72645
 21
8.79654
 31
0.0
  0
LINE
  5
442
330
1D
100
AcDbEntity
  8
0
100
AcDbLine
 10
143.48835
 20
8.85573
 30
0.0
 11
143.72645
 21
8.79655
 31
0.0
  0
LINE
  5
444
330
1D
100
AcDbEntity
  8
0
100
AcDbLine
 10
143.34275
 20
8.97501
 30
0.0
 11
143.48835
 21
8.85573
 31
0.0
  0
LINE
  5
445
330
1D
100
AcDbEntity
  8
0
100
AcDbLine
 10
143.28115
 20
9.0686
 30
0.0
 11
143.34275
 21
8.97501
 31
0.0
  0
LINE
  5
44F
330
1D
100
AcDbEntity
  8
0
100
AcDbLine
 10
143.75385
 20
8.79678
 30
0.0
 11
143.77015
 21
8.85564
 31
0.0
  0
LINE
  5
450
330
1D
100
AcDbEntity
  8
0
100
AcDbLine
 10
143.75385
 20
8.79678
 30
0.0
 11
143.77015
 21
8.85562
 31
0.0
  0
LINE
  5
451
330
1D
100
AcDbEntity
  8
0
100
AcDbLine
 10
143.89885
 20
8.75
 30
0.0
 11
145.99885
 21
8.75
 31
0.0
  0
LINE
  5
456
330
1D
100
AcDbEntity
  8
0
100
AcDbLine
 10
143.77015
 20
8.85562
 30
0.0
 11
143.80625
 21
9.00963
 31
0.0
  0
LINE
  5
457
330
1D
100
AcDbEntity
  8
0
100
AcDbLine
 10
143.80625
 20
9.00963
 30
0.0
 11
143.85885
 21
9.25085
 31
0.0
  0
LINE
  5
45C
330
1D
100
AcDbEntity
  8
0
100
AcDbLine
 10
143.85885
 20
9.25085
 30
0.0
 11
143.92285
 21
9.56766
 31
0.0
  0
LINE
  5
45F
330
1D
100
AcDbEntity
  8
0
100
AcDbLine
 10
143.99275
 20
9.94461
 30
0.0
 11
144.06245
 21
10.36107
 31
0.0
  0
LINE
  5
460
330
1D
100
AcDbEntity
  8
0
100
AcDbLine
 10
143.99275
 20
9.9446
 30
0.0
 11
144.06245
 21
10.36109
 31
0.0
  0
LINE
  5
461
330
1D
100
AcDbEntity
  8
0
100
AcDbLine
 10
143.92285
 20
9.56766
 30
0.0
 11
143.99275
 21
9.9446
 31
0.0
  0
LINE
  5
462
330
1D
100
AcDbEntity
  8
0
100
AcDbLine
 10
143.92285
 20
9.56766
 30
0.0
 11
143.99275
 21
9.94461
 31
0.0
  0
LINE
  5
463
330
1D
100
AcDbEntity
  8
0
100
AcDbLine
 10
143.85885
 20
9.25086
 30
0.0
 11
143.92285
 21
9.56766
 31
0.0
  0
LINE
  5
464
330
1D
100
AcDbEntity
  8
0
100
AcDbLine
 10
143.80625
 20
9.00964
 30
0.0
 11
143.85885
 21
9.25086
 31
0.0
  0
LINE
  5
465
330
1D
100
AcDbEntity
  8
0
100
AcDbLine
 10
143.77015
 20
8.85564
 30
0.0
 11
143.80625
 21
9.00964
 31
0.0
  0
LINE
  5
46F
330
1D
100
AcDbEntity
  8
0
100
AcDbLine
 10
144.06245
 20
10.36107
 30
0.0
 11
144.12755
 21
10.800135
 31
0.0
  0
LINE
  5
473
330
1D
100
AcDbEntity
  8
0
100
AcDbLine
 10
144.06245
 20
10.36109
 30
0.0
 11
144.12755
 21
10.800135
 31
0.0
  0
LINE
  5
475
330
1D
100
AcDbEntity
  8
0
100
AcDbLine
 10
146.86485
 20
9.25001
 30
0.0
 11
146.99885
 21
9.75001
 31
0.0
  0
LINE
  5
476
330
1D
100
AcDbEntity
  8
0
100
AcDbLine
 10
146.86485
 20
9.25001
 30
0.0
 11
146.99885
 21
9.75002
 31
0.0
  0
LINE
  5
477
330
1D
100
AcDbEntity
  8
0
100
AcDbLine
 10
146.86485
 20
9.25001
 30
0.0
 11
146.99885
 21
9.75001
 31
0.0
  0
LINE
  5
479
330
1D
100
AcDbEntity
  8
0
100
AcDbLine
 10
146.99885
 20
10.24984
 30
0.0
 11
146.99885
 21
9.88403
 31
0.0
  0
LINE
  5
47A
330
1D
100
AcDbEntity
  8
0
100
AcDbLine
 10
146.99885
 20
9.88403
 30
0.0
 11
146.99885
 21
9.75001
 31
0.0
  0
LINE
  5
47B
330
1D
100
AcDbEntity
  8
0
100
AcDbLine
 10
146.99885
 20
10.24998
 30
0.0
 11
146.99885
 21
10.74999
 31
0.0
  0
LINE
  5
47C
330
1D
100
AcDbEntity
  8
0
100
AcDbLine
 10
146.99885
 20
9.88398
 30
0.0
 11
146.99885
 21
10.24998
 31
0.0
  0
LINE
  5
47D
330
1D
100
AcDbEntity
  8
0
100
AcDbLine
 10
146.99885
 20
9.75002
 30
0.0
 11
146.99885
 21
9.88398
 31
0.0
  0
LINE
  5
484
330
1D
100
AcDbEntity
  8
0
100
AcDbLine
 10
143.63175
 20
11.063364
 30
0.0
 11
143.82485
 21
12.720552
 31
0.0
  0
LINE
  5
489
330
1D
100
AcDbEntity
  8
0
100
AcDbLine
 10
144.12745
 20
10.80012
 30
0.0
 11
144.34075
 21
12.419504
 31
0.0
  0
LINE
  5
48C
330
1D
100
AcDbEntity
  8
0
100
AcDbLine
 10
144.12755
 20
10.80012
 30
0.0
 11
144.34085
 21
12.419429
 31
0.0
  0
LINE
  5
48D
330
1D
100
AcDbEntity
  8
0
100
AcDbLine
 10
146.99885
 20
10.74999
 30
0.0
 11
146.99885
 21
70.75
 31
0.0
  0
LINE
  5
48E
330
1D
100
AcDbEntity
  8
0
100
AcDbLine
 10
146.99885
 20
10.74968
 30
0.0
 11
146.99885
 21
10.24984
 31
0.0
  0
LINE
  5
49A
330
1D
100
AcDbEntity
  8
0
100
AcDbLine
 10
143.24775
 20
9.4397
 30
0.0
 11
143.63165
 21
11.063408
 31
0.0
  0
LINE
  5
4A2
330
1D
100
AcDbEntity
  8
0
100
AcDbLine
 10
143.24495
 20
17.66924
 30
0.0
 11
143.63015
 21
16.04593
 31
0.0
  0
LINE
  5
4A4
330
1D
100
AcDbEntity
  8
0
100
AcDbLine
 10
143.63015
 20
16.04593
 30
0.0
 11
143.82445
 21
14.38902
 31
0.0
  0
LINE
  5
4A5
330
1D
100
AcDbEntity
  8
0
100
AcDbLine
 10
144.34075
 20
12.419504
 30
0.0
 11
144.37525
 21
14.05261
 31
0.0
  0
LINE
  5
4A6
330
1D
100
AcDbEntity
  8
0
100
AcDbLine
 10
144.34085
 20
12.419429
 30
0.0
 11
144.37505
 21
14.05257
 31
0.0
  0
LINE
  5
4AF
330
1D
100
AcDbEntity
  8
0
100
AcDbLine
 10
144.23045
 20
15.67953
 30
0.0
 11
144.37525
 21
14.05261
 31
0.0
  0
LINE
  5
4B0
330
1D
100
AcDbEntity
  8
0
100
AcDbLine
 10
144.23075
 20
15.67933
 30
0.0
 11
144.37505
 21
14.05257
 31
0.0
  0
LINE
  5
4B1
330
1D
100
AcDbEntity
  8
0
100
AcDbLine
 10
143.90855
 20
17.28087
 30
0.0
 11
144.23045
 21
15.67953
 31
0.0
  0
LINE
  5
4B5
330
1D
100
AcDbEntity
  8
0
100
AcDbLine
 10
143.90875
 20
17.28066
 30
0.0
 11
144.23075
 21
15.67933
 31
0.0
  0
LINE
  5
4B7
330
1D
100
AcDbEntity
  8
0
100
AcDbLine
 10
143.82445
 20
14.38902
 30
0.0
 11
143.82485
 21
12.720552
 31
0.0
  0
LINE
  5
4B8
330
1D
100
AcDbEntity
  8
0
100
AcDbLine
 10
143.82445
 20
14.38893
 30
0.0
 11
143.82485
 21
12.720641
 31
0.0
  0
LINE
  5
4B9
330
1D
100
AcDbEntity
  8
0
100
AcDbLine
 10
143.63035
 20
16.04615
 30
0.0
 11
143.82445
 21
14.38893
 31
0.0
  0
LINE
  5
4BB
330
1D
100
AcDbEntity
  8
0
100
AcDbLine
 10
142.74995
 20
20.32993
 30
0.0
 11
143.41325
 21
18.83703
 31
0.0
  0
LINE
  5
4BC
330
1D
100
AcDbEntity
  8
0
100
AcDbLine
 10
142.67385
 20
19.23696
 30
0.0
 11
143.24495
 21
17.66924
 31
0.0
  0
LINE
  5
4BD
330
1D
100
AcDbEntity
  8
0
100
AcDbLine
 10
143.41325
 20
18.83703
 30
0.0
 11
143.90855
 21
17.28087
 31
0.0
  0
LINE
  5
4C0
330
1D
100
AcDbEntity
  8
0
100
AcDbLine
 10
143.41335
 20
18.83718
 30
0.0
 11
143.90875
 21
17.28066
 31
0.0
  0
LINE
  5
4C1
330
1D
100
AcDbEntity
  8
0
100
AcDbLine
 10
142.75005
 20
20.32981
 30
0.0
 11
143.41335
 21
18.83718
 31
0.0
  0
LINE
  5
4C9
330
1D
100
AcDbEntity
  8
0
100
AcDbLine
 10
175.07095
 20
23.1028
 30
0.0
 11
192.89895
 21
23.2113
 31
0.0
  0
LINE
  5
4CA
330
1D
100
AcDbEntity
  8
0
100
AcDbLine
 10
157.07025
 20
23.1498
 30
0.0
 11
175.07095
 21
23.1028
 31
0.0
  0
LINE
  5
4CB
330
1D
100
AcDbEntity
  8
0
100
AcDbLine
 10
146.99885
 20
23.224395110095
 30
0.0
 11
157.07025
 21
23.1498
 31
0.0
  0
LINE
  5
4CE
330
1D
100
AcDbEntity
  8
0
100
AcDbLine
 10
143.24465
 20
17.6693
 30
0.0
 11
143.63035
 21
16.04615
 31
0.0
  0
LINE
  5
4CF
330
1D
100
AcDbEntity
  8
0
100
AcDbLine
 10
142.67375
 20
19.23707
 30
0.0
 11
143.24465
 21
17.6693
 31
0.0
  0
LINE
  5
4D0
330
1D
100
AcDbEntity
  8
0
100
AcDbLine
 10
143.63165
 20
11.063408
 30
0.0
 11
143.82485
 21
12.720641
 31
0.0
  0
LINE
  5
4D5
330
1D
100
AcDbEntity
  8
0
100
AcDbLine
 10
126.19025
 20
27.5133
 30
0.0
 11
127.83325
 21
27.8031
 31
0.0
  0
LINE
  5
4D7
330
1D
100
AcDbEntity
  8
0
100
AcDbLine
 10
126.19035
 20
27.5132
 30
0.0
 11
127.83335
 21
27.8029
 31
0.0
  0
LINE
  5
4DE
330
1D
100
AcDbEntity
  8
0
100
AcDbLine
 10
127.83325
 20
27.8031
 30
0.0
 11
129.49885
 21
27.8999
 31
0.0
  0
LINE
  5
4DF
330
1D
100
AcDbEntity
  8
0
100
AcDbLine
 10
127.86785
 20
28.3453
 30
0.0
 11
129.49905
 21
28.4349
 31
0.0
  0
LINE
  5
4E0
330
1D
100
AcDbEntity
  8
0
100
AcDbLine
 10
127.86805
 20
28.3453
 30
0.0
 11
129.49865
 21
28.4349
 31
0.0
  0
LINE
  5
4E1
330
1D
100
AcDbEntity
  8
0
100
AcDbLine
 10
126.25665
 20
28.0776
 30
0.0
 11
127.86805
 21
28.3453
 31
0.0
  0
LINE
  5
4E2
330
1D
100
AcDbEntity
  8
0
100
AcDbLine
 10
126.25665
 20
28.0776
 30
0.0
 11
127.86785
 21
28.3453
 31
0.0
  0
LINE
  5
4E9
330
1D
100
AcDbEntity
  8
0
100
AcDbLine
 10
127.83335
 20
27.8029
 30
0.0
 11
129.49905
 21
27.9
 31
0.0
  0
LINE
  5
4EA
330
1D
100
AcDbEntity
  8
0
100
AcDbLine
 10
129.44895
 20
26.25
 30
0.0
 11
132.77695
 21
25.782
 31
0.0
  0
LINE
  5
4EF
330
1D
100
AcDbEntity
  8
0
100
AcDbLine
 10
137.26565
 20
26.248
 30
0.0
 11
138.60995
 21
25.3205
 31
0.0
  0
LINE
  5
4F0
330
1D
100
AcDbEntity
  8
0
100
AcDbLine
 10
137.26545
 20
26.2481
 30
0.0
 11
138.61005
 21
25.3205
 31
0.0
  0
LINE
  5
4F3
330
1D
100
AcDbEntity
  8
0
100
AcDbLine
 10
135.82735
 20
27.0225
 30
0.0
 11
137.26565
 21
26.248
 31
0.0
  0
LINE
  5
4F4
330
1D
100
AcDbEntity
  8
0
100
AcDbLine
 10
135.82745
 20
27.0225
 30
0.0
 11
137.26545
 21
26.2481
 31
0.0
  0
LINE
  5
4F5
330
1D
100
AcDbEntity
  8
0
100
AcDbLine
 10
134.40595
 20
27.035
 30
0.0
 11
135.93785
 21
26.3743
 31
0.0
  0
LINE
  5
4F9
330
1D
100
AcDbEntity
  8
0
100
AcDbLine
 10
134.40575
 20
27.035
 30
0.0
 11
135.93775
 21
26.3742
 31
0.0
  0
LINE
  5
4FB
330
1D
100
AcDbEntity
  8
0
100
AcDbLine
 10
135.93785
 20
26.3743
 30
0.0
 11
137.38285
 21
25.5403
 31
0.0
  0
LINE
  5
505
330
1D
100
AcDbEntity
  8
0
100
AcDbLine
 10
135.93775
 20
26.3742
 30
0.0
 11
137.38265
 21
25.5402
 31
0.0
  0
LINE
  5
509
330
1D
100
AcDbEntity
  8
0
100
AcDbLine
 10
129.49885
 20
27.8999
 30
0.0
 11
131.16445
 21
27.8031
 31
0.0
  0
LINE
  5
50D
330
1D
100
AcDbEntity
  8
0
100
AcDbLine
 10
129.49865
 20
28.4349
 30
0.0
 11
131.12965
 21
28.3453
 31
0.0
  0
LINE
  5
50F
330
1D
100
AcDbEntity
  8
0
100
AcDbLine
 10
129.49905
 20
28.4349
 30
0.0
 11
131.12985
 21
28.3453
 31
0.0
  0
LINE
  5
514
330
1D
100
AcDbEntity
  8
0
100
AcDbLine
 10
132.80745
 20
27.5133
 30
0.0
 11
134.40595
 21
27.035
 31
0.0
  0
LINE
  5
51C
330
1D
100
AcDbEntity
  8
0
100
AcDbLine
 10
134.31325
 20
27.6349
 30
0.0
 11
135.82735
 21
27.0225
 31
0.0
  0
LINE
  5
51D
330
1D
100
AcDbEntity
  8
0
100
AcDbLine
 10
134.31305
 20
27.6348
 30
0.0
 11
135.82745
 21
27.0225
 31
0.0
  0
LINE
  5
521
330
1D
100
AcDbEntity
  8
0
100
AcDbLine
 10
131.12985
 20
28.3453
 30
0.0
 11
132.74105
 21
28.0776
 31
0.0
  0
LINE
  5
522
330
1D
100
AcDbEntity
  8
0
100
AcDbLine
 10
131.12965
 20
28.3453
 30
0.0
 11
132.74105
 21
28.0776
 31
0.0
  0
LINE
  5
529
330
1D
100
AcDbEntity
  8
0
100
AcDbLine
 10
131.16445
 20
27.8031
 30
0.0
 11
132.80745
 21
27.5133
 31
0.0
  0
LINE
  5
52B
330
1D
100
AcDbEntity
  8
0
100
AcDbLine
 10
132.74105
 20
28.0776
 30
0.0
 11
134.31305
 21
27.6348
 31
0.0
  0
LINE
  5
52C
330
1D
100
AcDbEntity
  8
0
100
AcDbLine
 10
132.74105
 20
28.0776
 30
0.0
 11
134.31325
 21
27.6349
 31
0.0
  0
LINE
  5
539
330
1D
100
AcDbEntity
  8
0
100
AcDbLine
 10
146.99885
 20
47.10533159013
 30
0.0
 11
149.56445
 21
46.8549
 31
0.0
  0
LINE
  5
53A
330
1D
100
AcDbEntity
  8
0
100
AcDbLine
 10
146.99885
 20
31.086223048327
 30
0.0
 11
149.31165
 21
30.8604
 31
0.0
  0
LINE
  5
53B
330
1D
100
AcDbEntity
  8
0
100
AcDbLine
 10
149.56445
 20
46.8549
 30
0.0
 11
157.67125
 21
46.1822
 31
0.0
  0
LINE
  5
53C
330
1D
100
AcDbEntity
  8
0
100
AcDbLine
 10
157.67125
 20
46.1822
 30
0.0
 11
167.43755
 21
45.5315
 31
0.0
  0
LINE
  5
53D
330
1D
100
AcDbEntity
  8
0
100
AcDbLine
 10
149.31165
 20
30.8604
 30
0.0
 11
157.41825
 21
30.1885
 31
0.0
  0
LINE
  5
53E
330
1D
100
AcDbEntity
  8
0
100
AcDbLine
 10
157.41825
 20
30.1885
 30
0.0
 11
167.18455
 21
29.5371
 31
0.0
  0
LINE
  5
53F
330
1D
100
AcDbEntity
  8
0
100
AcDbLine
 10
167.43755
 20
45.5315
 30
0.0
 11
177.98695
 21
44.9368
 31
0.0
  0
LINE
  5
540
330
1D
100
AcDbEntity
  8
0
100
AcDbLine
 10
177.98695
 20
44.9368
 30
0.0
 11
192.24295
 21
44.309
 31
0.0
  0
LINE
  5
541
330
1D
100
AcDbEntity
  8
0
100
AcDbLine
 10
167.18455
 20
29.5371
 30
0.0
 11
177.73395
 21
28.9432
 31
0.0
  0
LINE
  5
542
330
1D
100
AcDbEntity
  8
0
100
AcDbLine
 10
177.73395
 20
28.9432
 30
0.0
 11
191.91995
 21
28.2509
 31
0.0
  0
LINE
  5
547
330
1D
100
AcDbEntity
  8
0
100
AcDbLine
 10
131.16435
 20
27.8029
 30
0.0
 11
132.80735
 21
27.5132
 31
0.0
  0
LINE
  5
548
330
1D
100
AcDbEntity
  8
0
100
AcDbLine
 10
129.49905
 20
27.9
 30
0.0
 11
131.16435
 21
27.8029
 31
0.0
  0
LINE
  5
549
330
1D
100
AcDbEntity
  8
0
100
AcDbLine
 10
132.80735
 20
27.5132
 30
0.0
 11
134.40575
 21
27.035
 31
0.0
  0
LINE
  5
54D
330
1D
100
AcDbEntity
  8
0
100
AcDbLine
 10
71.47276
 20
70.75
 30
0.0
 11
111.99885
 21
70.75
 31
0.0
  0
LINE
  5
54E
330
1D
100
AcDbEntity
  8
0
100
AcDbLine
 10
188.07995
 20
70.75
 30
0.0
 11
188.37195
 21
70.75
 31
0.0
  0
LINE
  5
54F
330
1D
100
AcDbEntity
  8
0
100
AcDbLine
 10
146.99885
 20
70.75
 30
0.0
 11
187.52495
 21
70.75
 31
0.0
  0
LINE
  5
550
330
1D
100
AcDbEntity
  8
0
100
AcDbLine
 10
71.47267
 20
70.75
 30
0.0
 11
111.99885
 21
70.75
 31
0.0
  0
LINE
  5
551
330
1D
100
AcDbEntity
  8
0
100
AcDbLine
 10
187.52495
 20
70.75
 30
0.0
 11
188.08095
 21
70.75
 31
0.0
  0
LINE
  5
552
330
1D
100
AcDbEntity
  8
0
100
AcDbLine
 10
187.52495
 20
70.75
 30
0.0
 11
188.07995
 21
70.75
 31
0.0
  0
LINE
  5
553
330
1D
100
AcDbEntity
  8
0
100
AcDbLine
 10
188.08095
 20
70.75
 30
0.0
 11
188.37195
 21
70.75
 31
0.0
  0
LINE
  5
554
330
1D
100
AcDbEntity
  8
0
100
AcDbLine
 10
112.13285
 20
70.75
 30
0.0
 11
112.49885
 21
70.75
 31
0.0
  0
LINE
  5
555
330
1D
100
AcDbEntity
  8
0
100
AcDbLine
 10
145.99885
 20
70.75
 30
0.0
 11
146.49885
 21
70.75
 31
0.0
  0
LINE
  5
556
330
1D
100
AcDbEntity
  8
0
100
AcDbLine
 10
146.49885
 20
70.75
 30
0.0
 11
146.86485
 21
70.75
 31
0.0
  0
LINE
  5
557
330
1D
100
AcDbEntity
  8
0
100
AcDbLine
 10
146.86485
 20
70.75
 30
0.0
 11
146.99885
 21
70.75
 31
0.0
  0
LINE
  5
558
330
1D
100
AcDbEntity
  8
0
100
AcDbLine
 10
112.49885
 20
70.75
 30
0.0
 11
112.99885
 21
70.75
 31
0.0
  0
LINE
  5
559
330
1D
100
AcDbEntity
  8
0
100
AcDbLine
 10
112.99885
 20
70.75
 30
0.0
 11
145.99885
 21
70.75
 31
0.0
  0
LINE
  5
55A
330
1D
100
AcDbEntity
  8
0
100
AcDbLine
 10
111.99885
 20
70.75
 30
0.0
 11
112.13285
 21
70.75
 31
0.0
  0
LINE
  5
55B
330
1D
100
AcDbEntity
  8
0
100
AcDbLine
 10
111.99885
 20
70.75
 30
0.0
 11
111.99885
 21
10.74999
 31
0.0
  0
LINE
  5
55C
330
1D
100
AcDbEntity
  8
0
100
AcDbLine
 10
146.99885
 20
70.75
 30
0.0
 11
146.99885
 21
10.74968
 31
0.0
  0
LINE
  5
55D
330
1D
100
AcDbEntity
  8
0
100
AcDbLine
 10
69.615837
 20
71.235
 30
0.0
 11
69.98058
 21
70.8797
 31
0.0
  0
LINE
  5
55E
330
1D
100
AcDbEntity
  8
0
100
AcDbLine
 10
69.828603749942
 20
71.027741666723
 30
0.0
 11
69.98057
 21
70.8797
 31
0.0
  0
LINE
  5
55F
330
1D
100
AcDbEntity
  8
0
100
AcDbLine
 10
69.98058
 20
70.8797
 30
0.0
 11
70.47301
 21
70.75
 31
0.0
  0
LINE
  5
560
330
1D
100
AcDbEntity
  8
0
100
AcDbLine
 10
69.98057
 20
70.8797
 30
0.0
 11
70.473
 21
70.75
 31
0.0
  0
LINE
  5
561
330
1D
100
AcDbEntity
  8
0
100
AcDbLine
 10
188.37195
 20
70.75
 30
0.0
 11
188.52495
 21
70.75
 31
0.0
  0
LINE
  5
562
330
1D
100
AcDbEntity
  8
0
100
AcDbLine
 10
188.52495
 20
70.75
 30
0.0
 11
189.01695
 21
70.8797
 31
0.0
  0
LINE
  5
563
330
1D
100
AcDbEntity
  8
0
100
AcDbLine
 10
69.473382017233
 20
71.723697024785
 30
0.0
 11
69.615837
 21
71.235
 31
0.0
  0
LINE
  5
567
330
1D
100
AcDbEntity
  8
0
100
AcDbLine
 10
68.94895
 20
91.75
 30
0.0
 11
69.473333
 21
71.7238
 31
0.0
  0
LINE
  5
568
330
1D
100
AcDbEntity
  8
0
100
AcDbLine
 10
69.057974
 20
91.75
 30
0.0
 11
69.364718
 21
91.75
 31
0.0
  0
LINE
  5
56E
330
1D
100
AcDbEntity
  8
0
100
AcDbLine
 10
69.948606
 20
91.75
 30
0.0
 11
189.04895
 21
91.75
 31
0.0
  0
LINE
  5
570
330
1D
100
AcDbEntity
  8
0
100
AcDbLine
 10
69.948647
 20
91.75
 30
0.0
 11
189.04895
 21
91.75
 31
0.0
  0
LINE
  5
571
330
1D
100
AcDbEntity
  8
0
100
AcDbLine
 10
69.364718
 20
91.75
 30
0.0
 11
69.948647
 21
91.75
 31
0.0
  0
LINE
  5
573
330
1D
100
AcDbEntity
  8
0
100
AcDbLine
 10
69.364573
 20
91.75
 30
0.0
 11
69.948617
 21
91.75
 31
0.0
  0
LINE
  5
574
330
1D
100
AcDbEntity
  8
0
100
AcDbLine
 10
69.058786
 20
91.75
 30
0.0
 11
69.364573
 21
91.75
 31
0.0
  0
LINE
  5
575
330
1D
100
AcDbEntity
  8
0
100
AcDbLine
 10
68.94895
 20
91.75
 30
0.0
 11
69.058786
 21
91.75
 31
0.0
  0
LINE
  5
576
330
1D
100
AcDbEntity
  8
0
100
AcDbLine
 10
68.94895
 20
91.75
 30
0.0
 11
69.47334
 21
71.7237
 31
0.0
  0
LINE
  5
577
330
1D
100
AcDbEntity
  8
0
100
AcDbLine
 10
68.94895
 20
91.75
 30
0.0
 11
69.057974
 21
91.75
 31
0.0
  0
LINE
  5
578
330
1D
100
AcDbEntity
  8
0
100
AcDbLine
 10
68.94895
 20
91.75
 30
0.0
 11
69.473352
 21
71.7238
 31
0.0
  0
LINE
  5
57D
330
1D
100
AcDbEntity
  8
0
100
AcDbLine
 10
189.52395
 20
71.7238
 30
0.0
 11
190.04895
 21
91.75
 31
0.0
  0
LINE
  5
57E
330
1D
100
AcDbEntity
  8
0
100
AcDbLine
 10
189.50595
 20
91.75
 30
0.0
 11
189.85995
 21
91.75
 31
0.0
  0
LINE
  5
57F
330
1D
100
AcDbEntity
  8
0
100
AcDbLine
 10
189.85995
 20
91.75
 30
0.0
 11
190.04895
 21
91.75
 31
0.0
  0
LINE
  5
580
330
1D
100
AcDbEntity
  8
0
100
AcDbLine
 10
189.52395
 20
71.7237
 30
0.0
 11
190.04895
 21
91.75
 31
0.0
  0
LINE
  5
581
330
1D
100
AcDbEntity
  8
0
100
AcDbLine
 10
191.91995
 20
28.2509
 30
0.0
 11
204.53395
 21
27.6925
 31
0.0
  0
LINE
  5
585
330
1D
100
AcDbEntity
  8
0
100
AcDbLine
 10
204.53395
 20
27.6925
 30
0.0
 11
216.15295
 21
27.0281
 31
0.0
  0
LINE
  5
58D
330
1D
100
AcDbEntity
  8
0
100
AcDbLine
 10
192.24295
 20
44.309
 30
0.0
 11
204.78695
 21
43.6864
 31
0.0
  0
LINE
  5
591
330
1D
100
AcDbEntity
  8
0
100
AcDbLine
 10
204.78695
 20
43.6864
 30
0.0
 11
216.40595
 21
43.0218
 31
0.0
  0
LINE
  5
595
330
1D
100
AcDbEntity
  8
0
100
AcDbLine
 10
223.77495
 20
26.4227
 30
0.0
 11
229.10395
 21
25.8505
 31
0.0
  0
LINE
  5
596
330
1D
100
AcDbEntity
  8
0
100
AcDbLine
 10
224.02895
 20
42.4169
 30
0.0
 11
229.35695
 21
41.8445
 31
0.0
  0
LINE
  5
597
330
1D
100
AcDbEntity
  8
0
100
AcDbLine
 10
216.40595
 20
43.0218
 30
0.0
 11
224.02895
 21
42.4169
 31
0.0
  0
LINE
  5
598
330
1D
100
AcDbEntity
  8
0
100
AcDbLine
 10
216.15295
 20
27.0281
 30
0.0
 11
223.77495
 21
26.4227
 31
0.0
  0
LINE
  5
599
330
1D
100
AcDbEntity
  8
0
100
AcDbLine
 10
229.10395
 20
25.8505
 30
0.0
 11
231.64595
 21
25.3797
 31
0.0
  0
LINE
  5
59A
330
1D
100
AcDbEntity
  8
0
100
AcDbLine
 10
234.90995
 20
25.4944
 30
0.0
 11
237.53895
 21
27.2543
 31
0.0
  0
LINE
  5
59B
330
1D
100
AcDbEntity
  8
0
100
AcDbLine
 10
232.57795
 20
25.0249
 30
0.0
 11
234.90995
 21
25.4944
 31
0.0
  0
LINE
  5
59C
330
1D
100
AcDbEntity
  8
0
100
AcDbLine
 10
231.89995
 20
41.374
 30
0.0
 11
234.98195
 21
40.73
 31
0.0
  0
LINE
  5
59D
330
1D
100
AcDbEntity
  8
0
100
AcDbLine
 10
229.35695
 20
41.8445
 30
0.0
 11
231.89995
 21
41.374
 31
0.0
  0
LINE
  5
59E
330
1D
100
AcDbEntity
  8
0
100
AcDbLine
 10
234.98195
 20
40.73
 30
0.0
 11
237.44695
 21
38.895
 31
0.0
  0
LINE
  5
59F
330
1D
100
AcDbEntity
  8
0
100
AcDbLine
 10
239.20395
 20
36.3703
 30
0.0
 11
239.37995
 21
35.9248
 31
0.0
  0
LINE
  5
5A0
330
1D
100
AcDbEntity
  8
0
100
AcDbLine
 10
237.44695
 20
38.895
 30
0.0
 11
239.20395
 21
36.3703
 31
0.0
  0
LINE
  5
5A1
330
1D
100
AcDbEntity
  8
0
100
AcDbLine
 10
237.53895
 20
27.2543
 30
0.0
 11
239.28095
 21
29.727
 31
0.0
  0
LINE
  5
5A2
330
1D
100
AcDbEntity
  8
0
100
AcDbLine
 10
239.37995
 20
35.9248
 30
0.0
 11
239.92795
 21
32.8173
 31
0.0
  0
LINE
  5
5A3
330
1D
100
AcDbEntity
  8
0
100
AcDbLine
 10
239.28095
 20
29.727
 30
0.0
 11
239.92795
 21
32.8173
 31
0.0
  0
LINE
  5
5A4
330
1D
100
AcDbEntity
  8
0
100
AcDbLine
 10
229.54195
 20
24.4796
 30
0.0
 11
232.57795
 21
25.0249
 31
0.0
  0
LINE
  5
5A5
330
1D
100
AcDbEntity
  8
0
100
AcDbLine
 10
224.99395
 20
24.0483
 30
0.0
 11
229.54195
 21
24.4796
 31
0.0
  0
LINE
  5
5A6
330
1D
100
AcDbEntity
  8
0
100
AcDbLine
 10
216.46295
 20
23.6719
 30
0.0
 11
224.99395
 21
24.0483
 31
0.0
  0
LINE
  5
5A7
330
1D
100
AcDbEntity
  8
0
100
AcDbLine
 10
206.66395
 20
23.369
 30
0.0
 11
216.46295
 21
23.6719
 31
0.0
  0
LINE
  5
5A8
330
1D
100
AcDbEntity
  8
0
100
AcDbLine
 10
192.89895
 20
23.2113
 30
0.0
 11
206.66395
 21
23.369
 31
0.0
  0
LINE
  5
5A9
330
1D
100
AcDbEntity
  8
0
100
AcDbLine
 10
189.86095
 20
91.75
 30
0.0
 11
190.04895
 21
91.75
 31
0.0
  0
LINE
  5
5AA
330
1D
100
AcDbEntity
  8
0
100
AcDbLine
 10
189.50495
 20
91.75
 30
0.0
 11
189.86095
 21
91.75
 31
0.0
  0
LINE
  5
5AB
330
1D
100
AcDbEntity
  8
0
100
AcDbLine
 10
189.04895
 20
91.75
 30
0.0
 11
189.50495
 21
91.75
 31
0.0
  0
LINE
  5
5AC
330
1D
100
AcDbEntity
  8
0
100
AcDbLine
 10
189.04895
 20
91.75
 30
0.0
 11
189.50595
 21
91.75
 31
0.0
  0
LINE
  5
5D4
330
1D
100
AcDbEntity
  8
0
100
AcDbLine
 10
189.01695
 20
70.8797
 30
0.0
 11
189.394157146845
 21
71.305273524951
 31
0.0
  0
LINE
  5
5D5
330
1D
100
AcDbEntity
  8
0
100
AcDbLine
 10
189.394157146845
 20
71.305273524951
 30
0.0
 11
189.52395
 21
71.7237
 31
0.0
  0
LINE
  5
5D6
330
1D
100
AcDbEntity
  8
0
100
AcDbLine
 10
145.99885
 20
8.75
 30
0.0
 11
146.554683730745
 21
8.910670533029
 31
0.0
  0
LINE
  5
5D7
330
1D
100
AcDbEntity
  8
0
100
AcDbLine
 10
146.554683730745
 20
8.910670533029
 30
0.0
 11
146.86485
 21
9.25001
 31
0.0
  0
LINE
  5
5D8
330
1D
100
AcDbEntity
  8
0
100
AcDbLine
 10
115.09885
 20
8.75
 30
0.0
 11
115.98085
 21
8.79036
 31
0.0
  0
LINE
  5
5D9
330
1D
100
AcDbEntity
  8
0
100
AcDbLine
 10
143.89885
 20
8.75
 30
0.0
 11
143.01685
 21
8.79036
 31
0.0
  0
ENDSEC
  0
SECTION
  2
OBJECTS
  0
DICTIONARY
  5
C
330
0
100
AcDbDictionary
281
     1
  3
ACAD_GROUP
350
D
  3
ACAD_LAYOUT
350
1A
  3
ACAD_MLEADERSTYLE
350
5DC
  3
ACAD_MLINESTYLE
350
17
  3
ACAD_PLOTSETTINGS
350
19
  3
ACAD_PLOTSTYLENAME
350
E
  3
ACAD_SCALELIST
350
5B2
  3
AcDbVariableDictionary
350
5DA
  3
DWGPROPS
350
5DF
  0
DICTIONARY
  5
D
102
{ACAD_REACTORS
330
C
102
}
330
C
100
AcDbDictionary
281
     1
  0
DICTIONARY
  5
1A
102
{ACAD_REACTORS
330
C
102
}
330
C
100
AcDbDictionary
281
     1
  3
Layout1
350
1C
  3
Model
350
1E
  0
DICTIONARY
  5
5DC
102
{ACAD_REACTORS
330
C
102
}
330
C
100
AcDbDictionary
281
     1
  0
DICTIONARY
  5
17
102
{ACAD_REACTORS
330
C
102
}
330
C
100
AcDbDictionary
281
     1
  3
Standard
350
18
  0
DICTIONARY
  5
19
102
{ACAD_REACTORS
330
C
102
}
330
C
100
AcDbDictionary
281
     1
  0
ACDBDICTIONARYWDFLT
  5
E
102
{ACAD_REACTORS
330
C
102
}
330
C
100
AcDbDictionary
281
     1
  3
Normal
350
F
100
AcDbDictionaryWithDefault
340
F
  0
DICTIONARY
  5
5B2
102
{ACAD_REACTORS
330
C
102
}
330
C
100
AcDbDictionary
281
     1
  3
A0
350
5B3
  3
A1
350
5B4
  3
A2
350
5B5
  3
A3
350
5B6
  3
A4
350
5B7
  3
A5
350
5B8
  3
A6
350
5B9
  3
A7
350
5BA
  3
A8
350
5BB
  3
A9
350
5BC
  3
B0
350
5BD
  3
B1
350
5BE
  3
B2
350
5BF
  3
B3
350
5C0
  3
B4
350
5C1
  3
B5
350
5C2
  3
B6
350
5C3
  3
B7
350
5C4
  3
B8
350
5C5
  3
B9
350
5C6
  3
C0
350
5C7
  3
C1
350
5C8
  3
C2
350
5C9
  3
C3
350
5CA
  3
C4
350
5CB
  3
C5
350
5CC
  3
C6
350
5CD
  3
C7
350
5CE
  3
C8
350
5CF
  3
C9
350
5D0
  3
D0
350
5D1
  3
D1
350
5D2
  3
D2
350
5D3
  0
DICTIONARY
  5
5DA
102
{ACAD_REACTORS
330
C
102
}
330
C
100
AcDbDictionary
281
     1
  3
CANNOSCALE
350
5DD
  0
XRECORD
  5
5DF
102
{ACAD_REACTORS
330
C
102
}
330
C
100
AcDbXrecord
280
     1
  1
DWGPROPS COOKIE
  2

  3

  4

  6

  7

  8
MARTIN
  9

300
=
301
=
302
=
303
=
304
=
305
=
306
=
307
=
308
=
309
=
 40
0.0
 41
2456184.53508434
 42
2456184.544854306
  1

 90
        0
  0
LAYOUT
  5
1C
102
{ACAD_REACTORS
330
1A
102
}
330
1A
100
AcDbPlotSettings
  1

  2
none_device
  4

  6

 40
0.0
 41
0.0
 42
0.0
 43
0.0
 44
0.0
 45
0.0
 46
0.0
 47
0.0
 48
0.0
 49
0.0
140
0.0
141
0.0
142
1.0
143
1.0
 70
   688
 72
     0
 73
     0
 74
     5
  7

 75
    16
147
1.0
148
0.0
149
0.0
100
AcDbLayout
  1
Layout1
 70
     1
 71
     1
 10
0.0
 20
0.0
 11
12.0
 21
9.0
 12
0.0
 22
0.0
 32
0.0
 14
1.000000000000E+20
 24
1.000000000000E+20
 34
1.000000000000E+20
 15
-1.000000000000E+20
 25
-1.000000000000E+20
 35
-1.000000000000E+20
146
0.0
 13
0.0
 23
0.0
 33
0.0
 16
1.0
 26
0.0
 36
0.0
 17
0.0
 27
1.0
 37
0.0
 76
     0
330
1B
  0
LAYOUT
  5
1E
102
{ACAD_REACTORS
330
1A
102
}
330
1A
100
AcDbPlotSettings
  1

  2
none_device
  4

  6

 40
0.0
 41
0.0
 42
0.0
 43
0.0
 44
0.0
 45
0.0
 46
0.0
 47
0.0
 48
0.0
 49
0.0
140
0.0
141
0.0
142
1.0
143
1.0
 70
  1712
 72
     0
 73
     0
 74
     0
  7

 75
     0
147
1.0
148
0.0
149
0.0
100
AcDbLayout
  1
Model
 70
     1
 71
     0
 10
0.0
 20
0.0
 11
12.0
 21
9.0
 12
0.0
 22
0.0
 32
0.0
 14
0.07205
 24
0.25
 34
0.0
 15
239.92795
 25
91.75
 35
0.0
146
0.0
 13
0.0
 23
0.0
 33
0.0
 16
1.0
 26
0.0
 36
0.0
 17
0.0
 27
1.0
 37
0.0
 76
     0
330
1D
331
5AD
  0
MLINESTYLE
  5
18
102
{ACAD_REACTORS
330
17
102
}
330
17
100
AcDbMlineStyle
  2
Standard
 70
     0
  3

 62
   256
 51
90.0
 52
90.0
 71
     2
 49
0.5
 62
   256
  6
BYLAYER
 49
-0.5
 62
   256
  6
BYLAYER
  0
ACDBPLACEHOLDER
  5
F
102
{ACAD_REACTORS
330
E
102
}
330
E
  0
SCALE
  5
5B3
102
{ACAD_REACTORS
330
5B2
102
}
330
5B2
100
AcDbScale
 70
     0
300
1:1
140
1.0
141
1.0
290
     1
  0
SCALE
  5
5B4
102
{ACAD_REACTORS
330
5B2
102
}
330
5B2
100
AcDbScale
 70
     0
300
1:2
140
1.0
141
2.0
290
     0
  0
SCALE
  5
5B5
102
{ACAD_REACTORS
330
5B2
102
}
330
5B2
100
AcDbScale
 70
     0
300
1:4
140
1.0
141
4.0
290
     0
  0
SCALE
  5
5B6
102
{ACAD_REACTORS
330
5B2
102
}
330
5B2
100
AcDbScale
 70
     0
300
1:5
140
1.0
141
5.0
290
     0
  0
SCALE
  5
5B7
102
{ACAD_REACTORS
330
5B2
102
}
330
5B2
100
AcDbScale
 70
     0
300
1:8
140
1.0
141
8.0
290
     0
  0
SCALE
  5
5B8
102
{ACAD_REACTORS
330
5B2
102
}
330
5B2
100
AcDbScale
 70
     0
300
1:10
140
1.0
141
10.0
290
     0
  0
SCALE
  5
5B9
102
{ACAD_REACTORS
330
5B2
102
}
330
5B2
100
AcDbScale
 70
     0
300
1:16
140
1.0
141
16.0
290
     0
  0
SCALE
  5
5BA
102
{ACAD_REACTORS
330
5B2
102
}
330
5B2
100
AcDbScale
 70
     0
300
1:20
140
1.0
141
20.0
290
     0
  0
SCALE
  5
5BB
102
{ACAD_REACTORS
330
5B2
102
}
330
5B2
100
AcDbScale
 70
     0
300
1:30
140
1.0
141
30.0
290
     0
  0
SCALE
  5
5BC
102
{ACAD_REACTORS
330
5B2
102
}
330
5B2
100
AcDbScale
 70
     0
300
1:40
140
1.0
141
40.0
290
     0
  0
SCALE
  5
5BD
102
{ACAD_REACTORS
330
5B2
102
}
330
5B2
100
AcDbScale
 70
     0
300
1:50
140
1.0
141
50.0
290
     0
  0
SCALE
  5
5BE
102
{ACAD_REACTORS
330
5B2
102
}
330
5B2
100
AcDbScale
 70
     0
300
1:100
140
1.0
141
100.0
290
     0
  0
SCALE
  5
5BF
102
{ACAD_REACTORS
330
5B2
102
}
330
5B2
100
AcDbScale
 70
     0
300
2:1
140
2.0
141
1.0
290
     0
  0
SCALE
  5
5C0
102
{ACAD_REACTORS
330
5B2
102
}
330
5B2
100
AcDbScale
 70
     0
300
4:1
140
4.0
141
1.0
290
     0
  0
SCALE
  5
5C1
102
{ACAD_REACTORS
330
5B2
102
}
330
5B2
100
AcDbScale
 70
     0
300
8:1
140
8.0
141
1.0
290
     0
  0
SCALE
  5
5C2
102
{ACAD_REACTORS
330
5B2
102
}
330
5B2
100
AcDbScale
 70
     0
300
10:1
140
10.0
141
1.0
290
     0
  0
SCALE
  5
5C3
102
{ACAD_REACTORS
330
5B2
102
}
330
5B2
100
AcDbScale
 70
     0
300
100:1
140
100.0
141
1.0
290
     0
  0
SCALE
  5
5C4
102
{ACAD_REACTORS
330
5B2
102
}
330
5B2
100
AcDbScale
 70
     0
300
1/128" = 1'-0"
140
0.0078125
141
12.0
290
     0
  0
SCALE
  5
5C5
102
{ACAD_REACTORS
330
5B2
102
}
330
5B2
100
AcDbScale
 70
     0
300
1/64" = 1'-0"
140
0.015625
141
12.0
290
     0
  0
SCALE
  5
5C6
102
{ACAD_REACTORS
330
5B2
102
}
330
5B2
100
AcDbScale
 70
     0
300
1/32" = 1'-0"
140
0.03125
141
12.0
290
     0
  0
SCALE
  5
5C7
102
{ACAD_REACTORS
330
5B2
102
}
330
5B2
100
AcDbScale
 70
     0
300
1/16" = 1'-0"
140
0.0625
141
12.0
290
     0
  0
SCALE
  5
5C8
102
{ACAD_REACTORS
330
5B2
102
}
330
5B2
100
AcDbScale
 70
     0
300
3/32" = 1'-0"
140
0.09375
141
12.0
290
     0
  0
SCALE
  5
5C9
102
{ACAD_REACTORS
330
5B2
102
}
330
5B2
100
AcDbScale
 70
     0
300
1/8" = 1'-0"
140
0.125
141
12.0
290
     0
  0
SCALE
  5
5CA
102
{ACAD_REACTORS
330
5B2
102
}
330
5B2
100
AcDbScale
 70
     0
300
3/16" = 1'-0"
140
0.1875
141
12.0
290
     0
  0
SCALE
  5
5CB
102
{ACAD_REACTORS
330
5B2
102
}
330
5B2
100
AcDbScale
 70
     0
300
1/4" = 1'-0"
140
0.25
141
12.0
290
     0
  0
SCALE
  5
5CC
102
{ACAD_REACTORS
330
5B2
102
}
330
5B2
100
AcDbScale
 70
     0
300
3/8" = 1'-0"
140
0.375
141
12.0
290
     0
  0
SCALE
  5
5CD
102
{ACAD_REACTORS
330
5B2
102
}
330
5B2
100
AcDbScale
 70
     0
300
1/2" = 1'-0"
140
0.5
141
12.0
290
     0
  0
SCALE
  5
5CE
102
{ACAD_REACTORS
330
5B2
102
}
330
5B2
100
AcDbScale
 70
     0
300
3/4" = 1'-0"
140
0.75
141
12.0
290
     0
  0
SCALE
  5
5CF
102
{ACAD_REACTORS
330
5B2
102
}
330
5B2
100
AcDbScale
 70
     0
300
1" = 1'-0"
140
1.0
141
12.0
290
     0
  0
SCALE
  5
5D0
102
{ACAD_REACTORS
330
5B2
102
}
330
5B2
100
AcDbScale
 70
     0
300
1-1/2" = 1'-0"
140
1.5
141
12.0
290
     0
  0
SCALE
  5
5D1
102
{ACAD_REACTORS
330
5B2
102
}
330
5B2
100
AcDbScale
 70
     0
300
3" = 1'-0"
140
3.0
141
12.0
290
     0
  0
SCALE
  5
5D2
102
{ACAD_REACTORS
330
5B2
102
}
330
5B2
100
AcDbScale
 70
     0
300
6" = 1'-0"
140
6.0
141
12.0
290
     0
  0
SCALE
  5
5D3
102
{ACAD_REACTORS
330
5B2
102
}
330
5B2
100
AcDbScale
 70
     0
300
1'-0" = 1'-0"
140
12.0
141
12.0
290
     0
  0
DICTIONARYVAR
  5
5DD
102
{ACAD_REACTORS
330
5DA
102
}
330
5DA
100
DictionaryVariables
280
     0
  1
1:1
  0
ENDSEC
  0
SECTION
  2
THUMBNAILIMAGE
 90
    16364
310
28000000B40000005500000001000800000000000000000000000000000000000000000000000000FFFFFF000000FF0000FFFF0000FF0000FFFF0000FF000000FF00FF000000000080808000C0C0C0000000FF007F7FFF000000A5005252A50000007F003F3F7F0000004C0026264C000000260013132600003FFF007F9FFF
310
000029A5005267A500001F7F003F4F7F0000134C00262F4C000009260013172600007FFF007FBFFF000052A500527CA500003F7F003F5F7F0000264C0026394C0000132600131C260000BFFF007FDFFF00007CA5005291A500005F7F003F6F7F0000394C0026424C00001C26001321260000FFFF007FFFFF0000A5A50052A5
310
A500007F7F003F7F7F00004C4C00264C4C00002626001326260000FFBF007FFFDF0000A57C0052A59100007F5F003F7F6F00004C3900264C420000261C001326210000FF7F007FFFBF0000A5520052A57C00007F3F003F7F5F00004C2600264C39000026130013261C0000FF3F007FFF9F0000A5290052A56700007F1F003F
310
7F4F00004C1300264C2F00002609001326170000FF00007FFF7F0000A5000052A55200007F00003F7F3F00004C0000264C260000260000132613003FFF00009FFF7F0029A5000067A552001F7F00004F7F3F00134C00002F4C260009260000172613007FFF0000BFFF7F0052A500007CA552003F7F00005F7F3F00264C0000
310
394C2600132600001C261300BFFF0000DFFF7F007CA5000091A552005F7F00006F7F3F00394C0000424C26001C26000021261300FFFF0000FFFF7F00A5A50000A5A552007F7F00007F7F3F004C4C00004C4C26002626000026261300FFBF0000FFDF7F00A57C0000A59152007F5F00007F6F3F004C3900004C422600261C00
310
0026211300FF7F0000FFBF7F00A5520000A57C52007F3F00007F5F3F004C2600004C39260026130000261C1300FF3F0000FF9F7F00A5290000A56752007F1F00007F4F3F004C1300004C2F26002609000026171300FF000000FF7F7F00A5000000A55252007F0000007F3F3F004C0000004C2626002600000026131300FF00
310
3F00FF7F9F00A5002900A55267007F001F007F3F4F004C0013004C262F002600090026131700FF007F00FF7FBF00A5005200A5527C007F003F007F3F5F004C0026004C2639002600130026131C00FF00BF00FF7FDF00A5007C00A55291007F005F007F3F6F004C0039004C26420026001C0026132100FF00FF00FF7FFF00A5
310
00A500A552A5007F007F007F3F7F004C004C004C264C002600260026132600BF00FF00DF7FFF007C00A5009152A5005F007F006F3F7F0039004C0042264C001C002600211326007F00FF00BF7FFF005200A5007C52A5003F007F005F3F7F0026004C0039264C00130026001C1326003F00FF009F7FFF002900A5006752A500
310
1F007F004F3F7F0013004C002F264C000900260017132600000000002D2D2D005B5B5B0089898900B7B7B700B3B3B30000000000000000000000000000000000000000000000000000000000000000000000000000000000000000000000000000000000000000000000000000000000000000000000000000000000000000
310
00000000000000000000000000000000000000000000000000000000000000000000000000000000000000000000000000000000000000000000000000000000000000000000000000000000000000000000000000000000000000000000000000000000000000000000000000000000000000000000000000000000000000
310
00000000000000000000000000000000000000000000000000000000000000000000000000000000000000000000000000000000000000000000000000000000000000000000000000000000000000000000000000000000000000000000000000000000000000000000000000000000000000000000000000000000000000
310
00000000000000000000000000000000000000000000000000000000000000000000000000000000000000000000000000000000000000000000000000000000000000000000000000000000000000000000000000000000000000000000000000000000000000000000000000000000000000000000000000000000000000
310
00000000000000000000000000000000000000000000000000000000000000000000000000000000000000000000000000000000000000000000000000000000000000000000000000000000000000000000000000000000000000000000000000000000000000000000000000000000000000000000000000000000000000
310
00000000000000000000000000000000000000000000000000000000000000000000000000000000000000000000000000000000000000000000000000000000000000000000000000000000000000000000000000000000000000000000000000000000000000000000000000000000000000000000000000000000000000
310
00000000000000000000000000000000000000000000000000000000000000000000000000000000000000000000000000000000000000000000000000000000000000000000000000000000000000000000000000000000000000000000000000000000000000000000000000000000000000000000000000000000000000
310
00000000000000000000000000000000000000000000000000000000000000000000000000000000000000000000000000000000000000000000000000000000000000000000000000000000000000000000000000000000000000000000000000000000000000000000000000000000000000000000000000000000000000
310
00000000000000000000000000000000000000000000000000000000000000000000000000000000000000000000000000000000000000000000000000000000000000000000000000000000000000000000000000000000000000000000000000000000000000000000000000000000000000000000000000000000000000
310
00000000000000000000000000000000000000000000000000000000000000000000000000000000000000000000000000000000000000000000000000000000000000000000000000000000000000000000000000000000000000000000000000000000000000000000000000000000000000000000000000000000000000
310
00000000000000000000000000000000000000000000000000000000000000000000000000000000000000000000000000000000000000000000000000000000000000000000000000000000000000000000000000000000000000000000000000000000000000000000000000000000000000000000000000000000000000
310
00000000000000000000000000000000000000000000000000000000000000000000000000000000000000000000000000000000000000000000000000000000000000000000000000000000000000000000000000000000000000000000000000000000000000000000000000000000000000000000000000000000000000
310
00000000000000000000000000000000000000000000000000000000000000000000000000000000000000000000000000000000000000000000000000000000000000000000000000000000000000000000000000000000000000000000000000000000000000000000000000000000000000000000000000000000000000
310
00000000000000000000000000000000000000000000000000000000000000000000000000000000000000000000000000000000000000000000000000000000000000000000000000000000000000000000000000000000000000000000000000000000000000000000000000000000000000000000000000000000000000
310
00000000000000000000000000000000000000000000000000000000000000000000000000000000000000000000000000000000000000000000000000000000000000000000000000000000000000000000000000000000000000000000000000000000000000000000000000000000000000000000000000000000000000
310
00000000000000000000000000000000000000000000000000000000000000000000000000000000000000000000000000000000000000000000000000000000000000000000000000000000000000000000000000000000000000000000000000000000000000000000000000000000000000000000000000000000000000
310
00000000000000000000000000000000000000000000000000000000000000000000000000000000000000000000000000000000000000000000000000000000000000000000000000000000000000000000000000000000000000000000000000000000000000000000000000000000000000000000000000000000000000
310
00000000000000000000000000000000000000000000000000000000000000000000000000000000000000000000000000000000000000000000000000000000000000000000000000000000000000000000000000000000000000000000000000000000000000000000000000000000000000000000000000000000000000
310
00000000000000000000000000000000070707070700000000000000000000000000000000000000000000000000000000000000000000000000000000000000000000000000000000000000000000000000000000000000000000000000000000000000000000000000000000000000000000000000000000000000000000
310
00000000000000000000000000000000000000000000000000000000000000000000000000000000000000000000000000000000000000000000000000000000000000070707070707070707000000000000000000000000000000000000000000000000000000000000000000000000000000000000000000000000000000
310
00000000000000000000000000000000000000000000000000000000000000000000000000000000000000000000000000000000000000000000000000000000000000000000000000000000000000000000000000000000000000000000000000000000000000000000000000000000000000000000070707070707070707
310
07070707000000000000000000000000000000000000000000000000000000000000000000000000000000000000000000000000000000000000000000000000000000000000000000000000000000000000000000000000000000000000000000000000000000000000000000000000000000000000000000000000000000
310
00000000000000000000000000000000000000000000000000000000000000000000000000000000000000070707070707070707070700070700000000000000000000000000000000000000000000000000000000000000000000000000000000000000000000000000000000000000000000000000000000000000000000
310
00000000000000000000000000000000000000000000000000000000000000000000000000000000000000000000000000000000000000000000000000000000000000000000000000000000000000000000000000000000000000000000000007070000070700070007070007070700000000000000000000000000000000
310
00000000000000000000000000000000000000000000000000000000000000000000000000000000000000000000000000000000000000000000000000000000000000000000000000000000000000000000000000000000000000000000000000000000000000000000000000000000000000000000000000000000000000
310
00000000000000000000000007070707070707070707070700070707070707070007000707000707070000000000000000000000000000000000000000000000000000000000000000000000000000000000000000000000000000000000000000000000000000000000000000000000000000000000000000000000000000
310
00000000000000000000000000000000000000000000000000000000000000000000000000000000000000000000000000000000070707070707070707070707070000000000000700070707000707070707070007070707070707070707000000000000000000000000000000000000000000000000000000000000000000
310
00000000000000000000000000000000000000000000000000000000000000000000000000000000000000000000000000000000000000000000000000000000000000000000000000000000000000000000000000000000000000000000000000000007070707070700000000000000000000000000000000000000070007
310
07070007000707070707070707070007070707070000000000000000000000000000000000000000000000000000000000000000000000000000000000000000000000000000000000000000000000000000000000000000000000000000000000000000000000000000000000000000000000000000000000000000000000
310
00000000000000000000000000000000000000000707070707000000000000000000000000000000000000000000000000000700070707070707070707000707070707070000000707000000000000000000000000000000000000000000000000000000000000000000000000000000000000000000000000000000000000
310
00000000000000000000000000000000000000000000000000000000000000000000000000000000000000000000000000000000000000000000000000000000000000070707070707000000000000000000000000000000000000000000000000000000000000070007070707070707070700070707070707070707000700
310
00000000000000000000000000000000000000000000000000000000000000000000000000000000000000000000000000000000000000000000000000000000000000000000000000000000000000000000000000000000000000000000000000000000000000000000000000000000000000070707070700000000000000
310
00000000000000000000000000000000000000000000000000000000000700070707000700070707070707070007000707070707000000000000000000000000000000000000000000000000000000000000000000000000000000000000000000000000000000000000000000000000000000000000000000000000000000
310
00000000000000000000000000000000000000000000000000000000000000000000000707070707070000000000000000000000000000000000000000000000000000000000000000000000000000000000070007070700070700070707070707070707070707000700000000000000000000000000000000000000000000
310
00000000000000000000000000000000000000000000000000000000000000000000000000000000000000000000000000000000000000000000000000000000000000000000000007070707070707070707070707070707000000000000000000000000000000000000000000000000000000000000000000000000000000
310
00000000000000000700070707070007070007070707000700070700070007000000000000000000000000000000000000000000000000000000000000000000000000000000000000000000000000000000000000000000000000000000000000000000000000000000000000000000000000000000000707070707070000
310
00000000000000000000000000000000000000000000000000000000000000000000000000000000000000000000000000000000000000000000000000070000070707070007070707070707000707070707000700000000000000000000000000000000000000000000000000000000000000000000000000000000000000
310
00000000000000000000000000000000000000000000000000000000000000000000000000000000000000000700000000000000000000000000000000000000000000000000000000000000000000000000000000000000000000000000000000000000000000000000000000000000000007000007070707070007070707
310
07070707070007000007000000000000000000000000000000000000000000000000000000000000000000000000000000000000000000000000000000000000000000000000000000000000000000000000000000000000000000000000000007000000000000000000000000000000000000000000000000000000000000
310
00000000000000000000000000000000000000000000000000000000000000000000000000000000070000000700070707070707070707070700070700000707070707070707070707070707070707070707070707070707070707070707070707070707070707070707070707070707070707000000000000000000000000
310
00000000000000000000000000000000000000000007000000000000000000000000000000000000000000000000000000000000000000000000000000000000000000000000000000000707070707070707070707070707070707070707000000070707070707070707070707070707000000070000000000000000000000
310
00000000000000000000000000000000000000000000000000000000000000000000000000000000000707070707000000000000000000000000000000000000000000000000000000070000000000000000000000000000000000000000000000000000000000000000000000000000000000000000000000070707070707
310
00000000000000000000000000000000000000070000000000070707000707070007070700000000000700000000000000000000000000000000000000000000000000000000000000000000000000000000000707070707070707070707070700000007070000000000000000000000000000000000000000000000000007
310
00000000000000000000000000000000000000000000000000000000000000000000000000000000000007070707070000000000000000000000000000000000000000000000000007000000000000000707070707070700000000000000070000000000000000000000000000000000000000000000000007070707070707
310
07070707070707070700000000000000000000000000000000000700000000000000000000000000000000000000000000000000070000000000000000000000000000000000000000000000000000000000000000000000000707070707070000000000000000000000000000000000000000000000000000000000000700
310
00000000000000000000000000000000000000000700000000070707070707070707070707070707070707070707000000000000000000000000000000000000000000000000000000000000000000000700000000000000000000000000000000000000000000000000070000000000000000000000000000000000000000
310
00000000000000000000070707070700000000000000000000000000000000000000000000000000000000000000000000000007000000000000000000000000000000000000000000070707070700000000000000000000000000000000000000000000000000000000000000000000000000000000000000000000000000
310
00000000000007000000000000000000000000000000000000000000000000000700000000000000000000000000000000000000000000000007070707070700000000000000000000000000000000000000000000000000000000000000000000000000000000000700000000000000000000000000000000000000000007
310
00000000000000000000000000000000000000000000000000000000000000000000000000000000000000000000000000000000000000000000000000000000000000000000000000000000000000000000000000000700000000000000000000000707070707070707070707070000000000000000000000000000000000
310
00000000000000000000000000000000000000000000000000000000000007000000000000000000000000000000000000000000070000000000000000000000000000000000000000000000000000000000000000000000000000000000000000000000000000000000000000000000070000000000000000000000000000
310
00000000000000000000000000070700070707070707070700000000000000000000000000000000000000000000000000000000000000000000000000000000000000000000000000000000000000000000000700000000000000000000000000000000000000000007000000000000000000000000000000000000000000
310
00000000000000000000000000000000000000000000000000000000000000000000000000000700000000000000000000000000000000000000000000000000000000000707070707070707070707070707000000000000000000000000000000000000000000000000000000000000000000000000000000000000000000
310
00000000000000000007000000000000000000000000000000000000000000070000000000000000000000000000000000000000000000000000000000000000000000000000000000000000000000000000000000000000000007000000000000000000000000000000000000000000000000000000000000000000000000
310
00000000000000000707070707070707070707070707070707070707070707070707070707070707070707070707070707070707070707070707070707070700000000000000000000000000000000000000000007000000000000000000000000000000000000000000000000000000000000000000000000000000000000
310
00000000000000000000000000000000070000000000000000000000000000000000000000000000000000000000000000000000000000000000000000000000000000000000000000000000000000000000000000000000000000000000000000000000000000000000000000000000000000070000000000000000000000
310
00000000000000000000070000000000000000000000000000000000000000000000000000000000000000000000000000000000000000000000000000000000000000070700000000000000000000000000000000000000000000000000000000000000000000000000000000000000000000000000000000000000000000
310
00000000000000000000000000000000000000000000000000000000000000000000000000000000000700000000000000000000000000000000000000000007000000000000000000000000000000000000000000000000000000000000000000000000000000000000000000000007070707070707070700000000000000
310
00000000000000000000000000000000000000000000000000000000000000000000000000000000000000000000000000000000000000000000000000000000000000000000000000000000000000000000000000000000000000000000070000000000000000000000000000000000000000000700000000000000000000
310
00000000000000000000000000000007070707070707070707070707070707070707070707000000000000000000000000000000000000000000000000000000000000000000000000000000000000000000000000000000000000000000000000000000000000000000000000000000000000000000000000000000000000
310
00000000000000000000000000000000000000000700000000000000000000000000000000000000000007000000000000000000000707070707070707070707070707070000000000000000000000000000000000000000000000000000000000000000000000000000000000000000000000000000000000000000000000
310
00000000000000000000000000000000000000000000000000000000000000000000000000000000000000000000000000000000000000000000000000000000000000000000000000070000000000000000000000000000000000000000000707070707070707070707000000000000000000000000000000000000000000
310
00000000000000000000000000000000000000000000000000000000000000000000000000000000000000000000000000000000000000000000000000000000000000000000000000000000000000000000000000000000000000000000000000000000000000000000000000000000000000000000000000000000000007
310
00000000000000000000000000000000000000000007000000000000000000000000000000000000000000000000000000000000000000000000000000000000000000000000000000000000000000000000000000000000000000000000000000000000000000000000000000000000000000000000000000000000000000
310
00000000000000000000000000000000000000000000000000000000000000000000000000000000000000000000000000000000070000000000000000000000000000000000000000000700000000000000000000000000000000000000000000000000000000000000000000000000000000000000000000000000000000
310
00000000000000000000000000000000000000000000000000000000000000000000000000000000000000000000000000000000000000000000000000000000000000000000000000000000000000000000000000000000000000000000000000000000000000000007000000000000000000000000000000000000000000
310
07000000000000000000000000000000000000000000000000000000000000000000000000000000000000000000000000000000000000000000000000000000000000000000000000000000000000000000000000000000000000000000000000000000000000000000000000000000000000000000000000000000000000
310
00000000000000000000000000000000000000000000000000000000000000070000000000000000000000000000000000000000000700000000000000000000000000000000000000000000000000000000000000000000000000000000000000000000000000000000000000000000000000000000000000000000000000
310
00000000000000000000000000000000000000000000000000000000000000000000000000000000000000000000000000000000000000000000000000000000000000000000000000000000000000000000000007000000000000000000000000000000000000000000070000000000000000000000000000000000000000
310
00000000000000000000000000000000000000000000000000000000000000000000000000000000000000000000000000000000000000000000000000000000000000000000000000000000000000000000000000000000000000000000000000000000000000000000000000000000000000000000000000000000000000
310
00000000000000000000070000000000000000000000000000000000000000000700000000000000000000000000000000000000000000000000000000000000000000000000000000000000000000000000000000000000000000000000000000000000000000000000000000000000000000000000000000000000000000
310
00000000000000000000000000000000000000000000000000000000000000000000000000000000000000000000000000000000000000000000000000000007000000000000000000000000000000000000000000070000000000000000000000000000000000000000000000000000000000000000000000000000000000
310
00000000000000000000000000000000000000000000000000000000000000000000000000000000000000000000000000000000000000000000000000000000000000000000000000000000000000000000000000000000000000000000000000000000000000000000000000000000000000000700000000000000000000
310
00000000000000000000000700000000000000000000000000000000000000000000000000000000000000000000000000000000000000000000000000000000000000000000000000000000000000000000000000000000000000000000000000000000000000000000000000000000000000000000000000000000000000
310
00000000000000000000000000000000000000000000000000000000000000000000000000000000000007000000000000000000000000000000000000000000070000000000000000000000000000000000000000000000000000000000000000000000000000000000000000000000000000000000000000000000000000
310
00000000000000000000000000000000000000000000000000000000000000000000000000000000000000000000000000000000000000000000000000000000000000000000000000000000000000000000000000000000000000000000000700000000000000000000000000000000000000000007000000000000000000
310
00000000000000000000000000000000000000000000000000000000000000000000000000000000000000000000000000000000000000000000000000000000000000000000000000000000000000000000000000000000000000000000000000000000000000000000000000000000000000000000000000000000000000
310
00000000000000000000000000000000000000000007000000000000000000000000000000000000000000070000000000000000000000000000000000000000000000000000000000000000000000000000000000000000000000000000000000000000000000000000000000000000000000000000000000000000000000
310
00000000000000000000000000000000000000000000000000000000000000000000000000000000000000000000000000000000000000000000000000000000000000000000000000000700000000000000000000000000000000000000000007000000000000000000000000000000000000000000000000000000000000
310
00000000000000000000000000000000000000000000000000000000000000000000000000000000000000000000000000000000000000000000000000000000000000000000000000000000000000000000000000000000000000000000000000000000000000000000000000000000000000000000000000000000000000
310
07000000000000000000000000000000000000000000070000000000000000000000000000000000000000000000000000000000000000000000000000000000000000000000000000000000000000000000000000000000000000000000000000000000000000000000000000000000000000000000000000000000000000
310
00000000000000000000000000000000000000000000000000000000000000000000000000000000000000000000000000000000000700000000000000000000000000000000000000000007000000000000000000000000000000000000000000000000000000000000000000000000000000000000000000000000000000
310
00000000000000000000000000000000000000000000000000000000000000000000000000000000000000000000000000000000000000000000000000000000000000000000000000000000000000000000000000000000000000000000000000000000000000000000070000000000000000000000000000000000000000
310
00070000000000000000000000000000000000000000000000000000000000000000000000000000000000000000000000000000000000000000000000000000000000000000000000000000000000000000000000000000000000000000000000000000000000000000000000000000000000000000000000000000000000
310
00000000070707070707070707070707070707070707070707070707070707070707070707070707070707070707070707070707070707070707070707070707070707070707070707070707070707070707070000000000000000000000000000000000000000000000000000000000000000000000000000000000000000
310
00000000000000000000000000000000000000000000000000000000000000000000000000000000000000000000000000000000000000000007000000000000000000000000000000000000000000000000000000000000000000000000000000000000000000000000000000000000000000000000000000000000000000
310
00000000000000000700000000000000000000000000000000000000000000000000000000000000000000000000000000000000000000000000000000000000000000000000000000000000000000000000000000000000000000000000000000000000000000000000000000000700000000000000000000000000000000
310
00000000000000000000000000000000000000000000000000000000000000000000000000000000000000000000000000000000000000000000000000070000000000000000000000000000000000000000000000000000000000000000000000000000000000000000000000000000000000000000000000000000000000
310
00000000000000000000000000000000000000000000000000000000000000000000000007000000000000000000000000000000000000000000000000000000000000000000000000000000000000000000000000000000000000000000000000000000000000000000000000000000000007000000000000000000000000
310
00000000000000000000000000000000000000000000000000000000000000000000000000000000000000000000000000000000000000000000000000000000000000000000000000000000000000000000000000000000000700000000000000000000000000000000000000000000000000000000000000000000000000
310
00000000000000000000000000000000000000000000000000000000000000000000000000000000070000000000000000000000000000000000000000000000000000000000000000000000000000000000000000000000000000000000000000000000000000000000000000000000000000000000000000000000000000
310
00000000000000000000000000000007000000000000000000000000000000000000000000000000000000000000000000000000000000000000000000000000000000000000000000000000000000000000000000000000000000000007000000000000000000000000000000000000000000000000000000000000000000
310
00000000000000000000000000000000000000000000000000000000000000000000000000000000000000000000000000000000000000000000000000000000000000000700000000000000000000000000000000000000000000000000000000000000000000000000000000000000000000000000000000000000000000
310
00000000000000000000000000000000000000070000000000000000000000000000000000000000000000000000000000000000000000000000000000000000000000000000000000000000000000000000000000000000000000000000000000000000000000000000000000000000000000000000000000070000000000
310
00000000000000000000000000000000000000000000000000000000000000000000000000000000000000000000000000000000000000000000000000000000000000000000000007000000000000000000000000000000000000000000000000000000000000000000000000000000000000000000000000000000000000
310
00000000000000000000000000000000000000000000000000000000000000000000000000000000000000000000000700000000000000000000000000000000000000000000000000000000000000000000000000000000000000000000000000000000000000000000000000000000000000000000000000000000000700
310
00000000000000000000000000000000000000000000000000000000000000000000000000000000000000000000000000000000000000000000000000000000000000000000000000000000000000000000000000000000000000000000000000000000070000000000000000000000000000000000000000000000000000
310
00000000000000000000000000000000000000000000000000000000000000000000000000000000000000000000000000000007000000000000000000000000000000000000000000000000000000000000000000000000000000000000000000000000000000000000000000000000000000000000000000000000000000
310
00000000000000000000000000000000000000000000000000000700000000000000000000000000000000000000000000000000000000000000000000000000000000000000000000000000000000000000000000000000000000000000000000000000000000000700000000000000000000000000000000000000000000
310
00000000000000000000000000000000000000000000000000000000000000000000000000000000000000000000000000000000000000000000000000000000000000000000000000000000000000070000000000000000000000000000000000000000000000000000000000000000000000000000000000000000000000
310
00000000000000000000000000000000000000000000000000000000000007000000000000000000000000000000000000000000000000000000000000000000000000000000000000000000000000000000000000000000000000000000000000000000000000000000000000000000000000000000000000000000000000
310
00000000000700000000000000000000000000000000000000000000000000000000000000000000000000000000000000000000000000000000000000000000000000000000000000000000000000000000000700000000000000000000000000000000000000000000000000000000000000000000000000000000000000
310
00000000000000000000000000000000000000000000000000000000000000000000000000000000000000000000000000000000000000000000070707070707070707070707070707070707070707070707070707070707070707070707070707070707070707070707070707070707070707070707070707070707070707
310
07070707070707070707000000000000000000000000000000000000000000000000000000000000000000000000000000000000000000000000000000000000000000000000000000000000000000000000000000000000000000000000000000000000000000000000000000000000000000000000000000000000000000
310
00000000000000000000000000000000000000000000000000000000000000000000000000000000000000000000000000000000000000000000000000000000000000000000000000000000000000000000000000000000000000000000000000000000000000000000000000000000000000000000000000000000000000
310
00000000000000000000000000000000000000000000000000000000000000000000000000000000000000000000000000000000000000000000000000000000000000000000000000000000000000000000000000000000000000000000000000000000000000000000000000000000000000000000000000000000000000
310
00000000000000000000000000000000000000000000000000000000000000000000000000000000000000000000000000000000000000000000000000000000000000000000000000000000000000000000000000000000000000000000000000000000000000000000000000000000000000000000000000000000000000
310
00000000000000000000000000000000000000000000000000000000000000000000000000000000000000000000000000000000000000000000000000000000000000000000000000000000000000000000000000000000000000000000000000000000000000000000000000000000000000000000000000000000000000
310
00000000000000000000000000000000000000000000000000000000000000000000000000000000000000000000000000000000000000000000000000000000000000000000000000000000000000000000000000000000000000000000000000000000000000000000000000000000000000000000000000000000000000
310
00000000000000000000000000000000000000000000000000000000000000000000000000000000000000000000000000000000000000000000000000000000000000000000000000000000000000000000000000000000000000000000000000000000000000000000000000000000000000000000000000000000000000
310
00000000000000000000000000000000000000000000000000000000000000000000000000000000000000000000000000000000000000000000000000000000000000000000000000000000000000000000000000000000000000000000000000000000000000000000000000000000000000000000000000000000000000
310
00000000000000000000000000000000000000000000000000000000000000000000000000000000000000000000000000000000000000000000000000000000000000000000000000000000000000000000000000000000000000000000000000000000000000000000000000000000000000000000000000000000000000
310
00000000000000000000000000000000000000000000000000000000000000000000000000000000000000000000000000000000000000000000000000000000000000000000000000000000000000000000000000000000000000000000000000000000000000000000000000000000000000000000000000000000000000
310
00000000000000000000000000000000000000000000000000000000000000000000000000000000000000000000000000000000000000000000000000000000000000000000000000000000000000000000000000000000000000000000000000000000000000000000000000000000000000000000000000000000000000
310
00000000000000000000000000000000000000000000000000000000000000000000000000000000000000000000000000000000000000000000000000000000000000000000000000000000000000000000000000000000000000000000000000000000000000000000000000000000000000000000000000000000000000
310
00000000000000000000000000000000000000000000000000000000000000000000000000000000000000000000000000000000000000000000000000000000000000000000000000000000000000000000000000000000000000000000000000000000000000000000000000000000000000000000000000000000000000
310
00000000000000000000000000000000000000000000000000000000000000000000000000000000000000000000000000000000000000000000000000000000000000000000000000000000000000000000000000000000000000000000000000000000000000000000000000000000000000000000000000000000000000
310
00000000000000000000000000000000000000000000000000000000000000000000000000000000000000000000000000000000000000000000000000000000000000000000000000000000000000000000000000000000000000000000000000000000000000000000000000000000000000000000000000000000000000
310
00000000000000000000000000000000000000000000000000000000000000000000000000000000000000000000000000000000000000000000000000000000000000000000000000000000000000000000000000000000000000000000000000000000000000000000000000000000000000000000000000000000000000
310
00000000000000000000000000000000000000000000000000000000000000000000000000000000000000000000000000000000000000000000000000000000000000000000000000000000000000000000000000000000000000000000000000000000000000000000000000000000000000000000000000000000000000
310
00000000000000000000000000000000000000000000000000000000000000000000000000000000000000000000000000000000000000000000000000000000000000000000000000000000000000000000000000000000000000000000000000000000000000000000000000000000000000000000000000000000000000
310
000000000000000000000000000000000000000000000000000000000000000000000000000000000000000000000000000000000000000000000000000000000000000000000000000000000000000000000000000000000000000000000000000000000000000000000000
  0
ENDSEC
  0
EOF
