  0
SECTION
  2
HEADER
  9
$ACADVER
  1
AC1015
  9
$ACADMAINTVER
 70
    13
  9
$DWGCODEPAGE
  3
ANSI_1252
  9
$INSBASE
 10
0.0
 20
0.0
 30
0.0
  9
$EXTMIN
 10
0.0
 20
-0.0000000000000085
 30
0.0
  9
$EXTMAX
 10
120.0
 20
280.0
 30
0.0
  9
$LIMMIN
 10
0.0
 20
0.0
  9
$LIMMAX
 10
12.0
 20
9.0
  9
$ORTHOMODE
 70
     0
  9
$REGENMODE
 70
     1
  9
$FILLMODE
 70
     1
  9
$QTEXTMODE
 70
     0
  9
$MIRRTEXT
 70
     1
  9
$LTSCALE
 40
1.0
  9
$ATTMODE
 70
     1
  9
$TEXTSIZE
 40
0.2
  9
$TRACEWID
 40
0.05
  9
$TEXTSTYLE
  7
Standard
  9
$CLAYER
  8
0
  9
$CELTYPE
  6
Continuous
  9
$CECOLOR
 62
   256
  9
$CELTSCALE
 40
1.0
  9
$DISPSILH
 70
     0
  9
$DIMSCALE
 40
1.0
  9
$DIMASZ
 40
0.18
  9
$DIMEXO
 40
0.0625
  9
$DIMDLI
 40
0.38
  9
$DIMRND
 40
0.0
  9
$DIMDLE
 40
0.0
  9
$DIMEXE
 40
0.18
  9
$DIMTP
 40
0.0
  9
$DIMTM
 40
0.0
  9
$DIMTXT
 40
0.18
  9
$DIMCEN
 40
0.09
  9
$DIMTSZ
 40
0.0
  9
$DIMTOL
 70
     0
  9
$DIMLIM
 70
     0
  9
$DIMTIH
 70
     1
  9
$DIMTOH
 70
     1
  9
$DIMSE1
 70
     0
  9
$DIMSE2
 70
     0
  9
$DIMTAD
 70
     0
  9
$DIMZIN
 70
     0
  9
$DIMBLK
  1

  9
$DIMASO
 70
     1
  9
$DIMSHO
 70
     1
  9
$DIMPOST
  1

  9
$DIMAPOST
  1

  9
$DIMALT
 70
     0
  9
$DIMALTD
 70
     2
  9
$DIMALTF
 40
25.4
  9
$DIMLFAC
 40
1.0
  9
$DIMTOFL
 70
     0
  9
$DIMTVP
 40
0.0
  9
$DIMTIX
 70
     0
  9
$DIMSOXD
 70
     0
  9
$DIMSAH
 70
     0
  9
$DIMBLK1
  1

  9
$DIMBLK2
  1

  9
$DIMSTYLE
  2
Standard
  9
$DIMCLRD
 70
     0
  9
$DIMCLRE
 70
     0
  9
$DIMCLRT
 70
     0
  9
$DIMTFAC
 40
1.0
  9
$DIMGAP
 40
0.09
  9
$DIMJUST
 70
     0
  9
$DIMSD1
 70
     0
  9
$DIMSD2
 70
     0
  9
$DIMTOLJ
 70
     1
  9
$DIMTZIN
 70
     0
  9
$DIMALTZ
 70
     0
  9
$DIMALTTZ
 70
     0
  9
$DIMUPT
 70
     0
  9
$DIMDEC
 70
     4
  9
$DIMTDEC
 70
     4
  9
$DIMALTU
 70
     2
  9
$DIMALTTD
 70
     2
  9
$DIMTXSTY
  7
Standard
  9
$DIMAUNIT
 70
     0
  9
$DIMADEC
 70
     0
  9
$DIMALTRND
 40
0.0
  9
$DIMAZIN
 70
     0
  9
$DIMDSEP
 70
    46
  9
$DIMATFIT
 70
     3
  9
$DIMFRAC
 70
     0
  9
$DIMLDRBLK
  1

  9
$DIMLUNIT
 70
     2
  9
$DIMLWD
 70
    -2
  9
$DIMLWE
 70
    -2
  9
$DIMTMOVE
 70
     0
  9
$LUNITS
 70
     2
  9
$LUPREC
 70
     4
  9
$SKETCHINC
 40
0.1
  9
$FILLETRAD
 40
0.0
  9
$AUNITS
 70
     0
  9
$AUPREC
 70
     0
  9
$MENU
  1
.
  9
$ELEVATION
 40
0.0
  9
$PELEVATION
 40
0.0
  9
$THICKNESS
 40
0.0
  9
$LIMCHECK
 70
     0
  9
$CHAMFERA
 40
0.0
  9
$CHAMFERB
 40
0.0
  9
$CHAMFERC
 40
0.0
  9
$CHAMFERD
 40
0.0
  9
$SKPOLY
 70
     0
  9
$TDCREATE
 40
2454726.881830127
  9
$TDUCREATE
 40
2454726.798496793
  9
$TDUPDATE
 40
2454726.885687372
  9
$TDUUPDATE
 40
2454726.802354039
  9
$TDINDWG
 40
0.0038572454
  9
$TDUSRTIMER
 40
0.0038572454
  9
$USRTIMER
 70
     1
  9
$ANGBASE
 50
0.0
  9
$ANGDIR
 70
     0
  9
$PDMODE
 70
     0
  9
$PDSIZE
 40
0.0
  9
$PLINEWID
 40
0.0
  9
$SPLFRAME
 70
     0
  9
$SPLINETYPE
 70
     6
  9
$SPLINESEGS
 70
     8
  9
$HANDSEED
  5
414
  9
$SURFTAB1
 70
     6
  9
$SURFTAB2
 70
     6
  9
$SURFTYPE
 70
     6
  9
$SURFU
 70
     6
  9
$SURFV
 70
     6
  9
$UCSBASE
  2

  9
$UCSNAME
  2

  9
$UCSORG
 10
0.0
 20
0.0
 30
0.0
  9
$UCSXDIR
 10
1.0
 20
0.0
 30
0.0
  9
$UCSYDIR
 10
0.0
 20
1.0
 30
0.0
  9
$UCSORTHOREF
  2

  9
$UCSORTHOVIEW
 70
     1
  9
$UCSORGTOP
 10
0.0
 20
0.0
 30
0.0
  9
$UCSORGBOTTOM
 10
0.0
 20
0.0
 30
0.0
  9
$UCSORGLEFT
 10
0.0
 20
0.0
 30
0.0
  9
$UCSORGRIGHT
 10
0.0
 20
0.0
 30
0.0
  9
$UCSORGFRONT
 10
0.0
 20
0.0
 30
0.0
  9
$UCSORGBACK
 10
0.0
 20
0.0
 30
0.0
  9
$PUCSBASE
  2

  9
$PUCSNAME
  2

  9
$PUCSORG
 10
0.0
 20
0.0
 30
0.0
  9
$PUCSXDIR
 10
1.0
 20
0.0
 30
0.0
  9
$PUCSYDIR
 10
0.0
 20
1.0
 30
0.0
  9
$PUCSORTHOREF
  2

  9
$PUCSORTHOVIEW
 70
     0
  9
$PUCSORGTOP
 10
0.0
 20
0.0
 30
0.0
  9
$PUCSORGBOTTOM
 10
0.0
 20
0.0
 30
0.0
  9
$PUCSORGLEFT
 10
0.0
 20
0.0
 30
0.0
  9
$PUCSORGRIGHT
 10
0.0
 20
0.0
 30
0.0
  9
$PUCSORGFRONT
 10
0.0
 20
0.0
 30
0.0
  9
$PUCSORGBACK
 10
0.0
 20
0.0
 30
0.0
  9
$USERI1
 70
     0
  9
$USERI2
 70
     0
  9
$USERI3
 70
     0
  9
$USERI4
 70
     0
  9
$USERI5
 70
     0
  9
$USERR1
 40
0.0
  9
$USERR2
 40
0.0
  9
$USERR3
 40
0.0
  9
$USERR4
 40
0.0
  9
$USERR5
 40
0.0
  9
$WORLDVIEW
 70
     1
  9
$SHADEDGE
 70
     3
  9
$SHADEDIF
 70
    70
  9
$TILEMODE
 70
     1
  9
$MAXACTVP
 70
    64
  9
$PINSBASE
 10
0.0
 20
0.0
 30
0.0
  9
$PLIMCHECK
 70
     0
  9
$PEXTMIN
 10
1.000000000000000E+20
 20
1.000000000000000E+20
 30
1.000000000000000E+20
  9
$PEXTMAX
 10
-1.000000000000000E+20
 20
-1.000000000000000E+20
 30
-1.000000000000000E+20
  9
$PLIMMIN
 10
0.0
 20
0.0
  9
$PLIMMAX
 10
12.0
 20
9.0
  9
$UNITMODE
 70
     0
  9
$VISRETAIN
 70
     1
  9
$PLINEGEN
 70
     0
  9
$PSLTSCALE
 70
     1
  9
$TREEDEPTH
 70
  3020
  9
$CMLSTYLE
  2
Standard
  9
$CMLJUST
 70
     0
  9
$CMLSCALE
 40
1.0
  9
$PROXYGRAPHICS
 70
     1
  9
$MEASUREMENT
 70
     0
  9
$CELWEIGHT
370
    -1
  9
$ENDCAPS
280
     0
  9
$JOINSTYLE
280
     0
  9
$LWDISPLAY
290
     0
  9
$INSUNITS
 70
     0
  9
$HYPERLINKBASE
  1

  9
$STYLESHEET
  1

  9
$XEDIT
290
     1
  9
$CEPSNTYPE
380
     0
  9
$PSTYLEMODE
290
     1
  9
$FINGERPRINTGUID
  2
{997521A4-00AF-4176-8185-0047F49C2B3D}
  9
$VERSIONGUID
  2
{797B4903-53B5-46C9-A51E-26F69B113E6B}
  9
$EXTNAMES
290
     1
  9
$PSVPSCALE
 40
0.0
  9
$OLESTARTUP
290
     0
  0
ENDSEC
  0
SECTION
  2
CLASSES
  0
CLASS
  1
ACDBDICTIONARYWDFLT
  2
AcDbDictionaryWithDefault
  3
AutoCAD 2000
 90
        0
280
     0
281
     0
  0
CLASS
  1
ACDBPLACEHOLDER
  2
AcDbPlaceHolder
  3
AutoCAD 2000
 90
        0
280
     0
281
     0
  0
CLASS
  1
LAYOUT
  2
AcDbLayout
  3
AutoCAD 2000
 90
        0
280
     0
281
     0
  0
CLASS
  1
DICTIONARYVAR
  2
AcDbDictionaryVar
  3
AutoCAD 2000
 90
        0
280
     0
281
     0
  0
ENDSEC
  0
SECTION
  2
TABLES
  0
TABLE
  2
VPORT
  5
8
330
0
100
AcDbSymbolTable
 70
     4
  0
VPORT
  5
413
330
8
100
AcDbSymbolTableRecord
100
AcDbViewportTableRecord
  2
*Active
 70
     0
 10
0.0
 20
0.0
 11
1.0
 21
1.0
 12
60.0
 22
140.0
 13
0.0
 23
0.0
 14
1.0
 24
1.0
 15
0.0
 25
0.0
 16
0.0
 26
0.0
 36
1.0
 17
0.0
 27
0.0
 37
0.0
 40
282.1483375959079
 41
2.078104993597951
 42
50.0
 43
0.0
 44
0.0
 50
0.0
 51
0.0
 71
     0
 72
   100
 73
     1
 74
     3
 75
     0
 76
     0
 77
     0
 78
     0
281
     0
 65
     1
110
0.0
120
0.0
130
0.0
111
1.0
121
0.0
131
0.0
112
0.0
122
1.0
132
0.0
 79
     1
146
0.0
  0
ENDTAB
  0
TABLE
  2
LTYPE
  5
5
330
0
100
AcDbSymbolTable
 70
     1
  0
LTYPE
  5
13
330
5
100
AcDbSymbolTableRecord
100
AcDbLinetypeTableRecord
  2
ByBlock
 70
     0
  3

 72
    65
 73
     0
 40
0.0
  0
LTYPE
  5
14
330
5
100
AcDbSymbolTableRecord
100
AcDbLinetypeTableRecord
  2
ByLayer
 70
     0
  3

 72
    65
 73
     0
 40
0.0
  0
LTYPE
  5
15
330
5
100
AcDbSymbolTableRecord
100
AcDbLinetypeTableRecord
  2
Continuous
 70
     0
  3
Solid line
 72
    65
 73
     0
 40
0.0
  0
ENDTAB
  0
TABLE
  2
LAYER
  5
2
330
0
100
AcDbSymbolTable
 70
     1
  0
LAYER
  5
10
330
2
100
AcDbSymbolTableRecord
100
AcDbLayerTableRecord
  2
0
 70
     0
 62
     7
  6
Continuous
370
    -3
390
F
  0
ENDTAB
  0
TABLE
  2
STYLE
  5
3
330
0
100
AcDbSymbolTable
 70
     1
  0
STYLE
  5
11
330
3
100
AcDbSymbolTableRecord
100
AcDbTextStyleTableRecord
  2
Standard
 70
     0
 40
0.0
 41
1.0
 50
0.0
 71
     0
 42
0.2
  3
txt
  4

  0
ENDTAB
  0
TABLE
  2
VIEW
  5
6
330
0
100
AcDbSymbolTable
 70
     0
  0
ENDTAB
  0
TABLE
  2
UCS
  5
7
330
0
100
AcDbSymbolTable
 70
     0
  0
ENDTAB
  0
TABLE
  2
APPID
  5
9
330
0
100
AcDbSymbolTable
 70
     1
  0
APPID
  5
12
330
9
100
AcDbSymbolTableRecord
100
AcDbRegAppTableRecord
  2
ACAD
 70
     0
  0
ENDTAB
  0
TABLE
  2
DIMSTYLE
  5
A
330
0
100
AcDbSymbolTable
 70
     1
100
AcDbDimStyleTable
 71
     0
  0
DIMSTYLE
105
40B
330
A
100
AcDbSymbolTableRecord
100
AcDbDimStyleTableRecord
  2
Standard
 70
     0
340
11
  0
ENDTAB
  0
TABLE
  2
BLOCK_RECORD
  5
1
330
0
100
AcDbSymbolTable
 70
     0
  0
BLOCK_RECORD
  5
1E
330
1
100
AcDbSymbolTableRecord
100
AcDbBlockTableRecord
  2
*Model_Space
340
21
  0
BLOCK_RECORD
  5
1A
330
1
100
AcDbSymbolTableRecord
100
AcDbBlockTableRecord
  2
*Paper_Space
340
1D
  0
ENDTAB
  0
ENDSEC
  0
SECTION
  2
BLOCKS
  0
BLOCK
  5
1F
330
1E
100
AcDbEntity
  8
0
100
AcDbBlockBegin
  2
*Model_Space
 70
     0
 10
0.0
 20
0.0
 30
0.0
  3
*Model_Space
  1

  0
ENDBLK
  5
20
330
1E
100
AcDbEntity
  8
0
100
AcDbBlockEnd
  0
BLOCK
  5
1B
330
1A
100
AcDbEntity
 67
     1
  8
0
100
AcDbBlockBegin
  2
*Paper_Space
 70
     0
 10
0.0
 20
0.0
 30
0.0
  3
*Paper_Space
  1

  0
ENDBLK
  5
1C
330
1A
100
AcDbEntity
 67
     1
  8
0
100
AcDbBlockEnd
  0
ENDSEC
  0
SECTION
  2
ENTITIES
  0
LINE
  5
22
330
1E
100
AcDbEntity
  8
0
100
AcDbLine
 10
0.0
 20
185.0
 30
0.0
 11
0.0
 21
258.0
 31
0.0
  0
LINE
  5
23
330
1E
100
AcDbEntity
  8
0
100
AcDbLine
 10
0.0
 20
185.0
 30
0.0
 11
0.3
 21
184.3
 31
0.0
  0
LINE
  5
24
330
1E
100
AcDbEntity
  8
0
100
AcDbLine
 10
0.0
 20
258.0
 30
0.0
 11
0.3
 21
258.6999999999999
 31
0.0
  0
LINE
  5
25
330
1E
100
AcDbEntity
  8
0
100
AcDbLine
 10
0.0
 20
258.0
 30
0.0
 11
0.0
 21
185.0
 31
0.0
  0
LINE
  5
26
330
1E
100
AcDbEntity
  8
0
100
AcDbLine
 10
0.3
 20
184.3
 30
0.0
 11
1.0
 21
184.0
 31
0.0
  0
LINE
  5
27
330
1E
100
AcDbEntity
  8
0
100
AcDbLine
 10
0.3
 20
184.3
 30
0.0
 11
0.5
 21
184.4999999999999
 31
0.0
  0
LINE
  5
28
330
1E
100
AcDbEntity
  8
0
100
AcDbLine
 10
0.3
 20
184.3
 30
0.0
 11
1.0
 21
184.0
 31
0.0
  0
LINE
  5
29
330
1E
100
AcDbEntity
  8
0
100
AcDbLine
 10
0.3
 20
185.0
 30
0.0
 11
0.3
 21
258.0
 31
0.0
  0
LINE
  5
2A
330
1E
100
AcDbEntity
  8
0
100
AcDbLine
 10
0.3
 20
185.0
 30
0.0
 11
0.5
 21
184.4999999999999
 31
0.0
  0
LINE
  5
2B
330
1E
100
AcDbEntity
  8
0
100
AcDbLine
 10
0.3
 20
258.6999999999999
 30
0.0
 11
1.0
 21
259.0
 31
0.0
  0
LINE
  5
2C
330
1E
100
AcDbEntity
  8
0
100
AcDbLine
 10
0.3
 20
258.6999999999999
 30
0.0
 11
0.5
 21
258.4999999999999
 31
0.0
  0
LINE
  5
2D
330
1E
100
AcDbEntity
  8
0
100
AcDbLine
 10
0.3
 20
258.6999999999999
 30
0.0
 11
1.0
 21
259.0
 31
0.0
  0
LINE
  5
2E
330
1E
100
AcDbEntity
  8
0
100
AcDbLine
 10
0.3
 20
258.0
 30
0.0
 11
0.5
 21
258.4999999999999
 31
0.0
  0
LINE
  5
2F
330
1E
100
AcDbEntity
  8
0
100
AcDbLine
 10
0.3
 20
258.0
 30
0.0
 11
0.3
 21
185.0
 31
0.0
  0
LINE
  5
30
330
1E
100
AcDbEntity
  8
0
100
AcDbLine
 10
0.3
 20
259.2999999999999
 30
0.0
 11
1.0
 21
259.0
 31
0.0
  0
LINE
  5
31
330
1E
100
AcDbEntity
  8
0
100
AcDbLine
 10
0.0
 20
260.0
 30
0.0
 11
0.3
 21
259.2999999999999
 31
0.0
  0
LINE
  5
32
330
1E
100
AcDbEntity
  8
0
100
AcDbLine
 10
0.0
 20
260.0
 30
0.0
 11
0.0
 21
279.0
 31
0.0
  0
LINE
  5
33
330
1E
100
AcDbEntity
  8
0
100
AcDbLine
 10
0.0
 20
279.0
 30
0.0
 11
0.3
 21
279.7
 31
0.0
  0
LINE
  5
34
330
1E
100
AcDbEntity
  8
0
100
AcDbLine
 10
0.0
 20
279.0
 30
0.0
 11
0.0
 21
260.0
 31
0.0
  0
LINE
  5
35
330
1E
100
AcDbEntity
  8
0
100
AcDbLine
 10
0.3
 20
259.2999999999999
 30
0.0
 11
0.5
 21
259.5
 31
0.0
  0
LINE
  5
36
330
1E
100
AcDbEntity
  8
0
100
AcDbLine
 10
0.3
 20
259.2999999999999
 30
0.0
 11
1.0
 21
259.0
 31
0.0
  0
LINE
  5
37
330
1E
100
AcDbEntity
  8
0
100
AcDbLine
 10
0.3
 20
279.7
 30
0.0
 11
1.0
 21
280.0
 31
0.0
  0
LINE
  5
38
330
1E
100
AcDbEntity
  8
0
100
AcDbLine
 10
0.3
 20
279.7
 30
0.0
 11
0.5
 21
279.4999999999999
 31
0.0
  0
LINE
  5
39
330
1E
100
AcDbEntity
  8
0
100
AcDbLine
 10
0.3
 20
279.7
 30
0.0
 11
1.0
 21
280.0
 31
0.0
  0
LINE
  5
3A
330
1E
100
AcDbEntity
  8
0
100
AcDbLine
 10
0.3
 20
279.0
 30
0.0
 11
0.5
 21
279.4999999999999
 31
0.0
  0
LINE
  5
3B
330
1E
100
AcDbEntity
  8
0
100
AcDbLine
 10
0.3
 20
279.0
 30
0.0
 11
0.3
 21
260.0
 31
0.0
  0
LINE
  5
3C
330
1E
100
AcDbEntity
  8
0
100
AcDbLine
 10
0.999999999999996
 20
184.0
 30
0.0
 11
77.0
 21
184.0
 31
0.0
  0
LINE
  5
3D
330
1E
100
AcDbEntity
  8
0
100
AcDbLine
 10
0.999999999999996
 20
184.3
 30
0.0
 11
86.0069554220677
 21
184.3
 31
0.0
  0
LINE
  5
3E
330
1E
100
AcDbEntity
  8
0
100
AcDbLine
 10
0.999999999999996
 20
185.0
 30
0.0
 11
86.09547897565599
 21
185.0
 31
0.0
  0
LINE
  5
3F
330
1E
100
AcDbEntity
  8
0
100
AcDbLine
 10
0.5
 20
184.4999999999999
 30
0.0
 11
1.0
 21
184.3
 31
0.0
  0
LINE
  5
40
330
1E
100
AcDbEntity
  8
0
100
AcDbLine
 10
0.999999999999996
 20
259.0
 30
0.0
 11
42.92
 21
259.0
 31
0.0
  0
LINE
  5
41
330
1E
100
AcDbEntity
  8
0
100
AcDbLine
 10
0.5
 20
258.4999999999999
 30
0.0
 11
1.0
 21
258.6999999999999
 31
0.0
  0
LINE
  5
42
330
1E
100
AcDbEntity
  8
0
100
AcDbLine
 10
1.0
 20
184.0
 30
0.0
 11
86.03098324375592
 21
184.0
 31
0.0
  0
LINE
  5
43
330
1E
100
AcDbEntity
  8
0
100
AcDbLine
 10
1.0
 20
184.0
 30
0.0
 11
77.0
 21
184.0
 31
0.0
  0
LINE
  5
44
330
1E
100
AcDbEntity
  8
0
100
AcDbLine
 10
1.0
 20
184.3
 30
0.0
 11
86.0069554220677
 21
184.3
 31
0.0
  0
LINE
  5
45
330
1E
100
AcDbEntity
  8
0
100
AcDbLine
 10
1.0
 20
185.0
 30
0.0
 11
86.09547897565599
 21
185.0
 31
0.0
  0
LINE
  5
46
330
1E
100
AcDbEntity
  8
0
100
AcDbLine
 10
1.0
 20
259.0
 30
0.0
 11
42.92
 21
259.0
 31
0.0
  0
LINE
  5
47
330
1E
100
AcDbEntity
  8
0
100
AcDbLine
 10
1.0
 20
258.6999999999999
 30
0.0
 11
42.7561508452536
 21
258.6999999999999
 31
0.0
  0
LINE
  5
48
330
1E
100
AcDbEntity
  8
0
100
AcDbLine
 10
0.999999999999996
 20
258.6999999999999
 30
0.0
 11
42.7561508452536
 21
258.6999999999999
 31
0.0
  0
LINE
  5
49
330
1E
100
AcDbEntity
  8
0
100
AcDbLine
 10
0.999999999999996
 20
259.2999999999999
 30
0.0
 11
119.0
 21
259.2999999999999
 31
0.0
  0
LINE
  5
4A
330
1E
100
AcDbEntity
  8
0
100
AcDbLine
 10
42.5
 20
218.7689999999999
 30
0.0
 11
42.5
 21
258.231
 31
0.0
  0
LINE
  5
4B
330
1E
100
AcDbEntity
  8
0
100
AcDbLine
 10
42.5
 20
218.7689999999999
 30
0.0
 11
42.92
 21
218.0
 31
0.0
  0
LINE
  5
4C
330
1E
100
AcDbEntity
  8
0
100
AcDbLine
 10
42.92
 20
218.0
 30
0.0
 11
43.54999999999999
 21
218.0
 31
0.0
  0
LINE
  5
4D
330
1E
100
AcDbEntity
  8
0
100
AcDbLine
 10
43.54999999999999
 20
218.0
 30
0.0
 11
45.22999999999999
 21
218.0
 31
0.0
  0
LINE
  5
4E
330
1E
100
AcDbEntity
  8
0
100
AcDbLine
 10
45.22999999999999
 20
218.0
 30
0.0
 11
47.96
 21
218.0
 31
0.0
  0
LINE
  5
4F
330
1E
100
AcDbEntity
  8
0
100
AcDbLine
 10
47.96
 20
218.0
 30
0.0
 11
51.53
 21
218.0
 31
0.0
  0
LINE
  5
50
330
1E
100
AcDbEntity
  8
0
100
AcDbLine
 10
51.53
 20
218.0
 30
0.0
 11
55.59000000000001
 21
218.0
 31
0.0
  0
LINE
  5
51
330
1E
100
AcDbEntity
  8
0
100
AcDbLine
 10
55.59000000000001
 20
218.0
 30
0.0
 11
60.0
 21
218.0
 31
0.0
  0
LINE
  5
52
330
1E
100
AcDbEntity
  8
0
100
AcDbLine
 10
77.08
 20
218.0
 30
0.0
 11
77.5
 21
218.7689999999999
 31
0.0
  0
LINE
  5
53
330
1E
100
AcDbEntity
  8
0
100
AcDbLine
 10
76.45
 20
218.0
 30
0.0
 11
77.08
 21
218.0
 31
0.0
  0
LINE
  5
54
330
1E
100
AcDbEntity
  8
0
100
AcDbLine
 10
74.77
 20
218.0
 30
0.0
 11
76.45
 21
218.0
 31
0.0
  0
LINE
  5
55
330
1E
100
AcDbEntity
  8
0
100
AcDbLine
 10
72.04
 20
218.0
 30
0.0
 11
74.77
 21
218.0
 31
0.0
  0
LINE
  5
56
330
1E
100
AcDbEntity
  8
0
100
AcDbLine
 10
68.47
 20
218.0
 30
0.0
 11
72.04
 21
218.0
 31
0.0
  0
LINE
  5
57
330
1E
100
AcDbEntity
  8
0
100
AcDbLine
 10
64.40999999999999
 20
218.0
 30
0.0
 11
68.47
 21
218.0
 31
0.0
  0
LINE
  5
58
330
1E
100
AcDbEntity
  8
0
100
AcDbLine
 10
60.0
 20
218.0
 30
0.0
 11
64.40999999999999
 21
218.0
 31
0.0
  0
LINE
  5
59
330
1E
100
AcDbEntity
  8
0
100
AcDbLine
 10
42.5
 20
258.231
 30
0.0
 11
42.92
 21
259.0
 31
0.0
  0
LINE
  5
5A
330
1E
100
AcDbEntity
  8
0
100
AcDbLine
 10
42.5
 20
258.231
 30
0.0
 11
42.5
 21
218.7689999999999
 31
0.0
  0
LINE
  5
5B
330
1E
100
AcDbEntity
  8
0
100
AcDbLine
 10
77.0
 20
184.0
 30
0.0
 11
86.0
 21
184.0
 31
0.0
  0
LINE
  5
5C
330
1E
100
AcDbEntity
  8
0
100
AcDbLine
 10
89.0
 20
10.1036
 30
0.0
 11
89.0
 21
13.3956
 31
0.0
  0
LINE
  5
5D
330
1E
100
AcDbEntity
  8
0
100
AcDbLine
 10
89.0
 20
10.1036
 30
0.0
 11
89.0
 21
8.999999999999991
 31
0.0
  0
LINE
  5
5E
330
1E
100
AcDbEntity
  8
0
100
AcDbLine
 10
89.0
 20
8.999999999999991
 30
0.0
 11
90.18799999999998
 21
4.53599999999999
 31
0.0
  0
LINE
  5
5F
330
1E
100
AcDbEntity
  8
0
100
AcDbLine
 10
89.0
 20
8.999999999999991
 30
0.0
 11
89.0
 21
10.1036
 31
0.0
  0
LINE
  5
60
330
1E
100
AcDbEntity
  8
0
100
AcDbLine
 10
89.0
 20
8.999999999999991
 30
0.0
 11
89.0
 21
10.1036
 31
0.0
  0
LINE
  5
61
330
1E
100
AcDbEntity
  8
0
100
AcDbLine
 10
89.0
 20
10.1036
 30
0.0
 11
89.0
 21
8.999999999999991
 31
0.0
  0
LINE
  5
62
330
1E
100
AcDbEntity
  8
0
100
AcDbLine
 10
89.0
 20
10.1036
 30
0.0
 11
89.0
 21
13.3956
 31
0.0
  0
LINE
  5
63
330
1E
100
AcDbEntity
  8
0
100
AcDbLine
 10
89.0
 20
18.8195
 30
0.0
 11
89.0
 21
13.3956
 31
0.0
  0
LINE
  5
64
330
1E
100
AcDbEntity
  8
0
100
AcDbLine
 10
89.0
 20
18.8195
 30
0.0
 11
89.0
 21
33.6987
 31
0.0
  0
LINE
  5
65
330
1E
100
AcDbEntity
  8
0
100
AcDbLine
 10
89.0
 20
13.3956
 30
0.0
 11
89.0
 21
10.1036
 31
0.0
  0
LINE
  5
66
330
1E
100
AcDbEntity
  8
0
100
AcDbLine
 10
89.0
 20
13.3956
 30
0.0
 11
89.0
 21
18.8195
 31
0.0
  0
LINE
  5
67
330
1E
100
AcDbEntity
  8
0
100
AcDbLine
 10
89.0
 20
13.3956
 30
0.0
 11
89.0
 21
18.8195
 31
0.0
  0
LINE
  5
68
330
1E
100
AcDbEntity
  8
0
100
AcDbLine
 10
89.0
 20
13.3956
 30
0.0
 11
89.0
 21
10.1036
 31
0.0
  0
LINE
  5
69
330
1E
100
AcDbEntity
  8
0
100
AcDbLine
 10
89.0
 20
18.8195
 30
0.0
 11
89.0
 21
13.3956
 31
0.0
  0
LINE
  5
6A
330
1E
100
AcDbEntity
  8
0
100
AcDbLine
 10
89.0
 20
18.8195
 30
0.0
 11
89.0
 21
26.2827
 31
0.0
  0
LINE
  5
6B
330
1E
100
AcDbEntity
  8
0
100
AcDbLine
 10
89.0
 20
33.6987
 30
0.0
 11
89.0
 21
18.8195
 31
0.0
  0
LINE
  5
6C
330
1E
100
AcDbEntity
  8
0
100
AcDbLine
 10
89.0
 20
33.6987
 30
0.0
 11
89.0
 21
64.61539999999999
 31
0.0
  0
LINE
  5
6D
330
1E
100
AcDbEntity
  8
0
100
AcDbLine
 10
89.0
 20
26.2827
 30
0.0
 11
89.0
 21
35.6574
 31
0.0
  0
LINE
  5
6E
330
1E
100
AcDbEntity
  8
0
100
AcDbLine
 10
89.0
 20
26.2827
 30
0.0
 11
89.0
 21
18.8195
 31
0.0
  0
LINE
  5
6F
330
1E
100
AcDbEntity
  8
0
100
AcDbLine
 10
90.18799999999998
 20
4.53599999999999
 30
0.0
 11
93.536
 21
1.187999999999989
 31
0.0
  0
LINE
  5
70
330
1E
100
AcDbEntity
  8
0
100
AcDbLine
 10
90.18799999999998
 20
4.53599999999999
 30
0.0
 11
93.536
 21
1.187999999999989
 31
0.0
  0
LINE
  5
71
330
1E
100
AcDbEntity
  8
0
100
AcDbLine
 10
93.536
 20
1.187999999999989
 30
0.0
 11
98.0
 21
-0.0000000000000085
 31
0.0
  0
LINE
  5
72
330
1E
100
AcDbEntity
  8
0
100
AcDbLine
 10
93.536
 20
1.187999999999989
 30
0.0
 11
98.0
 21
-0.0000000000000085
 31
0.0
  0
LINE
  5
73
330
1E
100
AcDbEntity
  8
0
100
AcDbLine
 10
89.0
 20
35.6574
 30
0.0
 11
89.0
 21
46.7832
 31
0.0
  0
LINE
  5
74
330
1E
100
AcDbEntity
  8
0
100
AcDbLine
 10
89.0
 20
35.6574
 30
0.0
 11
89.0
 21
26.2827
 31
0.0
  0
LINE
  5
75
330
1E
100
AcDbEntity
  8
0
100
AcDbLine
 10
89.0
 20
64.61539999999999
 30
0.0
 11
89.0
 21
33.6987
 31
0.0
  0
LINE
  5
76
330
1E
100
AcDbEntity
  8
0
100
AcDbLine
 10
89.0
 20
64.61539999999999
 30
0.0
 11
89.0
 21
91.62879999999999
 31
0.0
  0
LINE
  5
77
330
1E
100
AcDbEntity
  8
0
100
AcDbLine
 10
89.0
 20
116.877
 30
0.0
 11
89.0
 21
91.62879999999999
 31
0.0
  0
LINE
  5
78
330
1E
100
AcDbEntity
  8
0
100
AcDbLine
 10
89.0
 20
116.877
 30
0.0
 11
89.0
 21
141.2839999999999
 31
0.0
  0
LINE
  5
79
330
1E
100
AcDbEntity
  8
0
100
AcDbLine
 10
89.0
 20
91.62879999999999
 30
0.0
 11
89.0
 21
64.61539999999999
 31
0.0
  0
LINE
  5
7A
330
1E
100
AcDbEntity
  8
0
100
AcDbLine
 10
89.0
 20
91.62879999999999
 30
0.0
 11
89.0
 21
116.877
 31
0.0
  0
LINE
  5
7B
330
1E
100
AcDbEntity
  8
0
100
AcDbLine
 10
89.0
 20
88.63379999999999
 30
0.0
 11
89.0
 21
104.612
 31
0.0
  0
LINE
  5
7C
330
1E
100
AcDbEntity
  8
0
100
AcDbLine
 10
89.0
 20
88.63379999999999
 30
0.0
 11
89.0
 21
73.5
 31
0.0
  0
LINE
  5
7D
330
1E
100
AcDbEntity
  8
0
100
AcDbLine
 10
89.0
 20
104.612
 30
0.0
 11
89.0
 21
121.162
 31
0.0
  0
LINE
  5
7E
330
1E
100
AcDbEntity
  8
0
100
AcDbLine
 10
89.0
 20
104.612
 30
0.0
 11
89.0
 21
88.63379999999999
 31
0.0
  0
LINE
  5
7F
330
1E
100
AcDbEntity
  8
0
100
AcDbLine
 10
89.0
 20
159.6479999999999
 30
0.0
 11
89.0
 21
141.2839999999999
 31
0.0
  0
LINE
  5
80
330
1E
100
AcDbEntity
  8
0
100
AcDbLine
 10
89.0
 20
159.6479999999999
 30
0.0
 11
89.0
 21
172.389
 31
0.0
  0
LINE
  5
81
330
1E
100
AcDbEntity
  8
0
100
AcDbLine
 10
89.0
 20
141.2839999999999
 30
0.0
 11
89.0
 21
116.877
 31
0.0
  0
LINE
  5
82
330
1E
100
AcDbEntity
  8
0
100
AcDbLine
 10
89.0
 20
141.2839999999999
 30
0.0
 11
89.0
 21
159.6479999999999
 31
0.0
  0
LINE
  5
83
330
1E
100
AcDbEntity
  8
0
100
AcDbLine
 10
89.0
 20
172.389
 30
0.0
 11
89.0
 21
159.6479999999999
 31
0.0
  0
LINE
  5
84
330
1E
100
AcDbEntity
  8
0
100
AcDbLine
 10
89.0
 20
172.389
 30
0.0
 11
89.0
 21
176.1717999999999
 31
0.0
  0
LINE
  5
85
330
1E
100
AcDbEntity
  8
0
100
AcDbLine
 10
89.0
 20
171.388
 30
0.0
 11
89.0
 21
176.1717999999999
 31
0.0
  0
LINE
  5
86
330
1E
100
AcDbEntity
  8
0
100
AcDbLine
 10
89.0
 20
171.388
 30
0.0
 11
89.0
 21
154.8379999999999
 31
0.0
  0
LINE
  5
87
330
1E
100
AcDbEntity
  8
0
100
AcDbLine
 10
89.0
 20
154.8379999999999
 30
0.0
 11
89.0
 21
138.0
 31
0.0
  0
LINE
  5
88
330
1E
100
AcDbEntity
  8
0
100
AcDbLine
 10
89.0
 20
154.8379999999999
 30
0.0
 11
89.0
 21
171.388
 31
0.0
  0
LINE
  5
89
330
1E
100
AcDbEntity
  8
0
100
AcDbLine
 10
89.0
 20
121.162
 30
0.0
 11
89.0
 21
138.0
 31
0.0
  0
LINE
  5
8A
330
1E
100
AcDbEntity
  8
0
100
AcDbLine
 10
89.0
 20
121.162
 30
0.0
 11
89.0
 21
104.612
 31
0.0
  0
LINE
  5
8B
330
1E
100
AcDbEntity
  8
0
100
AcDbLine
 10
89.0
 20
138.0
 30
0.0
 11
89.0
 21
121.162
 31
0.0
  0
LINE
  5
8C
330
1E
100
AcDbEntity
  8
0
100
AcDbLine
 10
89.0
 20
138.0
 30
0.0
 11
89.0
 21
154.8379999999999
 31
0.0
  0
LINE
  5
8D
330
1E
100
AcDbEntity
  8
0
100
AcDbLine
 10
89.0
 20
59.46979999999999
 30
0.0
 11
89.0
 21
73.5
 31
0.0
  0
LINE
  5
8E
330
1E
100
AcDbEntity
  8
0
100
AcDbLine
 10
89.0
 20
59.46979999999999
 30
0.0
 11
89.0
 21
46.7832
 31
0.0
  0
LINE
  5
8F
330
1E
100
AcDbEntity
  8
0
100
AcDbLine
 10
89.0
 20
73.5
 30
0.0
 11
89.0
 21
59.46979999999999
 31
0.0
  0
LINE
  5
90
330
1E
100
AcDbEntity
  8
0
100
AcDbLine
 10
89.0
 20
73.5
 30
0.0
 11
89.0
 21
88.63379999999999
 31
0.0
  0
LINE
  5
91
330
1E
100
AcDbEntity
  8
0
100
AcDbLine
 10
89.0
 20
46.7832
 30
0.0
 11
89.0
 21
35.6574
 31
0.0
  0
LINE
  5
92
330
1E
100
AcDbEntity
  8
0
100
AcDbLine
 10
89.0
 20
46.7832
 30
0.0
 11
89.0
 21
59.46979999999999
 31
0.0
  0
LINE
  5
93
330
1E
100
AcDbEntity
  8
0
100
AcDbLine
 10
98.0
 20
-0.0000000000000085
 30
0.0
 11
102.4639999999999
 21
1.187999999999989
 31
0.0
  0
LINE
  5
94
330
1E
100
AcDbEntity
  8
0
100
AcDbLine
 10
98.0
 20
-0.0000000000000085
 30
0.0
 11
102.4639999999999
 21
1.187999999999989
 31
0.0
  0
LINE
  5
95
330
1E
100
AcDbEntity
  8
0
100
AcDbLine
 10
94.9
 20
172.4079999999999
 30
0.0
 11
98.0
 21
172.0
 31
0.0
  0
LINE
  5
96
330
1E
100
AcDbEntity
  8
0
100
AcDbLine
 10
98.0
 20
173.02
 30
0.0
 11
100.8
 21
173.429
 31
0.0
  0
LINE
  5
97
330
1E
100
AcDbEntity
  8
0
100
AcDbLine
 10
95.20000000000001
 20
173.429
 30
0.0
 11
98.0
 21
173.02
 31
0.0
  0
LINE
  5
98
330
1E
100
AcDbEntity
  8
0
100
AcDbLine
 10
95.20000000000001
 20
173.429
 30
0.0
 11
97.75
 21
173.0565178571429
 31
0.0
  0
LINE
  5
99
330
1E
100
AcDbEntity
  8
0
100
AcDbLine
 10
97.75
 20
173.0565178571429
 30
0.0
 11
97.75
 21
175.605886363636
 31
0.0
  0
LINE
  5
9A
330
1E
100
AcDbEntity
  8
0
100
AcDbLine
 10
97.75
 20
173.0565178571429
 30
0.0
 11
97.75
 21
181.949
 31
0.0
  0
LINE
  5
9B
330
1E
100
AcDbEntity
  8
0
100
AcDbLine
 10
95.0
 20
172.918
 30
0.0
 11
98.0
 21
172.5099999999999
 31
0.0
  0
LINE
  5
9C
330
1E
100
AcDbEntity
  8
0
100
AcDbLine
 10
98.0
 20
172.5099999999999
 30
0.0
 11
101.0
 21
172.918
 31
0.0
  0
LINE
  5
9D
330
1E
100
AcDbEntity
  8
0
100
AcDbLine
 10
102.4639999999999
 20
1.187999999999989
 30
0.0
 11
105.812
 21
4.53599999999999
 31
0.0
  0
LINE
  5
9E
330
1E
100
AcDbEntity
  8
0
100
AcDbLine
 10
102.4639999999999
 20
1.187999999999989
 30
0.0
 11
105.812
 21
4.53599999999999
 31
0.0
  0
LINE
  5
9F
330
1E
100
AcDbEntity
  8
0
100
AcDbLine
 10
100.8
 20
173.429
 30
0.0
 11
103.4999999999999
 21
174.5509999999999
 31
0.0
  0
LINE
  5
A0
330
1E
100
AcDbEntity
  8
0
100
AcDbLine
 10
100.8
 20
173.429
 30
0.0
 11
103.2545347620339
 21
174.4489955566669
 31
0.0
  0
LINE
  5
A1
330
1E
100
AcDbEntity
  8
0
100
AcDbLine
 10
98.25000000000001
 20
173.0565178571429
 30
0.0
 11
98.25000000000001
 21
181.949
 31
0.0
  0
LINE
  5
A2
330
1E
100
AcDbEntity
  8
0
100
AcDbLine
 10
98.25000000000001
 20
173.0565178571429
 30
0.0
 11
100.8
 21
173.429
 31
0.0
  0
LINE
  5
A3
330
1E
100
AcDbEntity
  8
0
100
AcDbLine
 10
101.0
 20
172.918
 30
0.0
 11
103.7
 21
174.0409999999999
 31
0.0
  0
LINE
  5
A4
330
1E
100
AcDbEntity
  8
0
100
AcDbLine
 10
101.0999999999999
 20
172.4079999999999
 30
0.0
 11
104.0
 21
173.6329999999999
 31
0.0
  0
LINE
  5
A5
330
1E
100
AcDbEntity
  8
0
100
AcDbLine
 10
98.0
 20
172.0
 30
0.0
 11
101.0999999999999
 21
172.4079999999999
 31
0.0
  0
LINE
  5
A6
330
1E
100
AcDbEntity
  8
0
100
AcDbLine
 10
89.0
 20
176.1717999999999
 30
0.0
 11
89.0
 21
171.388
 31
0.0
  0
LINE
  5
A7
330
1E
100
AcDbEntity
  8
0
100
AcDbLine
 10
89.0
 20
176.1717999999999
 30
0.0
 11
89.0
 21
172.389
 31
0.0
  0
LINE
  5
A8
330
1E
100
AcDbEntity
  8
0
100
AcDbLine
 10
89.50000000000001
 20
175.571
 30
0.0
 11
92.0
 21
173.6329999999999
 31
0.0
  0
LINE
  5
A9
330
1E
100
AcDbEntity
  8
0
100
AcDbLine
 10
86.4
 20
181.0819999999999
 30
0.0
 11
87.59999999999999
 21
178.122
 31
0.0
  0
LINE
  5
AA
330
1E
100
AcDbEntity
  8
0
100
AcDbLine
 10
86.03098324375592
 20
184.0
 30
0.0
 11
86.4
 21
181.0819999999999
 31
0.0
  0
LINE
  5
AB
330
1E
100
AcDbEntity
  8
0
100
AcDbLine
 10
86.41583732057421
 20
181.0429346092499
 30
0.0
 11
86.432
 21
180.928
 31
0.0
  0
LINE
  5
AC
330
1E
100
AcDbEntity
  8
0
100
AcDbLine
 10
88.49999999999999
 20
178.6329999999999
 30
0.0
 11
90.20000000000001
 21
176.2859999999999
 31
0.0
  0
LINE
  5
AD
330
1E
100
AcDbEntity
  8
0
100
AcDbLine
 10
88.64145525629991
 20
178.437708537332
 30
0.0
 11
96.17640000000001
 21
182.8759999999999
 31
0.0
  0
LINE
  5
AE
330
1E
100
AcDbEntity
  8
0
100
AcDbLine
 10
88.64145525629991
 20
178.437708537332
 30
0.0
 11
90.20000000000001
 21
176.2859999999999
 31
0.0
  0
LINE
  5
AF
330
1E
100
AcDbEntity
  8
0
100
AcDbLine
 10
87.4
 20
181.388
 30
0.0
 11
88.49999999999999
 21
178.6329999999999
 31
0.0
  0
LINE
  5
B0
330
1E
100
AcDbEntity
  8
0
100
AcDbLine
 10
88.39958394941531
 20
178.884496563055
 30
0.0
 11
95.92640000000001
 21
183.3179999999999
 31
0.0
  0
LINE
  5
B1
330
1E
100
AcDbEntity
  8
0
100
AcDbLine
 10
87.03570178508931
 20
183.99
 30
0.0
 11
89.53407572383079
 21
183.99
 31
0.0
  0
LINE
  5
B2
330
1E
100
AcDbEntity
  8
0
100
AcDbLine
 10
87.03570178508931
 20
183.99
 30
0.0
 11
95.75000000000001
 21
183.99
 31
0.0
  0
LINE
  5
B3
330
1E
100
AcDbEntity
  8
0
100
AcDbLine
 10
88.0
 20
178.429
 30
0.0
 11
89.9
 21
175.98
 31
0.0
  0
LINE
  5
B4
330
1E
100
AcDbEntity
  8
0
100
AcDbLine
 10
86.90000000000001
 20
181.184
 30
0.0
 11
88.0
 21
178.429
 31
0.0
  0
LINE
  5
B5
330
1E
100
AcDbEntity
  8
0
100
AcDbLine
 10
87.59999999999999
 20
178.122
 30
0.0
 11
89.50000000000001
 21
175.571
 31
0.0
  0
LINE
  5
B6
330
1E
100
AcDbEntity
  8
0
100
AcDbLine
 10
86.432
 20
180.928
 30
0.0
 11
87.58399999999999
 21
178.048
 31
0.0
  0
LINE
  5
B7
330
1E
100
AcDbEntity
  8
0
100
AcDbLine
 10
87.58399999999999
 20
178.048
 30
0.0
 11
89.504
 21
175.504
 31
0.0
  0
LINE
  5
B8
330
1E
100
AcDbEntity
  8
0
100
AcDbLine
 10
92.3
 20
174.0409999999999
 30
0.0
 11
95.0
 21
172.918
 31
0.0
  0
LINE
  5
B9
330
1E
100
AcDbEntity
  8
0
100
AcDbLine
 10
92.0
 20
173.6329999999999
 30
0.0
 11
94.9
 21
172.4079999999999
 31
0.0
  0
LINE
  5
BA
330
1E
100
AcDbEntity
  8
0
100
AcDbLine
 10
89.8
 20
182.0
 30
0.0
 11
90.5294321484585
 21
180.139036231245
 31
0.0
  0
LINE
  5
BB
330
1E
100
AcDbEntity
  8
0
100
AcDbLine
 10
89.8
 20
182.0
 30
0.0
 11
90.6
 21
179.959
 31
0.0
  0
LINE
  5
BC
330
1E
100
AcDbEntity
  8
0
100
AcDbLine
 10
89.53407572383079
 20
183.99
 30
0.0
 11
89.8
 21
182.0
 31
0.0
  0
LINE
  5
BD
330
1E
100
AcDbEntity
  8
0
100
AcDbLine
 10
90.29999999999999
 20
182.102
 30
0.0
 11
91.09999999999999
 21
180.1629999999999
 31
0.0
  0
LINE
  5
BE
330
1E
100
AcDbEntity
  8
0
100
AcDbLine
 10
91.09999999999999
 20
180.1629999999999
 30
0.0
 11
92.4
 21
178.5309999999999
 31
0.0
  0
LINE
  5
BF
330
1E
100
AcDbEntity
  8
0
100
AcDbLine
 10
90.6
 20
179.959
 30
0.0
 11
92.0
 21
178.122
 31
0.0
  0
LINE
  5
C0
330
1E
100
AcDbEntity
  8
0
100
AcDbLine
 10
90.79338310944679
 20
179.705253734247
 30
0.0
 11
92.0
 21
178.122
 31
0.0
  0
LINE
  5
C1
330
1E
100
AcDbEntity
  8
0
100
AcDbLine
 10
92.0
 20
178.122
 30
0.0
 11
93.55069498438039
 21
176.891781979058
 31
0.0
  0
LINE
  5
C2
330
1E
100
AcDbEntity
  8
0
100
AcDbLine
 10
92.0
 20
178.122
 30
0.0
 11
93.8
 21
176.694
 31
0.0
  0
LINE
  5
C3
330
1E
100
AcDbEntity
  8
0
100
AcDbLine
 10
90.20000000000001
 20
176.2859999999999
 30
0.0
 11
92.5
 21
174.5509999999999
 31
0.0
  0
LINE
  5
C4
330
1E
100
AcDbEntity
  8
0
100
AcDbLine
 10
92.5
 20
174.5509999999999
 30
0.0
 11
95.20000000000001
 21
173.429
 31
0.0
  0
LINE
  5
C5
330
1E
100
AcDbEntity
  8
0
100
AcDbLine
 10
95.8
 20
175.8779999999999
 30
0.0
 11
98.0
 21
175.571
 31
0.0
  0
LINE
  5
C6
330
1E
100
AcDbEntity
  8
0
100
AcDbLine
 10
98.25000000000001
 20
176.1184285714289
 30
0.0
 11
100.0999999999999
 21
176.388
 31
0.0
  0
LINE
  5
C7
330
1E
100
AcDbEntity
  8
0
100
AcDbLine
 10
98.0
 20
176.082
 30
0.0
 11
100.0999999999999
 21
176.388
 31
0.0
  0
LINE
  5
C8
330
1E
100
AcDbEntity
  8
0
100
AcDbLine
 10
100.2
 20
175.8779999999999
 30
0.0
 11
102.2
 21
176.694
 31
0.0
  0
LINE
  5
C9
330
1E
100
AcDbEntity
  8
0
100
AcDbLine
 10
98.0
 20
175.571
 30
0.0
 11
100.2
 21
175.8779999999999
 31
0.0
  0
LINE
  5
CA
330
1E
100
AcDbEntity
  8
0
100
AcDbLine
 10
97.75
 20
175.605886363636
 30
0.0
 11
97.75
 21
173.0565178571429
 31
0.0
  0
LINE
  5
CB
330
1E
100
AcDbEntity
  8
0
100
AcDbLine
 10
95.90000000000001
 20
176.388
 30
0.0
 11
98.0
 21
176.082
 31
0.0
  0
LINE
  5
CC
330
1E
100
AcDbEntity
  8
0
100
AcDbLine
 10
94.0
 20
177.204
 30
0.0
 11
95.90000000000001
 21
176.388
 31
0.0
  0
LINE
  5
CD
330
1E
100
AcDbEntity
  8
0
100
AcDbLine
 10
93.8
 20
176.694
 30
0.0
 11
95.8
 21
175.8779999999999
 31
0.0
  0
LINE
  5
CE
330
1E
100
AcDbEntity
  8
0
100
AcDbLine
 10
93.97554555669051
 20
176.6223774128699
 30
0.0
 11
95.8
 21
175.8779999999999
 31
0.0
  0
LINE
  5
CF
330
1E
100
AcDbEntity
  8
0
100
AcDbLine
 10
100.0999999999999
 20
176.388
 30
0.0
 11
102.0
 21
177.204
 31
0.0
  0
LINE
  5
D0
330
1E
100
AcDbEntity
  8
0
100
AcDbLine
 10
100.0999999999999
 20
176.388
 30
0.0
 11
101.7551971657399
 21
177.098863624865
 31
0.0
  0
LINE
  5
D1
330
1E
100
AcDbEntity
  8
0
100
AcDbLine
 10
97.75
 20
176.1184285714289
 30
0.0
 11
97.75
 21
178.669428571429
 31
0.0
  0
LINE
  5
D2
330
1E
100
AcDbEntity
  8
0
100
AcDbLine
 10
92.74585616856681
 20
174.4488331032849
 30
0.0
 11
97.09150000000001
 21
182.1299999999999
 31
0.0
  0
LINE
  5
D3
330
1E
100
AcDbEntity
  8
0
100
AcDbLine
 10
92.74585616856681
 20
174.4488331032849
 30
0.0
 11
95.20000000000001
 21
173.429
 31
0.0
  0
LINE
  5
D4
330
1E
100
AcDbEntity
  8
0
100
AcDbLine
 10
93.8483255206906
 20
181.504699554219
 30
0.0
 11
94.50000000000001
 21
180.6729999999999
 31
0.0
  0
LINE
  5
D5
330
1E
100
AcDbEntity
  8
0
100
AcDbLine
 10
93.7
 20
181.694
 30
0.0
 11
94.50000000000001
 21
180.6729999999999
 31
0.0
  0
LINE
  5
D6
330
1E
100
AcDbEntity
  8
0
100
AcDbLine
 10
93.2
 20
182.918
 30
0.0
 11
93.7
 21
181.694
 31
0.0
  0
LINE
  5
D7
330
1E
100
AcDbEntity
  8
0
100
AcDbLine
 10
93.2
 20
181.49
 30
0.0
 11
94.1
 21
180.2649999999999
 31
0.0
  0
LINE
  5
D8
330
1E
100
AcDbEntity
  8
0
100
AcDbLine
 10
92.70000000000001
 20
182.8159999999999
 30
0.0
 11
93.2
 21
181.49
 31
0.0
  0
LINE
  5
D9
330
1E
100
AcDbEntity
  8
0
100
AcDbLine
 10
93.38828513731391
 20
181.233723007545
 30
0.0
 11
94.1
 21
180.2649999999999
 31
0.0
  0
LINE
  5
DA
330
1E
100
AcDbEntity
  8
0
100
AcDbLine
 10
94.50000000000001
 20
180.6729999999999
 30
0.0
 11
95.5
 21
179.8569999999999
 31
0.0
  0
LINE
  5
DB
330
1E
100
AcDbEntity
  8
0
100
AcDbLine
 10
95.29999999999999
 20
179.347
 30
0.0
 11
96.6
 21
178.837
 31
0.0
  0
LINE
  5
DC
330
1E
100
AcDbEntity
  8
0
100
AcDbLine
 10
94.1
 20
180.2649999999999
 30
0.0
 11
95.04856394507079
 21
179.5393485820209
 31
0.0
  0
LINE
  5
DD
330
1E
100
AcDbEntity
  8
0
100
AcDbLine
 10
94.1
 20
180.2649999999999
 30
0.0
 11
95.29999999999999
 21
179.347
 31
0.0
  0
LINE
  5
DE
330
1E
100
AcDbEntity
  8
0
100
AcDbLine
 10
92.4
 20
178.5309999999999
 30
0.0
 11
94.0
 21
177.204
 31
0.0
  0
LINE
  5
DF
330
1E
100
AcDbEntity
  8
0
100
AcDbLine
 10
95.5
 20
179.8569999999999
 30
0.0
 11
96.70000000000001
 21
179.347
 31
0.0
  0
LINE
  5
E0
330
1E
100
AcDbEntity
  8
0
100
AcDbLine
 10
95.4775926221983
 20
179.277329048215
 30
0.0
 11
96.6
 21
178.837
 31
0.0
  0
LINE
  5
E1
330
1E
100
AcDbEntity
  8
0
100
AcDbLine
 10
96.98279112188949
 20
181.937851018558
 30
0.0
 11
97.40000000000001
 21
181.796
 31
0.0
  0
LINE
  5
E2
330
1E
100
AcDbEntity
  8
0
100
AcDbLine
 10
97.40000000000001
 20
181.796
 30
0.0
 11
97.75
 21
181.7365
 31
0.0
  0
LINE
  5
E3
330
1E
100
AcDbEntity
  8
0
100
AcDbLine
 10
97.40000000000001
 20
181.796
 30
0.0
 11
98.0
 21
181.694
 31
0.0
  0
LINE
  5
E4
330
1E
100
AcDbEntity
  8
0
100
AcDbLine
 10
96.70000000000001
 20
179.347
 30
0.0
 11
98.0
 21
179.143
 31
0.0
  0
LINE
  5
E5
330
1E
100
AcDbEntity
  8
0
100
AcDbLine
 10
96.6
 20
178.837
 30
0.0
 11
97.75
 21
178.669428571429
 31
0.0
  0
LINE
  5
E6
330
1E
100
AcDbEntity
  8
0
100
AcDbLine
 10
96.6
 20
178.837
 30
0.0
 11
98.0
 21
178.6329999999999
 31
0.0
  0
LINE
  5
E7
330
1E
100
AcDbEntity
  8
0
100
AcDbLine
 10
97.75
 20
178.669428571429
 30
0.0
 11
97.75
 21
176.1184285714289
 31
0.0
  0
LINE
  5
E8
330
1E
100
AcDbEntity
  8
0
100
AcDbLine
 10
97.75
 20
181.7365
 30
0.0
 11
97.75
 21
179.1822307692309
 31
0.0
  0
LINE
  5
E9
330
1E
100
AcDbEntity
  8
0
100
AcDbLine
 10
97.5
 20
182.3059999999999
 30
0.0
 11
98.0
 21
182.204
 31
0.0
  0
LINE
  5
EA
330
1E
100
AcDbEntity
  8
0
100
AcDbLine
 10
96.79999999999999
 20
182.0
 30
0.0
 11
97.40000000000001
 21
181.796
 31
0.0
  0
LINE
  5
EB
330
1E
100
AcDbEntity
  8
0
100
AcDbLine
 10
97.75
 20
181.949
 30
0.0
 11
97.75
 21
173.0565178571429
 31
0.0
  0
LINE
  5
EC
330
1E
100
AcDbEntity
  8
0
100
AcDbLine
 10
97.75
 20
181.949
 30
0.0
 11
98.25000000000001
 21
181.949
 31
0.0
  0
LINE
  5
ED
330
1E
100
AcDbEntity
  8
0
100
AcDbLine
 10
98.0
 20
181.694
 30
0.0
 11
98.59999999999999
 21
181.796
 31
0.0
  0
LINE
  5
EE
330
1E
100
AcDbEntity
  8
0
100
AcDbLine
 10
98.59999999999999
 20
181.796
 30
0.0
 11
99.01721900809461
 21
181.937854462752
 31
0.0
  0
LINE
  5
EF
330
1E
100
AcDbEntity
  8
0
100
AcDbLine
 10
98.59999999999999
 20
181.796
 30
0.0
 11
99.20000000000001
 21
182.0
 31
0.0
  0
LINE
  5
F0
330
1E
100
AcDbEntity
  8
0
100
AcDbLine
 10
98.25000000000001
 20
181.7365
 30
0.0
 11
98.59999999999999
 21
181.796
 31
0.0
  0
LINE
  5
F1
330
1E
100
AcDbEntity
  8
0
100
AcDbLine
 10
98.25000000000001
 20
179.1822307692309
 30
0.0
 11
99.29999999999999
 21
179.347
 31
0.0
  0
LINE
  5
F2
330
1E
100
AcDbEntity
  8
0
100
AcDbLine
 10
98.0
 20
179.143
 30
0.0
 11
99.29999999999999
 21
179.347
 31
0.0
  0
LINE
  5
F3
330
1E
100
AcDbEntity
  8
0
100
AcDbLine
 10
98.0
 20
178.6329999999999
 30
0.0
 11
99.40000000000001
 21
178.837
 31
0.0
  0
LINE
  5
F4
330
1E
100
AcDbEntity
  8
0
100
AcDbLine
 10
99.29999999999999
 20
179.347
 30
0.0
 11
100.5
 21
179.8569999999999
 31
0.0
  0
LINE
  5
F5
330
1E
100
AcDbEntity
  8
0
100
AcDbLine
 10
99.29999999999999
 20
179.347
 30
0.0
 11
100.253803052435
 21
179.7523662972849
 31
0.0
  0
LINE
  5
F6
330
1E
100
AcDbEntity
  8
0
100
AcDbLine
 10
99.40000000000001
 20
178.837
 30
0.0
 11
100.7
 21
179.347
 31
0.0
  0
LINE
  5
F7
330
1E
100
AcDbEntity
  8
0
100
AcDbLine
 10
99.01721900809461
 20
181.937854462752
 30
0.0
 11
100.253803052435
 21
179.7523662972849
 31
0.0
  0
LINE
  5
F8
330
1E
100
AcDbEntity
  8
0
100
AcDbLine
 10
99.20000000000001
 20
182.0
 30
0.0
 11
99.8
 21
182.408
 31
0.0
  0
LINE
  5
F9
330
1E
100
AcDbEntity
  8
0
100
AcDbLine
 10
98.50000000000001
 20
182.3059999999999
 30
0.0
 11
99.0
 21
182.5099999999999
 31
0.0
  0
LINE
  5
FA
330
1E
100
AcDbEntity
  8
0
100
AcDbLine
 10
98.0
 20
182.204
 30
0.0
 11
98.50000000000001
 21
182.3059999999999
 31
0.0
  0
LINE
  5
FB
330
1E
100
AcDbEntity
  8
0
100
AcDbLine
 10
98.9085
 20
182.1299999999999
 30
0.0
 11
99.3415
 21
182.385
 31
0.0
  0
LINE
  5
FC
330
1E
100
AcDbEntity
  8
0
100
AcDbLine
 10
98.9085
 20
182.1299999999999
 30
0.0
 11
103.2545347620339
 21
174.4489955566669
 31
0.0
  0
LINE
  5
FD
330
1E
100
AcDbEntity
  8
0
100
AcDbLine
 10
99.4594776395858
 20
182.1764447949179
 30
0.0
 11
99.8
 21
182.408
 31
0.0
  0
LINE
  5
FE
330
1E
100
AcDbEntity
  8
0
100
AcDbLine
 10
99.3415
 20
182.385
 30
0.0
 11
103.691429150775
 21
174.6954041637369
 31
0.0
  0
LINE
  5
FF
330
1E
100
AcDbEntity
  8
0
100
AcDbLine
 10
98.25000000000001
 20
181.949
 30
0.0
 11
98.25000000000001
 21
173.0565178571429
 31
0.0
  0
LINE
  5
100
330
1E
100
AcDbEntity
  8
0
100
AcDbLine
 10
97.75
 20
179.1822307692309
 30
0.0
 11
97.75
 21
181.7365
 31
0.0
  0
LINE
  5
101
330
1E
100
AcDbEntity
  8
0
100
AcDbLine
 10
97.0
 20
182.5099999999999
 30
0.0
 11
97.5
 21
182.3059999999999
 31
0.0
  0
LINE
  5
102
330
1E
100
AcDbEntity
  8
0
100
AcDbLine
 10
96.2
 20
182.408
 30
0.0
 11
96.54051289268201
 21
182.176451232976
 31
0.0
  0
LINE
  5
103
330
1E
100
AcDbEntity
  8
0
100
AcDbLine
 10
96.2
 20
182.408
 30
0.0
 11
96.79999999999999
 21
182.0
 31
0.0
  0
LINE
  5
104
330
1E
100
AcDbEntity
  8
0
100
AcDbLine
 10
99.8
 20
182.408
 30
0.0
 11
100.027417568153
 21
182.7559488792739
 31
0.0
  0
LINE
  5
105
330
1E
100
AcDbEntity
  8
0
100
AcDbLine
 10
99.8
 20
182.408
 30
0.0
 11
100.2
 21
183.0199999999999
 31
0.0
  0
LINE
  5
106
330
1E
100
AcDbEntity
  8
0
100
AcDbLine
 10
96.6
 20
182.8159999999999
 30
0.0
 11
97.0
 21
182.5099999999999
 31
0.0
  0
LINE
  5
107
330
1E
100
AcDbEntity
  8
0
100
AcDbLine
 10
99.40000000000001
 20
182.8159999999999
 30
0.0
 11
99.7
 21
183.2249999999999
 31
0.0
  0
LINE
  5
108
330
1E
100
AcDbEntity
  8
0
100
AcDbLine
 10
99.0
 20
182.5099999999999
 30
0.0
 11
99.40000000000001
 21
182.8159999999999
 31
0.0
  0
LINE
  5
109
330
1E
100
AcDbEntity
  8
0
100
AcDbLine
 10
100.027417568153
 20
182.7559488792739
 30
0.0
 11
102.151693343576
 21
181.504723629739
 31
0.0
  0
LINE
  5
10A
330
1E
100
AcDbEntity
  8
0
100
AcDbLine
 10
100.027417568153
 20
182.7559488792739
 30
0.0
 11
102.151693343576
 21
181.504723629739
 31
0.0
  0
LINE
  5
10B
330
1E
100
AcDbEntity
  8
0
100
AcDbLine
 10
96.3
 20
183.2249999999999
 30
0.0
 11
96.6
 21
182.8159999999999
 31
0.0
  0
LINE
  5
10C
330
1E
100
AcDbEntity
  8
0
100
AcDbLine
 10
95.8
 20
183.0199999999999
 30
0.0
 11
96.2
 21
182.408
 31
0.0
  0
LINE
  5
10D
330
1E
100
AcDbEntity
  8
0
100
AcDbLine
 10
99.7
 20
183.2249999999999
 30
0.0
 11
99.90000000000001
 21
183.735
 31
0.0
  0
LINE
  5
10E
330
1E
100
AcDbEntity
  8
0
100
AcDbLine
 10
99.82359999999999
 20
182.8759999999999
 30
0.0
 11
100.0739999999999
 21
183.3179999999999
 31
0.0
  0
LINE
  5
10F
330
1E
100
AcDbEntity
  8
0
100
AcDbLine
 10
99.82359999999999
 20
182.8759999999999
 30
0.0
 11
107.358602564607
 21
178.437788364196
 31
0.0
  0
LINE
  5
110
330
1E
100
AcDbEntity
  8
0
100
AcDbLine
 10
100.2
 20
183.0199999999999
 30
0.0
 11
100.4
 21
183.6329999999999
 31
0.0
  0
LINE
  5
111
330
1E
100
AcDbEntity
  8
0
100
AcDbLine
 10
100.0739999999999
 20
183.3179999999999
 30
0.0
 11
107.600455438519
 21
178.884595211927
 31
0.0
  0
LINE
  5
112
330
1E
100
AcDbEntity
  8
0
100
AcDbLine
 10
100.0739999999999
 20
183.3179999999999
 30
0.0
 11
107.600455438519
 21
178.884595211927
 31
0.0
  0
LINE
  5
113
330
1E
100
AcDbEntity
  8
0
100
AcDbLine
 10
96.6585
 20
182.385
 30
0.0
 11
97.09150000000001
 21
182.1299999999999
 31
0.0
  0
LINE
  5
114
330
1E
100
AcDbEntity
  8
0
100
AcDbLine
 10
95.31409848615169
 20
180.0086956352999
 30
0.0
 11
96.54051289268201
 21
182.176451232976
 31
0.0
  0
LINE
  5
115
330
1E
100
AcDbEntity
  8
0
100
AcDbLine
 10
93.8144141534611
 20
177.357920261473
 30
0.0
 11
95.04856394507079
 21
179.5393485820209
 31
0.0
  0
LINE
  5
116
330
1E
100
AcDbEntity
  8
0
100
AcDbLine
 10
92.30823205768208
 20
174.6956597304009
 30
0.0
 11
96.6585
 21
182.385
 31
0.0
  0
LINE
  5
117
330
1E
100
AcDbEntity
  8
0
100
AcDbLine
 10
92.30823205768208
 20
174.6956597304009
 30
0.0
 11
93.55069498438039
 21
176.891781979058
 31
0.0
  0
LINE
  5
118
330
1E
100
AcDbEntity
  8
0
100
AcDbLine
 10
96.09999999999999
 20
183.735
 30
0.0
 11
96.3
 21
183.2249999999999
 31
0.0
  0
LINE
  5
119
330
1E
100
AcDbEntity
  8
0
100
AcDbLine
 10
95.6
 20
183.6329999999999
 30
0.0
 11
95.73882178520859
 21
183.2075112283359
 31
0.0
  0
LINE
  5
11A
330
1E
100
AcDbEntity
  8
0
100
AcDbLine
 10
95.6
 20
183.6329999999999
 30
0.0
 11
95.8
 21
183.0199999999999
 31
0.0
  0
LINE
  5
11B
330
1E
100
AcDbEntity
  8
0
100
AcDbLine
 10
95.5416666666667
 20
183.99
 30
0.0
 11
95.6
 21
183.6329999999999
 31
0.0
  0
LINE
  5
11C
330
1E
100
AcDbEntity
  8
0
100
AcDbLine
 10
92.53568929321199
 20
183.99
 30
0.0
 11
92.70000000000001
 21
182.8159999999999
 31
0.0
  0
LINE
  5
11D
330
1E
100
AcDbEntity
  8
0
100
AcDbLine
 10
99.90000000000001
 20
183.735
 30
0.0
 11
100.0
 21
184.245
 31
0.0
  0
LINE
  5
11E
330
1E
100
AcDbEntity
  8
0
100
AcDbLine
 10
95.92640000000001
 20
183.3179999999999
 30
0.0
 11
96.17640000000001
 21
182.8759999999999
 31
0.0
  0
LINE
  5
11F
330
1E
100
AcDbEntity
  8
0
100
AcDbLine
 10
100.4
 20
183.6329999999999
 30
0.0
 11
100.5
 21
184.245
 31
0.0
  0
LINE
  5
120
330
1E
100
AcDbEntity
  8
0
100
AcDbLine
 10
103.4999999999999
 20
174.5509999999999
 30
0.0
 11
105.8
 21
176.2859999999999
 31
0.0
  0
LINE
  5
121
330
1E
100
AcDbEntity
  8
0
100
AcDbLine
 10
100.5
 20
179.8569999999999
 30
0.0
 11
101.5
 21
180.6729999999999
 31
0.0
  0
LINE
  5
122
330
1E
100
AcDbEntity
  8
0
100
AcDbLine
 10
100.7
 20
179.347
 30
0.0
 11
101.9
 21
180.2649999999999
 31
0.0
  0
LINE
  5
123
330
1E
100
AcDbEntity
  8
0
100
AcDbLine
 10
101.5
 20
180.6729999999999
 30
0.0
 11
102.2999999999999
 21
181.694
 31
0.0
  0
LINE
  5
124
330
1E
100
AcDbEntity
  8
0
100
AcDbLine
 10
101.5
 20
180.6729999999999
 30
0.0
 11
102.151693343576
 21
181.504723629739
 31
0.0
  0
LINE
  5
125
330
1E
100
AcDbEntity
  8
0
100
AcDbLine
 10
101.9
 20
180.2649999999999
 30
0.0
 11
102.6117364715309
 21
181.2337524195839
 31
0.0
  0
LINE
  5
126
330
1E
100
AcDbEntity
  8
0
100
AcDbLine
 10
101.9
 20
180.2649999999999
 30
0.0
 11
102.8
 21
181.49
 31
0.0
  0
LINE
  5
127
330
1E
100
AcDbEntity
  8
0
100
AcDbLine
 10
100.951311203136
 20
179.539253070399
 30
0.0
 11
101.9
 21
180.2649999999999
 31
0.0
  0
LINE
  5
128
330
1E
100
AcDbEntity
  8
0
100
AcDbLine
 10
102.1853707525169
 20
177.357741867869
 30
0.0
 11
103.6
 21
178.5309999999999
 31
0.0
  0
LINE
  5
129
330
1E
100
AcDbEntity
  8
0
100
AcDbLine
 10
102.0
 20
177.204
 30
0.0
 11
103.6
 21
178.5309999999999
 31
0.0
  0
LINE
  5
12A
330
1E
100
AcDbEntity
  8
0
100
AcDbLine
 10
103.6
 20
178.5309999999999
 30
0.0
 11
104.9
 21
180.1629999999999
 31
0.0
  0
LINE
  5
12B
330
1E
100
AcDbEntity
  8
0
100
AcDbLine
 10
103.6
 20
178.5309999999999
 30
0.0
 11
104.749780903611
 21
179.974417257457
 31
0.0
  0
LINE
  5
12C
330
1E
100
AcDbEntity
  8
0
100
AcDbLine
 10
102.2
 20
176.694
 30
0.0
 11
104.0
 21
178.122
 31
0.0
  0
LINE
  5
12D
330
1E
100
AcDbEntity
  8
0
100
AcDbLine
 10
102.4029918322689
 20
181.946124005395
 30
0.0
 11
102.8
 21
182.918
 31
0.0
  0
LINE
  5
12E
330
1E
100
AcDbEntity
  8
0
100
AcDbLine
 10
102.2999999999999
 20
181.694
 30
0.0
 11
102.8
 21
182.918
 31
0.0
  0
LINE
  5
12F
330
1E
100
AcDbEntity
  8
0
100
AcDbLine
 10
102.8
 20
182.918
 30
0.0
 11
103.0
 21
184.245
 31
0.0
  0
LINE
  5
130
330
1E
100
AcDbEntity
  8
0
100
AcDbLine
 10
102.8
 20
182.918
 30
0.0
 11
102.9615674453659
 21
183.99
 31
0.0
  0
LINE
  5
131
330
1E
100
AcDbEntity
  8
0
100
AcDbLine
 10
102.8
 20
181.49
 30
0.0
 11
103.2999999999999
 21
182.8159999999999
 31
0.0
  0
LINE
  5
132
330
1E
100
AcDbEntity
  8
0
100
AcDbLine
 10
103.2999999999999
 20
182.8159999999999
 30
0.0
 11
103.4999999999999
 21
184.245
 31
0.0
  0
LINE
  5
133
330
1E
100
AcDbEntity
  8
0
100
AcDbLine
 10
102.6117364715309
 20
181.2337524195839
 30
0.0
 11
104.749780903611
 21
179.974417257457
 31
0.0
  0
LINE
  5
134
330
1E
100
AcDbEntity
  8
0
100
AcDbLine
 10
100.522554126464
 20
179.277386618844
 30
0.0
 11
101.7551971657399
 21
177.098863624865
 31
0.0
  0
LINE
  5
135
330
1E
100
AcDbEntity
  8
0
100
AcDbLine
 10
102.024735725629
 20
176.622492176057
 30
0.0
 11
103.2545347620339
 21
174.4489955566669
 31
0.0
  0
LINE
  5
136
330
1E
100
AcDbEntity
  8
0
100
AcDbLine
 10
100.458333333333
 20
183.99
 30
0.0
 11
102.9615674453659
 21
183.99
 31
0.0
  0
LINE
  5
137
330
1E
100
AcDbEntity
  8
0
100
AcDbLine
 10
103.464310706788
 20
183.99
 30
0.0
 11
105.964302379841
 21
183.99
 31
0.0
  0
LINE
  5
138
330
1E
100
AcDbEntity
  8
0
100
AcDbLine
 10
100.2499999999999
 20
183.99
 30
0.0
 11
100.2499999999999
 21
184.4999999999999
 31
0.0
  0
LINE
  5
139
330
1E
100
AcDbEntity
  8
0
100
AcDbLine
 10
100.2499999999999
 20
183.99
 30
0.0
 11
108.964298214911
 21
183.99
 31
0.0
  0
LINE
  5
13A
330
1E
100
AcDbEntity
  8
0
100
AcDbLine
 10
93.0384325546345
 20
183.99
 30
0.0
 11
95.5416666666667
 21
183.99
 31
0.0
  0
LINE
  5
13B
330
1E
100
AcDbEntity
  8
0
100
AcDbLine
 10
90.03569762015871
 20
183.99
 30
0.0
 11
92.53568929321199
 21
183.99
 31
0.0
  0
LINE
  5
13C
330
1E
100
AcDbEntity
  8
0
100
AcDbLine
 10
90.03569762015871
 20
183.99
 30
0.0
 11
90.29999999999999
 21
182.102
 31
0.0
  0
LINE
  5
13D
330
1E
100
AcDbEntity
  8
0
100
AcDbLine
 10
95.75000000000001
 20
183.99
 30
0.0
 11
95.75000000000001
 21
184.4999999999999
 31
0.0
  0
LINE
  5
13E
330
1E
100
AcDbEntity
  8
0
100
AcDbLine
 10
89.9
 20
175.98
 30
0.0
 11
92.3
 21
174.0409999999999
 31
0.0
  0
LINE
  5
13F
330
1E
100
AcDbEntity
  8
0
100
AcDbLine
 10
103.7
 20
174.0409999999999
 30
0.0
 11
106.0999999999999
 21
175.98
 31
0.0
  0
LINE
  5
140
330
1E
100
AcDbEntity
  8
0
100
AcDbLine
 10
89.504
 20
175.504
 30
0.0
 11
92.04799999999998
 21
173.584
 31
0.0
  0
LINE
  5
141
330
1E
100
AcDbEntity
  8
0
100
AcDbLine
 10
92.04799999999998
 20
173.584
 30
0.0
 11
93.32953846153809
 21
173.071384615385
 31
0.0
  0
LINE
  5
142
330
1E
100
AcDbEntity
  8
0
100
AcDbLine
 10
107.0
 20
8.999999999999991
 30
0.0
 11
107.0
 21
10.1036
 31
0.0
  0
LINE
  5
143
330
1E
100
AcDbEntity
  8
0
100
AcDbLine
 10
105.812
 20
4.53599999999999
 30
0.0
 11
107.0
 21
8.999999999999991
 31
0.0
  0
LINE
  5
144
330
1E
100
AcDbEntity
  8
0
100
AcDbLine
 10
107.0
 20
10.1036
 30
0.0
 11
107.0
 21
13.3956
 31
0.0
  0
LINE
  5
145
330
1E
100
AcDbEntity
  8
0
100
AcDbLine
 10
107.0
 20
10.1036
 30
0.0
 11
107.0
 21
8.999999999999991
 31
0.0
  0
LINE
  5
146
330
1E
100
AcDbEntity
  8
0
100
AcDbLine
 10
107.0
 20
13.3956
 30
0.0
 11
107.0
 21
18.8195
 31
0.0
  0
LINE
  5
147
330
1E
100
AcDbEntity
  8
0
100
AcDbLine
 10
107.0
 20
13.3956
 30
0.0
 11
107.0
 21
10.1036
 31
0.0
  0
LINE
  5
148
330
1E
100
AcDbEntity
  8
0
100
AcDbLine
 10
107.0
 20
18.8195
 30
0.0
 11
107.0
 21
33.6987
 31
0.0
  0
LINE
  5
149
330
1E
100
AcDbEntity
  8
0
100
AcDbLine
 10
107.0
 20
18.8195
 30
0.0
 11
107.0
 21
13.3956
 31
0.0
  0
LINE
  5
14A
330
1E
100
AcDbEntity
  8
0
100
AcDbLine
 10
107.0
 20
33.6987
 30
0.0
 11
107.0
 21
18.8195
 31
0.0
  0
LINE
  5
14B
330
1E
100
AcDbEntity
  8
0
100
AcDbLine
 10
107.0
 20
33.6987
 30
0.0
 11
107.0
 21
64.61539999999999
 31
0.0
  0
LINE
  5
14C
330
1E
100
AcDbEntity
  8
0
100
AcDbLine
 10
107.0
 20
64.61539999999999
 30
0.0
 11
107.0
 21
91.62879999999999
 31
0.0
  0
LINE
  5
14D
330
1E
100
AcDbEntity
  8
0
100
AcDbLine
 10
107.0
 20
64.61539999999999
 30
0.0
 11
107.0
 21
33.6987
 31
0.0
  0
LINE
  5
14E
330
1E
100
AcDbEntity
  8
0
100
AcDbLine
 10
107.0
 20
91.62879999999999
 30
0.0
 11
107.0
 21
116.877
 31
0.0
  0
LINE
  5
14F
330
1E
100
AcDbEntity
  8
0
100
AcDbLine
 10
107.0
 20
91.62879999999999
 30
0.0
 11
107.0
 21
64.61539999999999
 31
0.0
  0
LINE
  5
150
330
1E
100
AcDbEntity
  8
0
100
AcDbLine
 10
107.0
 20
141.2839999999999
 30
0.0
 11
107.0
 21
116.877
 31
0.0
  0
LINE
  5
151
330
1E
100
AcDbEntity
  8
0
100
AcDbLine
 10
107.0
 20
141.2839999999999
 30
0.0
 11
107.0
 21
159.6479999999999
 31
0.0
  0
LINE
  5
152
330
1E
100
AcDbEntity
  8
0
100
AcDbLine
 10
107.0
 20
116.877
 30
0.0
 11
107.0
 21
91.62879999999999
 31
0.0
  0
LINE
  5
153
330
1E
100
AcDbEntity
  8
0
100
AcDbLine
 10
107.0
 20
116.877
 30
0.0
 11
107.0
 21
141.2839999999999
 31
0.0
  0
LINE
  5
154
330
1E
100
AcDbEntity
  8
0
100
AcDbLine
 10
107.0
 20
159.6479999999999
 30
0.0
 11
107.0
 21
172.389
 31
0.0
  0
LINE
  5
155
330
1E
100
AcDbEntity
  8
0
100
AcDbLine
 10
107.0
 20
159.6479999999999
 30
0.0
 11
107.0
 21
141.2839999999999
 31
0.0
  0
LINE
  5
156
330
1E
100
AcDbEntity
  8
0
100
AcDbLine
 10
107.0
 20
172.389
 30
0.0
 11
107.0
 21
159.6479999999999
 31
0.0
  0
LINE
  5
157
330
1E
100
AcDbEntity
  8
0
100
AcDbLine
 10
107.0
 20
172.389
 30
0.0
 11
107.0
 21
176.1717999999999
 31
0.0
  0
LINE
  5
158
330
1E
100
AcDbEntity
  8
0
100
AcDbLine
 10
104.0
 20
173.6329999999999
 30
0.0
 11
106.4999999999999
 21
175.571
 31
0.0
  0
LINE
  5
159
330
1E
100
AcDbEntity
  8
0
100
AcDbLine
 10
104.0
 20
178.122
 30
0.0
 11
105.4
 21
179.959
 31
0.0
  0
LINE
  5
15A
330
1E
100
AcDbEntity
  8
0
100
AcDbLine
 10
105.0036510654089
 20
180.4142242697849
 30
0.0
 11
105.6999999999999
 21
182.102
 31
0.0
  0
LINE
  5
15B
330
1E
100
AcDbEntity
  8
0
100
AcDbLine
 10
104.9
 20
180.1629999999999
 30
0.0
 11
105.6999999999999
 21
182.102
 31
0.0
  0
LINE
  5
15C
330
1E
100
AcDbEntity
  8
0
100
AcDbLine
 10
105.2066596853689
 20
179.705309887159
 30
0.0
 11
107.358602564607
 21
178.437788364196
 31
0.0
  0
LINE
  5
15D
330
1E
100
AcDbEntity
  8
0
100
AcDbLine
 10
107.0
 20
176.1717999999999
 30
0.0
 11
107.0
 21
172.389
 31
0.0
  0
LINE
  5
15E
330
1E
100
AcDbEntity
  8
0
100
AcDbLine
 10
105.8
 20
176.2859999999999
 30
0.0
 11
107.4999999999999
 21
178.6329999999999
 31
0.0
  0
LINE
  5
15F
330
1E
100
AcDbEntity
  8
0
100
AcDbLine
 10
105.8
 20
176.2859999999999
 30
0.0
 11
107.358602564607
 21
178.437788364196
 31
0.0
  0
LINE
  5
160
330
1E
100
AcDbEntity
  8
0
100
AcDbLine
 10
105.4
 20
179.959
 30
0.0
 11
106.2
 21
182.0
 31
0.0
  0
LINE
  5
161
330
1E
100
AcDbEntity
  8
0
100
AcDbLine
 10
107.600455438519
 20
178.884595211927
 30
0.0
 11
108.6
 21
181.388
 31
0.0
  0
LINE
  5
162
330
1E
100
AcDbEntity
  8
0
100
AcDbLine
 10
107.4999999999999
 20
178.6329999999999
 30
0.0
 11
108.6
 21
181.388
 31
0.0
  0
LINE
  5
163
330
1E
100
AcDbEntity
  8
0
100
AcDbLine
 10
105.2066596853689
 20
179.705309887159
 30
0.0
 11
107.358602564607
 21
178.437788364196
 31
0.0
  0
LINE
  5
164
330
1E
100
AcDbEntity
  8
0
100
AcDbLine
 10
106.0999999999999
 20
175.98
 30
0.0
 11
108.0
 21
178.429
 31
0.0
  0
LINE
  5
165
330
1E
100
AcDbEntity
  8
0
100
AcDbLine
 10
108.0
 20
178.429
 30
0.0
 11
109.0999999999999
 21
181.184
 31
0.0
  0
LINE
  5
166
330
1E
100
AcDbEntity
  8
0
100
AcDbLine
 10
106.4999999999999
 20
175.571
 30
0.0
 11
108.4
 21
178.122
 31
0.0
  0
LINE
  5
167
330
1E
100
AcDbEntity
  8
0
100
AcDbLine
 10
108.4
 20
178.122
 30
0.0
 11
109.5999999999999
 21
181.0819999999999
 31
0.0
  0
LINE
  5
168
330
1E
100
AcDbEntity
  8
0
100
AcDbLine
 10
105.6999999999999
 20
182.102
 30
0.0
 11
106.0
 21
184.245
 31
0.0
  0
LINE
  5
169
330
1E
100
AcDbEntity
  8
0
100
AcDbLine
 10
105.6999999999999
 20
182.102
 30
0.0
 11
105.964302379841
 21
183.99
 31
0.0
  0
LINE
  5
16A
330
1E
100
AcDbEntity
  8
0
100
AcDbLine
 10
106.2
 20
182.0
 30
0.0
 11
106.4999999999999
 21
184.245
 31
0.0
  0
LINE
  5
16B
330
1E
100
AcDbEntity
  8
0
100
AcDbLine
 10
108.6
 20
181.388
 30
0.0
 11
109.0
 21
184.245
 31
0.0
  0
LINE
  5
16C
330
1E
100
AcDbEntity
  8
0
100
AcDbLine
 10
108.6
 20
181.388
 30
0.0
 11
108.964298214911
 21
183.99
 31
0.0
  0
LINE
  5
16D
330
1E
100
AcDbEntity
  8
0
100
AcDbLine
 10
106.4659242761689
 20
183.99
 30
0.0
 11
108.964298214911
 21
183.99
 31
0.0
  0
LINE
  5
16E
330
1E
100
AcDbEntity
  8
0
100
AcDbLine
 10
109.0999999999999
 20
181.184
 30
0.0
 11
109.4999999999999
 21
184.245
 31
0.0
  0
LINE
  5
16F
330
1E
100
AcDbEntity
  8
0
100
AcDbLine
 10
109.5999999999999
 20
181.0819999999999
 30
0.0
 11
110.0
 21
184.245
 31
0.0
  0
LINE
  5
170
330
1E
100
AcDbEntity
  8
0
100
AcDbLine
 10
103.952
 20
173.584
 30
0.0
 11
106.496
 21
175.504
 31
0.0
  0
LINE
  5
171
330
1E
100
AcDbEntity
  8
0
100
AcDbLine
 10
96.0
 20
184.245
 30
0.0
 11
96.09999999999999
 21
184.755
 31
0.0
  0
LINE
  5
172
330
1E
100
AcDbEntity
  8
0
100
AcDbLine
 10
96.0
 20
184.245
 30
0.0
 11
96.09999999999999
 21
183.735
 31
0.0
  0
LINE
  5
173
330
1E
100
AcDbEntity
  8
0
100
AcDbLine
 10
95.5
 20
184.245
 30
0.0
 11
95.6
 21
184.857
 31
0.0
  0
LINE
  5
174
330
1E
100
AcDbEntity
  8
0
100
AcDbLine
 10
95.5
 20
184.245
 30
0.0
 11
95.6
 21
183.6329999999999
 31
0.0
  0
LINE
  5
175
330
1E
100
AcDbEntity
  8
0
100
AcDbLine
 10
93.0
 20
184.245
 30
0.0
 11
93.2
 21
185.571
 31
0.0
  0
LINE
  5
176
330
1E
100
AcDbEntity
  8
0
100
AcDbLine
 10
93.0
 20
184.245
 30
0.0
 11
93.2
 21
182.918
 31
0.0
  0
LINE
  5
177
330
1E
100
AcDbEntity
  8
0
100
AcDbLine
 10
92.5
 20
184.245
 30
0.0
 11
92.70000000000001
 21
185.6729999999999
 31
0.0
  0
LINE
  5
178
330
1E
100
AcDbEntity
  8
0
100
AcDbLine
 10
92.5
 20
184.245
 30
0.0
 11
92.70000000000001
 21
182.8159999999999
 31
0.0
  0
LINE
  5
179
330
1E
100
AcDbEntity
  8
0
100
AcDbLine
 10
90.0
 20
184.245
 30
0.0
 11
90.29999999999999
 21
186.3879999999999
 31
0.0
  0
LINE
  5
17A
330
1E
100
AcDbEntity
  8
0
100
AcDbLine
 10
90.0
 20
184.245
 30
0.0
 11
90.29999999999999
 21
182.102
 31
0.0
  0
LINE
  5
17B
330
1E
100
AcDbEntity
  8
0
100
AcDbLine
 10
89.50000000000001
 20
184.245
 30
0.0
 11
89.8
 21
186.49
 31
0.0
  0
LINE
  5
17C
330
1E
100
AcDbEntity
  8
0
100
AcDbLine
 10
89.50000000000001
 20
184.245
 30
0.0
 11
89.8
 21
182.0
 31
0.0
  0
LINE
  5
17D
330
1E
100
AcDbEntity
  8
0
100
AcDbLine
 10
87.0
 20
184.245
 30
0.0
 11
87.4
 21
187.102
 31
0.0
  0
LINE
  5
17E
330
1E
100
AcDbEntity
  8
0
100
AcDbLine
 10
87.0
 20
184.245
 30
0.0
 11
87.4
 21
181.388
 31
0.0
  0
LINE
  5
17F
330
1E
100
AcDbEntity
  8
0
100
AcDbLine
 10
95.5416666666667
 20
184.4999999999999
 30
0.0
 11
95.6
 21
184.857
 31
0.0
  0
LINE
  5
180
330
1E
100
AcDbEntity
  8
0
100
AcDbLine
 10
92.53571428571431
 20
184.4999999999999
 30
0.0
 11
92.70000000000001
 21
185.6729999999999
 31
0.0
  0
LINE
  5
181
330
1E
100
AcDbEntity
  8
0
100
AcDbLine
 10
89.53407572383079
 20
184.4999999999999
 30
0.0
 11
89.8
 21
186.49
 31
0.0
  0
LINE
  5
182
330
1E
100
AcDbEntity
  8
0
100
AcDbLine
 10
100.2499999999999
 20
184.4999999999999
 30
0.0
 11
108.964298214911
 21
184.4999999999999
 31
0.0
  0
LINE
  5
183
330
1E
100
AcDbEntity
  8
0
100
AcDbLine
 10
100.2499999999999
 20
184.4999999999999
 30
0.0
 11
100.2499999999999
 21
183.99
 31
0.0
  0
LINE
  5
184
330
1E
100
AcDbEntity
  8
0
100
AcDbLine
 10
99.90000000000001
 20
184.755
 30
0.0
 11
100.0
 21
184.245
 31
0.0
  0
LINE
  5
185
330
1E
100
AcDbEntity
  8
0
100
AcDbLine
 10
100.4
 20
184.857
 30
0.0
 11
100.5
 21
184.245
 31
0.0
  0
LINE
  5
186
330
1E
100
AcDbEntity
  8
0
100
AcDbLine
 10
96.09999999999999
 20
184.755
 30
0.0
 11
96.3
 21
185.2649999999999
 31
0.0
  0
LINE
  5
187
330
1E
100
AcDbEntity
  8
0
100
AcDbLine
 10
95.6
 20
184.857
 30
0.0
 11
95.73901859107358
 21
185.2823968886849
 31
0.0
  0
LINE
  5
188
330
1E
100
AcDbEntity
  8
0
100
AcDbLine
 10
95.6
 20
184.857
 30
0.0
 11
95.8
 21
185.469
 31
0.0
  0
LINE
  5
189
330
1E
100
AcDbEntity
  8
0
100
AcDbLine
 10
95.75000000000001
 20
184.4999999999999
 30
0.0
 11
95.75000000000001
 21
183.99
 31
0.0
  0
LINE
  5
18A
330
1E
100
AcDbEntity
  8
0
100
AcDbLine
 10
87.03570178508931
 20
184.4999999999999
 30
0.0
 11
95.75000000000001
 21
184.4999999999999
 31
0.0
  0
LINE
  5
18B
330
1E
100
AcDbEntity
  8
0
100
AcDbLine
 10
86.5
 20
184.245
 30
0.0
 11
86.90000000000001
 21
187.3059999999999
 31
0.0
  0
LINE
  5
18C
330
1E
100
AcDbEntity
  8
0
100
AcDbLine
 10
86.5
 20
184.245
 30
0.0
 11
86.90000000000001
 21
181.184
 31
0.0
  0
LINE
  5
18D
330
1E
100
AcDbEntity
  8
0
100
AcDbLine
 10
86.0
 20
184.245
 30
0.0
 11
86.4
 21
187.408
 31
0.0
  0
LINE
  5
18E
330
1E
100
AcDbEntity
  8
0
100
AcDbLine
 10
86.0
 20
184.245
 30
0.0
 11
86.4
 21
181.0819999999999
 31
0.0
  0
LINE
  5
18F
330
1E
100
AcDbEntity
  8
0
100
AcDbLine
 10
86.0
 20
184.0
 30
0.0
 11
86.30763864666901
 21
181.8123474014649
 31
0.0
  0
LINE
  5
190
330
1E
100
AcDbEntity
  8
0
100
AcDbLine
 10
109.904521024344
 20
185.0
 30
0.0
 11
119.0
 21
185.0
 31
0.0
  0
LINE
  5
191
330
1E
100
AcDbEntity
  8
0
100
AcDbLine
 10
110.0
 20
184.0
 30
0.0
 11
119.0
 21
184.0
 31
0.0
  0
LINE
  5
192
330
1E
100
AcDbEntity
  8
0
100
AcDbLine
 10
119.0
 20
184.3
 30
0.0
 11
119.5
 21
184.4999999999999
 31
0.0
  0
LINE
  5
193
330
1E
100
AcDbEntity
  8
0
100
AcDbLine
 10
109.9930445779319
 20
184.3
 30
0.0
 11
119.0
 21
184.3
 31
0.0
  0
LINE
  5
194
330
1E
100
AcDbEntity
  8
0
100
AcDbLine
 10
87.4
 20
187.102
 30
0.0
 11
88.49999999999999
 21
189.857
 31
0.0
  0
LINE
  5
195
330
1E
100
AcDbEntity
  8
0
100
AcDbLine
 10
86.90000000000001
 20
187.3059999999999
 30
0.0
 11
88.0
 21
190.0609999999999
 31
0.0
  0
LINE
  5
196
330
1E
100
AcDbEntity
  8
0
100
AcDbLine
 10
77.5
 20
218.7689999999999
 30
0.0
 11
77.5
 21
258.231
 31
0.0
  0
LINE
  5
197
330
1E
100
AcDbEntity
  8
0
100
AcDbLine
 10
77.5
 20
258.231
 30
0.0
 11
77.5
 21
218.7689999999999
 31
0.0
  0
LINE
  5
198
330
1E
100
AcDbEntity
  8
0
100
AcDbLine
 10
88.49999999999999
 20
189.857
 30
0.0
 11
90.20000000000001
 21
192.204
 31
0.0
  0
LINE
  5
199
330
1E
100
AcDbEntity
  8
0
100
AcDbLine
 10
88.64194604966092
 20
190.052969046208
 30
0.0
 11
96.17640000000001
 21
185.614
 31
0.0
  0
LINE
  5
19A
330
1E
100
AcDbEntity
  8
0
100
AcDbLine
 10
88.3998960979853
 20
189.6062852272269
 30
0.0
 11
95.92640000000001
 21
185.172
 31
0.0
  0
LINE
  5
19B
330
1E
100
AcDbEntity
  8
0
100
AcDbLine
 10
88.3998960979853
 20
189.6062852272269
 30
0.0
 11
90.52965264027809
 21
188.35152629851
 31
0.0
  0
LINE
  5
19C
330
1E
100
AcDbEntity
  8
0
100
AcDbLine
 10
88.0
 20
190.0609999999999
 30
0.0
 11
89.9
 21
192.51
 31
0.0
  0
LINE
  5
19D
330
1E
100
AcDbEntity
  8
0
100
AcDbLine
 10
87.59999999999999
 20
190.367
 30
0.0
 11
89.50000000000001
 21
192.918
 31
0.0
  0
LINE
  5
19E
330
1E
100
AcDbEntity
  8
0
100
AcDbLine
 10
86.4
 20
187.408
 30
0.0
 11
87.59999999999999
 21
190.367
 31
0.0
  0
LINE
  5
19F
330
1E
100
AcDbEntity
  8
0
100
AcDbLine
 10
88.81210000000001
 20
192.927
 30
0.0
 11
89.12309999999999
 21
193.2229999999999
 31
0.0
  0
LINE
  5
1A0
330
1E
100
AcDbEntity
  8
0
100
AcDbLine
 10
88.81210000000001
 20
192.927
 30
0.0
 11
89.20006291210908
 21
192.5152949941
 31
0.0
  0
LINE
  5
1A1
330
1E
100
AcDbEntity
  8
0
100
AcDbLine
 10
89.50000000000001
 20
192.918
 30
0.0
 11
92.0
 21
194.857
 31
0.0
  0
LINE
  5
1A2
330
1E
100
AcDbEntity
  8
0
100
AcDbLine
 10
90.29999999999999
 20
186.3879999999999
 30
0.0
 11
91.09999999999999
 21
188.3269999999999
 31
0.0
  0
LINE
  5
1A3
330
1E
100
AcDbEntity
  8
0
100
AcDbLine
 10
90.6
 20
188.5309999999999
 30
0.0
 11
92.0
 21
190.367
 31
0.0
  0
LINE
  5
1A4
330
1E
100
AcDbEntity
  8
0
100
AcDbLine
 10
90.79381917249509
 20
188.785180000501
 30
0.0
 11
92.0
 21
190.367
 31
0.0
  0
LINE
  5
1A5
330
1E
100
AcDbEntity
  8
0
100
AcDbLine
 10
89.8
 20
186.49
 30
0.0
 11
90.52965264027809
 21
188.35152629851
 31
0.0
  0
LINE
  5
1A6
330
1E
100
AcDbEntity
  8
0
100
AcDbLine
 10
89.8
 20
186.49
 30
0.0
 11
90.6
 21
188.5309999999999
 31
0.0
  0
LINE
  5
1A7
330
1E
100
AcDbEntity
  8
0
100
AcDbLine
 10
92.70000000000001
 20
185.6729999999999
 30
0.0
 11
93.13163296113179
 21
186.818553878844
 31
0.0
  0
LINE
  5
1A8
330
1E
100
AcDbEntity
  8
0
100
AcDbLine
 10
92.70000000000001
 20
185.6729999999999
 30
0.0
 11
93.2
 21
187.0
 31
0.0
  0
LINE
  5
1A9
330
1E
100
AcDbEntity
  8
0
100
AcDbLine
 10
92.4
 20
189.959
 30
0.0
 11
94.0
 21
191.2859999999999
 31
0.0
  0
LINE
  5
1AA
330
1E
100
AcDbEntity
  8
0
100
AcDbLine
 10
92.0
 20
190.367
 30
0.0
 11
93.8
 21
191.7959999999999
 31
0.0
  0
LINE
  5
1AB
330
1E
100
AcDbEntity
  8
0
100
AcDbLine
 10
91.09999999999999
 20
188.3269999999999
 30
0.0
 11
92.4
 21
189.959
 31
0.0
  0
LINE
  5
1AC
330
1E
100
AcDbEntity
  8
0
100
AcDbLine
 10
90.99661234409049
 20
188.076414168989
 30
0.0
 11
93.13163296113179
 21
186.818553878844
 31
0.0
  0
LINE
  5
1AD
330
1E
100
AcDbEntity
  8
0
100
AcDbLine
 10
92.5
 20
193.939
 30
0.0
 11
95.20000000000001
 21
195.0609999999999
 31
0.0
  0
LINE
  5
1AE
330
1E
100
AcDbEntity
  8
0
100
AcDbLine
 10
92.30824525276442
 20
193.7943502232809
 30
0.0
 11
96.6585
 21
186.1059999999999
 31
0.0
  0
LINE
  5
1AF
330
1E
100
AcDbEntity
  8
0
100
AcDbLine
 10
89.9
 20
192.51
 30
0.0
 11
92.3
 21
194.449
 31
0.0
  0
LINE
  5
1B0
330
1E
100
AcDbEntity
  8
0
100
AcDbLine
 10
90.20000000000001
 20
192.204
 30
0.0
 11
92.30824525276442
 21
193.7943502232809
 31
0.0
  0
LINE
  5
1B1
330
1E
100
AcDbEntity
  8
0
100
AcDbLine
 10
90.20000000000001
 20
192.204
 30
0.0
 11
92.5
 21
193.939
 31
0.0
  0
LINE
  5
1B2
330
1E
100
AcDbEntity
  8
0
100
AcDbLine
 10
89.7451
 20
193.8159999999999
 30
0.0
 11
90.05599999999999
 21
194.113
 31
0.0
  0
LINE
  5
1B4
330
1E
100
AcDbEntity
  8
0
100
AcDbLine
 10
92.3
 20
194.449
 30
0.0
 11
95.0
 21
195.571
 31
0.0
  0
LINE
  5
1B5
330
1E
100
AcDbEntity
  8
0
100
AcDbLine
 10
92.0
 20
194.857
 30
0.0
 11
94.9
 21
196.082
 31
0.0
  0
LINE
  5
1B6
330
1E
100
AcDbEntity
  8
0
100
AcDbLine
 10
90.05599999999999
 20
194.113
 30
0.0
 11
90.4721984250103
 21
193.6720370984379
 31
0.0
  0
LINE
  5
1B7
330
1E
100
AcDbEntity
  8
0
100
AcDbLine
 10
89.12309999999999
 20
193.2229999999999
 30
0.0
 11
89.7451
 21
193.8159999999999
 31
0.0
  0
LINE
  5
1B9
330
1E
100
AcDbEntity
  8
0
100
AcDbLine
 10
92.3127
 20
195.7109999999999
 30
0.0
 11
92.55258556114201
 21
195.090419762896
 31
0.0
  0
LINE
  5
1BA
330
1E
100
AcDbEntity
  8
0
100
AcDbLine
 10
92.3127
 20
195.7109999999999
 30
0.0
 11
92.71219999999999
 21
195.867
 31
0.0
  0
LINE
  5
1BB
330
1E
100
AcDbEntity
  8
0
100
AcDbLine
 10
93.2
 20
185.571
 30
0.0
 11
93.7
 21
186.796
 31
0.0
  0
LINE
  5
1BC
330
1E
100
AcDbEntity
  8
0
100
AcDbLine
 10
93.2
 20
185.571
 30
0.0
 11
93.5972402237609
 21
186.544238548214
 31
0.0
  0
LINE
  5
1BD
330
1E
100
AcDbEntity
  8
0
100
AcDbLine
 10
93.2
 20
187.0
 30
0.0
 11
94.1
 21
188.224
 31
0.0
  0
LINE
  5
1BE
330
1E
100
AcDbEntity
  8
0
100
AcDbLine
 10
93.388575992594
 20
187.256463349928
 30
0.0
 11
94.1
 21
188.224
 31
0.0
  0
LINE
  5
1BF
330
1E
100
AcDbEntity
  8
0
100
AcDbLine
 10
93.8
 20
191.7959999999999
 30
0.0
 11
95.8
 21
192.612
 31
0.0
  0
LINE
  5
1C0
330
1E
100
AcDbEntity
  8
0
100
AcDbLine
 10
94.50000000000001
 20
187.8159999999999
 30
0.0
 11
95.5
 21
188.6329999999999
 31
0.0
  0
LINE
  5
1C1
330
1E
100
AcDbEntity
  8
0
100
AcDbLine
 10
94.1
 20
188.224
 30
0.0
 11
95.048900190802
 21
188.950699396123
 31
0.0
  0
LINE
  5
1C2
330
1E
100
AcDbEntity
  8
0
100
AcDbLine
 10
94.1
 20
188.224
 30
0.0
 11
95.29999999999999
 21
189.1429999999999
 31
0.0
  0
LINE
  5
1C3
330
1E
100
AcDbEntity
  8
0
100
AcDbLine
 10
94.24522454439459
 20
191.39131748854
 30
0.0
 11
95.90000000000001
 21
192.102
 31
0.0
  0
LINE
  5
1C4
330
1E
100
AcDbEntity
  8
0
100
AcDbLine
 10
94.0
 20
191.2859999999999
 30
0.0
 11
95.90000000000001
 21
192.102
 31
0.0
  0
LINE
  5
1C5
330
1E
100
AcDbEntity
  8
0
100
AcDbLine
 10
93.97568694452958
 20
191.867680273368
 30
0.0
 11
95.8
 21
192.612
 31
0.0
  0
LINE
  5
1C6
330
1E
100
AcDbEntity
  8
0
100
AcDbLine
 10
93.7
 20
186.796
 30
0.0
 11
94.50000000000001
 21
187.8159999999999
 31
0.0
  0
LINE
  5
1C7
330
1E
100
AcDbEntity
  8
0
100
AcDbLine
 10
93.5972402237609
 20
186.544238548214
 30
0.0
 11
95.73901859107358
 21
185.2823968886849
 31
0.0
  0
LINE
  5
1C8
330
1E
100
AcDbEntity
  8
0
100
AcDbLine
 10
93.5972402237609
 20
186.544238548214
 30
0.0
 11
95.73901859107358
 21
185.2823968886849
 31
0.0
  0
LINE
  5
1C9
330
1E
100
AcDbEntity
  8
0
100
AcDbLine
 10
92.745871882317
 20
194.0411734266519
 30
0.0
 11
97.09150000000001
 21
186.3609999999999
 31
0.0
  0
LINE
  5
1CA
330
1E
100
AcDbEntity
  8
0
100
AcDbLine
 10
92.745871882317
 20
194.0411734266519
 30
0.0
 11
95.20000000000001
 21
195.0609999999999
 31
0.0
  0
LINE
  5
1CB
330
1E
100
AcDbEntity
  8
0
100
AcDbLine
 10
95.8
 20
185.469
 30
0.0
 11
96.2
 21
186.082
 31
0.0
  0
LINE
  5
1CC
330
1E
100
AcDbEntity
  8
0
100
AcDbLine
 10
96.6
 20
185.6729999999999
 30
0.0
 11
97.0
 21
185.9799999999999
 31
0.0
  0
LINE
  5
1CD
330
1E
100
AcDbEntity
  8
0
100
AcDbLine
 10
96.3
 20
185.2649999999999
 30
0.0
 11
96.6
 21
185.6729999999999
 31
0.0
  0
LINE
  5
1CE
330
1E
100
AcDbEntity
  8
0
100
AcDbLine
 10
97.0
 20
185.9799999999999
 30
0.0
 11
97.5
 21
186.184
 31
0.0
  0
LINE
  5
1CF
330
1E
100
AcDbEntity
  8
0
100
AcDbLine
 10
96.2
 20
186.082
 30
0.0
 11
96.54091078725143
 21
186.3138193353309
 31
0.0
  0
LINE
  5
1D0
330
1E
100
AcDbEntity
  8
0
100
AcDbLine
 10
96.2
 20
186.082
 30
0.0
 11
96.79999999999999
 21
186.49
 31
0.0
  0
LINE
  5
1D1
330
1E
100
AcDbEntity
  8
0
100
AcDbLine
 10
95.97286418079059
 20
185.7339143570619
 30
0.0
 11
96.2
 21
186.082
 31
0.0
  0
LINE
  5
1D2
330
1E
100
AcDbEntity
  8
0
100
AcDbLine
 10
95.92640000000001
 20
185.172
 30
0.0
 11
96.17640000000001
 21
185.614
 31
0.0
  0
LINE
  5
1D3
330
1E
100
AcDbEntity
  8
0
100
AcDbLine
 10
95.5
 20
188.6329999999999
 30
0.0
 11
96.70000000000001
 21
189.1429999999999
 31
0.0
  0
LINE
  5
1D4
330
1E
100
AcDbEntity
  8
0
100
AcDbLine
 10
95.29999999999999
 20
189.1429999999999
 30
0.0
 11
96.6
 21
189.653
 31
0.0
  0
LINE
  5
1D5
330
1E
100
AcDbEntity
  8
0
100
AcDbLine
 10
96.79999999999999
 20
186.49
 30
0.0
 11
97.40000000000001
 21
186.694
 31
0.0
  0
LINE
  5
1D6
330
1E
100
AcDbEntity
  8
0
100
AcDbLine
 10
96.98325419171149
 20
186.5523064251819
 30
0.0
 11
97.40000000000001
 21
186.694
 31
0.0
  0
LINE
  5
1D7
330
1E
100
AcDbEntity
  8
0
100
AcDbLine
 10
96.70000000000001
 20
189.1429999999999
 30
0.0
 11
98.0
 21
189.347
 31
0.0
  0
LINE
  5
1D8
330
1E
100
AcDbEntity
  8
0
100
AcDbLine
 10
96.6
 20
189.653
 30
0.0
 11
97.75
 21
189.820571428572
 31
0.0
  0
LINE
  5
1D9
330
1E
100
AcDbEntity
  8
0
100
AcDbLine
 10
96.6
 20
189.653
 30
0.0
 11
98.0
 21
189.857
 31
0.0
  0
LINE
  5
1DA
330
1E
100
AcDbEntity
  8
0
100
AcDbLine
 10
95.90000000000001
 20
192.102
 30
0.0
 11
98.0
 21
192.408
 31
0.0
  0
LINE
  5
1DB
330
1E
100
AcDbEntity
  8
0
100
AcDbLine
 10
95.8
 20
192.612
 30
0.0
 11
97.75
 21
192.883227272727
 31
0.0
  0
LINE
  5
1DC
330
1E
100
AcDbEntity
  8
0
100
AcDbLine
 10
95.8
 20
192.612
 30
0.0
 11
98.0
 21
192.918
 31
0.0
  0
LINE
  5
1DD
330
1E
100
AcDbEntity
  8
0
100
AcDbLine
 10
95.20000000000001
 20
195.0609999999999
 30
0.0
 11
98.0
 21
195.469
 31
0.0
  0
LINE
  5
1DE
330
1E
100
AcDbEntity
  8
0
100
AcDbLine
 10
96.6585
 20
186.1059999999999
 30
0.0
 11
97.09150000000001
 21
186.3609999999999
 31
0.0
  0
LINE
  5
1DF
330
1E
100
AcDbEntity
  8
0
100
AcDbLine
 10
95.0
 20
195.571
 30
0.0
 11
98.0
 21
195.9799999999999
 31
0.0
  0
LINE
  5
1E0
330
1E
100
AcDbEntity
  8
0
100
AcDbLine
 10
94.9
 20
196.082
 30
0.0
 11
98.0
 21
196.49
 31
0.0
  0
LINE
  5
1E1
330
1E
100
AcDbEntity
  8
0
100
AcDbLine
 10
92.71219999999999
 20
195.867
 30
0.0
 11
93.51119999999999
 21
196.18
 31
0.0
  0
LINE
  5
1E3
330
1E
100
AcDbEntity
  8
0
100
AcDbLine
 10
93.9107
 20
196.3359999999999
 30
0.0
 11
94.13390338034959
 21
195.75839022101
 31
0.0
  0
LINE
  5
1E4
330
1E
100
AcDbEntity
  8
0
100
AcDbLine
 10
93.51119999999999
 20
196.18
 30
0.0
 11
93.9107
 21
196.3359999999999
 31
0.0
  0
LINE
  5
1E6
330
1E
100
AcDbEntity
  8
0
100
AcDbLine
 10
98.0
 20
186.2859999999999
 30
0.0
 11
98.50000000000001
 21
186.184
 31
0.0
  0
LINE
  5
1E7
330
1E
100
AcDbEntity
  8
0
100
AcDbLine
 10
97.5
 20
186.184
 30
0.0
 11
98.0
 21
186.2859999999999
 31
0.0
  0
LINE
  5
1E8
330
1E
100
AcDbEntity
  8
0
100
AcDbLine
 10
99.7
 20
185.2649999999999
 30
0.0
 11
99.90000000000001
 21
184.755
 31
0.0
  0
LINE
  5
1E9
330
1E
100
AcDbEntity
  8
0
100
AcDbLine
 10
99.40000000000001
 20
185.6729999999999
 30
0.0
 11
99.7
 21
185.2649999999999
 31
0.0
  0
LINE
  5
1EA
330
1E
100
AcDbEntity
  8
0
100
AcDbLine
 10
99.8
 20
186.082
 30
0.0
 11
100.2
 21
185.469
 31
0.0
  0
LINE
  5
1EB
330
1E
100
AcDbEntity
  8
0
100
AcDbLine
 10
99.0
 20
185.9799999999999
 30
0.0
 11
99.40000000000001
 21
185.6729999999999
 31
0.0
  0
LINE
  5
1EC
330
1E
100
AcDbEntity
  8
0
100
AcDbLine
 10
100.027137269472
 20
185.733912134534
 30
0.0
 11
102.1514336683219
 21
186.9854220728899
 31
0.0
  0
LINE
  5
1ED
330
1E
100
AcDbEntity
  8
0
100
AcDbLine
 10
99.82359999999999
 20
185.614
 30
0.0
 11
100.0739999999999
 21
185.172
 31
0.0
  0
LINE
  5
1EE
330
1E
100
AcDbEntity
  8
0
100
AcDbLine
 10
99.82359999999999
 20
185.614
 30
0.0
 11
107.358111776307
 21
190.052889212358
 31
0.0
  0
LINE
  5
1EF
330
1E
100
AcDbEntity
  8
0
100
AcDbLine
 10
100.2
 20
185.469
 30
0.0
 11
100.4
 21
184.857
 31
0.0
  0
LINE
  5
1F0
330
1E
100
AcDbEntity
  8
0
100
AcDbLine
 10
100.0739999999999
 20
185.172
 30
0.0
 11
107.60014329842
 21
189.606186557139
 31
0.0
  0
LINE
  5
1F1
330
1E
100
AcDbEntity
  8
0
100
AcDbLine
 10
100.0739999999999
 20
185.172
 30
0.0
 11
107.60014329842
 21
189.606186557139
 31
0.0
  0
LINE
  5
1F2
330
1E
100
AcDbEntity
  8
0
100
AcDbLine
 10
98.50000000000001
 20
186.184
 30
0.0
 11
99.0
 21
185.9799999999999
 31
0.0
  0
LINE
  5
1F3
330
1E
100
AcDbEntity
  8
0
100
AcDbLine
 10
99.20000000000001
 20
186.49
 30
0.0
 11
99.8
 21
186.082
 31
0.0
  0
LINE
  5
1F4
330
1E
100
AcDbEntity
  8
0
100
AcDbLine
 10
98.9085
 20
186.3609999999999
 30
0.0
 11
99.3415
 21
186.1059999999999
 31
0.0
  0
LINE
  5
1F5
330
1E
100
AcDbEntity
  8
0
100
AcDbLine
 10
98.9085
 20
186.3609999999999
 30
0.0
 11
103.254519037513
 21
194.041010977745
 31
0.0
  0
LINE
  5
1F6
330
1E
100
AcDbEntity
  8
0
100
AcDbLine
 10
99.3415
 20
186.1059999999999
 30
0.0
 11
103.691415969461
 21
193.7946057795589
 31
0.0
  0
LINE
  5
1F7
330
1E
100
AcDbEntity
  8
0
100
AcDbLine
 10
98.25000000000001
 20
186.5409999999999
 30
0.0
 11
98.25000000000001
 21
195.432571428571
 31
0.0
  0
LINE
  5
1F8
330
1E
100
AcDbEntity
  8
0
100
AcDbLine
 10
97.40000000000001
 20
186.694
 30
0.0
 11
97.75
 21
186.7535
 31
0.0
  0
LINE
  5
1F9
330
1E
100
AcDbEntity
  8
0
100
AcDbLine
 10
97.40000000000001
 20
186.694
 30
0.0
 11
98.0
 21
186.796
 31
0.0
  0
LINE
  5
1FA
330
1E
100
AcDbEntity
  8
0
100
AcDbLine
 10
97.75
 20
189.820571428572
 30
0.0
 11
97.75
 21
192.371571428571
 31
0.0
  0
LINE
  5
1FB
330
1E
100
AcDbEntity
  8
0
100
AcDbLine
 10
97.75
 20
186.7535
 30
0.0
 11
97.75
 21
189.307769230769
 31
0.0
  0
LINE
  5
1FC
330
1E
100
AcDbEntity
  8
0
100
AcDbLine
 10
97.75
 20
189.307769230769
 30
0.0
 11
97.75
 21
186.7535
 31
0.0
  0
LINE
  5
1FD
330
1E
100
AcDbEntity
  8
0
100
AcDbLine
 10
97.75
 20
192.883227272727
 30
0.0
 11
97.75
 21
195.432571428571
 31
0.0
  0
LINE
  5
1FE
330
1E
100
AcDbEntity
  8
0
100
AcDbLine
 10
97.75
 20
192.371571428571
 30
0.0
 11
97.75
 21
189.820571428572
 31
0.0
  0
LINE
  5
1FF
330
1E
100
AcDbEntity
  8
0
100
AcDbLine
 10
98.0
 20
186.796
 30
0.0
 11
98.59999999999999
 21
186.694
 31
0.0
  0
LINE
  5
200
330
1E
100
AcDbEntity
  8
0
100
AcDbLine
 10
98.0
 20
189.347
 30
0.0
 11
99.29999999999999
 21
189.1429999999999
 31
0.0
  0
LINE
  5
201
330
1E
100
AcDbEntity
  8
0
100
AcDbLine
 10
98.0
 20
189.857
 30
0.0
 11
99.40000000000001
 21
189.653
 31
0.0
  0
LINE
  5
202
330
1E
100
AcDbEntity
  8
0
100
AcDbLine
 10
98.59999999999999
 20
186.694
 30
0.0
 11
99.016755894917
 21
186.5523029957279
 31
0.0
  0
LINE
  5
203
330
1E
100
AcDbEntity
  8
0
100
AcDbLine
 10
98.59999999999999
 20
186.694
 30
0.0
 11
99.20000000000001
 21
186.49
 31
0.0
  0
LINE
  5
204
330
1E
100
AcDbEntity
  8
0
100
AcDbLine
 10
98.25000000000001
 20
189.307769230769
 30
0.0
 11
99.29999999999999
 21
189.1429999999999
 31
0.0
  0
LINE
  5
205
330
1E
100
AcDbEntity
  8
0
100
AcDbLine
 10
99.29999999999999
 20
189.1429999999999
 30
0.0
 11
100.5
 21
188.6329999999999
 31
0.0
  0
LINE
  5
206
330
1E
100
AcDbEntity
  8
0
100
AcDbLine
 10
99.29999999999999
 20
189.1429999999999
 30
0.0
 11
100.253483238033
 21
188.7377696238359
 31
0.0
  0
LINE
  5
207
330
1E
100
AcDbEntity
  8
0
100
AcDbLine
 10
99.40000000000001
 20
189.653
 30
0.0
 11
100.7
 21
189.1429999999999
 31
0.0
  0
LINE
  5
208
330
1E
100
AcDbEntity
  8
0
100
AcDbLine
 10
98.25000000000001
 20
192.371571428571
 30
0.0
 11
100.0999999999999
 21
192.102
 31
0.0
  0
LINE
  5
209
330
1E
100
AcDbEntity
  8
0
100
AcDbLine
 10
100.0999999999999
 20
192.102
 30
0.0
 11
102.0
 21
191.2859999999999
 31
0.0
  0
LINE
  5
20A
330
1E
100
AcDbEntity
  8
0
100
AcDbLine
 10
100.0999999999999
 20
192.102
 30
0.0
 11
101.75502987578
 21
191.3912082217699
 31
0.0
  0
LINE
  5
20B
330
1E
100
AcDbEntity
  8
0
100
AcDbLine
 10
98.0
 20
192.408
 30
0.0
 11
100.0999999999999
 21
192.102
 31
0.0
  0
LINE
  5
20C
330
1E
100
AcDbEntity
  8
0
100
AcDbLine
 10
98.0
 20
192.918
 30
0.0
 11
100.2
 21
192.612
 31
0.0
  0
LINE
  5
20D
330
1E
100
AcDbEntity
  8
0
100
AcDbLine
 10
100.5
 20
188.6329999999999
 30
0.0
 11
101.5
 21
187.8159999999999
 31
0.0
  0
LINE
  5
20E
330
1E
100
AcDbEntity
  8
0
100
AcDbLine
 10
100.2
 20
192.612
 30
0.0
 11
102.0245943183939
 21
191.867565518095
 31
0.0
  0
LINE
  5
20F
330
1E
100
AcDbEntity
  8
0
100
AcDbLine
 10
100.2
 20
192.612
 30
0.0
 11
102.2
 21
191.7959999999999
 31
0.0
  0
LINE
  5
210
330
1E
100
AcDbEntity
  8
0
100
AcDbLine
 10
99.016755894917
 20
186.5523029957279
 30
0.0
 11
100.253483238033
 21
188.7377696238359
 31
0.0
  0
LINE
  5
211
330
1E
100
AcDbEntity
  8
0
100
AcDbLine
 10
100.6854561037719
 20
188.4814823632179
 30
0.0
 11
101.5
 21
187.8159999999999
 31
0.0
  0
LINE
  5
212
330
1E
100
AcDbEntity
  8
0
100
AcDbLine
 10
100.7
 20
189.1429999999999
 30
0.0
 11
101.9
 21
188.224
 31
0.0
  0
LINE
  5
213
330
1E
100
AcDbEntity
  8
0
100
AcDbLine
 10
100.8
 20
195.0609999999999
 30
0.0
 11
103.4999999999999
 21
193.939
 31
0.0
  0
LINE
  5
214
330
1E
100
AcDbEntity
  8
0
100
AcDbLine
 10
100.8
 20
195.0609999999999
 30
0.0
 11
103.254519037513
 21
194.041010977745
 31
0.0
  0
LINE
  5
215
330
1E
100
AcDbEntity
  8
0
100
AcDbLine
 10
100.5222571236459
 20
189.212729897647
 30
0.0
 11
101.75502987578
 21
191.3912082217699
 31
0.0
  0
LINE
  5
216
330
1E
100
AcDbEntity
  8
0
100
AcDbLine
 10
98.0
 20
195.469
 30
0.0
 11
100.8
 21
195.0609999999999
 31
0.0
  0
LINE
  5
217
330
1E
100
AcDbEntity
  8
0
100
AcDbLine
 10
98.25000000000001
 20
195.432571428571
 30
0.0
 11
98.25000000000001
 21
186.5409999999999
 31
0.0
  0
LINE
  5
218
330
1E
100
AcDbEntity
  8
0
100
AcDbLine
 10
98.25000000000001
 20
195.432571428571
 30
0.0
 11
100.8
 21
195.0609999999999
 31
0.0
  0
LINE
  5
219
330
1E
100
AcDbEntity
  8
0
100
AcDbLine
 10
97.75
 20
195.432571428571
 30
0.0
 11
97.75
 21
192.883227272727
 31
0.0
  0
LINE
  5
21A
330
1E
100
AcDbEntity
  8
0
100
AcDbLine
 10
97.75
 20
195.432571428571
 30
0.0
 11
97.75
 21
186.5409999999999
 31
0.0
  0
LINE
  5
21B
330
1E
100
AcDbEntity
  8
0
100
AcDbLine
 10
97.75
 20
186.5409999999999
 30
0.0
 11
97.75
 21
195.432571428571
 31
0.0
  0
LINE
  5
21C
330
1E
100
AcDbEntity
  8
0
100
AcDbLine
 10
97.75
 20
186.5409999999999
 30
0.0
 11
98.25000000000001
 21
186.5409999999999
 31
0.0
  0
LINE
  5
21D
330
1E
100
AcDbEntity
  8
0
100
AcDbLine
 10
101.5
 20
187.8159999999999
 30
0.0
 11
102.2999999999999
 21
186.796
 31
0.0
  0
LINE
  5
21E
330
1E
100
AcDbEntity
  8
0
100
AcDbLine
 10
101.5
 20
187.8159999999999
 30
0.0
 11
102.1514336683219
 21
186.9854220728899
 31
0.0
  0
LINE
  5
21F
330
1E
100
AcDbEntity
  8
0
100
AcDbLine
 10
101.9
 20
188.224
 30
0.0
 11
102.8
 21
187.0
 31
0.0
  0
LINE
  5
220
330
1E
100
AcDbEntity
  8
0
100
AcDbLine
 10
102.402825733621
 20
186.544076952629
 30
0.0
 11
102.8
 21
185.571
 31
0.0
  0
LINE
  5
221
330
1E
100
AcDbEntity
  8
0
100
AcDbLine
 10
102.2999999999999
 20
186.796
 30
0.0
 11
102.8
 21
185.571
 31
0.0
  0
LINE
  5
222
330
1E
100
AcDbEntity
  8
0
100
AcDbLine
 10
102.185229061337
 20
191.1323756472529
 30
0.0
 11
103.6
 21
189.959
 31
0.0
  0
LINE
  5
223
330
1E
100
AcDbEntity
  8
0
100
AcDbLine
 10
102.0
 20
191.2859999999999
 30
0.0
 11
103.6
 21
189.959
 31
0.0
  0
LINE
  5
224
330
1E
100
AcDbEntity
  8
0
100
AcDbLine
 10
102.2
 20
191.7959999999999
 30
0.0
 11
104.0
 21
190.367
 31
0.0
  0
LINE
  5
225
330
1E
100
AcDbEntity
  8
0
100
AcDbLine
 10
102.8
 20
185.571
 30
0.0
 11
103.0
 21
184.245
 31
0.0
  0
LINE
  5
226
330
1E
100
AcDbEntity
  8
0
100
AcDbLine
 10
102.8
 20
185.571
 30
0.0
 11
102.9615384615379
 21
184.4999999999999
 31
0.0
  0
LINE
  5
227
330
1E
100
AcDbEntity
  8
0
100
AcDbLine
 10
102.8
 20
187.0
 30
0.0
 11
103.2999999999999
 21
185.6729999999999
 31
0.0
  0
LINE
  5
228
330
1E
100
AcDbEntity
  8
0
100
AcDbLine
 10
102.6114456295999
 20
187.256433943744
 30
0.0
 11
104.749438259719
 21
188.516012892414
 31
0.0
  0
LINE
  5
229
330
1E
100
AcDbEntity
  8
0
100
AcDbLine
 10
102.0245943183939
 20
191.867565518095
 30
0.0
 11
103.254519037513
 21
194.041010977745
 31
0.0
  0
LINE
  5
22A
330
1E
100
AcDbEntity
  8
0
100
AcDbLine
 10
101.0
 20
195.571
 30
0.0
 11
103.7
 21
194.449
 31
0.0
  0
LINE
  5
22C
330
1E
100
AcDbEntity
  8
0
100
AcDbLine
 10
103.2999999999999
 20
185.6729999999999
 30
0.0
 11
103.4999999999999
 21
184.245
 31
0.0
  0
LINE
  5
22E
330
1E
100
AcDbEntity
  8
0
100
AcDbLine
 10
98.0
 20
195.9799999999999
 30
0.0
 11
101.0
 21
195.571
 31
0.0
  0
LINE
  5
22F
330
1E
100
AcDbEntity
  8
0
100
AcDbLine
 10
101.0999999999999
 20
196.082
 30
0.0
 11
104.0
 21
194.857
 31
0.0
  0
LINE
  5
230
330
1E
100
AcDbEntity
  8
0
100
AcDbLine
 10
102.4889999999999
 20
196.18
 30
0.0
 11
103.288
 21
195.867
 31
0.0
  0
LINE
  5
231
330
1E
100
AcDbEntity
  8
0
100
AcDbLine
 10
103.288
 20
195.867
 30
0.0
 11
103.687
 21
195.7109999999999
 31
0.0
  0
LINE
  5
232
330
1E
100
AcDbEntity
  8
0
100
AcDbLine
 10
101.8660242204949
 20
195.758420803412
 30
0.0
 11
102.089
 21
196.3359999999999
 31
0.0
  0
LINE
  5
233
330
1E
100
AcDbEntity
  8
0
100
AcDbLine
 10
105.003441138548
 20
188.076284540443
 30
0.0
 11
105.6999999999999
 21
186.3879999999999
 31
0.0
  0
LINE
  5
234
330
1E
100
AcDbEntity
  8
0
100
AcDbLine
 10
104.9
 20
188.3269999999999
 30
0.0
 11
105.6999999999999
 21
186.3879999999999
 31
0.0
  0
LINE
  5
235
330
1E
100
AcDbEntity
  8
0
100
AcDbLine
 10
105.4
 20
188.5309999999999
 30
0.0
 11
106.2
 21
186.49
 31
0.0
  0
LINE
  5
236
330
1E
100
AcDbEntity
  8
0
100
AcDbLine
 10
103.6
 20
189.959
 30
0.0
 11
104.9
 21
188.3269999999999
 31
0.0
  0
LINE
  5
237
330
1E
100
AcDbEntity
  8
0
100
AcDbLine
 10
104.0
 20
190.367
 30
0.0
 11
105.4
 21
188.5309999999999
 31
0.0
  0
LINE
  5
238
330
1E
100
AcDbEntity
  8
0
100
AcDbLine
 10
103.4999999999999
 20
193.939
 30
0.0
 11
105.8
 21
192.204
 31
0.0
  0
LINE
  5
239
330
1E
100
AcDbEntity
  8
0
100
AcDbLine
 10
105.2062236413709
 20
188.7851238531739
 30
0.0
 11
107.358111776307
 21
190.052889212358
 31
0.0
  0
LINE
  5
23A
330
1E
100
AcDbEntity
  8
0
100
AcDbLine
 10
105.6999999999999
 20
186.3879999999999
 30
0.0
 11
106.0
 21
184.245
 31
0.0
  0
LINE
  5
23B
330
1E
100
AcDbEntity
  8
0
100
AcDbLine
 10
105.6999999999999
 20
186.3879999999999
 30
0.0
 11
105.964302379841
 21
184.4999999999999
 31
0.0
  0
LINE
  5
23C
330
1E
100
AcDbEntity
  8
0
100
AcDbLine
 10
106.2
 20
186.49
 30
0.0
 11
106.4999999999999
 21
184.245
 31
0.0
  0
LINE
  5
23D
330
1E
100
AcDbEntity
  8
0
100
AcDbLine
 10
107.60014329842
 20
189.606186557139
 30
0.0
 11
108.6
 21
187.102
 31
0.0
  0
LINE
  5
23E
330
1E
100
AcDbEntity
  8
0
100
AcDbLine
 10
107.4999999999999
 20
189.857
 30
0.0
 11
108.6
 21
187.102
 31
0.0
  0
LINE
  5
23F
330
1E
100
AcDbEntity
  8
0
100
AcDbLine
 10
108.6
 20
187.102
 30
0.0
 11
109.0
 21
184.245
 31
0.0
  0
LINE
  5
240
330
1E
100
AcDbEntity
  8
0
100
AcDbLine
 10
108.6
 20
187.102
 30
0.0
 11
108.964298214911
 21
184.4999999999999
 31
0.0
  0
LINE
  5
241
330
1E
100
AcDbEntity
  8
0
100
AcDbLine
 10
108.0
 20
190.0609999999999
 30
0.0
 11
109.0999999999999
 21
187.3059999999999
 31
0.0
  0
LINE
  5
242
330
1E
100
AcDbEntity
  8
0
100
AcDbLine
 10
109.0999999999999
 20
187.3059999999999
 30
0.0
 11
109.4999999999999
 21
184.245
 31
0.0
  0
LINE
  5
243
330
1E
100
AcDbEntity
  8
0
100
AcDbLine
 10
105.8
 20
192.204
 30
0.0
 11
107.4999999999999
 21
189.857
 31
0.0
  0
LINE
  5
244
330
1E
100
AcDbEntity
  8
0
100
AcDbLine
 10
106.0999999999999
 20
192.51
 30
0.0
 11
108.0
 21
190.0609999999999
 31
0.0
  0
LINE
  5
245
330
1E
100
AcDbEntity
  8
0
100
AcDbLine
 10
108.4
 20
190.367
 30
0.0
 11
109.5999999999999
 21
187.408
 31
0.0
  0
LINE
  5
246
330
1E
100
AcDbEntity
  8
0
100
AcDbLine
 10
109.5999999999999
 20
187.408
 30
0.0
 11
110.0
 21
184.245
 31
0.0
  0
LINE
  5
247
330
1E
100
AcDbEntity
  8
0
100
AcDbLine
 10
106.4999999999999
 20
192.918
 30
0.0
 11
108.4
 21
190.367
 31
0.0
  0
LINE
  5
24A
330
1E
100
AcDbEntity
  8
0
100
AcDbLine
 10
106.2549999999999
 20
193.8159999999999
 30
0.0
 11
106.877
 21
193.2229999999999
 31
0.0
  0
LINE
  5
24B
330
1E
100
AcDbEntity
  8
0
100
AcDbLine
 10
106.877
 20
193.2229999999999
 30
0.0
 11
107.1879999999999
 21
192.927
 31
0.0
  0
LINE
  5
24C
330
1E
100
AcDbEntity
  8
0
100
AcDbLine
 10
106.799952198746
 20
192.5152747057889
 30
0.0
 11
107.1879999999999
 21
192.927
 31
0.0
  0
LINE
  5
24D
330
1E
100
AcDbEntity
  8
0
100
AcDbLine
 10
105.5277608433
 20
193.672068689937
 30
0.0
 11
105.9439999999999
 21
194.113
 31
0.0
  0
LINE
  5
24E
330
1E
100
AcDbEntity
  8
0
100
AcDbLine
 10
103.7
 20
194.449
 30
0.0
 11
106.0999999999999
 21
192.51
 31
0.0
  0
LINE
  5
24F
330
1E
100
AcDbEntity
  8
0
100
AcDbLine
 10
104.0
 20
194.857
 30
0.0
 11
106.4999999999999
 21
192.918
 31
0.0
  0
LINE
  5
250
330
1E
100
AcDbEntity
  8
0
100
AcDbLine
 10
105.9439999999999
 20
194.113
 30
0.0
 11
106.2549999999999
 21
193.8159999999999
 31
0.0
  0
LINE
  5
251
330
1E
100
AcDbEntity
  8
0
100
AcDbLine
 10
103.447422289501
 20
195.0904164466759
 30
0.0
 11
103.687
 21
195.7109999999999
 31
0.0
  0
LINE
  5
252
330
1E
100
AcDbEntity
  8
0
100
AcDbLine
 10
98.0
 20
196.49
 30
0.0
 11
101.0999999999999
 21
196.082
 31
0.0
  0
LINE
  5
255
330
1E
100
AcDbEntity
  8
0
100
AcDbLine
 10
97.57139999999999
 20
197.0
 30
0.0
 11
98.42860000000001
 21
197.0
 31
0.0
  0
LINE
  5
257
330
1E
100
AcDbEntity
  8
0
100
AcDbLine
 10
98.85710000000001
 20
197.0
 30
0.0
 11
98.85710000000001
 21
196.3771945806449
 31
0.0
  0
LINE
  5
258
330
1E
100
AcDbEntity
  8
0
100
AcDbLine
 10
98.85710000000001
 20
196.3771945806449
 30
0.0
 11
98.85710000000001
 21
197.0
 31
0.0
  0
LINE
  5
259
330
1E
100
AcDbEntity
  8
0
100
AcDbLine
 10
98.42860000000001
 20
197.0
 30
0.0
 11
98.85710000000001
 21
197.0
 31
0.0
  0
LINE
  5
25B
330
1E
100
AcDbEntity
  8
0
100
AcDbLine
 10
102.089
 20
196.3359999999999
 30
0.0
 11
102.4889999999999
 21
196.18
 31
0.0
  0
LINE
  5
25C
330
1E
100
AcDbEntity
  8
0
100
AcDbLine
 10
97.1429
 20
196.3771945806449
 30
0.0
 11
97.1429
 21
197.0
 31
0.0
  0
LINE
  5
25D
330
1E
100
AcDbEntity
  8
0
100
AcDbLine
 10
97.1429
 20
197.0
 30
0.0
 11
97.1429
 21
196.3771945806449
 31
0.0
  0
LINE
  5
25E
330
1E
100
AcDbEntity
  8
0
100
AcDbLine
 10
97.1429
 20
197.0
 30
0.0
 11
97.57139999999999
 21
197.0
 31
0.0
  0
LINE
  5
25F
330
1E
100
AcDbEntity
  8
0
100
AcDbLine
 10
109.904521024344
 20
185.0
 30
0.0
 11
119.0
 21
185.0
 31
0.0
  0
LINE
  5
260
330
1E
100
AcDbEntity
  8
0
100
AcDbLine
 10
77.24384915474641
 20
258.6999999999999
 30
0.0
 11
119.0
 21
258.6999999999999
 31
0.0
  0
LINE
  5
261
330
1E
100
AcDbEntity
  8
0
100
AcDbLine
 10
42.92
 20
259.0
 30
0.0
 11
43.54999999999999
 21
259.0
 31
0.0
  0
LINE
  5
262
330
1E
100
AcDbEntity
  8
0
100
AcDbLine
 10
43.54999999999999
 20
259.0
 30
0.0
 11
45.22999999999999
 21
259.0
 31
0.0
  0
LINE
  5
263
330
1E
100
AcDbEntity
  8
0
100
AcDbLine
 10
45.22999999999999
 20
259.0
 30
0.0
 11
47.96
 21
259.0
 31
0.0
  0
LINE
  5
264
330
1E
100
AcDbEntity
  8
0
100
AcDbLine
 10
47.96
 20
259.0
 30
0.0
 11
51.53
 21
259.0
 31
0.0
  0
LINE
  5
265
330
1E
100
AcDbEntity
  8
0
100
AcDbLine
 10
51.53
 20
259.0
 30
0.0
 11
55.59000000000001
 21
259.0
 31
0.0
  0
LINE
  5
266
330
1E
100
AcDbEntity
  8
0
100
AcDbLine
 10
55.59000000000001
 20
259.0
 30
0.0
 11
60.0
 21
259.0
 31
0.0
  0
LINE
  5
267
330
1E
100
AcDbEntity
  8
0
100
AcDbLine
 10
76.45
 20
259.0
 30
0.0
 11
77.08
 21
259.0
 31
0.0
  0
LINE
  5
268
330
1E
100
AcDbEntity
  8
0
100
AcDbLine
 10
74.77
 20
259.0
 30
0.0
 11
76.45
 21
259.0
 31
0.0
  0
LINE
  5
269
330
1E
100
AcDbEntity
  8
0
100
AcDbLine
 10
72.04
 20
259.0
 30
0.0
 11
74.77
 21
259.0
 31
0.0
  0
LINE
  5
26A
330
1E
100
AcDbEntity
  8
0
100
AcDbLine
 10
68.47
 20
259.0
 30
0.0
 11
72.04
 21
259.0
 31
0.0
  0
LINE
  5
26B
330
1E
100
AcDbEntity
  8
0
100
AcDbLine
 10
64.40999999999999
 20
259.0
 30
0.0
 11
68.47
 21
259.0
 31
0.0
  0
LINE
  5
26C
330
1E
100
AcDbEntity
  8
0
100
AcDbLine
 10
60.0
 20
259.0
 30
0.0
 11
64.40999999999999
 21
259.0
 31
0.0
  0
LINE
  5
26D
330
1E
100
AcDbEntity
  8
0
100
AcDbLine
 10
77.08
 20
259.0
 30
0.0
 11
119.0
 21
259.0
 31
0.0
  0
LINE
  5
26E
330
1E
100
AcDbEntity
  8
0
100
AcDbLine
 10
77.08
 20
259.0
 30
0.0
 11
77.5
 21
258.231
 31
0.0
  0
LINE
  5
26F
330
1E
100
AcDbEntity
  8
0
100
AcDbLine
 10
119.0
 20
258.6999999999999
 30
0.0
 11
119.5
 21
258.4999999999999
 31
0.0
  0
LINE
  5
270
330
1E
100
AcDbEntity
  8
0
100
AcDbLine
 10
119.5
 20
184.4999999999999
 30
0.0
 11
119.7
 21
185.0
 31
0.0
  0
LINE
  5
271
330
1E
100
AcDbEntity
  8
0
100
AcDbLine
 10
119.5
 20
184.4999999999999
 30
0.0
 11
119.7
 21
184.3
 31
0.0
  0
LINE
  5
272
330
1E
100
AcDbEntity
  8
0
100
AcDbLine
 10
119.7
 20
258.0
 30
0.0
 11
119.7
 21
185.0
 31
0.0
  0
LINE
  5
273
330
1E
100
AcDbEntity
  8
0
100
AcDbLine
 10
119.7
 20
258.6999999999999
 30
0.0
 11
120.0
 21
258.0
 31
0.0
  0
LINE
  5
274
330
1E
100
AcDbEntity
  8
0
100
AcDbLine
 10
119.5
 20
258.4999999999999
 30
0.0
 11
119.7
 21
258.0
 31
0.0
  0
LINE
  5
275
330
1E
100
AcDbEntity
  8
0
100
AcDbLine
 10
119.5
 20
258.4999999999999
 30
0.0
 11
119.7
 21
258.6999999999999
 31
0.0
  0
LINE
  5
276
330
1E
100
AcDbEntity
  8
0
100
AcDbLine
 10
120.0
 20
258.0
 30
0.0
 11
120.0
 21
185.0
 31
0.0
  0
LINE
  5
277
330
1E
100
AcDbEntity
  8
0
100
AcDbLine
 10
120.0
 20
185.0
 30
0.0
 11
120.0
 21
258.0
 31
0.0
  0
LINE
  5
278
330
1E
100
AcDbEntity
  8
0
100
AcDbLine
 10
119.7
 20
185.0
 30
0.0
 11
119.7
 21
258.0
 31
0.0
  0
LINE
  5
279
330
1E
100
AcDbEntity
  8
0
100
AcDbLine
 10
119.7
 20
259.2999999999999
 30
0.0
 11
120.0
 21
260.0
 31
0.0
  0
LINE
  5
27A
330
1E
100
AcDbEntity
  8
0
100
AcDbLine
 10
119.0
 20
259.0
 30
0.0
 11
119.7
 21
259.2999999999999
 31
0.0
  0
LINE
  5
27B
330
1E
100
AcDbEntity
  8
0
100
AcDbLine
 10
119.0
 20
259.0
 30
0.0
 11
119.7
 21
258.6999999999999
 31
0.0
  0
LINE
  5
27C
330
1E
100
AcDbEntity
  8
0
100
AcDbLine
 10
119.5
 20
259.5
 30
0.0
 11
119.7
 21
260.0
 31
0.0
  0
LINE
  5
27D
330
1E
100
AcDbEntity
  8
0
100
AcDbLine
 10
119.5
 20
259.5
 30
0.0
 11
119.7
 21
259.2999999999999
 31
0.0
  0
LINE
  5
27E
330
1E
100
AcDbEntity
  8
0
100
AcDbLine
 10
119.0
 20
259.2999999999999
 30
0.0
 11
119.5
 21
259.5
 31
0.0
  0
LINE
  5
27F
330
1E
100
AcDbEntity
  8
0
100
AcDbLine
 10
1.0
 20
259.2999999999999
 30
0.0
 11
119.0
 21
259.2999999999999
 31
0.0
  0
LINE
  5
280
330
1E
100
AcDbEntity
  8
0
100
AcDbLine
 10
119.7
 20
279.0
 30
0.0
 11
119.7
 21
260.0
 31
0.0
  0
LINE
  5
281
330
1E
100
AcDbEntity
  8
0
100
AcDbLine
 10
0.5
 20
279.4999999999999
 30
0.0
 11
1.0
 21
279.7
 31
0.0
  0
LINE
  5
282
330
1E
100
AcDbEntity
  8
0
100
AcDbLine
 10
1.0
 20
279.7
 30
0.0
 11
119.0
 21
279.7
 31
0.0
  0
LINE
  5
285
330
1E
100
AcDbEntity
  8
0
100
AcDbLine
 10
1.0
 20
280.0
 30
0.0
 11
119.0
 21
280.0
 31
0.0
  0
LINE
  5
3FE
330
1E
100
AcDbEntity
  8
0
100
AcDbLine
 10
0.999999999999996
 20
280.0
 30
0.0
 11
119.0
 21
280.0
 31
0.0
  0
LINE
  5
3FF
330
1E
100
AcDbEntity
  8
0
100
AcDbLine
 10
119.0
 20
280.0
 30
0.0
 11
119.7
 21
279.7
 31
0.0
  0
LINE
  5
400
330
1E
100
AcDbEntity
  8
0
100
AcDbLine
 10
0.999999999999996
 20
279.7
 30
0.0
 11
119.0
 21
279.7
 31
0.0
  0
LINE
  5
401
330
1E
100
AcDbEntity
  8
0
100
AcDbLine
 10
119.7
 20
279.7
 30
0.0
 11
120.0
 21
279.0
 31
0.0
  0
LINE
  5
402
330
1E
100
AcDbEntity
  8
0
100
AcDbLine
 10
119.0
 20
279.7
 30
0.0
 11
119.5
 21
279.4999999999999
 31
0.0
  0
LINE
  5
403
330
1E
100
AcDbEntity
  8
0
100
AcDbLine
 10
119.5
 20
279.4999999999999
 30
0.0
 11
119.7
 21
279.0
 31
0.0
  0
LINE
  5
404
330
1E
100
AcDbEntity
  8
0
100
AcDbLine
 10
119.5
 20
279.4999999999999
 30
0.0
 11
119.7
 21
279.7
 31
0.0
  0
LINE
  5
405
330
1E
100
AcDbEntity
  8
0
100
AcDbLine
 10
120.0
 20
279.0
 30
0.0
 11
120.0
 21
260.0
 31
0.0
  0
LINE
  5
406
330
1E
100
AcDbEntity
  8
0
100
AcDbLine
 10
120.0
 20
260.0
 30
0.0
 11
120.0
 21
279.0
 31
0.0
  0
LINE
  5
407
330
1E
100
AcDbEntity
  8
0
100
AcDbLine
 10
119.7
 20
260.0
 30
0.0
 11
119.7
 21
279.0
 31
0.0
  0
LINE
  5
408
330
1E
100
AcDbEntity
  8
0
100
AcDbLine
 10
0.5
 20
259.5
 30
0.0
 11
1.0
 21
259.2999999999999
 31
0.0
  0
LINE
  5
409
330
1E
100
AcDbEntity
  8
0
100
AcDbLine
 10
0.3
 20
260.0
 30
0.0
 11
0.5
 21
259.5
 31
0.0
  0
LINE
  5
40A
330
1E
100
AcDbEntity
  8
0
100
AcDbLine
 10
0.3
 20
260.0
 30
0.0
 11
0.3
 21
279.0
 31
0.0
  0
ENDSEC
  0
SECTION
  2
OBJECTS
  0
DICTIONARY
  5
C
330
0
100
AcDbDictionary
281
     1
  3
ACAD_GROUP
350
D
  3
ACAD_LAYOUT
350
19
  3
ACAD_MLINESTYLE
350
16
  3
ACAD_PLOTSETTINGS
350
18
  3
ACAD_PLOTSTYLENAME
350
E
  3
AcDbVariableDictionary
350
410
  0
DICTIONARY
  5
D
102
{ACAD_REACTORS
330
C
102
}
330
C
100
AcDbDictionary
281
     1
  0
DICTIONARY
  5
19
102
{ACAD_REACTORS
330
C
102
}
330
C
100
AcDbDictionary
281
     1
  3
Layout1
350
1D
  3
Model
350
21
  0
DICTIONARY
  5
16
102
{ACAD_REACTORS
330
C
102
}
330
C
100
AcDbDictionary
281
     1
  3
Standard
350
17
  0
DICTIONARY
  5
18
102
{ACAD_REACTORS
330
C
102
}
330
C
100
AcDbDictionary
281
     1
  0
ACDBDICTIONARYWDFLT
  5
E
102
{ACAD_REACTORS
330
C
102
}
330
C
100
AcDbDictionary
281
     1
  3
Normal
350
F
100
AcDbDictionaryWithDefault
340
F
  0
DICTIONARY
  5
410
102
{ACAD_REACTORS
330
C
102
}
330
C
100
AcDbDictionary
281
     1
  3
DIMASSOC
350
411
  0
LAYOUT
  5
1D
102
{ACAD_REACTORS
330
19
102
}
330
19
100
AcDbPlotSettings
  1

  2
hp deskjet 980c series
  4

  6

 40
0.0
 41
0.0
 42
0.0
 43
0.0
 44
0.0
 45
0.0
 46
0.0
 47
0.0
 48
0.0
 49
0.0
140
0.0
141
0.0
142
1.0
143
1.0
 70
   688
 72
     0
 73
     0
 74
     5
  7

 75
    16
147
1.0
148
0.0
149
0.0
100
AcDbLayout
  1
Layout1
 70
     1
 71
     1
 10
0.0
 20
0.0
 11
12.0
 21
9.0
 12
0.0
 22
0.0
 32
0.0
 14
1.000000000000000E+20
 24
1.000000000000000E+20
 34
1.000000000000000E+20
 15
-1.000000000000000E+20
 25
-1.000000000000000E+20
 35
-1.000000000000000E+20
146
0.0
 13
0.0
 23
0.0
 33
0.0
 16
1.0
 26
0.0
 36
0.0
 17
0.0
 27
1.0
 37
0.0
 76
     0
330
1A
  0
LAYOUT
  5
21
102
{ACAD_REACTORS
330
19
102
}
330
19
100
AcDbPlotSettings
  1

  2
hp deskjet 980c series
  4

  6

 40
0.0
 41
0.0
 42
0.0
 43
0.0
 44
0.0
 45
0.0
 46
0.0
 47
0.0
 48
0.0
 49
0.0
140
0.0
141
0.0
142
1.0
143
1.0
 70
  1712
 72
     0
 73
     0
 74
     0
  7

 75
     0
147
1.0
148
0.0
149
0.0
100
AcDbLayout
  1
Model
 70
     1
 71
     0
 10
0.0
 20
0.0
 11
12.0
 21
9.0
 12
0.0
 22
0.0
 32
0.0
 14
0.0
 24
0.0
 34
0.0
 15
0.0
 25
0.0
 35
0.0
146
0.0
 13
0.0
 23
0.0
 33
0.0
 16
1.0
 26
0.0
 36
0.0
 17
0.0
 27
1.0
 37
0.0
 76
     0
330
1E
  0
MLINESTYLE
  5
17
102
{ACAD_REACTORS
330
16
102
}
330
16
100
AcDbMlineStyle
  2
STANDARD
 70
     0
  3

 62
   256
 51
90.0
 52
90.0
 71
     2
 49
0.5
 62
   256
  6
BYLAYER
 49
-0.5
 62
   256
  6
BYLAYER
  0
ACDBPLACEHOLDER
  5
F
102
{ACAD_REACTORS
330
E
102
}
330
E
  0
DICTIONARYVAR
  5
411
102
{ACAD_REACTORS
330
410
102
}
330
410
100
DictionaryVariables
280
     0
  1
1
  0
ENDSEC
  0
EOF
