  0
SECTION
  2
HEADER
  9
$ACADVER
  1
AC1015
  9
$ACADMAINTVER
 70
    13
  9
$DWGCODEPAGE
  3
ANSI_1252
  9
$INSBASE
 10
0.0
 20
0.0
 30
0.0
  9
$EXTMIN
 10
-0.0000000000000085
 20
0.0000000000000369
 30
0.0
  9
$EXTMAX
 10
280.0
 20
804.0
 30
0.0
  9
$LIMMIN
 10
0.0
 20
0.0
  9
$LIMMAX
 10
12.0
 20
9.0
  9
$ORTHOMODE
 70
     0
  9
$REGENMODE
 70
     1
  9
$FILLMODE
 70
     1
  9
$QTEXTMODE
 70
     0
  9
$MIRRTEXT
 70
     1
  9
$LTSCALE
 40
1.0
  9
$ATTMODE
 70
     1
  9
$TEXTSIZE
 40
0.2
  9
$TRACEWID
 40
0.05
  9
$TEXTSTYLE
  7
Standard
  9
$CLAYER
  8
0
  9
$CELTYPE
  6
Continuous
  9
$CECOLOR
 62
   256
  9
$CELTSCALE
 40
1.0
  9
$DISPSILH
 70
     0
  9
$DIMSCALE
 40
1.0
  9
$DIMASZ
 40
0.18
  9
$DIMEXO
 40
0.0625
  9
$DIMDLI
 40
0.38
  9
$DIMRND
 40
0.0
  9
$DIMDLE
 40
0.0
  9
$DIMEXE
 40
0.18
  9
$DIMTP
 40
0.0
  9
$DIMTM
 40
0.0
  9
$DIMTXT
 40
0.18
  9
$DIMCEN
 40
0.09
  9
$DIMTSZ
 40
0.0
  9
$DIMTOL
 70
     0
  9
$DIMLIM
 70
     0
  9
$DIMTIH
 70
     1
  9
$DIMTOH
 70
     1
  9
$DIMSE1
 70
     0
  9
$DIMSE2
 70
     0
  9
$DIMTAD
 70
     0
  9
$DIMZIN
 70
     0
  9
$DIMBLK
  1

  9
$DIMASO
 70
     1
  9
$DIMSHO
 70
     1
  9
$DIMPOST
  1

  9
$DIMAPOST
  1

  9
$DIMALT
 70
     0
  9
$DIMALTD
 70
     2
  9
$DIMALTF
 40
25.4
  9
$DIMLFAC
 40
1.0
  9
$DIMTOFL
 70
     0
  9
$DIMTVP
 40
0.0
  9
$DIMTIX
 70
     0
  9
$DIMSOXD
 70
     0
  9
$DIMSAH
 70
     0
  9
$DIMBLK1
  1

  9
$DIMBLK2
  1

  9
$DIMSTYLE
  2
Standard
  9
$DIMCLRD
 70
     0
  9
$DIMCLRE
 70
     0
  9
$DIMCLRT
 70
     0
  9
$DIMTFAC
 40
1.0
  9
$DIMGAP
 40
0.09
  9
$DIMJUST
 70
     0
  9
$DIMSD1
 70
     0
  9
$DIMSD2
 70
     0
  9
$DIMTOLJ
 70
     1
  9
$DIMTZIN
 70
     0
  9
$DIMALTZ
 70
     0
  9
$DIMALTTZ
 70
     0
  9
$DIMUPT
 70
     0
  9
$DIMDEC
 70
     4
  9
$DIMTDEC
 70
     4
  9
$DIMALTU
 70
     2
  9
$DIMALTTD
 70
     2
  9
$DIMTXSTY
  7
Standard
  9
$DIMAUNIT
 70
     0
  9
$DIMADEC
 70
     0
  9
$DIMALTRND
 40
0.0
  9
$DIMAZIN
 70
     0
  9
$DIMDSEP
 70
    46
  9
$DIMATFIT
 70
     3
  9
$DIMFRAC
 70
     0
  9
$DIMLDRBLK
  1

  9
$DIMLUNIT
 70
     2
  9
$DIMLWD
 70
    -2
  9
$DIMLWE
 70
    -2
  9
$DIMTMOVE
 70
     0
  9
$LUNITS
 70
     2
  9
$LUPREC
 70
     4
  9
$SKETCHINC
 40
0.1
  9
$FILLETRAD
 40
0.0
  9
$AUNITS
 70
     0
  9
$AUPREC
 70
     0
  9
$MENU
  1
.
  9
$ELEVATION
 40
0.0
  9
$PELEVATION
 40
0.0
  9
$THICKNESS
 40
0.0
  9
$LIMCHECK
 70
     0
  9
$CHAMFERA
 40
0.0
  9
$CHAMFERB
 40
0.0
  9
$CHAMFERC
 40
0.0
  9
$CHAMFERD
 40
0.0
  9
$SKPOLY
 70
     0
  9
$TDCREATE
 40
2454726.881833205
  9
$TDUCREATE
 40
2454726.798499873
  9
$TDUPDATE
 40
2454726.884812616
  9
$TDUUPDATE
 40
2454726.801479282
  9
$TDINDWG
 40
0.0029794097
  9
$TDUSRTIMER
 40
0.0029794097
  9
$USRTIMER
 70
     1
  9
$ANGBASE
 50
0.0
  9
$ANGDIR
 70
     0
  9
$PDMODE
 70
     0
  9
$PDSIZE
 40
0.0
  9
$PLINEWID
 40
0.0
  9
$SPLFRAME
 70
     0
  9
$SPLINETYPE
 70
     6
  9
$SPLINESEGS
 70
     8
  9
$HANDSEED
  5
5F1
  9
$SURFTAB1
 70
     6
  9
$SURFTAB2
 70
     6
  9
$SURFTYPE
 70
     6
  9
$SURFU
 70
     6
  9
$SURFV
 70
     6
  9
$UCSBASE
  2

  9
$UCSNAME
  2

  9
$UCSORG
 10
0.0
 20
0.0
 30
0.0
  9
$UCSXDIR
 10
1.0
 20
0.0
 30
0.0
  9
$UCSYDIR
 10
0.0
 20
1.0
 30
0.0
  9
$UCSORTHOREF
  2

  9
$UCSORTHOVIEW
 70
     1
  9
$UCSORGTOP
 10
0.0
 20
0.0
 30
0.0
  9
$UCSORGBOTTOM
 10
0.0
 20
0.0
 30
0.0
  9
$UCSORGLEFT
 10
0.0
 20
0.0
 30
0.0
  9
$UCSORGRIGHT
 10
0.0
 20
0.0
 30
0.0
  9
$UCSORGFRONT
 10
0.0
 20
0.0
 30
0.0
  9
$UCSORGBACK
 10
0.0
 20
0.0
 30
0.0
  9
$PUCSBASE
  2

  9
$PUCSNAME
  2

  9
$PUCSORG
 10
0.0
 20
0.0
 30
0.0
  9
$PUCSXDIR
 10
1.0
 20
0.0
 30
0.0
  9
$PUCSYDIR
 10
0.0
 20
1.0
 30
0.0
  9
$PUCSORTHOREF
  2

  9
$PUCSORTHOVIEW
 70
     0
  9
$PUCSORGTOP
 10
0.0
 20
0.0
 30
0.0
  9
$PUCSORGBOTTOM
 10
0.0
 20
0.0
 30
0.0
  9
$PUCSORGLEFT
 10
0.0
 20
0.0
 30
0.0
  9
$PUCSORGRIGHT
 10
0.0
 20
0.0
 30
0.0
  9
$PUCSORGFRONT
 10
0.0
 20
0.0
 30
0.0
  9
$PUCSORGBACK
 10
0.0
 20
0.0
 30
0.0
  9
$USERI1
 70
     0
  9
$USERI2
 70
     0
  9
$USERI3
 70
     0
  9
$USERI4
 70
     0
  9
$USERI5
 70
     0
  9
$USERR1
 40
0.0
  9
$USERR2
 40
0.0
  9
$USERR3
 40
0.0
  9
$USERR4
 40
0.0
  9
$USERR5
 40
0.0
  9
$WORLDVIEW
 70
     1
  9
$SHADEDGE
 70
     3
  9
$SHADEDIF
 70
    70
  9
$TILEMODE
 70
     1
  9
$MAXACTVP
 70
    64
  9
$PINSBASE
 10
0.0
 20
0.0
 30
0.0
  9
$PLIMCHECK
 70
     0
  9
$PEXTMIN
 10
1.000000000000000E+20
 20
1.000000000000000E+20
 30
1.000000000000000E+20
  9
$PEXTMAX
 10
-1.000000000000000E+20
 20
-1.000000000000000E+20
 30
-1.000000000000000E+20
  9
$PLIMMIN
 10
0.0
 20
0.0
  9
$PLIMMAX
 10
12.0
 20
9.0
  9
$UNITMODE
 70
     0
  9
$VISRETAIN
 70
     1
  9
$PLINEGEN
 70
     0
  9
$PSLTSCALE
 70
     1
  9
$TREEDEPTH
 70
  3020
  9
$CMLSTYLE
  2
Standard
  9
$CMLJUST
 70
     0
  9
$CMLSCALE
 40
1.0
  9
$PROXYGRAPHICS
 70
     1
  9
$MEASUREMENT
 70
     0
  9
$CELWEIGHT
370
    -1
  9
$ENDCAPS
280
     0
  9
$JOINSTYLE
280
     0
  9
$LWDISPLAY
290
     0
  9
$INSUNITS
 70
     0
  9
$HYPERLINKBASE
  1

  9
$STYLESHEET
  1

  9
$XEDIT
290
     1
  9
$CEPSNTYPE
380
     0
  9
$PSTYLEMODE
290
     1
  9
$FINGERPRINTGUID
  2
{FA4D1B0F-0F92-46FC-8840-1E2E5244259C}
  9
$VERSIONGUID
  2
{D306746C-F118-43A4-B0A0-17B6E596B5D1}
  9
$EXTNAMES
290
     1
  9
$PSVPSCALE
 40
0.0
  9
$OLESTARTUP
290
     0
  0
ENDSEC
  0
SECTION
  2
CLASSES
  0
CLASS
  1
ACDBDICTIONARYWDFLT
  2
AcDbDictionaryWithDefault
  3
AutoCAD 2000
 90
        0
280
     0
281
     0
  0
CLASS
  1
ACDBPLACEHOLDER
  2
AcDbPlaceHolder
  3
AutoCAD 2000
 90
        0
280
     0
281
     0
  0
CLASS
  1
LAYOUT
  2
AcDbLayout
  3
AutoCAD 2000
 90
        0
280
     0
281
     0
  0
CLASS
  1
DICTIONARYVAR
  2
AcDbDictionaryVar
  3
AutoCAD 2000
 90
        0
280
     0
281
     0
  0
ENDSEC
  0
SECTION
  2
TABLES
  0
TABLE
  2
VPORT
  5
8
330
0
100
AcDbSymbolTable
 70
     4
  0
VPORT
  5
5F0
330
8
100
AcDbSymbolTableRecord
100
AcDbViewportTableRecord
  2
*Active
 70
     0
 10
0.0
 20
0.0
 11
1.0
 21
1.0
 12
140.0
 22
402.0
 13
0.0
 23
0.0
 14
1.0
 24
1.0
 15
0.0
 25
0.0
 16
0.0
 26
0.0
 36
1.0
 17
0.0
 27
0.0
 37
0.0
 40
810.1687979539642
 41
2.078104993597951
 42
50.0
 43
0.0
 44
0.0
 50
0.0
 51
0.0
 71
     0
 72
   100
 73
     1
 74
     3
 75
     0
 76
     0
 77
     0
 78
     0
281
     0
 65
     1
110
0.0
120
0.0
130
0.0
111
1.0
121
0.0
131
0.0
112
0.0
122
1.0
132
0.0
 79
     1
146
0.0
  0
ENDTAB
  0
TABLE
  2
LTYPE
  5
5
330
0
100
AcDbSymbolTable
 70
     1
  0
LTYPE
  5
13
330
5
100
AcDbSymbolTableRecord
100
AcDbLinetypeTableRecord
  2
ByBlock
 70
     0
  3

 72
    65
 73
     0
 40
0.0
  0
LTYPE
  5
14
330
5
100
AcDbSymbolTableRecord
100
AcDbLinetypeTableRecord
  2
ByLayer
 70
     0
  3

 72
    65
 73
     0
 40
0.0
  0
LTYPE
  5
15
330
5
100
AcDbSymbolTableRecord
100
AcDbLinetypeTableRecord
  2
Continuous
 70
     0
  3
Solid line
 72
    65
 73
     0
 40
0.0
  0
ENDTAB
  0
TABLE
  2
LAYER
  5
2
330
0
100
AcDbSymbolTable
 70
     1
  0
LAYER
  5
10
330
2
100
AcDbSymbolTableRecord
100
AcDbLayerTableRecord
  2
0
 70
     0
 62
     7
  6
Continuous
370
    -3
390
F
  0
ENDTAB
  0
TABLE
  2
STYLE
  5
3
330
0
100
AcDbSymbolTable
 70
     1
  0
STYLE
  5
11
330
3
100
AcDbSymbolTableRecord
100
AcDbTextStyleTableRecord
  2
Standard
 70
     0
 40
0.0
 41
1.0
 50
0.0
 71
     0
 42
0.2
  3
txt
  4

  0
ENDTAB
  0
TABLE
  2
VIEW
  5
6
330
0
100
AcDbSymbolTable
 70
     0
  0
ENDTAB
  0
TABLE
  2
UCS
  5
7
330
0
100
AcDbSymbolTable
 70
     0
  0
ENDTAB
  0
TABLE
  2
APPID
  5
9
330
0
100
AcDbSymbolTable
 70
     1
  0
APPID
  5
12
330
9
100
AcDbSymbolTableRecord
100
AcDbRegAppTableRecord
  2
ACAD
 70
     0
  0
ENDTAB
  0
TABLE
  2
DIMSTYLE
  5
A
330
0
100
AcDbSymbolTable
 70
     1
100
AcDbDimStyleTable
 71
     0
  0
DIMSTYLE
105
5E7
330
A
100
AcDbSymbolTableRecord
100
AcDbDimStyleTableRecord
  2
Standard
 70
     0
340
11
  0
ENDTAB
  0
TABLE
  2
BLOCK_RECORD
  5
1
330
0
100
AcDbSymbolTable
 70
     0
  0
BLOCK_RECORD
  5
1E
330
1
100
AcDbSymbolTableRecord
100
AcDbBlockTableRecord
  2
*Model_Space
340
21
  0
BLOCK_RECORD
  5
1A
330
1
100
AcDbSymbolTableRecord
100
AcDbBlockTableRecord
  2
*Paper_Space
340
1D
  0
ENDTAB
  0
ENDSEC
  0
SECTION
  2
BLOCKS
  0
BLOCK
  5
1F
330
1E
100
AcDbEntity
  8
0
100
AcDbBlockBegin
  2
*Model_Space
 70
     0
 10
0.0
 20
0.0
 30
0.0
  3
*Model_Space
  1

  0
ENDBLK
  5
20
330
1E
100
AcDbEntity
  8
0
100
AcDbBlockEnd
  0
BLOCK
  5
1B
330
1A
100
AcDbEntity
 67
     1
  8
0
100
AcDbBlockBegin
  2
*Paper_Space
 70
     0
 10
0.0
 20
0.0
 30
0.0
  3
*Paper_Space
  1

  0
ENDBLK
  5
1C
330
1A
100
AcDbEntity
 67
     1
  8
0
100
AcDbBlockEnd
  0
ENDSEC
  0
SECTION
  2
ENTITIES
  0
LINE
  5
22
330
1E
100
AcDbEntity
  8
0
100
AcDbLine
 10
40.41929999999999
 20
40.4193000000001
 30
0.0
 11
53.99090000000001
 21
28.5172
 31
0.0
  0
LINE
  5
23
330
1E
100
AcDbEntity
  8
0
100
AcDbLine
 10
4.70223999999999
 20
102.2829999999999
 30
0.0
 11
10.50459999999999
 21
85.18970000000001
 31
0.0
  0
LINE
  5
24
330
1E
100
AcDbEntity
  8
0
100
AcDbLine
 10
10.50459999999999
 20
85.18970000000001
 30
0.0
 11
18.48849999999999
 21
69.0000000000001
 31
0.0
  0
LINE
  5
25
330
1E
100
AcDbEntity
  8
0
100
AcDbLine
 10
-0.0000000000000085
 20
138.0
 30
0.0
 11
1.180609999999989
 21
156.013
 31
0.0
  0
LINE
  5
26
330
1E
100
AcDbEntity
  8
0
100
AcDbLine
 10
-0.0000000000000085
 20
138.0
 30
0.0
 11
1.180609999999989
 21
119.987
 31
0.0
  0
LINE
  5
27
330
1E
100
AcDbEntity
  8
0
100
AcDbLine
 10
1.180609999999989
 20
119.987
 30
0.0
 11
4.70223999999999
 21
102.2829999999999
 31
0.0
  0
LINE
  5
28
330
1E
100
AcDbEntity
  8
0
100
AcDbLine
 10
1.180609999999989
 20
119.987
 30
0.0
 11
4.70223999999999
 21
102.2829999999999
 31
0.0
  0
LINE
  5
29
330
1E
100
AcDbEntity
  8
0
100
AcDbLine
 10
10.50459999999999
 20
190.81
 30
0.0
 11
26.0134
 21
216.3759999999999
 31
0.0
  0
LINE
  5
2A
330
1E
100
AcDbEntity
  8
0
100
AcDbLine
 10
4.70223999999999
 20
173.717
 30
0.0
 11
10.50459999999999
 21
190.81
 31
0.0
  0
LINE
  5
2B
330
1E
100
AcDbEntity
  8
0
100
AcDbLine
 10
1.180609999999989
 20
156.013
 30
0.0
 11
4.70223999999999
 21
173.717
 31
0.0
  0
LINE
  5
2C
330
1E
100
AcDbEntity
  8
0
100
AcDbLine
 10
-0.0000000000000085
 20
138.0
 30
0.0
 11
1.180609999999989
 21
119.987
 31
0.0
  0
LINE
  5
2D
330
1E
100
AcDbEntity
  8
0
100
AcDbLine
 10
-0.0000000000000085
 20
138.0
 30
0.0
 11
1.180609999999989
 21
156.013
 31
0.0
  0
LINE
  5
2E
330
1E
100
AcDbEntity
  8
0
100
AcDbLine
 10
19.0266
 20
153.6629999999999
 30
0.0
 11
22.08889999999999
 21
169.0579999999999
 31
0.0
  0
LINE
  5
2F
330
1E
100
AcDbEntity
  8
0
100
AcDbLine
 10
19.0266
 20
122.337
 30
0.0
 11
22.08889999999999
 21
106.942
 31
0.0
  0
LINE
  5
30
330
1E
100
AcDbEntity
  8
0
100
AcDbLine
 10
18.0
 20
138.0
 30
0.0
 11
19.0266
 21
122.337
 31
0.0
  0
LINE
  5
31
330
1E
100
AcDbEntity
  8
0
100
AcDbLine
 10
18.0
 20
138.0
 30
0.0
 11
19.0266
 21
153.6629999999999
 31
0.0
  0
LINE
  5
32
330
1E
100
AcDbEntity
  8
0
100
AcDbLine
 10
4.70223999999999
 20
102.2829999999999
 30
0.0
 11
10.50459999999999
 21
85.18970000000001
 31
0.0
  0
LINE
  5
33
330
1E
100
AcDbEntity
  8
0
100
AcDbLine
 10
26.0134
 20
216.3759999999999
 30
0.0
 11
57.1367
 21
253.459
 31
0.0
  0
LINE
  5
34
330
1E
100
AcDbEntity
  8
0
100
AcDbLine
 10
27.13449999999999
 20
183.922
 30
0.0
 11
41.38409999999999
 21
207.0089999999999
 31
0.0
  0
LINE
  5
35
330
1E
100
AcDbEntity
  8
0
100
AcDbLine
 10
22.08889999999999
 20
169.0579999999999
 30
0.0
 11
27.13449999999999
 21
183.922
 31
0.0
  0
LINE
  5
36
330
1E
100
AcDbEntity
  8
0
100
AcDbLine
 10
27.13449999999999
 20
92.07799999999998
 30
0.0
 11
34.077
 21
78.0000000000001
 31
0.0
  0
LINE
  5
37
330
1E
100
AcDbEntity
  8
0
100
AcDbLine
 10
22.08889999999999
 20
106.942
 30
0.0
 11
27.13449999999999
 21
92.07799999999998
 31
0.0
  0
LINE
  5
38
330
1E
100
AcDbEntity
  8
0
100
AcDbLine
 10
18.48849999999999
 20
69.0000000000001
 30
0.0
 11
28.5172
 21
53.9909000000001
 31
0.0
  0
LINE
  5
39
330
1E
100
AcDbEntity
  8
0
100
AcDbLine
 10
41.38409999999999
 20
207.0089999999999
 30
0.0
 11
72.0941
 21
243.446
 31
0.0
  0
LINE
  5
3A
330
1E
100
AcDbEntity
  8
0
100
AcDbLine
 10
34.077
 20
78.0000000000001
 30
0.0
 11
42.7976
 21
64.94860000000009
 31
0.0
  0
LINE
  5
3B
330
1E
100
AcDbEntity
  8
0
100
AcDbLine
 10
28.5172
 20
53.9909000000001
 30
0.0
 11
40.41929999999999
 21
40.4193000000001
 31
0.0
  0
LINE
  5
3C
330
1E
100
AcDbEntity
  8
0
100
AcDbLine
 10
69.0
 20
18.48849999999999
 30
0.0
 11
85.18970000000001
 21
10.50459999999999
 31
0.0
  0
LINE
  5
3D
330
1E
100
AcDbEntity
  8
0
100
AcDbLine
 10
85.18970000000001
 20
10.50459999999999
 30
0.0
 11
102.2829999999999
 21
4.702240000000039
 31
0.0
  0
LINE
  5
3E
330
1E
100
AcDbEntity
  8
0
100
AcDbLine
 10
102.2829999999999
 20
4.702240000000039
 30
0.0
 11
119.987
 21
1.18061000000004
 31
0.0
  0
LINE
  5
3F
330
1E
100
AcDbEntity
  8
0
100
AcDbLine
 10
102.2829999999999
 20
4.702240000000039
 30
0.0
 11
119.987
 21
1.18061000000004
 31
0.0
  0
LINE
  5
40
330
1E
100
AcDbEntity
  8
0
100
AcDbLine
 10
138.0
 20
0.000000000000037
 30
0.0
 11
156.013
 21
1.18061000000004
 31
0.0
  0
LINE
  5
41
330
1E
100
AcDbEntity
  8
0
100
AcDbLine
 10
156.013
 20
1.18061000000004
 30
0.0
 11
173.717
 21
4.702240000000039
 31
0.0
  0
LINE
  5
42
330
1E
100
AcDbEntity
  8
0
100
AcDbLine
 10
138.0
 20
0.0000000000000369
 30
0.0
 11
156.013
 21
1.18061000000004
 31
0.0
  0
LINE
  5
43
330
1E
100
AcDbEntity
  8
0
100
AcDbLine
 10
153.6629999999999
 20
19.0266
 30
0.0
 11
169.0579999999999
 21
22.08889999999999
 31
0.0
  0
LINE
  5
44
330
1E
100
AcDbEntity
  8
0
100
AcDbLine
 10
138.0
 20
18.0
 30
0.0
 11
153.6629999999999
 21
19.0266
 31
0.0
  0
LINE
  5
45
330
1E
100
AcDbEntity
  8
0
100
AcDbLine
 10
119.987
 20
1.18061000000004
 30
0.0
 11
138.0
 21
0.000000000000037
 31
0.0
  0
LINE
  5
46
330
1E
100
AcDbEntity
  8
0
100
AcDbLine
 10
119.987
 20
1.18061000000004
 30
0.0
 11
138.0
 21
0.0000000000000369
 31
0.0
  0
LINE
  5
47
330
1E
100
AcDbEntity
  8
0
100
AcDbLine
 10
78.0
 20
34.077
 30
0.0
 11
92.07799999999998
 21
27.13449999999999
 31
0.0
  0
LINE
  5
48
330
1E
100
AcDbEntity
  8
0
100
AcDbLine
 10
92.07799999999998
 20
27.13449999999999
 30
0.0
 11
106.942
 21
22.08889999999999
 31
0.0
  0
LINE
  5
49
330
1E
100
AcDbEntity
  8
0
100
AcDbLine
 10
169.0579999999999
 20
22.08889999999999
 30
0.0
 11
183.922
 21
27.13449999999999
 31
0.0
  0
LINE
  5
4A
330
1E
100
AcDbEntity
  8
0
100
AcDbLine
 10
106.942
 20
22.08889999999999
 30
0.0
 11
122.337
 21
19.0266
 31
0.0
  0
LINE
  5
4B
330
1E
100
AcDbEntity
  8
0
100
AcDbLine
 10
122.337
 20
19.0266
 30
0.0
 11
138.0
 21
18.0
 31
0.0
  0
LINE
  5
4C
330
1E
100
AcDbEntity
  8
0
100
AcDbLine
 10
53.99090000000001
 20
28.5172
 30
0.0
 11
69.0
 21
18.48849999999999
 31
0.0
  0
LINE
  5
4D
330
1E
100
AcDbEntity
  8
0
100
AcDbLine
 10
163.5139999999999
 20
472.4649999999999
 30
0.0
 11
173.0679999999999
 21
527.148
 31
0.0
  0
LINE
  5
4E
330
1E
100
AcDbEntity
  8
0
100
AcDbLine
 10
150.925
 20
423.614
 30
0.0
 11
163.5139999999999
 21
472.4649999999999
 31
0.0
  0
LINE
  5
4F
330
1E
100
AcDbEntity
  8
0
100
AcDbLine
 10
168.3709999999999
 20
419.184
 30
0.0
 11
181.2649999999999
 21
469.4799999999999
 31
0.0
  0
LINE
  5
50
330
1E
100
AcDbEntity
  8
0
100
AcDbLine
 10
132.684
 20
376.005
 30
0.0
 11
150.925
 21
423.614
 31
0.0
  0
LINE
  5
51
330
1E
100
AcDbEntity
  8
0
100
AcDbLine
 10
149.8829999999999
 20
370.698
 30
0.0
 11
168.3709999999999
 21
419.184
 31
0.0
  0
LINE
  5
52
330
1E
100
AcDbEntity
  8
0
100
AcDbLine
 10
108.562
 20
328.343
 30
0.0
 11
132.684
 21
376.005
 31
0.0
  0
LINE
  5
53
330
1E
100
AcDbEntity
  8
0
100
AcDbLine
 10
125.192
 20
321.455
 30
0.0
 11
149.8829999999999
 21
370.698
 31
0.0
  0
LINE
  5
54
330
1E
100
AcDbEntity
  8
0
100
AcDbLine
 10
83.87799999999998
 20
288.1959999999999
 30
0.0
 11
108.562
 21
328.343
 31
0.0
  0
LINE
  5
55
330
1E
100
AcDbEntity
  8
0
100
AcDbLine
 10
99.3796
 20
279.047
 30
0.0
 11
125.192
 21
321.455
 31
0.0
  0
LINE
  5
56
330
1E
100
AcDbEntity
  8
0
100
AcDbLine
 10
57.1367
 20
253.459
 30
0.0
 11
83.87799999999998
 21
288.1959999999999
 31
0.0
  0
LINE
  5
57
330
1E
100
AcDbEntity
  8
0
100
AcDbLine
 10
72.0941
 20
243.446
 30
0.0
 11
99.3796
 21
279.047
 31
0.0
  0
LINE
  5
58
330
1E
100
AcDbEntity
  8
0
100
AcDbLine
 10
53.1472
 20
53.1472000000001
 30
0.0
 11
64.9486
 21
42.7976000000001
 31
0.0
  0
LINE
  5
59
330
1E
100
AcDbEntity
  8
0
100
AcDbLine
 10
64.9486
 20
42.7976000000001
 30
0.0
 11
78.0
 21
34.077
 31
0.0
  0
LINE
  5
5A
330
1E
100
AcDbEntity
  8
0
100
AcDbLine
 10
42.7976
 20
64.94860000000009
 30
0.0
 11
53.1472
 21
53.1472000000001
 31
0.0
  0
LINE
  5
5B
330
1E
100
AcDbEntity
  8
0
100
AcDbLine
 10
172.0
 20
570.615
 30
0.0
 11
172.0
 21
608.3849999999999
 31
0.0
  0
LINE
  5
5C
330
1E
100
AcDbEntity
  8
0
100
AcDbLine
 10
172.0
 20
570.615
 30
0.0
 11
172.2879999999999
 21
570.0
 31
0.0
  0
LINE
  5
5D
330
1E
100
AcDbEntity
  8
0
100
AcDbLine
 10
173.0679999999999
 20
527.148
 30
0.0
 11
175.0
 21
560.0
 31
0.0
  0
LINE
  5
5E
330
1E
100
AcDbEntity
  8
0
100
AcDbLine
 10
173.717
 20
4.702240000000039
 30
0.0
 11
190.81
 21
10.50459999999999
 31
0.0
  0
LINE
  5
5F
330
1E
100
AcDbEntity
  8
0
100
AcDbLine
 10
173.872
 20
570.0
 30
0.0
 11
175.744
 21
570.0
 31
0.0
  0
LINE
  5
60
330
1E
100
AcDbEntity
  8
0
100
AcDbLine
 10
173.872
 20
570.0
 30
0.0
 11
175.0
 21
570.0
 31
0.0
  0
LINE
  5
61
330
1E
100
AcDbEntity
  8
0
100
AcDbLine
 10
172.72
 20
570.0
 30
0.0
 11
173.872
 21
570.0
 31
0.0
  0
LINE
  5
62
330
1E
100
AcDbEntity
  8
0
100
AcDbLine
 10
172.2879999999999
 20
570.0
 30
0.0
 11
172.72
 21
570.0
 31
0.0
  0
LINE
  5
63
330
1E
100
AcDbEntity
  8
0
100
AcDbLine
 10
176.1879999999999
 20
570.0
 30
0.0
 11
179.5359999999999
 21
570.0
 31
0.0
  0
LINE
  5
64
330
1E
100
AcDbEntity
  8
0
100
AcDbLine
 10
175.0
 20
570.0
 30
0.0
 11
175.0
 21
560.0
 31
0.0
  0
LINE
  5
65
330
1E
100
AcDbEntity
  8
0
100
AcDbLine
 10
175.0
 20
570.0
 30
0.0
 11
176.1879999999999
 21
570.0
 31
0.0
  0
LINE
  5
66
330
1E
100
AcDbEntity
  8
0
100
AcDbLine
 10
175.0
 20
560.0
 30
0.0
 11
175.0
 21
570.0
 31
0.0
  0
LINE
  5
67
330
1E
100
AcDbEntity
  8
0
100
AcDbLine
 10
178.192
 20
570.0
 30
0.0
 11
180.9759999999999
 21
570.0
 31
0.0
  0
LINE
  5
68
330
1E
100
AcDbEntity
  8
0
100
AcDbLine
 10
175.744
 20
570.0
 30
0.0
 11
178.192
 21
570.0
 31
0.0
  0
LINE
  5
69
330
1E
100
AcDbEntity
  8
0
100
AcDbLine
 10
179.5359999999999
 20
570.0
 30
0.0
 11
184.0
 21
570.0
 31
0.0
  0
LINE
  5
6A
330
1E
100
AcDbEntity
  8
0
100
AcDbLine
 10
181.2649999999999
 20
469.4799999999999
 30
0.0
 11
191.065
 21
527.4349999999999
 31
0.0
  0
LINE
  5
6B
330
1E
100
AcDbEntity
  8
0
100
AcDbLine
 10
183.922
 20
27.13449999999999
 30
0.0
 11
198.0
 21
34.077
 31
0.0
  0
LINE
  5
6C
330
1E
100
AcDbEntity
  8
0
100
AcDbLine
 10
184.0
 20
609.0
 30
0.0
 11
187.024
 21
609.0
 31
0.0
  0
LINE
  5
6D
330
1E
100
AcDbEntity
  8
0
100
AcDbLine
 10
184.0
 20
570.0
 30
0.0
 11
187.024
 21
570.0
 31
0.0
  0
LINE
  5
6E
330
1E
100
AcDbEntity
  8
0
100
AcDbLine
 10
184.0
 20
570.0
 30
0.0
 11
188.464
 21
570.0
 31
0.0
  0
LINE
  5
6F
330
1E
100
AcDbEntity
  8
0
100
AcDbLine
 10
180.9759999999999
 20
570.0
 30
0.0
 11
184.0
 21
570.0
 31
0.0
  0
LINE
  5
70
330
1E
100
AcDbEntity
  8
0
100
AcDbLine
 10
180.9759999999999
 20
609.0
 30
0.0
 11
184.0
 21
609.0
 31
0.0
  0
LINE
  5
71
330
1E
100
AcDbEntity
  8
0
100
AcDbLine
 10
178.192
 20
609.0
 30
0.0
 11
180.9759999999999
 21
609.0
 31
0.0
  0
LINE
  5
72
330
1E
100
AcDbEntity
  8
0
100
AcDbLine
 10
175.744
 20
609.0
 30
0.0
 11
178.192
 21
609.0
 31
0.0
  0
LINE
  5
73
330
1E
100
AcDbEntity
  8
0
100
AcDbLine
 10
173.872
 20
609.0
 30
0.0
 11
175.744
 21
609.0
 31
0.0
  0
LINE
  5
74
330
1E
100
AcDbEntity
  8
0
100
AcDbLine
 10
172.72
 20
609.0
 30
0.0
 11
173.872
 21
609.0
 31
0.0
  0
LINE
  5
75
330
1E
100
AcDbEntity
  8
0
100
AcDbLine
 10
172.0
 20
608.3849999999999
 30
0.0
 11
172.2879999999999
 21
609.0
 31
0.0
  0
LINE
  5
76
330
1E
100
AcDbEntity
  8
0
100
AcDbLine
 10
172.0
 20
608.3849999999999
 30
0.0
 11
172.0
 21
570.615
 31
0.0
  0
LINE
  5
77
330
1E
100
AcDbEntity
  8
0
100
AcDbLine
 10
173.6329999999999
 20
610.0
 30
0.0
 11
175.571
 21
610.0
 31
0.0
  0
LINE
  5
78
330
1E
100
AcDbEntity
  8
0
100
AcDbLine
 10
172.4079999999999
 20
610.0
 30
0.0
 11
173.6329999999999
 21
610.0
 31
0.0
  0
LINE
  5
79
330
1E
100
AcDbEntity
  8
0
100
AcDbLine
 10
172.0
 20
610.0
 30
0.0
 11
172.4079999999999
 21
610.0
 31
0.0
  0
LINE
  5
7A
330
1E
100
AcDbEntity
  8
0
100
AcDbLine
 10
172.0
 20
610.0
 30
0.0
 11
173.02
 21
609.0
 31
0.0
  0
LINE
  5
7B
330
1E
100
AcDbEntity
  8
0
100
AcDbLine
 10
172.0
 20
610.0
 30
0.0
 11
172.0
 21
783.4999999999999
 31
0.0
  0
LINE
  5
7C
330
1E
100
AcDbEntity
  8
0
100
AcDbLine
 10
175.571
 20
610.0
 30
0.0
 11
178.122
 21
610.0
 31
0.0
  0
LINE
  5
7D
330
1E
100
AcDbEntity
  8
0
100
AcDbLine
 10
178.122
 20
610.0
 30
0.0
 11
181.0819999999999
 21
610.0
 31
0.0
  0
LINE
  5
7E
330
1E
100
AcDbEntity
  8
0
100
AcDbLine
 10
181.0819999999999
 20
610.0
 30
0.0
 11
184.245
 21
610.0
 31
0.0
  0
LINE
  5
7F
330
1E
100
AcDbEntity
  8
0
100
AcDbLine
 10
184.245
 20
610.0
 30
0.0
 11
187.408
 21
610.0
 31
0.0
  0
LINE
  5
80
330
1E
100
AcDbEntity
  8
0
100
AcDbLine
 10
172.2879999999999
 20
609.0
 30
0.0
 11
172.72
 21
609.0
 31
0.0
  0
LINE
  5
81
330
1E
100
AcDbEntity
  8
0
100
AcDbLine
 10
185.0
 20
620.0
 30
0.0
 11
190.1399999999999
 21
620.0
 31
0.0
  0
LINE
  5
82
330
1E
100
AcDbEntity
  8
0
100
AcDbLine
 10
185.0
 20
620.0
 30
0.0
 11
187.0579999999999
 21
620.0
 31
0.0
  0
LINE
  5
83
330
1E
100
AcDbEntity
  8
0
100
AcDbLine
 10
185.0
 20
620.2999999999999
 30
0.0
 11
204.6399999999999
 21
620.2999999999999
 31
0.0
  0
LINE
  5
84
330
1E
100
AcDbEntity
  8
0
100
AcDbLine
 10
184.4999999999999
 20
620.2999999999999
 30
0.0
 11
185.0
 21
620.2999999999999
 31
0.0
  0
LINE
  5
85
330
1E
100
AcDbEntity
  8
0
100
AcDbLine
 10
185.0
 20
620.2999999999999
 30
0.0
 11
185.0
 21
664.0
 31
0.0
  0
LINE
  5
86
330
1E
100
AcDbEntity
  8
0
100
AcDbLine
 10
184.3
 20
621.0
 30
0.0
 11
184.4999999999999
 21
620.2999999999999
 31
0.0
  0
LINE
  5
87
330
1E
100
AcDbEntity
  8
0
100
AcDbLine
 10
184.3
 20
621.0
 30
0.0
 11
184.3
 21
664.0
 31
0.0
  0
LINE
  5
88
330
1E
100
AcDbEntity
  8
0
100
AcDbLine
 10
184.0
 20
621.0
 30
0.0
 11
184.3
 21
620.2999999999999
 31
0.0
  0
LINE
  5
89
330
1E
100
AcDbEntity
  8
0
100
AcDbLine
 10
184.0
 20
621.0
 30
0.0
 11
184.0
 21
664.0
 31
0.0
  0
LINE
  5
8A
330
1E
100
AcDbEntity
  8
0
100
AcDbLine
 10
184.3
 20
620.2999999999999
 30
0.0
 11
185.0
 21
620.0
 31
0.0
  0
LINE
  5
8B
330
1E
100
AcDbEntity
  8
0
100
AcDbLine
 10
184.3
 20
620.2999999999999
 30
0.0
 11
184.4999999999999
 21
620.2999999999999
 31
0.0
  0
LINE
  5
8C
330
1E
100
AcDbEntity
  8
0
100
AcDbLine
 10
188.464
 20
570.0
 30
0.0
 11
191.812
 21
570.0
 31
0.0
  0
LINE
  5
8D
330
1E
100
AcDbEntity
  8
0
100
AcDbLine
 10
191.812
 20
570.0
 30
0.0
 11
193.0
 21
570.0
 31
0.0
  0
LINE
  5
8E
330
1E
100
AcDbEntity
  8
0
100
AcDbLine
 10
191.065
 20
527.4349999999999
 30
0.0
 11
193.0
 21
560.0
 31
0.0
  0
LINE
  5
8F
330
1E
100
AcDbEntity
  8
0
100
AcDbLine
 10
190.81
 20
10.50459999999999
 30
0.0
 11
207.0
 21
18.48849999999999
 31
0.0
  0
LINE
  5
90
330
1E
100
AcDbEntity
  8
0
100
AcDbLine
 10
187.024
 20
570.0
 30
0.0
 11
189.808
 21
570.0
 31
0.0
  0
LINE
  5
91
330
1E
100
AcDbEntity
  8
0
100
AcDbLine
 10
189.808
 20
570.0
 30
0.0
 11
192.2559999999999
 21
570.0
 31
0.0
  0
LINE
  5
92
330
1E
100
AcDbEntity
  8
0
100
AcDbLine
 10
193.0
 20
560.0
 30
0.0
 11
193.0
 21
570.0
 31
0.0
  0
LINE
  5
93
330
1E
100
AcDbEntity
  8
0
100
AcDbLine
 10
193.0
 20
570.0
 30
0.0
 11
194.1279999999999
 21
570.0
 31
0.0
  0
LINE
  5
94
330
1E
100
AcDbEntity
  8
0
100
AcDbLine
 10
193.0
 20
570.0
 30
0.0
 11
193.0
 21
560.0
 31
0.0
  0
LINE
  5
95
330
1E
100
AcDbEntity
  8
0
100
AcDbLine
 10
192.2559999999999
 20
570.0
 30
0.0
 11
194.1279999999999
 21
570.0
 31
0.0
  0
LINE
  5
96
330
1E
100
AcDbEntity
  8
0
100
AcDbLine
 10
187.024
 20
609.0
 30
0.0
 11
189.808
 21
609.0
 31
0.0
  0
LINE
  5
97
330
1E
100
AcDbEntity
  8
0
100
AcDbLine
 10
189.808
 20
609.0
 30
0.0
 11
192.2559999999999
 21
609.0
 31
0.0
  0
LINE
  5
98
330
1E
100
AcDbEntity
  8
0
100
AcDbLine
 10
190.367
 20
610.0
 30
0.0
 11
192.918
 21
610.0
 31
0.0
  0
LINE
  5
99
330
1E
100
AcDbEntity
  8
0
100
AcDbLine
 10
187.408
 20
610.0
 30
0.0
 11
190.367
 21
610.0
 31
0.0
  0
LINE
  5
9A
330
1E
100
AcDbEntity
  8
0
100
AcDbLine
 10
192.918
 20
610.0
 30
0.0
 11
194.857
 21
610.0
 31
0.0
  0
LINE
  5
9B
330
1E
100
AcDbEntity
  8
0
100
AcDbLine
 10
192.2559999999999
 20
609.0
 30
0.0
 11
194.1279999999999
 21
609.0
 31
0.0
  0
LINE
  5
9C
330
1E
100
AcDbEntity
  8
0
100
AcDbLine
 10
194.857
 20
610.0
 30
0.0
 11
196.082
 21
610.0
 31
0.0
  0
LINE
  5
9D
330
1E
100
AcDbEntity
  8
0
100
AcDbLine
 10
194.1279999999999
 20
609.0
 30
0.0
 11
195.28
 21
609.0
 31
0.0
  0
LINE
  5
9E
330
1E
100
AcDbEntity
  8
0
100
AcDbLine
 10
194.1279999999999
 20
570.0
 30
0.0
 11
195.28
 21
570.0
 31
0.0
  0
LINE
  5
9F
330
1E
100
AcDbEntity
  8
0
100
AcDbLine
 10
196.0
 20
570.615
 30
0.0
 11
196.0
 21
608.3849999999999
 31
0.0
  0
LINE
  5
A0
330
1E
100
AcDbEntity
  8
0
100
AcDbLine
 10
195.712
 20
570.0
 30
0.0
 11
196.0
 21
570.615
 31
0.0
  0
LINE
  5
A1
330
1E
100
AcDbEntity
  8
0
100
AcDbLine
 10
195.28
 20
570.0
 30
0.0
 11
195.712
 21
570.0
 31
0.0
  0
LINE
  5
A2
330
1E
100
AcDbEntity
  8
0
100
AcDbLine
 10
195.469
 20
609.0
 30
0.0
 11
196.49
 21
610.0
 31
0.0
  0
LINE
  5
A3
330
1E
100
AcDbEntity
  8
0
100
AcDbLine
 10
195.28
 20
609.0
 30
0.0
 11
195.712
 21
609.0
 31
0.0
  0
LINE
  5
A4
330
1E
100
AcDbEntity
  8
0
100
AcDbLine
 10
196.082
 20
610.0
 30
0.0
 11
196.49
 21
610.0
 31
0.0
  0
LINE
  5
A5
330
1E
100
AcDbEntity
  8
0
100
AcDbLine
 10
196.49
 20
610.0
 30
0.0
 11
196.49
 21
620.0
 31
0.0
  0
LINE
  5
A6
330
1E
100
AcDbEntity
  8
0
100
AcDbLine
 10
195.712
 20
609.0
 30
0.0
 11
196.0
 21
608.3849999999999
 31
0.0
  0
LINE
  5
A7
330
1E
100
AcDbEntity
  8
0
100
AcDbLine
 10
196.0
 20
608.3849999999999
 30
0.0
 11
196.0
 21
570.615
 31
0.0
  0
LINE
  5
A8
330
1E
100
AcDbEntity
  8
0
100
AcDbLine
 10
195.0399999999999
 20
620.0
 30
0.0
 11
198.8
 21
620.0
 31
0.0
  0
LINE
  5
A9
330
1E
100
AcDbEntity
  8
0
100
AcDbLine
 10
190.1399999999999
 20
620.0
 30
0.0
 11
195.0399999999999
 21
620.0
 31
0.0
  0
LINE
  5
AA
330
1E
100
AcDbEntity
  8
0
100
AcDbLine
 10
198.0
 20
34.077
 30
0.0
 11
211.051
 21
42.7976
 31
0.0
  0
LINE
  5
AB
330
1E
100
AcDbEntity
  8
0
100
AcDbLine
 10
201.77
 20
620.0
 30
0.0
 11
204.13
 21
620.0
 31
0.0
  0
LINE
  5
AC
330
1E
100
AcDbEntity
  8
0
100
AcDbLine
 10
204.13
 20
620.0
 30
0.0
 11
205.0
 21
620.0
 31
0.0
  0
LINE
  5
AD
330
1E
100
AcDbEntity
  8
0
100
AcDbLine
 10
204.6399999999999
 20
620.2999999999999
 30
0.0
 11
205.6999999999999
 21
620.2999999999999
 31
0.0
  0
LINE
  5
AE
330
1E
100
AcDbEntity
  8
0
100
AcDbLine
 10
198.8
 20
620.0
 30
0.0
 11
201.77
 21
620.0
 31
0.0
  0
LINE
  5
AF
330
1E
100
AcDbEntity
  8
0
100
AcDbLine
 10
222.8529999999999
 20
53.1472
 30
0.0
 11
233.2019999999999
 21
64.94860000000009
 31
0.0
  0
LINE
  5
B0
330
1E
100
AcDbEntity
  8
0
100
AcDbLine
 10
222.009
 20
28.5172
 30
0.0
 11
235.5809999999999
 21
40.41929999999999
 31
0.0
  0
LINE
  5
B1
330
1E
100
AcDbEntity
  8
0
100
AcDbLine
 10
211.051
 20
42.7976
 30
0.0
 11
222.8529999999999
 21
53.1472
 31
0.0
  0
LINE
  5
B2
330
1E
100
AcDbEntity
  8
0
100
AcDbLine
 10
207.0
 20
18.48849999999999
 30
0.0
 11
222.009
 21
28.5172
 31
0.0
  0
LINE
  5
B3
330
1E
100
AcDbEntity
  8
0
100
AcDbLine
 10
235.5809999999999
 20
40.41929999999999
 30
0.0
 11
247.483
 21
53.99090000000001
 31
0.0
  0
LINE
  5
B4
330
1E
100
AcDbEntity
  8
0
100
AcDbLine
 10
247.483
 20
53.99090000000001
 30
0.0
 11
257.512
 21
69.0000000000001
 31
0.0
  0
LINE
  5
B5
330
1E
100
AcDbEntity
  8
0
100
AcDbLine
 10
233.2019999999999
 20
64.94860000000009
 30
0.0
 11
241.923
 21
78.0000000000001
 31
0.0
  0
LINE
  5
B6
330
1E
100
AcDbEntity
  8
0
100
AcDbLine
 10
241.923
 20
78.0000000000001
 30
0.0
 11
248.8659999999999
 21
92.07799999999998
 31
0.0
  0
LINE
  5
B7
330
1E
100
AcDbEntity
  8
0
100
AcDbLine
 10
248.8659999999999
 20
92.07799999999998
 30
0.0
 11
253.9109999999999
 21
106.942
 31
0.0
  0
LINE
  5
B8
330
1E
100
AcDbEntity
  8
0
100
AcDbLine
 10
253.9109999999999
 20
106.942
 30
0.0
 11
256.973
 21
122.337
 31
0.0
  0
LINE
  5
B9
330
1E
100
AcDbEntity
  8
0
100
AcDbLine
 10
258.0
 20
619.0
 30
0.0
 11
259.1879999999999
 21
619.0
 31
0.0
  0
LINE
  5
BA
330
1E
100
AcDbEntity
  8
0
100
AcDbLine
 10
258.0
 20
138.0
 30
0.0
 11
258.0
 21
619.0
 31
0.0
  0
LINE
  5
BB
330
1E
100
AcDbEntity
  8
0
100
AcDbLine
 10
257.512
 20
69.0000000000001
 30
0.0
 11
265.4949999999999
 21
85.18970000000001
 31
0.0
  0
LINE
  5
BC
330
1E
100
AcDbEntity
  8
0
100
AcDbLine
 10
256.973
 20
122.337
 30
0.0
 11
258.0
 21
138.0
 31
0.0
  0
LINE
  5
BD
330
1E
100
AcDbEntity
  8
0
100
AcDbLine
 10
257.744
 20
619.0
 30
0.0
 11
260.192
 21
619.0
 31
0.0
  0
LINE
  5
BE
330
1E
100
AcDbEntity
  8
0
100
AcDbLine
 10
257.744
 20
619.0
 30
0.0
 11
258.0
 21
619.0
 31
0.0
  0
LINE
  5
BF
330
1E
100
AcDbEntity
  8
0
100
AcDbLine
 10
255.872
 20
619.0
 30
0.0
 11
257.744
 21
619.0
 31
0.0
  0
LINE
  5
C0
330
1E
100
AcDbEntity
  8
0
100
AcDbLine
 10
254.72
 20
619.0
 30
0.0
 11
255.872
 21
619.0
 31
0.0
  0
LINE
  5
C1
330
1E
100
AcDbEntity
  8
0
100
AcDbLine
 10
254.2879999999999
 20
619.0
 30
0.0
 11
254.72
 21
619.0
 31
0.0
  0
LINE
  5
C2
330
1E
100
AcDbEntity
  8
0
100
AcDbLine
 10
254.0
 20
619.615
 30
0.0
 11
254.0
 21
657.385
 31
0.0
  0
LINE
  5
C3
330
1E
100
AcDbEntity
  8
0
100
AcDbLine
 10
254.0
 20
619.615
 30
0.0
 11
254.2879999999999
 21
619.0
 31
0.0
  0
LINE
  5
C4
330
1E
100
AcDbEntity
  8
0
100
AcDbLine
 10
205.0
 20
620.0
 30
0.0
 11
205.6999999999999
 21
620.2999999999999
 31
0.0
  0
LINE
  5
C5
330
1E
100
AcDbEntity
  8
0
100
AcDbLine
 10
257.744
 20
658.0
 30
0.0
 11
260.192
 21
658.0
 31
0.0
  0
LINE
  5
C6
330
1E
100
AcDbEntity
  8
0
100
AcDbLine
 10
255.872
 20
658.0
 30
0.0
 11
257.744
 21
658.0
 31
0.0
  0
LINE
  5
C7
330
1E
100
AcDbEntity
  8
0
100
AcDbLine
 10
254.72
 20
658.0
 30
0.0
 11
255.872
 21
658.0
 31
0.0
  0
LINE
  5
C8
330
1E
100
AcDbEntity
  8
0
100
AcDbLine
 10
254.0
 20
657.385
 30
0.0
 11
254.2879999999999
 21
658.0
 31
0.0
  0
LINE
  5
C9
330
1E
100
AcDbEntity
  8
0
100
AcDbLine
 10
254.0
 20
657.385
 30
0.0
 11
254.0
 21
619.615
 31
0.0
  0
LINE
  5
CA
330
1E
100
AcDbEntity
  8
0
100
AcDbLine
 10
254.2879999999999
 20
658.0
 30
0.0
 11
254.72
 21
658.0
 31
0.0
  0
LINE
  5
CB
330
1E
100
AcDbEntity
  8
0
100
AcDbLine
 10
206.0
 20
621.0
 30
0.0
 11
206.0
 21
658.0
 31
0.0
  0
LINE
  5
CC
330
1E
100
AcDbEntity
  8
0
100
AcDbLine
 10
205.6999999999999
 20
620.2999999999999
 30
0.0
 11
206.0
 21
621.0
 31
0.0
  0
LINE
  5
CD
330
1E
100
AcDbEntity
  8
0
100
AcDbLine
 10
196.49
 20
620.0
 30
0.0
 11
198.8
 21
620.0
 31
0.0
  0
LINE
  5
CE
330
1E
100
AcDbEntity
  8
0
100
AcDbLine
 10
196.49
 20
620.0
 30
0.0
 11
196.49
 21
610.0
 31
0.0
  0
LINE
  5
CF
330
1E
100
AcDbEntity
  8
0
100
AcDbLine
 10
206.0
 20
658.0
 30
0.0
 11
254.2879999999999
 21
658.0
 31
0.0
  0
LINE
  5
D0
330
1E
100
AcDbEntity
  8
0
100
AcDbLine
 10
206.0
 20
658.0
 30
0.0
 11
206.0
 21
621.0
 31
0.0
  0
LINE
  5
D1
330
1E
100
AcDbEntity
  8
0
100
AcDbLine
 10
259.1879999999999
 20
619.0
 30
0.0
 11
262.536
 21
619.0
 31
0.0
  0
LINE
  5
D2
330
1E
100
AcDbEntity
  8
0
100
AcDbLine
 10
258.4999999999999
 20
658.2999999999999
 30
0.0
 11
258.6999999999999
 21
659.0
 31
0.0
  0
LINE
  5
D3
330
1E
100
AcDbEntity
  8
0
100
AcDbLine
 10
258.4999999999999
 20
658.2999999999999
 30
0.0
 11
258.6999999999999
 21
658.2999999999999
 31
0.0
  0
LINE
  5
D4
330
1E
100
AcDbEntity
  8
0
100
AcDbLine
 10
258.0
 20
658.2999999999999
 30
0.0
 11
258.4999999999999
 21
658.2999999999999
 31
0.0
  0
LINE
  5
D5
330
1E
100
AcDbEntity
  8
0
100
AcDbLine
 10
185.1000815789469
 20
658.2999999999999
 30
0.0
 11
258.0
 21
658.2999999999999
 31
0.0
  0
LINE
  5
D6
330
1E
100
AcDbEntity
  8
0
100
AcDbLine
 10
184.3
 20
659.0
 30
0.0
 11
185.0
 21
659.0
 31
0.0
  0
LINE
  5
D7
330
1E
100
AcDbEntity
  8
0
100
AcDbLine
 10
184.0
 20
659.0
 30
0.0
 11
184.3
 21
659.0
 31
0.0
  0
LINE
  5
D8
330
1E
100
AcDbEntity
  8
0
100
AcDbLine
 10
258.0
 20
659.0
 30
0.0
 11
258.6999999999999
 21
659.0
 31
0.0
  0
LINE
  5
D9
330
1E
100
AcDbEntity
  8
0
100
AcDbLine
 10
258.6999999999999
 20
659.0
 30
0.0
 11
258.6999999999999
 21
669.0
 31
0.0
  0
LINE
  5
DA
330
1E
100
AcDbEntity
  8
0
100
AcDbLine
 10
258.6999999999999
 20
659.0
 30
0.0
 11
259.0
 21
659.0
 31
0.0
  0
LINE
  5
DB
330
1E
100
AcDbEntity
  8
0
100
AcDbLine
 10
185.0
 20
659.0
 30
0.0
 11
258.0
 21
659.0
 31
0.0
  0
LINE
  5
DC
330
1E
100
AcDbEntity
  8
0
100
AcDbLine
 10
185.0
 20
659.0
 30
0.0
 11
185.0
 21
620.2999999999999
 31
0.0
  0
LINE
  5
DD
330
1E
100
AcDbEntity
  8
0
100
AcDbLine
 10
259.2999999999999
 20
658.2999999999999
 30
0.0
 11
259.5
 21
658.2999999999999
 31
0.0
  0
LINE
  5
DE
330
1E
100
AcDbEntity
  8
0
100
AcDbLine
 10
259.2999999999999
 20
658.2999999999999
 30
0.0
 11
260.0
 21
658.0
 31
0.0
  0
LINE
  5
DF
330
1E
100
AcDbEntity
  8
0
100
AcDbLine
 10
259.2999999999999
 20
659.0
 30
0.0
 11
259.2999999999999
 21
777.0
 31
0.0
  0
LINE
  5
E0
330
1E
100
AcDbEntity
  8
0
100
AcDbLine
 10
259.2999999999999
 20
659.0
 30
0.0
 11
259.5
 21
658.2999999999999
 31
0.0
  0
LINE
  5
E1
330
1E
100
AcDbEntity
  8
0
100
AcDbLine
 10
184.3
 20
664.0
 30
0.0
 11
184.3
 21
669.0
 31
0.0
  0
LINE
  5
E2
330
1E
100
AcDbEntity
  8
0
100
AcDbLine
 10
184.3
 20
664.0
 30
0.0
 11
184.3
 21
621.0
 31
0.0
  0
LINE
  5
E3
330
1E
100
AcDbEntity
  8
0
100
AcDbLine
 10
184.0
 20
664.0
 30
0.0
 11
184.0
 21
669.0
 31
0.0
  0
LINE
  5
E4
330
1E
100
AcDbEntity
  8
0
100
AcDbLine
 10
184.0
 20
664.0
 30
0.0
 11
184.0
 21
621.0
 31
0.0
  0
LINE
  5
E5
330
1E
100
AcDbEntity
  8
0
100
AcDbLine
 10
184.3
 20
669.0
 30
0.0
 11
184.4999999999999
 21
669.7
 31
0.0
  0
LINE
  5
E6
330
1E
100
AcDbEntity
  8
0
100
AcDbLine
 10
184.3
 20
669.0
 30
0.0
 11
184.3
 21
664.0
 31
0.0
  0
LINE
  5
E7
330
1E
100
AcDbEntity
  8
0
100
AcDbLine
 10
184.0
 20
669.0
 30
0.0
 11
184.3
 21
669.7
 31
0.0
  0
LINE
  5
E8
330
1E
100
AcDbEntity
  8
0
100
AcDbLine
 10
184.0
 20
669.0
 30
0.0
 11
184.0
 21
664.0
 31
0.0
  0
LINE
  5
E9
330
1E
100
AcDbEntity
  8
0
100
AcDbLine
 10
185.0
 20
664.0
 30
0.0
 11
185.0
 21
669.7
 31
0.0
  0
LINE
  5
EA
330
1E
100
AcDbEntity
  8
0
100
AcDbLine
 10
184.4999999999999
 20
669.7
 30
0.0
 11
185.0
 21
669.7
 31
0.0
  0
LINE
  5
EB
330
1E
100
AcDbEntity
  8
0
100
AcDbLine
 10
184.3
 20
669.7
 30
0.0
 11
185.0
 21
670.0
 31
0.0
  0
LINE
  5
EC
330
1E
100
AcDbEntity
  8
0
100
AcDbLine
 10
184.3
 20
669.7
 30
0.0
 11
184.4999999999999
 21
669.7
 31
0.0
  0
LINE
  5
ED
330
1E
100
AcDbEntity
  8
0
100
AcDbLine
 10
185.0
 20
669.7
 30
0.0
 11
185.0
 21
659.0
 31
0.0
  0
LINE
  5
EE
330
1E
100
AcDbEntity
  8
0
100
AcDbLine
 10
185.0
 20
670.0
 30
0.0
 11
258.0
 21
670.0
 31
0.0
  0
LINE
  5
EF
330
1E
100
AcDbEntity
  8
0
100
AcDbLine
 10
259.0
 20
669.0
 30
0.0
 11
259.0
 21
659.0
 31
0.0
  0
LINE
  5
F0
330
1E
100
AcDbEntity
  8
0
100
AcDbLine
 10
258.6999999999999
 20
669.0
 30
0.0
 11
258.6999999999999
 21
659.0
 31
0.0
  0
LINE
  5
F1
330
1E
100
AcDbEntity
  8
0
100
AcDbLine
 10
258.6999999999999
 20
669.7
 30
0.0
 11
259.0
 21
669.0
 31
0.0
  0
LINE
  5
F2
330
1E
100
AcDbEntity
  8
0
100
AcDbLine
 10
258.4999999999999
 20
669.7
 30
0.0
 11
258.6999999999999
 21
669.7
 31
0.0
  0
LINE
  5
F3
330
1E
100
AcDbEntity
  8
0
100
AcDbLine
 10
258.4999999999999
 20
669.7
 30
0.0
 11
258.6999999999999
 21
669.0
 31
0.0
  0
LINE
  5
F5
330
1E
100
AcDbEntity
  8
0
100
AcDbLine
 10
193.1909999999999
 20
712.0
 30
0.0
 11
193.8159999999999
 21
712.0
 31
0.0
  0
LINE
  5
F6
330
1E
100
AcDbEntity
  8
0
100
AcDbLine
 10
193.2229999999999
 20
712.0
 30
0.0
 11
193.8159999999999
 21
712.0
 31
0.0
  0
LINE
  5
F7
330
1E
100
AcDbEntity
  8
0
100
AcDbLine
 10
193.8159999999999
 20
712.0
 30
0.0
 11
194.113
 21
712.5
 31
0.0
  0
LINE
  5
FA
330
1E
100
AcDbEntity
  8
0
100
AcDbLine
 10
196.49
 20
670.0
 30
0.0
 11
196.49
 21
712.0
 31
0.0
  0
LINE
  5
FB
330
1E
100
AcDbEntity
  8
0
100
AcDbLine
 10
195.867
 20
712.0
 30
0.0
 11
196.18
 21
712.0
 31
0.0
  0
LINE
  5
FC
330
1E
100
AcDbEntity
  8
0
100
AcDbLine
 10
196.18
 20
712.0
 30
0.0
 11
196.3359999999999
 21
712.5
 31
0.0
  0
LINE
  5
FD
330
1E
100
AcDbEntity
  8
0
100
AcDbLine
 10
218.0
 20
709.5299999999999
 30
0.0
 11
218.0
 21
705.96
 31
0.0
  0
LINE
  5
FE
330
1E
100
AcDbEntity
  8
0
100
AcDbLine
 10
218.0
 20
709.5299999999999
 30
0.0
 11
218.0
 21
713.59
 31
0.0
  0
LINE
  5
FF
330
1E
100
AcDbEntity
  8
0
100
AcDbLine
 10
218.0
 20
705.96
 30
0.0
 11
218.0
 21
703.23
 31
0.0
  0
LINE
  5
100
330
1E
100
AcDbEntity
  8
0
100
AcDbLine
 10
218.0
 20
705.96
 30
0.0
 11
218.0
 21
709.5299999999999
 31
0.0
  0
LINE
  5
101
330
1E
100
AcDbEntity
  8
0
100
AcDbLine
 10
218.0
 20
703.23
 30
0.0
 11
218.0
 21
701.5499999999999
 31
0.0
  0
LINE
  5
102
330
1E
100
AcDbEntity
  8
0
100
AcDbLine
 10
218.0
 20
703.23
 30
0.0
 11
218.0
 21
705.96
 31
0.0
  0
LINE
  5
103
330
1E
100
AcDbEntity
  8
0
100
AcDbLine
 10
218.0
 20
701.5499999999999
 30
0.0
 11
218.0
 21
700.9199999999999
 31
0.0
  0
LINE
  5
104
330
1E
100
AcDbEntity
  8
0
100
AcDbLine
 10
218.0
 20
701.5499999999999
 30
0.0
 11
218.0
 21
703.23
 31
0.0
  0
LINE
  5
105
330
1E
100
AcDbEntity
  8
0
100
AcDbLine
 10
218.0
 20
700.9199999999999
 30
0.0
 11
218.7689999999999
 21
700.4999999999999
 31
0.0
  0
LINE
  5
106
330
1E
100
AcDbEntity
  8
0
100
AcDbLine
 10
218.0
 20
700.9199999999999
 30
0.0
 11
218.0
 21
701.5499999999999
 31
0.0
  0
LINE
  5
107
330
1E
100
AcDbEntity
  8
0
100
AcDbLine
 10
218.7689999999999
 20
700.4999999999999
 30
0.0
 11
258.231
 21
700.4999999999999
 31
0.0
  0
LINE
  5
108
330
1E
100
AcDbEntity
  8
0
100
AcDbLine
 10
196.49
 20
712.0
 30
0.0
 11
197.0
 21
712.0
 31
0.0
  0
LINE
  5
109
330
1E
100
AcDbEntity
  8
0
100
AcDbLine
 10
196.49
 20
712.0
 30
0.0
 11
196.49
 21
670.0
 31
0.0
  0
LINE
  5
10C
330
1E
100
AcDbEntity
  8
0
100
AcDbLine
 10
192.927
 20
713.4999999999999
 30
0.0
 11
192.927
 21
712.5
 31
0.0
  0
LINE
  5
10D
330
1E
100
AcDbEntity
  8
0
100
AcDbLine
 10
192.927
 20
713.4999999999999
 30
0.0
 11
193.2229999999999
 21
714.0
 31
0.0
  0
LINE
  5
10E
330
1E
100
AcDbEntity
  8
0
100
AcDbLine
 10
194.113
 20
713.4999999999999
 30
0.0
 11
194.113
 21
712.5
 31
0.0
  0
LINE
  5
10F
330
1E
100
AcDbEntity
  8
0
100
AcDbLine
 10
194.113
 20
712.5
 30
0.0
 11
194.113
 21
713.4999999999999
 31
0.0
  0
LINE
  5
110
330
1E
100
AcDbEntity
  8
0
100
AcDbLine
 10
192.927
 20
712.5
 30
0.0
 11
193.2229999999999
 21
712.0
 31
0.0
  0
LINE
  5
111
330
1E
100
AcDbEntity
  8
0
100
AcDbLine
 10
192.927
 20
712.5
 30
0.0
 11
192.927
 21
713.4999999999999
 31
0.0
  0
LINE
  5
114
330
1E
100
AcDbEntity
  8
0
100
AcDbLine
 10
195.7109999999999
 20
713.4999999999999
 30
0.0
 11
195.7109999999999
 21
712.5
 31
0.0
  0
LINE
  5
115
330
1E
100
AcDbEntity
  8
0
100
AcDbLine
 10
195.7109999999999
 20
713.4999999999999
 30
0.0
 11
195.867
 21
714.0
 31
0.0
  0
LINE
  5
116
330
1E
100
AcDbEntity
  8
0
100
AcDbLine
 10
195.7109999999999
 20
712.5
 30
0.0
 11
195.867
 21
712.0
 31
0.0
  0
LINE
  5
117
330
1E
100
AcDbEntity
  8
0
100
AcDbLine
 10
195.7109999999999
 20
712.5
 30
0.0
 11
195.7109999999999
 21
713.4999999999999
 31
0.0
  0
LINE
  5
119
330
1E
100
AcDbEntity
  8
0
100
AcDbLine
 10
196.3359999999999
 20
713.4999999999999
 30
0.0
 11
196.3359999999999
 21
712.5
 31
0.0
  0
LINE
  5
11B
330
1E
100
AcDbEntity
  8
0
100
AcDbLine
 10
196.3359999999999
 20
712.5
 30
0.0
 11
196.3359999999999
 21
713.4999999999999
 31
0.0
  0
LINE
  5
11D
330
1E
100
AcDbEntity
  8
0
100
AcDbLine
 10
193.8159999999999
 20
714.0
 30
0.0
 11
194.113
 21
713.4999999999999
 31
0.0
  0
LINE
  5
11E
330
1E
100
AcDbEntity
  8
0
100
AcDbLine
 10
193.2229999999999
 20
714.0
 30
0.0
 11
193.8159999999999
 21
714.0
 31
0.0
  0
LINE
  5
120
330
1E
100
AcDbEntity
  8
0
100
AcDbLine
 10
196.18
 20
714.0
 30
0.0
 11
196.3359999999999
 21
713.4999999999999
 31
0.0
  0
LINE
  5
121
330
1E
100
AcDbEntity
  8
0
100
AcDbLine
 10
195.867
 20
714.0
 30
0.0
 11
196.18
 21
714.0
 31
0.0
  0
LINE
  5
123
330
1E
100
AcDbEntity
  8
0
100
AcDbLine
 10
196.18
 20
718.7999999999999
 30
0.0
 11
196.3359999999999
 21
719.2999999999999
 31
0.0
  0
LINE
  5
124
330
1E
100
AcDbEntity
  8
0
100
AcDbLine
 10
195.867
 20
718.7999999999999
 30
0.0
 11
196.18
 21
718.7999999999999
 31
0.0
  0
LINE
  5
126
330
1E
100
AcDbEntity
  8
0
100
AcDbLine
 10
193.8159999999999
 20
718.7999999999999
 30
0.0
 11
194.113
 21
719.2999999999999
 31
0.0
  0
LINE
  5
127
330
1E
100
AcDbEntity
  8
0
100
AcDbLine
 10
193.1909999999999
 20
718.7999999999999
 30
0.0
 11
193.8159999999999
 21
718.7999999999999
 31
0.0
  0
LINE
  5
12B
330
1E
100
AcDbEntity
  8
0
100
AcDbLine
 10
192.927
 20
719.2999999999999
 30
0.0
 11
192.927
 21
720.2999999999999
 31
0.0
  0
LINE
  5
12C
330
1E
100
AcDbEntity
  8
0
100
AcDbLine
 10
192.927
 20
719.2999999999999
 30
0.0
 11
193.2229999999999
 21
718.7999999999999
 31
0.0
  0
LINE
  5
12D
330
1E
100
AcDbEntity
  8
0
100
AcDbLine
 10
194.113
 20
719.2999999999999
 30
0.0
 11
194.113
 21
720.2999999999999
 31
0.0
  0
LINE
  5
12F
330
1E
100
AcDbEntity
  8
0
100
AcDbLine
 10
194.113
 20
720.2999999999999
 30
0.0
 11
194.113
 21
719.2999999999999
 31
0.0
  0
LINE
  5
130
330
1E
100
AcDbEntity
  8
0
100
AcDbLine
 10
195.7109999999999
 20
719.2999999999999
 30
0.0
 11
195.867
 21
718.7999999999999
 31
0.0
  0
LINE
  5
131
330
1E
100
AcDbEntity
  8
0
100
AcDbLine
 10
195.7109999999999
 20
719.2999999999999
 30
0.0
 11
195.7109999999999
 21
720.2999999999999
 31
0.0
  0
LINE
  5
132
330
1E
100
AcDbEntity
  8
0
100
AcDbLine
 10
195.7109999999999
 20
720.2999999999999
 30
0.0
 11
195.867
 21
720.7999999999999
 31
0.0
  0
LINE
  5
133
330
1E
100
AcDbEntity
  8
0
100
AcDbLine
 10
195.7109999999999
 20
720.2999999999999
 30
0.0
 11
195.7109999999999
 21
719.2999999999999
 31
0.0
  0
LINE
  5
135
330
1E
100
AcDbEntity
  8
0
100
AcDbLine
 10
192.927
 20
720.2999999999999
 30
0.0
 11
193.2229999999999
 21
720.7999999999999
 31
0.0
  0
LINE
  5
136
330
1E
100
AcDbEntity
  8
0
100
AcDbLine
 10
192.927
 20
720.2999999999999
 30
0.0
 11
192.927
 21
719.2999999999999
 31
0.0
  0
LINE
  5
137
330
1E
100
AcDbEntity
  8
0
100
AcDbLine
 10
193.2229999999999
 20
718.7999999999999
 30
0.0
 11
193.8159999999999
 21
718.7999999999999
 31
0.0
  0
LINE
  5
138
330
1E
100
AcDbEntity
  8
0
100
AcDbLine
 10
196.49
 20
718.7999999999999
 30
0.0
 11
197.0
 21
718.7999999999999
 31
0.0
  0
LINE
  5
139
330
1E
100
AcDbEntity
  8
0
100
AcDbLine
 10
196.49
 20
718.7999999999999
 30
0.0
 11
196.49
 21
714.0
 31
0.0
  0
LINE
  5
13B
330
1E
100
AcDbEntity
  8
0
100
AcDbLine
 10
196.3359999999999
 20
719.2999999999999
 30
0.0
 11
196.3359999999999
 21
720.2999999999999
 31
0.0
  0
LINE
  5
13C
330
1E
100
AcDbEntity
  8
0
100
AcDbLine
 10
193.2229999999999
 20
720.7999999999999
 30
0.0
 11
193.8159999999999
 21
720.7999999999999
 31
0.0
  0
LINE
  5
140
330
1E
100
AcDbEntity
  8
0
100
AcDbLine
 10
192.927
 20
726.1
 30
0.0
 11
192.927
 21
727.1
 31
0.0
  0
LINE
  5
141
330
1E
100
AcDbEntity
  8
0
100
AcDbLine
 10
192.927
 20
726.1
 30
0.0
 11
193.2229999999999
 21
725.6
 31
0.0
  0
LINE
  5
142
330
1E
100
AcDbEntity
  8
0
100
AcDbLine
 10
192.927
 20
727.1
 30
0.0
 11
193.2229999999999
 21
727.6
 31
0.0
  0
LINE
  5
143
330
1E
100
AcDbEntity
  8
0
100
AcDbLine
 10
192.927
 20
727.1
 30
0.0
 11
192.927
 21
726.1
 31
0.0
  0
LINE
  5
144
330
1E
100
AcDbEntity
  8
0
100
AcDbLine
 10
193.2229999999999
 20
725.6
 30
0.0
 11
193.8159999999999
 21
725.6
 31
0.0
  0
LINE
  5
145
330
1E
100
AcDbEntity
  8
0
100
AcDbLine
 10
193.8159999999999
 20
725.6
 30
0.0
 11
194.113
 21
726.1
 31
0.0
  0
LINE
  5
146
330
1E
100
AcDbEntity
  8
0
100
AcDbLine
 10
193.5650783861669
 20
725.6
 30
0.0
 11
193.8159999999999
 21
725.6
 31
0.0
  0
LINE
  5
147
330
1E
100
AcDbEntity
  8
0
100
AcDbLine
 10
193.2229999999999
 20
727.6
 30
0.0
 11
193.8159999999999
 21
727.6
 31
0.0
  0
LINE
  5
162
330
1E
100
AcDbEntity
  8
0
100
AcDbLine
 10
192.927
 20
739.7
 30
0.0
 11
192.927
 21
740.7
 31
0.0
  0
LINE
  5
163
330
1E
100
AcDbEntity
  8
0
100
AcDbLine
 10
192.927
 20
739.7
 30
0.0
 11
193.2229999999999
 21
739.2
 31
0.0
  0
LINE
  5
164
330
1E
100
AcDbEntity
  8
0
100
AcDbLine
 10
192.927
 20
767.9
 30
0.0
 11
193.2229999999999
 21
768.4
 31
0.0
  0
LINE
  5
165
330
1E
100
AcDbEntity
  8
0
100
AcDbLine
 10
192.927
 20
767.9
 30
0.0
 11
192.927
 21
766.8999999999999
 31
0.0
  0
LINE
  5
166
330
1E
100
AcDbEntity
  8
0
100
AcDbLine
 10
192.927
 20
773.7
 30
0.0
 11
192.927
 21
774.7
 31
0.0
  0
LINE
  5
167
330
1E
100
AcDbEntity
  8
0
100
AcDbLine
 10
192.927
 20
773.7
 30
0.0
 11
193.2229999999999
 21
773.2
 31
0.0
  0
LINE
  5
168
330
1E
100
AcDbEntity
  8
0
100
AcDbLine
 10
192.927
 20
774.7
 30
0.0
 11
192.927
 21
773.7
 31
0.0
  0
LINE
  5
169
330
1E
100
AcDbEntity
  8
0
100
AcDbLine
 10
192.927
 20
774.7
 30
0.0
 11
193.2229999999999
 21
775.2
 31
0.0
  0
LINE
  5
16A
330
1E
100
AcDbEntity
  8
0
100
AcDbLine
 10
192.927
 20
766.8999999999999
 30
0.0
 11
193.2229999999999
 21
766.3999999999999
 31
0.0
  0
LINE
  5
16B
330
1E
100
AcDbEntity
  8
0
100
AcDbLine
 10
192.927
 20
766.8999999999999
 30
0.0
 11
192.927
 21
767.9
 31
0.0
  0
LINE
  5
16C
330
1E
100
AcDbEntity
  8
0
100
AcDbLine
 10
192.927
 20
760.0999999999999
 30
0.0
 11
192.927
 21
761.1
 31
0.0
  0
LINE
  5
16D
330
1E
100
AcDbEntity
  8
0
100
AcDbLine
 10
192.927
 20
760.0999999999999
 30
0.0
 11
193.2229999999999
 21
759.6
 31
0.0
  0
LINE
  5
16E
330
1E
100
AcDbEntity
  8
0
100
AcDbLine
 10
192.927
 20
761.1
 30
0.0
 11
193.2229999999999
 21
761.6
 31
0.0
  0
LINE
  5
16F
330
1E
100
AcDbEntity
  8
0
100
AcDbLine
 10
192.927
 20
761.1
 30
0.0
 11
192.927
 21
760.0999999999999
 31
0.0
  0
LINE
  5
170
330
1E
100
AcDbEntity
  8
0
100
AcDbLine
 10
192.927
 20
754.2999999999999
 30
0.0
 11
192.927
 21
753.2999999999999
 31
0.0
  0
LINE
  5
171
330
1E
100
AcDbEntity
  8
0
100
AcDbLine
 10
192.927
 20
754.2999999999999
 30
0.0
 11
193.2229999999999
 21
754.8
 31
0.0
  0
LINE
  5
172
330
1E
100
AcDbEntity
  8
0
100
AcDbLine
 10
192.927
 20
753.2999999999999
 30
0.0
 11
193.2229999999999
 21
752.7999999999999
 31
0.0
  0
LINE
  5
173
330
1E
100
AcDbEntity
  8
0
100
AcDbLine
 10
192.927
 20
753.2999999999999
 30
0.0
 11
192.927
 21
754.2999999999999
 31
0.0
  0
LINE
  5
174
330
1E
100
AcDbEntity
  8
0
100
AcDbLine
 10
192.927
 20
747.5
 30
0.0
 11
192.927
 21
746.4999999999999
 31
0.0
  0
LINE
  5
175
330
1E
100
AcDbEntity
  8
0
100
AcDbLine
 10
192.927
 20
747.5
 30
0.0
 11
193.2229999999999
 21
748.0
 31
0.0
  0
LINE
  5
176
330
1E
100
AcDbEntity
  8
0
100
AcDbLine
 10
192.927
 20
746.4999999999999
 30
0.0
 11
193.2229999999999
 21
746.0
 31
0.0
  0
LINE
  5
177
330
1E
100
AcDbEntity
  8
0
100
AcDbLine
 10
192.927
 20
746.4999999999999
 30
0.0
 11
192.927
 21
747.5
 31
0.0
  0
LINE
  5
178
330
1E
100
AcDbEntity
  8
0
100
AcDbLine
 10
192.927
 20
740.7
 30
0.0
 11
193.2229999999999
 21
741.2
 31
0.0
  0
LINE
  5
179
330
1E
100
AcDbEntity
  8
0
100
AcDbLine
 10
192.927
 20
740.7
 30
0.0
 11
192.927
 21
739.7
 31
0.0
  0
LINE
  5
17C
330
1E
100
AcDbEntity
  8
0
100
AcDbLine
 10
193.1909999999999
 20
759.6
 30
0.0
 11
193.8159999999999
 21
759.6
 31
0.0
  0
LINE
  5
17D
330
1E
100
AcDbEntity
  8
0
100
AcDbLine
 10
193.2229999999999
 20
768.4
 30
0.0
 11
193.8159999999999
 21
768.4
 31
0.0
  0
LINE
  5
17E
330
1E
100
AcDbEntity
  8
0
100
AcDbLine
 10
193.2229999999999
 20
775.2
 30
0.0
 11
193.8159999999999
 21
775.2
 31
0.0
  0
LINE
  5
17F
330
1E
100
AcDbEntity
  8
0
100
AcDbLine
 10
193.1909999999999
 20
773.2
 30
0.0
 11
193.8159999999999
 21
773.2
 31
0.0
  0
LINE
  5
180
330
1E
100
AcDbEntity
  8
0
100
AcDbLine
 10
193.2229999999999
 20
773.2
 30
0.0
 11
193.8159999999999
 21
773.2
 31
0.0
  0
LINE
  5
181
330
1E
100
AcDbEntity
  8
0
100
AcDbLine
 10
193.1909999999999
 20
766.3999999999999
 30
0.0
 11
193.8159999999999
 21
766.3999999999999
 31
0.0
  0
LINE
  5
182
330
1E
100
AcDbEntity
  8
0
100
AcDbLine
 10
193.2229999999999
 20
766.3999999999999
 30
0.0
 11
193.8159999999999
 21
766.3999999999999
 31
0.0
  0
LINE
  5
183
330
1E
100
AcDbEntity
  8
0
100
AcDbLine
 10
193.2229999999999
 20
759.6
 30
0.0
 11
193.8159999999999
 21
759.6
 31
0.0
  0
LINE
  5
184
330
1E
100
AcDbEntity
  8
0
100
AcDbLine
 10
193.2229999999999
 20
761.6
 30
0.0
 11
193.8159999999999
 21
761.6
 31
0.0
  0
LINE
  5
185
330
1E
100
AcDbEntity
  8
0
100
AcDbLine
 10
193.2229999999999
 20
754.8
 30
0.0
 11
193.8159999999999
 21
754.8
 31
0.0
  0
LINE
  5
186
330
1E
100
AcDbEntity
  8
0
100
AcDbLine
 10
193.2229999999999
 20
752.7999999999999
 30
0.0
 11
193.8159999999999
 21
752.7999999999999
 31
0.0
  0
LINE
  5
187
330
1E
100
AcDbEntity
  8
0
100
AcDbLine
 10
193.2229999999999
 20
748.0
 30
0.0
 11
193.8159999999999
 21
748.0
 31
0.0
  0
LINE
  5
188
330
1E
100
AcDbEntity
  8
0
100
AcDbLine
 10
193.2229999999999
 20
746.0
 30
0.0
 11
193.8159999999999
 21
746.0
 31
0.0
  0
LINE
  5
189
330
1E
100
AcDbEntity
  8
0
100
AcDbLine
 10
193.2229999999999
 20
739.2
 30
0.0
 11
193.8159999999999
 21
739.2
 31
0.0
  0
LINE
  5
18A
330
1E
100
AcDbEntity
  8
0
100
AcDbLine
 10
193.2229999999999
 20
741.2
 30
0.0
 11
193.8159999999999
 21
741.2
 31
0.0
  0
LINE
  5
18B
330
1E
100
AcDbEntity
  8
0
100
AcDbLine
 10
193.2229999999999
 20
734.4
 30
0.0
 11
193.8159999999999
 21
734.4
 31
0.0
  0
LINE
  5
18C
330
1E
100
AcDbEntity
  8
0
100
AcDbLine
 10
192.927
 20
733.8999999999999
 30
0.0
 11
192.927
 21
732.8999999999999
 31
0.0
  0
LINE
  5
18D
330
1E
100
AcDbEntity
  8
0
100
AcDbLine
 10
192.927
 20
733.8999999999999
 30
0.0
 11
193.2229999999999
 21
734.4
 31
0.0
  0
LINE
  5
18E
330
1E
100
AcDbEntity
  8
0
100
AcDbLine
 10
192.927
 20
732.8999999999999
 30
0.0
 11
193.2229999999999
 21
732.3999999999999
 31
0.0
  0
LINE
  5
18F
330
1E
100
AcDbEntity
  8
0
100
AcDbLine
 10
192.927
 20
732.8999999999999
 30
0.0
 11
192.927
 21
733.8999999999999
 31
0.0
  0
LINE
  5
190
330
1E
100
AcDbEntity
  8
0
100
AcDbLine
 10
193.8159999999999
 20
732.3999999999999
 30
0.0
 11
194.113
 21
732.8999999999999
 31
0.0
  0
LINE
  5
191
330
1E
100
AcDbEntity
  8
0
100
AcDbLine
 10
193.8159999999999
 20
739.2
 30
0.0
 11
194.113
 21
739.7
 31
0.0
  0
LINE
  5
192
330
1E
100
AcDbEntity
  8
0
100
AcDbLine
 10
193.4130876080689
 20
739.2
 30
0.0
 11
193.8159999999999
 21
739.2
 31
0.0
  0
LINE
  5
193
330
1E
100
AcDbEntity
  8
0
100
AcDbLine
 10
193.2610968299709
 20
752.7999999999999
 30
0.0
 11
193.8159999999999
 21
752.7999999999999
 31
0.0
  0
LINE
  5
194
330
1E
100
AcDbEntity
  8
0
100
AcDbLine
 10
193.8159999999999
 20
759.6
 30
0.0
 11
194.113
 21
760.0999999999999
 31
0.0
  0
LINE
  5
195
330
1E
100
AcDbEntity
  8
0
100
AcDbLine
 10
193.8159999999999
 20
768.4
 30
0.0
 11
194.113
 21
767.9
 31
0.0
  0
LINE
  5
196
330
1E
100
AcDbEntity
  8
0
100
AcDbLine
 10
193.8159999999999
 20
775.2
 30
0.0
 11
194.113
 21
774.7
 31
0.0
  0
LINE
  5
197
330
1E
100
AcDbEntity
  8
0
100
AcDbLine
 10
193.8159999999999
 20
773.2
 30
0.0
 11
194.113
 21
773.7
 31
0.0
  0
LINE
  5
198
330
1E
100
AcDbEntity
  8
0
100
AcDbLine
 10
193.8159999999999
 20
766.3999999999999
 30
0.0
 11
194.113
 21
766.8999999999999
 31
0.0
  0
LINE
  5
199
330
1E
100
AcDbEntity
  8
0
100
AcDbLine
 10
193.8159999999999
 20
761.6
 30
0.0
 11
194.113
 21
761.1
 31
0.0
  0
LINE
  5
19A
330
1E
100
AcDbEntity
  8
0
100
AcDbLine
 10
193.8159999999999
 20
754.8
 30
0.0
 11
194.113
 21
754.2999999999999
 31
0.0
  0
LINE
  5
19B
330
1E
100
AcDbEntity
  8
0
100
AcDbLine
 10
193.8159999999999
 20
752.7999999999999
 30
0.0
 11
194.113
 21
753.2999999999999
 31
0.0
  0
LINE
  5
19C
330
1E
100
AcDbEntity
  8
0
100
AcDbLine
 10
193.8159999999999
 20
748.0
 30
0.0
 11
194.113
 21
747.5
 31
0.0
  0
LINE
  5
19D
330
1E
100
AcDbEntity
  8
0
100
AcDbLine
 10
193.8159999999999
 20
746.0
 30
0.0
 11
194.113
 21
746.4999999999999
 31
0.0
  0
LINE
  5
19E
330
1E
100
AcDbEntity
  8
0
100
AcDbLine
 10
193.3370922190199
 20
746.0
 30
0.0
 11
193.8159999999999
 21
746.0
 31
0.0
  0
LINE
  5
19F
330
1E
100
AcDbEntity
  8
0
100
AcDbLine
 10
193.8159999999999
 20
741.2
 30
0.0
 11
194.113
 21
740.7
 31
0.0
  0
LINE
  5
1A0
330
1E
100
AcDbEntity
  8
0
100
AcDbLine
 10
193.8159999999999
 20
734.4
 30
0.0
 11
194.113
 21
733.8999999999999
 31
0.0
  0
LINE
  5
1A1
330
1E
100
AcDbEntity
  8
0
100
AcDbLine
 10
193.489082997118
 20
732.3999999999999
 30
0.0
 11
193.8159999999999
 21
732.3999999999999
 31
0.0
  0
LINE
  5
1A2
330
1E
100
AcDbEntity
  8
0
100
AcDbLine
 10
193.2229999999999
 20
732.3999999999999
 30
0.0
 11
193.8159999999999
 21
732.3999999999999
 31
0.0
  0
LINE
  5
1A4
330
1E
100
AcDbEntity
  8
0
100
AcDbLine
 10
193.8159999999999
 20
727.6
 30
0.0
 11
194.113
 21
727.1
 31
0.0
  0
LINE
  5
1A6
330
1E
100
AcDbEntity
  8
0
100
AcDbLine
 10
196.18
 20
720.7999999999999
 30
0.0
 11
196.3359999999999
 21
720.2999999999999
 31
0.0
  0
LINE
  5
1A7
330
1E
100
AcDbEntity
  8
0
100
AcDbLine
 10
195.867
 20
720.7999999999999
 30
0.0
 11
196.18
 21
720.7999999999999
 31
0.0
  0
LINE
  5
1A8
330
1E
100
AcDbEntity
  8
0
100
AcDbLine
 10
194.113
 20
726.1
 30
0.0
 11
194.113
 21
727.1
 31
0.0
  0
LINE
  5
1AC
330
1E
100
AcDbEntity
  8
0
100
AcDbLine
 10
194.113
 20
727.1
 30
0.0
 11
194.113
 21
726.1
 31
0.0
  0
LINE
  5
1AD
330
1E
100
AcDbEntity
  8
0
100
AcDbLine
 10
195.7109999999999
 20
726.1
 30
0.0
 11
195.867
 21
725.6
 31
0.0
  0
LINE
  5
1AE
330
1E
100
AcDbEntity
  8
0
100
AcDbLine
 10
195.7109999999999
 20
726.1
 30
0.0
 11
195.7109999999999
 21
727.1
 31
0.0
  0
LINE
  5
1AF
330
1E
100
AcDbEntity
  8
0
100
AcDbLine
 10
196.18
 20
725.6
 30
0.0
 11
196.3359999999999
 21
726.1
 31
0.0
  0
LINE
  5
1B0
330
1E
100
AcDbEntity
  8
0
100
AcDbLine
 10
195.867
 20
725.6
 30
0.0
 11
196.18
 21
725.6
 31
0.0
  0
LINE
  5
1B1
330
1E
100
AcDbEntity
  8
0
100
AcDbLine
 10
195.7109999999999
 20
727.1
 30
0.0
 11
195.867
 21
727.6
 31
0.0
  0
LINE
  5
1B2
330
1E
100
AcDbEntity
  8
0
100
AcDbLine
 10
195.7109999999999
 20
727.1
 30
0.0
 11
195.7109999999999
 21
726.1
 31
0.0
  0
LINE
  5
1B4
330
1E
100
AcDbEntity
  8
0
100
AcDbLine
 10
196.49
 20
725.6
 30
0.0
 11
197.0
 21
725.6
 31
0.0
  0
LINE
  5
1B5
330
1E
100
AcDbEntity
  8
0
100
AcDbLine
 10
196.49
 20
725.6
 30
0.0
 11
196.49
 21
720.7999999999999
 31
0.0
  0
LINE
  5
1B7
330
1E
100
AcDbEntity
  8
0
100
AcDbLine
 10
196.3359999999999
 20
726.1
 30
0.0
 11
196.3359999999999
 21
727.1
 31
0.0
  0
LINE
  5
1B8
330
1E
100
AcDbEntity
  8
0
100
AcDbLine
 10
194.113
 20
732.8999999999999
 30
0.0
 11
194.113
 21
733.8999999999999
 31
0.0
  0
LINE
  5
1BB
330
1E
100
AcDbEntity
  8
0
100
AcDbLine
 10
196.18
 20
727.6
 30
0.0
 11
196.3359999999999
 21
727.1
 31
0.0
  0
LINE
  5
1BD
330
1E
100
AcDbEntity
  8
0
100
AcDbLine
 10
196.18
 20
732.3999999999999
 30
0.0
 11
196.3359999999999
 21
732.8999999999999
 31
0.0
  0
LINE
  5
1BE
330
1E
100
AcDbEntity
  8
0
100
AcDbLine
 10
195.867
 20
732.3999999999999
 30
0.0
 11
196.18
 21
732.3999999999999
 31
0.0
  0
LINE
  5
1BF
330
1E
100
AcDbEntity
  8
0
100
AcDbLine
 10
195.7109999999999
 20
732.8999999999999
 30
0.0
 11
195.7109999999999
 21
733.8999999999999
 31
0.0
  0
LINE
  5
1C0
330
1E
100
AcDbEntity
  8
0
100
AcDbLine
 10
195.7109999999999
 20
732.8999999999999
 30
0.0
 11
195.867
 21
732.3999999999999
 31
0.0
  0
LINE
  5
1C1
330
1E
100
AcDbEntity
  8
0
100
AcDbLine
 10
195.867
 20
727.6
 30
0.0
 11
196.18
 21
727.6
 31
0.0
  0
LINE
  5
1C3
330
1E
100
AcDbEntity
  8
0
100
AcDbLine
 10
194.113
 20
733.8999999999999
 30
0.0
 11
194.113
 21
732.8999999999999
 31
0.0
  0
LINE
  5
1C4
330
1E
100
AcDbEntity
  8
0
100
AcDbLine
 10
194.113
 20
761.1
 30
0.0
 11
194.113
 21
760.0999999999999
 31
0.0
  0
LINE
  5
1C5
330
1E
100
AcDbEntity
  8
0
100
AcDbLine
 10
194.113
 20
760.0999999999999
 30
0.0
 11
194.113
 21
761.1
 31
0.0
  0
LINE
  5
1C6
330
1E
100
AcDbEntity
  8
0
100
AcDbLine
 10
194.113
 20
754.2999999999999
 30
0.0
 11
194.113
 21
753.2999999999999
 31
0.0
  0
LINE
  5
1C7
330
1E
100
AcDbEntity
  8
0
100
AcDbLine
 10
194.113
 20
753.2999999999999
 30
0.0
 11
194.113
 21
754.2999999999999
 31
0.0
  0
LINE
  5
1C8
330
1E
100
AcDbEntity
  8
0
100
AcDbLine
 10
194.113
 20
747.5
 30
0.0
 11
194.113
 21
746.4999999999999
 31
0.0
  0
LINE
  5
1C9
330
1E
100
AcDbEntity
  8
0
100
AcDbLine
 10
194.113
 20
746.4999999999999
 30
0.0
 11
194.113
 21
747.5
 31
0.0
  0
LINE
  5
1D5
330
1E
100
AcDbEntity
  8
0
100
AcDbLine
 10
194.113
 20
740.7
 30
0.0
 11
194.113
 21
739.7
 31
0.0
  0
LINE
  5
1D6
330
1E
100
AcDbEntity
  8
0
100
AcDbLine
 10
194.113
 20
739.7
 30
0.0
 11
194.113
 21
740.7
 31
0.0
  0
LINE
  5
1DB
330
1E
100
AcDbEntity
  8
0
100
AcDbLine
 10
194.113
 20
766.8999999999999
 30
0.0
 11
194.113
 21
767.9
 31
0.0
  0
LINE
  5
1DC
330
1E
100
AcDbEntity
  8
0
100
AcDbLine
 10
194.113
 20
767.9
 30
0.0
 11
194.113
 21
766.8999999999999
 31
0.0
  0
LINE
  5
1E0
330
1E
100
AcDbEntity
  8
0
100
AcDbLine
 10
194.113
 20
774.7
 30
0.0
 11
194.113
 21
773.7
 31
0.0
  0
LINE
  5
1E1
330
1E
100
AcDbEntity
  8
0
100
AcDbLine
 10
194.113
 20
773.7
 30
0.0
 11
194.113
 21
774.7
 31
0.0
  0
LINE
  5
1E9
330
1E
100
AcDbEntity
  8
0
100
AcDbLine
 10
195.7109999999999
 20
739.7
 30
0.0
 11
195.867
 21
739.2
 31
0.0
  0
LINE
  5
1EA
330
1E
100
AcDbEntity
  8
0
100
AcDbLine
 10
195.7109999999999
 20
739.7
 30
0.0
 11
195.7109999999999
 21
740.7
 31
0.0
  0
LINE
  5
1EF
330
1E
100
AcDbEntity
  8
0
100
AcDbLine
 10
195.7109999999999
 20
767.9
 30
0.0
 11
195.7109999999999
 21
766.8999999999999
 31
0.0
  0
LINE
  5
1F0
330
1E
100
AcDbEntity
  8
0
100
AcDbLine
 10
195.7109999999999
 20
767.9
 30
0.0
 11
195.867
 21
768.4
 31
0.0
  0
LINE
  5
1F1
330
1E
100
AcDbEntity
  8
0
100
AcDbLine
 10
195.7109999999999
 20
773.7
 30
0.0
 11
195.867
 21
773.2
 31
0.0
  0
LINE
  5
1F2
330
1E
100
AcDbEntity
  8
0
100
AcDbLine
 10
195.7109999999999
 20
773.7
 30
0.0
 11
195.7109999999999
 21
774.7
 31
0.0
  0
LINE
  5
1F3
330
1E
100
AcDbEntity
  8
0
100
AcDbLine
 10
195.7109999999999
 20
774.7
 30
0.0
 11
195.7109999999999
 21
773.7
 31
0.0
  0
LINE
  5
1F4
330
1E
100
AcDbEntity
  8
0
100
AcDbLine
 10
195.7109999999999
 20
774.7
 30
0.0
 11
195.867
 21
775.2
 31
0.0
  0
LINE
  5
1F5
330
1E
100
AcDbEntity
  8
0
100
AcDbLine
 10
195.7109999999999
 20
766.8999999999999
 30
0.0
 11
195.867
 21
766.3999999999999
 31
0.0
  0
LINE
  5
1F6
330
1E
100
AcDbEntity
  8
0
100
AcDbLine
 10
195.7109999999999
 20
766.8999999999999
 30
0.0
 11
195.7109999999999
 21
767.9
 31
0.0
  0
LINE
  5
1F8
330
1E
100
AcDbEntity
  8
0
100
AcDbLine
 10
195.7109999999999
 20
760.0999999999999
 30
0.0
 11
195.867
 21
759.6
 31
0.0
  0
LINE
  5
1F9
330
1E
100
AcDbEntity
  8
0
100
AcDbLine
 10
195.7109999999999
 20
760.0999999999999
 30
0.0
 11
195.7109999999999
 21
761.1
 31
0.0
  0
LINE
  5
1FA
330
1E
100
AcDbEntity
  8
0
100
AcDbLine
 10
195.7109999999999
 20
761.1
 30
0.0
 11
195.867
 21
761.6
 31
0.0
  0
LINE
  5
1FB
330
1E
100
AcDbEntity
  8
0
100
AcDbLine
 10
195.7109999999999
 20
761.1
 30
0.0
 11
195.7109999999999
 21
760.0999999999999
 31
0.0
  0
LINE
  5
1FC
330
1E
100
AcDbEntity
  8
0
100
AcDbLine
 10
195.7109999999999
 20
754.2999999999999
 30
0.0
 11
195.867
 21
754.8
 31
0.0
  0
LINE
  5
1FD
330
1E
100
AcDbEntity
  8
0
100
AcDbLine
 10
195.7109999999999
 20
754.2999999999999
 30
0.0
 11
195.7109999999999
 21
753.2999999999999
 31
0.0
  0
LINE
  5
1FE
330
1E
100
AcDbEntity
  8
0
100
AcDbLine
 10
195.7109999999999
 20
753.2999999999999
 30
0.0
 11
195.7109999999999
 21
754.2999999999999
 31
0.0
  0
LINE
  5
1FF
330
1E
100
AcDbEntity
  8
0
100
AcDbLine
 10
195.7109999999999
 20
753.2999999999999
 30
0.0
 11
195.867
 21
752.7999999999999
 31
0.0
  0
LINE
  5
200
330
1E
100
AcDbEntity
  8
0
100
AcDbLine
 10
195.7109999999999
 20
747.5
 30
0.0
 11
195.867
 21
748.0
 31
0.0
  0
LINE
  5
201
330
1E
100
AcDbEntity
  8
0
100
AcDbLine
 10
195.7109999999999
 20
747.5
 30
0.0
 11
195.7109999999999
 21
746.4999999999999
 31
0.0
  0
LINE
  5
202
330
1E
100
AcDbEntity
  8
0
100
AcDbLine
 10
195.7109999999999
 20
746.4999999999999
 30
0.0
 11
195.7109999999999
 21
747.5
 31
0.0
  0
LINE
  5
203
330
1E
100
AcDbEntity
  8
0
100
AcDbLine
 10
195.7109999999999
 20
746.4999999999999
 30
0.0
 11
195.867
 21
746.0
 31
0.0
  0
LINE
  5
204
330
1E
100
AcDbEntity
  8
0
100
AcDbLine
 10
195.7109999999999
 20
740.7
 30
0.0
 11
195.867
 21
741.2
 31
0.0
  0
LINE
  5
205
330
1E
100
AcDbEntity
  8
0
100
AcDbLine
 10
195.7109999999999
 20
740.7
 30
0.0
 11
195.7109999999999
 21
739.7
 31
0.0
  0
LINE
  5
208
330
1E
100
AcDbEntity
  8
0
100
AcDbLine
 10
196.18
 20
734.4
 30
0.0
 11
196.3359999999999
 21
733.8999999999999
 31
0.0
  0
LINE
  5
209
330
1E
100
AcDbEntity
  8
0
100
AcDbLine
 10
195.867
 20
768.4
 30
0.0
 11
196.18
 21
768.4
 31
0.0
  0
LINE
  5
20A
330
1E
100
AcDbEntity
  8
0
100
AcDbLine
 10
195.867
 20
775.2
 30
0.0
 11
196.18
 21
775.2
 31
0.0
  0
LINE
  5
20B
330
1E
100
AcDbEntity
  8
0
100
AcDbLine
 10
195.867
 20
773.2
 30
0.0
 11
196.18
 21
773.2
 31
0.0
  0
LINE
  5
20C
330
1E
100
AcDbEntity
  8
0
100
AcDbLine
 10
195.867
 20
766.3999999999999
 30
0.0
 11
196.18
 21
766.3999999999999
 31
0.0
  0
LINE
  5
20D
330
1E
100
AcDbEntity
  8
0
100
AcDbLine
 10
195.867
 20
759.6
 30
0.0
 11
196.18
 21
759.6
 31
0.0
  0
LINE
  5
20E
330
1E
100
AcDbEntity
  8
0
100
AcDbLine
 10
195.867
 20
761.6
 30
0.0
 11
196.18
 21
761.6
 31
0.0
  0
LINE
  5
20F
330
1E
100
AcDbEntity
  8
0
100
AcDbLine
 10
195.867
 20
752.7999999999999
 30
0.0
 11
196.18
 21
752.7999999999999
 31
0.0
  0
LINE
  5
210
330
1E
100
AcDbEntity
  8
0
100
AcDbLine
 10
195.867
 20
754.8
 30
0.0
 11
196.18
 21
754.8
 31
0.0
  0
LINE
  5
211
330
1E
100
AcDbEntity
  8
0
100
AcDbLine
 10
195.867
 20
746.0
 30
0.0
 11
196.18
 21
746.0
 31
0.0
  0
LINE
  5
212
330
1E
100
AcDbEntity
  8
0
100
AcDbLine
 10
195.867
 20
748.0
 30
0.0
 11
196.18
 21
748.0
 31
0.0
  0
LINE
  5
213
330
1E
100
AcDbEntity
  8
0
100
AcDbLine
 10
195.867
 20
739.2
 30
0.0
 11
196.18
 21
739.2
 31
0.0
  0
LINE
  5
214
330
1E
100
AcDbEntity
  8
0
100
AcDbLine
 10
196.3359999999999
 20
740.7
 30
0.0
 11
196.3359999999999
 21
739.7
 31
0.0
  0
LINE
  5
215
330
1E
100
AcDbEntity
  8
0
100
AcDbLine
 10
196.3359999999999
 20
739.7
 30
0.0
 11
196.3359999999999
 21
740.7
 31
0.0
  0
LINE
  5
216
330
1E
100
AcDbEntity
  8
0
100
AcDbLine
 10
196.18
 20
739.2
 30
0.0
 11
196.3359999999999
 21
739.7
 31
0.0
  0
LINE
  5
217
330
1E
100
AcDbEntity
  8
0
100
AcDbLine
 10
196.18
 20
768.4
 30
0.0
 11
196.3359999999999
 21
767.9
 31
0.0
  0
LINE
  5
218
330
1E
100
AcDbEntity
  8
0
100
AcDbLine
 10
196.18
 20
775.2
 30
0.0
 11
196.3359999999999
 21
774.7
 31
0.0
  0
LINE
  5
219
330
1E
100
AcDbEntity
  8
0
100
AcDbLine
 10
196.18
 20
773.2
 30
0.0
 11
196.3359999999999
 21
773.7
 31
0.0
  0
LINE
  5
21A
330
1E
100
AcDbEntity
  8
0
100
AcDbLine
 10
196.18
 20
766.3999999999999
 30
0.0
 11
196.3359999999999
 21
766.8999999999999
 31
0.0
  0
LINE
  5
21B
330
1E
100
AcDbEntity
  8
0
100
AcDbLine
 10
196.18
 20
759.6
 30
0.0
 11
196.3359999999999
 21
760.0999999999999
 31
0.0
  0
LINE
  5
21C
330
1E
100
AcDbEntity
  8
0
100
AcDbLine
 10
196.18
 20
761.6
 30
0.0
 11
196.3359999999999
 21
761.1
 31
0.0
  0
LINE
  5
21D
330
1E
100
AcDbEntity
  8
0
100
AcDbLine
 10
196.18
 20
752.7999999999999
 30
0.0
 11
196.3359999999999
 21
753.2999999999999
 31
0.0
  0
LINE
  5
21E
330
1E
100
AcDbEntity
  8
0
100
AcDbLine
 10
196.18
 20
754.8
 30
0.0
 11
196.3359999999999
 21
754.2999999999999
 31
0.0
  0
LINE
  5
21F
330
1E
100
AcDbEntity
  8
0
100
AcDbLine
 10
196.18
 20
746.0
 30
0.0
 11
196.3359999999999
 21
746.4999999999999
 31
0.0
  0
LINE
  5
220
330
1E
100
AcDbEntity
  8
0
100
AcDbLine
 10
196.3359999999999
 20
746.4999999999999
 30
0.0
 11
196.3359999999999
 21
747.5
 31
0.0
  0
LINE
  5
221
330
1E
100
AcDbEntity
  8
0
100
AcDbLine
 10
196.3359999999999
 20
767.9
 30
0.0
 11
196.3359999999999
 21
766.8999999999999
 31
0.0
  0
LINE
  5
222
330
1E
100
AcDbEntity
  8
0
100
AcDbLine
 10
196.3359999999999
 20
766.8999999999999
 30
0.0
 11
196.3359999999999
 21
767.9
 31
0.0
  0
LINE
  5
223
330
1E
100
AcDbEntity
  8
0
100
AcDbLine
 10
196.3359999999999
 20
774.7
 30
0.0
 11
196.3359999999999
 21
773.7
 31
0.0
  0
LINE
  5
224
330
1E
100
AcDbEntity
  8
0
100
AcDbLine
 10
196.3359999999999
 20
773.7
 30
0.0
 11
196.3359999999999
 21
774.7
 31
0.0
  0
LINE
  5
225
330
1E
100
AcDbEntity
  8
0
100
AcDbLine
 10
196.3359999999999
 20
761.1
 30
0.0
 11
196.3359999999999
 21
760.0999999999999
 31
0.0
  0
LINE
  5
226
330
1E
100
AcDbEntity
  8
0
100
AcDbLine
 10
196.3359999999999
 20
760.0999999999999
 30
0.0
 11
196.3359999999999
 21
761.1
 31
0.0
  0
LINE
  5
227
330
1E
100
AcDbEntity
  8
0
100
AcDbLine
 10
196.3359999999999
 20
753.2999999999999
 30
0.0
 11
196.3359999999999
 21
754.2999999999999
 31
0.0
  0
LINE
  5
228
330
1E
100
AcDbEntity
  8
0
100
AcDbLine
 10
196.3359999999999
 20
754.2999999999999
 30
0.0
 11
196.3359999999999
 21
753.2999999999999
 31
0.0
  0
LINE
  5
229
330
1E
100
AcDbEntity
  8
0
100
AcDbLine
 10
196.3359999999999
 20
747.5
 30
0.0
 11
196.3359999999999
 21
746.4999999999999
 31
0.0
  0
LINE
  5
22A
330
1E
100
AcDbEntity
  8
0
100
AcDbLine
 10
196.18
 20
748.0
 30
0.0
 11
196.3359999999999
 21
747.5
 31
0.0
  0
LINE
  5
22B
330
1E
100
AcDbEntity
  8
0
100
AcDbLine
 10
196.18
 20
741.2
 30
0.0
 11
196.3359999999999
 21
740.7
 31
0.0
  0
LINE
  5
22C
330
1E
100
AcDbEntity
  8
0
100
AcDbLine
 10
195.867
 20
741.2
 30
0.0
 11
196.18
 21
741.2
 31
0.0
  0
LINE
  5
22D
330
1E
100
AcDbEntity
  8
0
100
AcDbLine
 10
195.867
 20
734.4
 30
0.0
 11
196.18
 21
734.4
 31
0.0
  0
LINE
  5
22E
330
1E
100
AcDbEntity
  8
0
100
AcDbLine
 10
195.7109999999999
 20
733.8999999999999
 30
0.0
 11
195.867
 21
734.4
 31
0.0
  0
LINE
  5
22F
330
1E
100
AcDbEntity
  8
0
100
AcDbLine
 10
195.7109999999999
 20
733.8999999999999
 30
0.0
 11
195.7109999999999
 21
732.8999999999999
 31
0.0
  0
LINE
  5
231
330
1E
100
AcDbEntity
  8
0
100
AcDbLine
 10
196.3359999999999
 20
732.8999999999999
 30
0.0
 11
196.3359999999999
 21
733.8999999999999
 31
0.0
  0
LINE
  5
232
330
1E
100
AcDbEntity
  8
0
100
AcDbLine
 10
196.49
 20
739.2
 30
0.0
 11
197.0
 21
739.2
 31
0.0
  0
LINE
  5
233
330
1E
100
AcDbEntity
  8
0
100
AcDbLine
 10
196.49
 20
739.2
 30
0.0
 11
196.49
 21
734.4
 31
0.0
  0
LINE
  5
236
330
1E
100
AcDbEntity
  8
0
100
AcDbLine
 10
196.49
 20
746.0
 30
0.0
 11
197.0
 21
746.0
 31
0.0
  0
LINE
  5
237
330
1E
100
AcDbEntity
  8
0
100
AcDbLine
 10
196.49
 20
746.0
 30
0.0
 11
196.49
 21
741.2
 31
0.0
  0
LINE
  5
238
330
1E
100
AcDbEntity
  8
0
100
AcDbLine
 10
196.49
 20
752.7999999999999
 30
0.0
 11
197.0
 21
752.7999999999999
 31
0.0
  0
LINE
  5
239
330
1E
100
AcDbEntity
  8
0
100
AcDbLine
 10
196.49
 20
752.7999999999999
 30
0.0
 11
196.49
 21
748.0
 31
0.0
  0
LINE
  5
23B
330
1E
100
AcDbEntity
  8
0
100
AcDbLine
 10
196.49
 20
759.6
 30
0.0
 11
197.0
 21
759.6
 31
0.0
  0
LINE
  5
23C
330
1E
100
AcDbEntity
  8
0
100
AcDbLine
 10
196.49
 20
759.6
 30
0.0
 11
196.49
 21
754.8
 31
0.0
  0
LINE
  5
23F
330
1E
100
AcDbEntity
  8
0
100
AcDbLine
 10
196.49
 20
773.2
 30
0.0
 11
197.0
 21
773.2
 31
0.0
  0
LINE
  5
240
330
1E
100
AcDbEntity
  8
0
100
AcDbLine
 10
196.49
 20
773.2
 30
0.0
 11
196.49
 21
768.4
 31
0.0
  0
LINE
  5
241
330
1E
100
AcDbEntity
  8
0
100
AcDbLine
 10
196.49
 20
768.4
 30
0.0
 11
197.0
 21
768.4
 31
0.0
  0
LINE
  5
242
330
1E
100
AcDbEntity
  8
0
100
AcDbLine
 10
196.49
 20
768.4
 30
0.0
 11
196.49
 21
773.2
 31
0.0
  0
LINE
  5
244
330
1E
100
AcDbEntity
  8
0
100
AcDbLine
 10
196.49
 20
775.2
 30
0.0
 11
197.0
 21
775.2
 31
0.0
  0
LINE
  5
245
330
1E
100
AcDbEntity
  8
0
100
AcDbLine
 10
196.49
 20
775.2
 30
0.0
 11
196.49
 21
780.0
 31
0.0
  0
LINE
  5
249
330
1E
100
AcDbEntity
  8
0
100
AcDbLine
 10
196.49
 20
766.3999999999999
 30
0.0
 11
197.0
 21
766.3999999999999
 31
0.0
  0
LINE
  5
24A
330
1E
100
AcDbEntity
  8
0
100
AcDbLine
 10
196.49
 20
766.3999999999999
 30
0.0
 11
196.49
 21
761.6
 31
0.0
  0
LINE
  5
24B
330
1E
100
AcDbEntity
  8
0
100
AcDbLine
 10
196.49
 20
761.6
 30
0.0
 11
197.0
 21
761.6
 31
0.0
  0
LINE
  5
24C
330
1E
100
AcDbEntity
  8
0
100
AcDbLine
 10
196.49
 20
761.6
 30
0.0
 11
196.49
 21
766.3999999999999
 31
0.0
  0
LINE
  5
24D
330
1E
100
AcDbEntity
  8
0
100
AcDbLine
 10
196.49
 20
754.8
 30
0.0
 11
197.0
 21
754.8
 31
0.0
  0
LINE
  5
24E
330
1E
100
AcDbEntity
  8
0
100
AcDbLine
 10
196.49
 20
754.8
 30
0.0
 11
196.49
 21
759.6
 31
0.0
  0
LINE
  5
250
330
1E
100
AcDbEntity
  8
0
100
AcDbLine
 10
196.49
 20
748.0
 30
0.0
 11
197.0
 21
748.0
 31
0.0
  0
LINE
  5
251
330
1E
100
AcDbEntity
  8
0
100
AcDbLine
 10
196.49
 20
748.0
 30
0.0
 11
196.49
 21
752.7999999999999
 31
0.0
  0
LINE
  5
254
330
1E
100
AcDbEntity
  8
0
100
AcDbLine
 10
196.49
 20
741.2
 30
0.0
 11
197.0
 21
741.2
 31
0.0
  0
LINE
  5
255
330
1E
100
AcDbEntity
  8
0
100
AcDbLine
 10
196.49
 20
741.2
 30
0.0
 11
196.49
 21
746.0
 31
0.0
  0
LINE
  5
256
330
1E
100
AcDbEntity
  8
0
100
AcDbLine
 10
196.49
 20
734.4
 30
0.0
 11
197.0
 21
734.4
 31
0.0
  0
LINE
  5
257
330
1E
100
AcDbEntity
  8
0
100
AcDbLine
 10
196.49
 20
734.4
 30
0.0
 11
196.49
 21
739.2
 31
0.0
  0
LINE
  5
258
330
1E
100
AcDbEntity
  8
0
100
AcDbLine
 10
196.49
 20
732.3999999999999
 30
0.0
 11
197.0
 21
732.3999999999999
 31
0.0
  0
LINE
  5
259
330
1E
100
AcDbEntity
  8
0
100
AcDbLine
 10
196.49
 20
732.3999999999999
 30
0.0
 11
196.49
 21
727.6
 31
0.0
  0
LINE
  5
25B
330
1E
100
AcDbEntity
  8
0
100
AcDbLine
 10
196.3359999999999
 20
733.8999999999999
 30
0.0
 11
196.3359999999999
 21
732.8999999999999
 31
0.0
  0
LINE
  5
25D
330
1E
100
AcDbEntity
  8
0
100
AcDbLine
 10
196.3359999999999
 20
727.1
 30
0.0
 11
196.3359999999999
 21
726.1
 31
0.0
  0
LINE
  5
25E
330
1E
100
AcDbEntity
  8
0
100
AcDbLine
 10
196.49
 20
727.6
 30
0.0
 11
197.0
 21
727.6
 31
0.0
  0
LINE
  5
25F
330
1E
100
AcDbEntity
  8
0
100
AcDbLine
 10
196.49
 20
727.6
 30
0.0
 11
196.49
 21
732.3999999999999
 31
0.0
  0
LINE
  5
261
330
1E
100
AcDbEntity
  8
0
100
AcDbLine
 10
193.8159999999999
 20
720.7999999999999
 30
0.0
 11
194.113
 21
720.2999999999999
 31
0.0
  0
LINE
  5
263
330
1E
100
AcDbEntity
  8
0
100
AcDbLine
 10
196.3359999999999
 20
720.2999999999999
 30
0.0
 11
196.3359999999999
 21
719.2999999999999
 31
0.0
  0
LINE
  5
264
330
1E
100
AcDbEntity
  8
0
100
AcDbLine
 10
197.0
 20
720.2999999999999
 30
0.0
 11
197.0
 21
719.2999999999999
 31
0.0
  0
LINE
  5
265
330
1E
100
AcDbEntity
  8
0
100
AcDbLine
 10
197.0
 20
720.2999999999999
 30
0.0
 11
197.0
 21
720.7999999999999
 31
0.0
  0
LINE
  5
266
330
1E
100
AcDbEntity
  8
0
100
AcDbLine
 10
197.0
 20
718.7999999999999
 30
0.0
 11
197.0
 21
719.2999999999999
 31
0.0
  0
LINE
  5
267
330
1E
100
AcDbEntity
  8
0
100
AcDbLine
 10
197.0
 20
719.2999999999999
 30
0.0
 11
197.0
 21
718.7999999999999
 31
0.0
  0
LINE
  5
268
330
1E
100
AcDbEntity
  8
0
100
AcDbLine
 10
197.0
 20
719.2999999999999
 30
0.0
 11
197.0
 21
720.2999999999999
 31
0.0
  0
LINE
  5
269
330
1E
100
AcDbEntity
  8
0
100
AcDbLine
 10
197.0
 20
725.6
 30
0.0
 11
197.0
 21
726.1
 31
0.0
  0
LINE
  5
26A
330
1E
100
AcDbEntity
  8
0
100
AcDbLine
 10
197.0
 20
732.3999999999999
 30
0.0
 11
197.0
 21
732.8999999999999
 31
0.0
  0
LINE
  5
26B
330
1E
100
AcDbEntity
  8
0
100
AcDbLine
 10
197.0
 20
739.2
 30
0.0
 11
197.0
 21
739.7
 31
0.0
  0
LINE
  5
26C
330
1E
100
AcDbEntity
  8
0
100
AcDbLine
 10
197.0
 20
746.0
 30
0.0
 11
197.0
 21
746.4999999999999
 31
0.0
  0
LINE
  5
26D
330
1E
100
AcDbEntity
  8
0
100
AcDbLine
 10
197.0
 20
752.7999999999999
 30
0.0
 11
197.0
 21
753.2999999999999
 31
0.0
  0
LINE
  5
26E
330
1E
100
AcDbEntity
  8
0
100
AcDbLine
 10
197.0
 20
761.1
 30
0.0
 11
197.0
 21
760.0999999999999
 31
0.0
  0
LINE
  5
26F
330
1E
100
AcDbEntity
  8
0
100
AcDbLine
 10
197.0
 20
761.1
 30
0.0
 11
197.0
 21
761.6
 31
0.0
  0
LINE
  5
270
330
1E
100
AcDbEntity
  8
0
100
AcDbLine
 10
197.0
 20
759.6
 30
0.0
 11
197.0
 21
760.0999999999999
 31
0.0
  0
LINE
  5
271
330
1E
100
AcDbEntity
  8
0
100
AcDbLine
 10
197.0
 20
760.0999999999999
 30
0.0
 11
197.0
 21
759.6
 31
0.0
  0
LINE
  5
272
330
1E
100
AcDbEntity
  8
0
100
AcDbLine
 10
197.0
 20
760.0999999999999
 30
0.0
 11
197.0
 21
761.1
 31
0.0
  0
LINE
  5
273
330
1E
100
AcDbEntity
  8
0
100
AcDbLine
 10
197.0
 20
768.4
 30
0.0
 11
197.0
 21
767.9
 31
0.0
  0
LINE
  5
274
330
1E
100
AcDbEntity
  8
0
100
AcDbLine
 10
197.0
 20
767.9
 30
0.0
 11
197.0
 21
766.8999999999999
 31
0.0
  0
LINE
  5
275
330
1E
100
AcDbEntity
  8
0
100
AcDbLine
 10
197.0
 20
767.9
 30
0.0
 11
197.0
 21
768.4
 31
0.0
  0
LINE
  5
276
330
1E
100
AcDbEntity
  8
0
100
AcDbLine
 10
197.0
 20
773.7
 30
0.0
 11
197.0
 21
774.7
 31
0.0
  0
LINE
  5
277
330
1E
100
AcDbEntity
  8
0
100
AcDbLine
 10
197.0
 20
773.7
 30
0.0
 11
197.0
 21
773.2
 31
0.0
  0
LINE
  5
278
330
1E
100
AcDbEntity
  8
0
100
AcDbLine
 10
197.0
 20
775.2
 30
0.0
 11
197.0
 21
774.7
 31
0.0
  0
LINE
  5
279
330
1E
100
AcDbEntity
  8
0
100
AcDbLine
 10
197.0
 20
774.7
 30
0.0
 11
197.0
 21
773.7
 31
0.0
  0
LINE
  5
27A
330
1E
100
AcDbEntity
  8
0
100
AcDbLine
 10
197.0
 20
774.7
 30
0.0
 11
197.0
 21
775.2
 31
0.0
  0
LINE
  5
27B
330
1E
100
AcDbEntity
  8
0
100
AcDbLine
 10
197.0
 20
773.2
 30
0.0
 11
197.0
 21
773.7
 31
0.0
  0
LINE
  5
27C
330
1E
100
AcDbEntity
  8
0
100
AcDbLine
 10
197.0
 20
766.8999999999999
 30
0.0
 11
197.0
 21
766.3999999999999
 31
0.0
  0
LINE
  5
27D
330
1E
100
AcDbEntity
  8
0
100
AcDbLine
 10
197.0
 20
766.8999999999999
 30
0.0
 11
197.0
 21
767.9
 31
0.0
  0
LINE
  5
27E
330
1E
100
AcDbEntity
  8
0
100
AcDbLine
 10
197.0
 20
766.3999999999999
 30
0.0
 11
197.0
 21
766.8999999999999
 31
0.0
  0
LINE
  5
27F
330
1E
100
AcDbEntity
  8
0
100
AcDbLine
 10
197.0
 20
761.6
 30
0.0
 11
197.0
 21
761.1
 31
0.0
  0
LINE
  5
280
330
1E
100
AcDbEntity
  8
0
100
AcDbLine
 10
197.0
 20
754.8
 30
0.0
 11
197.0
 21
754.2999999999999
 31
0.0
  0
LINE
  5
281
330
1E
100
AcDbEntity
  8
0
100
AcDbLine
 10
197.0
 20
754.2999999999999
 30
0.0
 11
197.0
 21
754.8
 31
0.0
  0
LINE
  5
282
330
1E
100
AcDbEntity
  8
0
100
AcDbLine
 10
197.0
 20
754.2999999999999
 30
0.0
 11
197.0
 21
753.2999999999999
 31
0.0
  0
LINE
  5
283
330
1E
100
AcDbEntity
  8
0
100
AcDbLine
 10
197.0
 20
753.2999999999999
 30
0.0
 11
197.0
 21
754.2999999999999
 31
0.0
  0
LINE
  5
284
330
1E
100
AcDbEntity
  8
0
100
AcDbLine
 10
197.0
 20
753.2999999999999
 30
0.0
 11
197.0
 21
752.7999999999999
 31
0.0
  0
LINE
  5
285
330
1E
100
AcDbEntity
  8
0
100
AcDbLine
 10
197.0
 20
748.0
 30
0.0
 11
197.0
 21
747.5
 31
0.0
  0
LINE
  5
286
330
1E
100
AcDbEntity
  8
0
100
AcDbLine
 10
197.0
 20
747.5
 30
0.0
 11
197.0
 21
748.0
 31
0.0
  0
LINE
  5
287
330
1E
100
AcDbEntity
  8
0
100
AcDbLine
 10
197.0
 20
747.5
 30
0.0
 11
197.0
 21
746.4999999999999
 31
0.0
  0
LINE
  5
288
330
1E
100
AcDbEntity
  8
0
100
AcDbLine
 10
197.0
 20
746.4999999999999
 30
0.0
 11
197.0
 21
747.5
 31
0.0
  0
LINE
  5
289
330
1E
100
AcDbEntity
  8
0
100
AcDbLine
 10
197.0
 20
746.4999999999999
 30
0.0
 11
197.0
 21
746.0
 31
0.0
  0
LINE
  5
28A
330
1E
100
AcDbEntity
  8
0
100
AcDbLine
 10
197.0
 20
740.7
 30
0.0
 11
197.0
 21
739.7
 31
0.0
  0
LINE
  5
28B
330
1E
100
AcDbEntity
  8
0
100
AcDbLine
 10
197.0
 20
740.7
 30
0.0
 11
197.0
 21
741.2
 31
0.0
  0
LINE
  5
28C
330
1E
100
AcDbEntity
  8
0
100
AcDbLine
 10
197.0
 20
739.7
 30
0.0
 11
197.0
 21
739.2
 31
0.0
  0
LINE
  5
28D
330
1E
100
AcDbEntity
  8
0
100
AcDbLine
 10
197.0
 20
739.7
 30
0.0
 11
197.0
 21
740.7
 31
0.0
  0
LINE
  5
28E
330
1E
100
AcDbEntity
  8
0
100
AcDbLine
 10
197.0
 20
741.2
 30
0.0
 11
197.0
 21
740.7
 31
0.0
  0
LINE
  5
28F
330
1E
100
AcDbEntity
  8
0
100
AcDbLine
 10
197.0
 20
734.4
 30
0.0
 11
197.0
 21
733.8999999999999
 31
0.0
  0
LINE
  5
290
330
1E
100
AcDbEntity
  8
0
100
AcDbLine
 10
197.0
 20
733.8999999999999
 30
0.0
 11
197.0
 21
734.4
 31
0.0
  0
LINE
  5
291
330
1E
100
AcDbEntity
  8
0
100
AcDbLine
 10
197.0
 20
733.8999999999999
 30
0.0
 11
197.0
 21
732.8999999999999
 31
0.0
  0
LINE
  5
292
330
1E
100
AcDbEntity
  8
0
100
AcDbLine
 10
197.0
 20
732.8999999999999
 30
0.0
 11
197.0
 21
733.8999999999999
 31
0.0
  0
LINE
  5
293
330
1E
100
AcDbEntity
  8
0
100
AcDbLine
 10
197.0
 20
732.8999999999999
 30
0.0
 11
197.0
 21
732.3999999999999
 31
0.0
  0
LINE
  5
294
330
1E
100
AcDbEntity
  8
0
100
AcDbLine
 10
197.0
 20
727.1
 30
0.0
 11
197.0
 21
726.1
 31
0.0
  0
LINE
  5
295
330
1E
100
AcDbEntity
  8
0
100
AcDbLine
 10
197.0
 20
727.1
 30
0.0
 11
197.0
 21
727.6
 31
0.0
  0
LINE
  5
296
330
1E
100
AcDbEntity
  8
0
100
AcDbLine
 10
197.0
 20
726.1
 30
0.0
 11
197.0
 21
725.6
 31
0.0
  0
LINE
  5
297
330
1E
100
AcDbEntity
  8
0
100
AcDbLine
 10
197.0
 20
726.1
 30
0.0
 11
197.0
 21
727.1
 31
0.0
  0
LINE
  5
298
330
1E
100
AcDbEntity
  8
0
100
AcDbLine
 10
197.0
 20
727.6
 30
0.0
 11
197.0
 21
727.1
 31
0.0
  0
LINE
  5
299
330
1E
100
AcDbEntity
  8
0
100
AcDbLine
 10
197.0
 20
720.7999999999999
 30
0.0
 11
197.0
 21
720.2999999999999
 31
0.0
  0
LINE
  5
29A
330
1E
100
AcDbEntity
  8
0
100
AcDbLine
 10
196.49
 20
720.7999999999999
 30
0.0
 11
197.0
 21
720.7999999999999
 31
0.0
  0
LINE
  5
29B
330
1E
100
AcDbEntity
  8
0
100
AcDbLine
 10
196.49
 20
720.7999999999999
 30
0.0
 11
196.49
 21
725.6
 31
0.0
  0
LINE
  5
29C
330
1E
100
AcDbEntity
  8
0
100
AcDbLine
 10
196.49
 20
714.0
 30
0.0
 11
197.0
 21
714.0
 31
0.0
  0
LINE
  5
29D
330
1E
100
AcDbEntity
  8
0
100
AcDbLine
 10
196.49
 20
714.0
 30
0.0
 11
196.49
 21
718.7999999999999
 31
0.0
  0
LINE
  5
29E
330
1E
100
AcDbEntity
  8
0
100
AcDbLine
 10
197.0
 20
714.0
 30
0.0
 11
197.0
 21
713.4999999999999
 31
0.0
  0
LINE
  5
29F
330
1E
100
AcDbEntity
  8
0
100
AcDbLine
 10
197.0
 20
713.4999999999999
 30
0.0
 11
197.0
 21
712.5
 31
0.0
  0
LINE
  5
2A0
330
1E
100
AcDbEntity
  8
0
100
AcDbLine
 10
197.0
 20
713.4999999999999
 30
0.0
 11
197.0
 21
714.0
 31
0.0
  0
LINE
  5
2A1
330
1E
100
AcDbEntity
  8
0
100
AcDbLine
 10
218.0
 20
722.4099999999999
 30
0.0
 11
218.0
 21
718.0
 31
0.0
  0
LINE
  5
2A2
330
1E
100
AcDbEntity
  8
0
100
AcDbLine
 10
218.0
 20
722.4099999999999
 30
0.0
 11
218.0
 21
726.47
 31
0.0
  0
LINE
  5
2A3
330
1E
100
AcDbEntity
  8
0
100
AcDbLine
 10
218.0
 20
726.47
 30
0.0
 11
218.0
 21
722.4099999999999
 31
0.0
  0
LINE
  5
2A4
330
1E
100
AcDbEntity
  8
0
100
AcDbLine
 10
218.0
 20
726.47
 30
0.0
 11
218.0
 21
730.0399999999999
 31
0.0
  0
LINE
  5
2A5
330
1E
100
AcDbEntity
  8
0
100
AcDbLine
 10
218.0
 20
730.0399999999999
 30
0.0
 11
218.0
 21
726.47
 31
0.0
  0
LINE
  5
2A6
330
1E
100
AcDbEntity
  8
0
100
AcDbLine
 10
218.0
 20
730.0399999999999
 30
0.0
 11
218.0
 21
732.77
 31
0.0
  0
LINE
  5
2A7
330
1E
100
AcDbEntity
  8
0
100
AcDbLine
 10
218.0
 20
732.77
 30
0.0
 11
218.0
 21
730.0399999999999
 31
0.0
  0
LINE
  5
2A8
330
1E
100
AcDbEntity
  8
0
100
AcDbLine
 10
218.0
 20
732.77
 30
0.0
 11
218.0
 21
734.45
 31
0.0
  0
LINE
  5
2A9
330
1E
100
AcDbEntity
  8
0
100
AcDbLine
 10
218.0
 20
734.45
 30
0.0
 11
218.0
 21
732.77
 31
0.0
  0
LINE
  5
2AA
330
1E
100
AcDbEntity
  8
0
100
AcDbLine
 10
218.0
 20
734.45
 30
0.0
 11
218.0
 21
735.08
 31
0.0
  0
LINE
  5
2AB
330
1E
100
AcDbEntity
  8
0
100
AcDbLine
 10
218.0
 20
735.08
 30
0.0
 11
218.0
 21
734.45
 31
0.0
  0
LINE
  5
2AC
330
1E
100
AcDbEntity
  8
0
100
AcDbLine
 10
218.0
 20
735.08
 30
0.0
 11
218.7689999999999
 21
735.5
 31
0.0
  0
LINE
  5
2AD
330
1E
100
AcDbEntity
  8
0
100
AcDbLine
 10
218.7689999999999
 20
735.5
 30
0.0
 11
258.231
 21
735.5
 31
0.0
  0
LINE
  5
2AE
330
1E
100
AcDbEntity
  8
0
100
AcDbLine
 10
218.0
 20
718.0
 30
0.0
 11
218.0
 21
713.59
 31
0.0
  0
LINE
  5
2AF
330
1E
100
AcDbEntity
  8
0
100
AcDbLine
 10
218.0
 20
718.0
 30
0.0
 11
218.0
 21
722.4099999999999
 31
0.0
  0
LINE
  5
2B0
330
1E
100
AcDbEntity
  8
0
100
AcDbLine
 10
218.0
 20
713.59
 30
0.0
 11
218.0
 21
709.5299999999999
 31
0.0
  0
LINE
  5
2B1
330
1E
100
AcDbEntity
  8
0
100
AcDbLine
 10
218.0
 20
713.59
 30
0.0
 11
218.0
 21
718.0
 31
0.0
  0
LINE
  5
2B2
330
1E
100
AcDbEntity
  8
0
100
AcDbLine
 10
197.0
 20
712.5
 30
0.0
 11
197.0
 21
712.0
 31
0.0
  0
LINE
  5
2B3
330
1E
100
AcDbEntity
  8
0
100
AcDbLine
 10
197.0
 20
712.5
 30
0.0
 11
197.0
 21
713.4999999999999
 31
0.0
  0
LINE
  5
2B4
330
1E
100
AcDbEntity
  8
0
100
AcDbLine
 10
197.0
 20
712.0
 30
0.0
 11
197.0
 21
712.5
 31
0.0
  0
LINE
  5
2B5
330
1E
100
AcDbEntity
  8
0
100
AcDbLine
 10
258.231
 20
700.4999999999999
 30
0.0
 11
259.0
 21
700.9199999999999
 31
0.0
  0
LINE
  5
2B6
330
1E
100
AcDbEntity
  8
0
100
AcDbLine
 10
259.0
 20
722.4099999999999
 30
0.0
 11
259.0
 21
726.47
 31
0.0
  0
LINE
  5
2B7
330
1E
100
AcDbEntity
  8
0
100
AcDbLine
 10
259.0
 20
722.4099999999999
 30
0.0
 11
259.0
 21
718.0
 31
0.0
  0
LINE
  5
2B8
330
1E
100
AcDbEntity
  8
0
100
AcDbLine
 10
259.0
 20
726.47
 30
0.0
 11
259.0
 21
730.0399999999999
 31
0.0
  0
LINE
  5
2B9
330
1E
100
AcDbEntity
  8
0
100
AcDbLine
 10
259.0
 20
726.47
 30
0.0
 11
259.0
 21
722.4099999999999
 31
0.0
  0
LINE
  5
2BA
330
1E
100
AcDbEntity
  8
0
100
AcDbLine
 10
259.0
 20
730.0399999999999
 30
0.0
 11
259.0
 21
732.77
 31
0.0
  0
LINE
  5
2BB
330
1E
100
AcDbEntity
  8
0
100
AcDbLine
 10
259.0
 20
730.0399999999999
 30
0.0
 11
259.0
 21
726.47
 31
0.0
  0
LINE
  5
2BC
330
1E
100
AcDbEntity
  8
0
100
AcDbLine
 10
259.0
 20
732.77
 30
0.0
 11
259.0
 21
734.45
 31
0.0
  0
LINE
  5
2BD
330
1E
100
AcDbEntity
  8
0
100
AcDbLine
 10
259.0
 20
732.77
 30
0.0
 11
259.0
 21
730.0399999999999
 31
0.0
  0
LINE
  5
2BE
330
1E
100
AcDbEntity
  8
0
100
AcDbLine
 10
259.0
 20
735.08
 30
0.0
 11
259.0
 21
734.45
 31
0.0
  0
LINE
  5
2BF
330
1E
100
AcDbEntity
  8
0
100
AcDbLine
 10
259.0
 20
734.45
 30
0.0
 11
259.0
 21
735.08
 31
0.0
  0
LINE
  5
2C0
330
1E
100
AcDbEntity
  8
0
100
AcDbLine
 10
259.0
 20
734.45
 30
0.0
 11
259.0
 21
732.77
 31
0.0
  0
LINE
  5
2C1
330
1E
100
AcDbEntity
  8
0
100
AcDbLine
 10
258.231
 20
735.5
 30
0.0
 11
259.0
 21
735.08
 31
0.0
  0
LINE
  5
2C2
330
1E
100
AcDbEntity
  8
0
100
AcDbLine
 10
259.0
 20
718.0
 30
0.0
 11
259.0
 21
713.59
 31
0.0
  0
LINE
  5
2C3
330
1E
100
AcDbEntity
  8
0
100
AcDbLine
 10
259.0
 20
718.0
 30
0.0
 11
259.0
 21
722.4099999999999
 31
0.0
  0
LINE
  5
2C4
330
1E
100
AcDbEntity
  8
0
100
AcDbLine
 10
259.0
 20
713.59
 30
0.0
 11
259.0
 21
718.0
 31
0.0
  0
LINE
  5
2C5
330
1E
100
AcDbEntity
  8
0
100
AcDbLine
 10
259.0
 20
713.59
 30
0.0
 11
259.0
 21
709.5299999999999
 31
0.0
  0
LINE
  5
2C6
330
1E
100
AcDbEntity
  8
0
100
AcDbLine
 10
259.0
 20
709.5299999999999
 30
0.0
 11
259.0
 21
713.59
 31
0.0
  0
LINE
  5
2C7
330
1E
100
AcDbEntity
  8
0
100
AcDbLine
 10
259.0
 20
709.5299999999999
 30
0.0
 11
259.0
 21
705.96
 31
0.0
  0
LINE
  5
2C8
330
1E
100
AcDbEntity
  8
0
100
AcDbLine
 10
259.0
 20
705.96
 30
0.0
 11
259.0
 21
709.5299999999999
 31
0.0
  0
LINE
  5
2C9
330
1E
100
AcDbEntity
  8
0
100
AcDbLine
 10
259.0
 20
705.96
 30
0.0
 11
259.0
 21
703.23
 31
0.0
  0
LINE
  5
2CA
330
1E
100
AcDbEntity
  8
0
100
AcDbLine
 10
259.0
 20
703.23
 30
0.0
 11
259.0
 21
705.96
 31
0.0
  0
LINE
  5
2CB
330
1E
100
AcDbEntity
  8
0
100
AcDbLine
 10
259.0
 20
703.23
 30
0.0
 11
259.0
 21
701.5499999999999
 31
0.0
  0
LINE
  5
2CC
330
1E
100
AcDbEntity
  8
0
100
AcDbLine
 10
259.0
 20
701.5499999999999
 30
0.0
 11
259.0
 21
703.23
 31
0.0
  0
LINE
  5
2CD
330
1E
100
AcDbEntity
  8
0
100
AcDbLine
 10
259.0
 20
701.5499999999999
 30
0.0
 11
259.0
 21
700.9199999999999
 31
0.0
  0
LINE
  5
2CE
330
1E
100
AcDbEntity
  8
0
100
AcDbLine
 10
259.0
 20
700.9199999999999
 30
0.0
 11
259.0
 21
701.5499999999999
 31
0.0
  0
LINE
  5
2CF
330
1E
100
AcDbEntity
  8
0
100
AcDbLine
 10
258.0
 20
670.0
 30
0.0
 11
258.6999999999999
 21
669.7
 31
0.0
  0
LINE
  5
2D0
330
1E
100
AcDbEntity
  8
0
100
AcDbLine
 10
258.0
 20
669.7
 30
0.0
 11
258.4999999999999
 21
669.7
 31
0.0
  0
LINE
  5
2D1
330
1E
100
AcDbEntity
  8
0
100
AcDbLine
 10
185.0
 20
669.7
 30
0.0
 11
258.0
 21
669.7
 31
0.0
  0
LINE
  5
2D2
330
1E
100
AcDbEntity
  8
0
100
AcDbLine
 10
259.0
 20
659.0
 30
0.0
 11
259.0
 21
777.0
 31
0.0
  0
LINE
  5
2D3
330
1E
100
AcDbEntity
  8
0
100
AcDbLine
 10
259.0
 20
659.0
 30
0.0
 11
259.2999999999999
 21
658.2999999999999
 31
0.0
  0
LINE
  5
2D4
330
1E
100
AcDbEntity
  8
0
100
AcDbLine
 10
259.0
 20
659.0
 30
0.0
 11
259.0
 21
669.0
 31
0.0
  0
LINE
  5
2D5
330
1E
100
AcDbEntity
  8
0
100
AcDbLine
 10
259.2999999999999
 20
777.0
 30
0.0
 11
259.5
 21
777.7000000000001
 31
0.0
  0
LINE
  5
2D6
330
1E
100
AcDbEntity
  8
0
100
AcDbLine
 10
259.2999999999999
 20
777.0
 30
0.0
 11
259.2999999999999
 21
659.0
 31
0.0
  0
LINE
  5
2D8
330
1E
100
AcDbEntity
  8
0
100
AcDbLine
 10
193.1909999999999
 20
780.0
 30
0.0
 11
193.8159999999999
 21
780.0
 31
0.0
  0
LINE
  5
2D9
330
1E
100
AcDbEntity
  8
0
100
AcDbLine
 10
193.8159999999999
 20
780.0
 30
0.0
 11
194.113
 21
780.5
 31
0.0
  0
LINE
  5
2DA
330
1E
100
AcDbEntity
  8
0
100
AcDbLine
 10
193.2229999999999
 20
780.0
 30
0.0
 11
193.8159999999999
 21
780.0
 31
0.0
  0
LINE
  5
2DB
330
1E
100
AcDbEntity
  8
0
100
AcDbLine
 10
192.927
 20
780.5
 30
0.0
 11
192.927
 21
781.5
 31
0.0
  0
LINE
  5
2DC
330
1E
100
AcDbEntity
  8
0
100
AcDbLine
 10
192.927
 20
780.5
 30
0.0
 11
193.2229999999999
 21
780.0
 31
0.0
  0
LINE
  5
2DD
330
1E
100
AcDbEntity
  8
0
100
AcDbLine
 10
194.113
 20
780.5
 30
0.0
 11
194.113
 21
781.5
 31
0.0
  0
LINE
  5
2E0
330
1E
100
AcDbEntity
  8
0
100
AcDbLine
 10
196.18
 20
780.0
 30
0.0
 11
196.3359999999999
 21
780.5
 31
0.0
  0
LINE
  5
2E1
330
1E
100
AcDbEntity
  8
0
100
AcDbLine
 10
195.867
 20
780.0
 30
0.0
 11
196.18
 21
780.0
 31
0.0
  0
LINE
  5
2E2
330
1E
100
AcDbEntity
  8
0
100
AcDbLine
 10
195.7109999999999
 20
780.5
 30
0.0
 11
195.7109999999999
 21
781.5
 31
0.0
  0
LINE
  5
2E3
330
1E
100
AcDbEntity
  8
0
100
AcDbLine
 10
195.7109999999999
 20
780.5
 30
0.0
 11
195.867
 21
780.0
 31
0.0
  0
LINE
  5
2E4
330
1E
100
AcDbEntity
  8
0
100
AcDbLine
 10
196.3359999999999
 20
780.5
 30
0.0
 11
196.3359999999999
 21
781.5
 31
0.0
  0
LINE
  5
2E7
330
1E
100
AcDbEntity
  8
0
100
AcDbLine
 10
196.49
 20
780.0
 30
0.0
 11
197.0
 21
780.0
 31
0.0
  0
LINE
  5
2E8
330
1E
100
AcDbEntity
  8
0
100
AcDbLine
 10
196.49
 20
780.0
 30
0.0
 11
196.49
 21
775.2
 31
0.0
  0
LINE
  5
2EA
330
1E
100
AcDbEntity
  8
0
100
AcDbLine
 10
194.113
 20
781.5
 30
0.0
 11
194.113
 21
780.5
 31
0.0
  0
LINE
  5
2EB
330
1E
100
AcDbEntity
  8
0
100
AcDbLine
 10
196.3359999999999
 20
781.5
 30
0.0
 11
196.3359999999999
 21
780.5
 31
0.0
  0
LINE
  5
2ED
330
1E
100
AcDbEntity
  8
0
100
AcDbLine
 10
195.7109999999999
 20
781.5
 30
0.0
 11
195.7109999999999
 21
780.5
 31
0.0
  0
LINE
  5
2EE
330
1E
100
AcDbEntity
  8
0
100
AcDbLine
 10
195.7109999999999
 20
781.5
 30
0.0
 11
195.867
 21
782.0
 31
0.0
  0
LINE
  5
2EF
330
1E
100
AcDbEntity
  8
0
100
AcDbLine
 10
192.927
 20
781.5
 30
0.0
 11
192.927
 21
780.5
 31
0.0
  0
LINE
  5
2F0
330
1E
100
AcDbEntity
  8
0
100
AcDbLine
 10
192.927
 20
781.5
 30
0.0
 11
193.2229999999999
 21
782.0
 31
0.0
  0
LINE
  5
2F2
330
1E
100
AcDbEntity
  8
0
100
AcDbLine
 10
197.0
 20
780.0
 30
0.0
 11
197.0
 21
780.5
 31
0.0
  0
LINE
  5
2F5
330
1E
100
AcDbEntity
  8
0
100
AcDbLine
 10
193.2229999999999
 20
782.0
 30
0.0
 11
193.8159999999999
 21
782.0
 31
0.0
  0
LINE
  5
2F7
330
1E
100
AcDbEntity
  8
0
100
AcDbLine
 10
195.867
 20
782.0
 30
0.0
 11
196.18
 21
782.0
 31
0.0
  0
LINE
  5
2F8
330
1E
100
AcDbEntity
  8
0
100
AcDbLine
 10
196.18
 20
782.0
 30
0.0
 11
196.3359999999999
 21
781.5
 31
0.0
  0
LINE
  5
2F9
330
1E
100
AcDbEntity
  8
0
100
AcDbLine
 10
193.8159999999999
 20
782.0
 30
0.0
 11
194.113
 21
781.5
 31
0.0
  0
LINE
  5
2FA
330
1E
100
AcDbEntity
  8
0
100
AcDbLine
 10
173.6329999999999
 20
783.4999999999999
 30
0.0
 11
175.571
 21
783.4999999999999
 31
0.0
  0
LINE
  5
2FB
330
1E
100
AcDbEntity
  8
0
100
AcDbLine
 10
172.4079999999999
 20
783.4999999999999
 30
0.0
 11
173.6329999999999
 21
783.4999999999999
 31
0.0
  0
LINE
  5
2FC
330
1E
100
AcDbEntity
  8
0
100
AcDbLine
 10
172.0
 20
783.4999999999999
 30
0.0
 11
172.4079999999999
 21
783.4999999999999
 31
0.0
  0
LINE
  5
2FD
330
1E
100
AcDbEntity
  8
0
100
AcDbLine
 10
172.0
 20
783.4999999999999
 30
0.0
 11
173.02
 21
784.0
 31
0.0
  0
LINE
  5
2FE
330
1E
100
AcDbEntity
  8
0
100
AcDbLine
 10
172.0
 20
783.4999999999999
 30
0.0
 11
172.0
 21
610.0
 31
0.0
  0
LINE
  5
2FF
330
1E
100
AcDbEntity
  8
0
100
AcDbLine
 10
175.571
 20
783.4999999999999
 30
0.0
 11
178.122
 21
783.4999999999999
 31
0.0
  0
LINE
  5
300
330
1E
100
AcDbEntity
  8
0
100
AcDbLine
 10
178.122
 20
783.4999999999999
 30
0.0
 11
181.0819999999999
 21
783.4999999999999
 31
0.0
  0
LINE
  5
301
330
1E
100
AcDbEntity
  8
0
100
AcDbLine
 10
181.0819999999999
 20
783.4999999999999
 30
0.0
 11
184.245
 21
783.4999999999999
 31
0.0
  0
LINE
  5
302
330
1E
100
AcDbEntity
  8
0
100
AcDbLine
 10
190.367
 20
783.4999999999999
 30
0.0
 11
192.918
 21
783.4999999999999
 31
0.0
  0
LINE
  5
303
330
1E
100
AcDbEntity
  8
0
100
AcDbLine
 10
187.408
 20
783.4999999999999
 30
0.0
 11
190.367
 21
783.4999999999999
 31
0.0
  0
LINE
  5
304
330
1E
100
AcDbEntity
  8
0
100
AcDbLine
 10
184.245
 20
783.4999999999999
 30
0.0
 11
187.408
 21
783.4999999999999
 31
0.0
  0
LINE
  5
305
330
1E
100
AcDbEntity
  8
0
100
AcDbLine
 10
192.918
 20
783.4999999999999
 30
0.0
 11
194.857
 21
783.4999999999999
 31
0.0
  0
LINE
  5
306
330
1E
100
AcDbEntity
  8
0
100
AcDbLine
 10
174.5509999999999
 20
784.0
 30
0.0
 11
176.2859999999999
 21
784.0
 31
0.0
  0
LINE
  5
307
330
1E
100
AcDbEntity
  8
0
100
AcDbLine
 10
173.429
 20
784.0
 30
0.0
 11
174.5509999999999
 21
784.0
 31
0.0
  0
LINE
  5
308
330
1E
100
AcDbEntity
  8
0
100
AcDbLine
 10
173.02
 20
784.0
 30
0.0
 11
173.429
 21
784.0
 31
0.0
  0
LINE
  5
309
330
1E
100
AcDbEntity
  8
0
100
AcDbLine
 10
176.2859999999999
 20
784.0
 30
0.0
 11
178.6329999999999
 21
784.0
 31
0.0
  0
LINE
  5
30A
330
1E
100
AcDbEntity
  8
0
100
AcDbLine
 10
178.6329999999999
 20
784.0
 30
0.0
 11
181.388
 21
784.0
 31
0.0
  0
LINE
  5
30B
330
1E
100
AcDbEntity
  8
0
100
AcDbLine
 10
181.388
 20
784.0
 30
0.0
 11
184.245
 21
784.0
 31
0.0
  0
LINE
  5
30C
330
1E
100
AcDbEntity
  8
0
100
AcDbLine
 10
189.857
 20
784.0
 30
0.0
 11
192.204
 21
784.0
 31
0.0
  0
LINE
  5
30D
330
1E
100
AcDbEntity
  8
0
100
AcDbLine
 10
187.102
 20
784.0
 30
0.0
 11
189.857
 21
784.0
 31
0.0
  0
LINE
  5
30E
330
1E
100
AcDbEntity
  8
0
100
AcDbLine
 10
184.245
 20
784.0
 30
0.0
 11
187.102
 21
784.0
 31
0.0
  0
LINE
  5
30F
330
1E
100
AcDbEntity
  8
0
100
AcDbLine
 10
192.204
 20
784.0
 30
0.0
 11
193.939
 21
784.0
 31
0.0
  0
LINE
  5
310
330
1E
100
AcDbEntity
  8
0
100
AcDbLine
 10
173.6329999999999
 20
784.4999999999999
 30
0.0
 11
175.571
 21
784.4999999999999
 31
0.0
  0
LINE
  5
311
330
1E
100
AcDbEntity
  8
0
100
AcDbLine
 10
172.4079999999999
 20
784.4999999999999
 30
0.0
 11
173.6329999999999
 21
784.4999999999999
 31
0.0
  0
LINE
  5
312
330
1E
100
AcDbEntity
  8
0
100
AcDbLine
 10
172.0
 20
784.4999999999999
 30
0.0
 11
172.4079999999999
 21
784.4999999999999
 31
0.0
  0
LINE
  5
313
330
1E
100
AcDbEntity
  8
0
100
AcDbLine
 10
172.0
 20
784.4999999999999
 30
0.0
 11
173.02
 21
784.0
 31
0.0
  0
LINE
  5
314
330
1E
100
AcDbEntity
  8
0
100
AcDbLine
 10
172.0
 20
784.4999999999999
 30
0.0
 11
172.0
 21
803.5
 31
0.0
  0
LINE
  5
315
330
1E
100
AcDbEntity
  8
0
100
AcDbLine
 10
175.571
 20
784.4999999999999
 30
0.0
 11
178.122
 21
784.4999999999999
 31
0.0
  0
LINE
  5
316
330
1E
100
AcDbEntity
  8
0
100
AcDbLine
 10
178.122
 20
784.4999999999999
 30
0.0
 11
181.0819999999999
 21
784.4999999999999
 31
0.0
  0
LINE
  5
317
330
1E
100
AcDbEntity
  8
0
100
AcDbLine
 10
181.0819999999999
 20
784.4999999999999
 30
0.0
 11
184.245
 21
784.4999999999999
 31
0.0
  0
LINE
  5
318
330
1E
100
AcDbEntity
  8
0
100
AcDbLine
 10
190.367
 20
784.4999999999999
 30
0.0
 11
192.918
 21
784.4999999999999
 31
0.0
  0
LINE
  5
319
330
1E
100
AcDbEntity
  8
0
100
AcDbLine
 10
187.408
 20
784.4999999999999
 30
0.0
 11
190.367
 21
784.4999999999999
 31
0.0
  0
LINE
  5
31A
330
1E
100
AcDbEntity
  8
0
100
AcDbLine
 10
184.245
 20
784.4999999999999
 30
0.0
 11
187.408
 21
784.4999999999999
 31
0.0
  0
LINE
  5
31B
330
1E
100
AcDbEntity
  8
0
100
AcDbLine
 10
173.6329999999999
 20
803.5
 30
0.0
 11
175.571
 21
803.5
 31
0.0
  0
LINE
  5
31C
330
1E
100
AcDbEntity
  8
0
100
AcDbLine
 10
172.4079999999999
 20
803.5
 30
0.0
 11
173.6329999999999
 21
803.5
 31
0.0
  0
LINE
  5
31D
330
1E
100
AcDbEntity
  8
0
100
AcDbLine
 10
172.0
 20
803.5
 30
0.0
 11
172.4079999999999
 21
803.5
 31
0.0
  0
LINE
  5
31E
330
1E
100
AcDbEntity
  8
0
100
AcDbLine
 10
172.0
 20
803.5
 30
0.0
 11
172.5099999999999
 21
804.0
 31
0.0
  0
LINE
  5
31F
330
1E
100
AcDbEntity
  8
0
100
AcDbLine
 10
172.0
 20
803.5
 30
0.0
 11
172.0
 21
784.4999999999999
 31
0.0
  0
LINE
  5
320
330
1E
100
AcDbEntity
  8
0
100
AcDbLine
 10
175.571
 20
803.5
 30
0.0
 11
178.122
 21
803.5
 31
0.0
  0
LINE
  5
321
330
1E
100
AcDbEntity
  8
0
100
AcDbLine
 10
178.122
 20
803.5
 30
0.0
 11
181.0819999999999
 21
803.5
 31
0.0
  0
LINE
  5
322
330
1E
100
AcDbEntity
  8
0
100
AcDbLine
 10
181.0819999999999
 20
803.5
 30
0.0
 11
184.245
 21
803.5
 31
0.0
  0
LINE
  5
323
330
1E
100
AcDbEntity
  8
0
100
AcDbLine
 10
190.367
 20
803.5
 30
0.0
 11
192.918
 21
803.5
 31
0.0
  0
LINE
  5
324
330
1E
100
AcDbEntity
  8
0
100
AcDbLine
 10
187.408
 20
803.5
 30
0.0
 11
190.367
 21
803.5
 31
0.0
  0
LINE
  5
325
330
1E
100
AcDbEntity
  8
0
100
AcDbLine
 10
184.245
 20
803.5
 30
0.0
 11
187.408
 21
803.5
 31
0.0
  0
LINE
  5
326
330
1E
100
AcDbEntity
  8
0
100
AcDbLine
 10
174.0409999999999
 20
804.0
 30
0.0
 11
175.98
 21
804.0
 31
0.0
  0
LINE
  5
327
330
1E
100
AcDbEntity
  8
0
100
AcDbLine
 10
172.918
 20
804.0
 30
0.0
 11
174.0409999999999
 21
804.0
 31
0.0
  0
LINE
  5
328
330
1E
100
AcDbEntity
  8
0
100
AcDbLine
 10
172.5099999999999
 20
804.0
 30
0.0
 11
172.918
 21
804.0
 31
0.0
  0
LINE
  5
329
330
1E
100
AcDbEntity
  8
0
100
AcDbLine
 10
175.98
 20
804.0
 30
0.0
 11
178.429
 21
804.0
 31
0.0
  0
LINE
  5
32A
330
1E
100
AcDbEntity
  8
0
100
AcDbLine
 10
178.429
 20
804.0
 30
0.0
 11
181.184
 21
804.0
 31
0.0
  0
LINE
  5
32B
330
1E
100
AcDbEntity
  8
0
100
AcDbLine
 10
181.184
 20
804.0
 30
0.0
 11
184.245
 21
804.0
 31
0.0
  0
LINE
  5
32C
330
1E
100
AcDbEntity
  8
0
100
AcDbLine
 10
190.0609999999999
 20
804.0
 30
0.0
 11
192.51
 21
804.0
 31
0.0
  0
LINE
  5
32D
330
1E
100
AcDbEntity
  8
0
100
AcDbLine
 10
187.3059999999999
 20
804.0
 30
0.0
 11
190.0609999999999
 21
804.0
 31
0.0
  0
LINE
  5
32E
330
1E
100
AcDbEntity
  8
0
100
AcDbLine
 10
184.245
 20
804.0
 30
0.0
 11
187.3059999999999
 21
804.0
 31
0.0
  0
LINE
  5
32F
330
1E
100
AcDbEntity
  8
0
100
AcDbLine
 10
192.51
 20
804.0
 30
0.0
 11
194.449
 21
804.0
 31
0.0
  0
LINE
  5
330
330
1E
100
AcDbEntity
  8
0
100
AcDbLine
 10
194.449
 20
804.0
 30
0.0
 11
195.571
 21
804.0
 31
0.0
  0
LINE
  5
331
330
1E
100
AcDbEntity
  8
0
100
AcDbLine
 10
192.918
 20
803.5
 30
0.0
 11
194.857
 21
803.5
 31
0.0
  0
LINE
  5
332
330
1E
100
AcDbEntity
  8
0
100
AcDbLine
 10
194.857
 20
803.5
 30
0.0
 11
196.082
 21
803.5
 31
0.0
  0
LINE
  5
333
330
1E
100
AcDbEntity
  8
0
100
AcDbLine
 10
192.918
 20
784.4999999999999
 30
0.0
 11
194.857
 21
784.4999999999999
 31
0.0
  0
LINE
  5
334
330
1E
100
AcDbEntity
  8
0
100
AcDbLine
 10
194.857
 20
784.4999999999999
 30
0.0
 11
196.082
 21
784.4999999999999
 31
0.0
  0
LINE
  5
335
330
1E
100
AcDbEntity
  8
0
100
AcDbLine
 10
193.939
 20
784.0
 30
0.0
 11
195.0609999999999
 21
784.0
 31
0.0
  0
LINE
  5
336
330
1E
100
AcDbEntity
  8
0
100
AcDbLine
 10
195.0609999999999
 20
784.0
 30
0.0
 11
195.469
 21
784.0
 31
0.0
  0
LINE
  5
337
330
1E
100
AcDbEntity
  8
0
100
AcDbLine
 10
194.857
 20
783.4999999999999
 30
0.0
 11
196.082
 21
783.4999999999999
 31
0.0
  0
LINE
  5
338
330
1E
100
AcDbEntity
  8
0
100
AcDbLine
 10
196.082
 20
784.4999999999999
 30
0.0
 11
196.49
 21
784.4999999999999
 31
0.0
  0
LINE
  5
339
330
1E
100
AcDbEntity
  8
0
100
AcDbLine
 10
196.082
 20
783.4999999999999
 30
0.0
 11
196.49
 21
783.4999999999999
 31
0.0
  0
LINE
  5
33A
330
1E
100
AcDbEntity
  8
0
100
AcDbLine
 10
196.49
 20
783.4999999999999
 30
0.0
 11
196.49
 21
782.0
 31
0.0
  0
LINE
  5
33B
330
1E
100
AcDbEntity
  8
0
100
AcDbLine
 10
195.571
 20
804.0
 30
0.0
 11
195.9799999999999
 21
804.0
 31
0.0
  0
LINE
  5
33C
330
1E
100
AcDbEntity
  8
0
100
AcDbLine
 10
196.082
 20
803.5
 30
0.0
 11
196.49
 21
803.5
 31
0.0
  0
LINE
  5
33D
330
1E
100
AcDbEntity
  8
0
100
AcDbLine
 10
196.49
 20
803.5
 30
0.0
 11
196.49
 21
784.4999999999999
 31
0.0
  0
LINE
  5
33E
330
1E
100
AcDbEntity
  8
0
100
AcDbLine
 10
195.9799999999999
 20
804.0
 30
0.0
 11
196.49
 21
803.5
 31
0.0
  0
LINE
  5
33F
330
1E
100
AcDbEntity
  8
0
100
AcDbLine
 10
196.49
 20
784.4999999999999
 30
0.0
 11
196.49
 21
803.5
 31
0.0
  0
LINE
  5
340
330
1E
100
AcDbEntity
  8
0
100
AcDbLine
 10
195.469
 20
784.0
 30
0.0
 11
196.49
 21
783.4999999999999
 31
0.0
  0
LINE
  5
341
330
1E
100
AcDbEntity
  8
0
100
AcDbLine
 10
195.469
 20
784.0
 30
0.0
 11
196.49
 21
784.4999999999999
 31
0.0
  0
LINE
  5
342
330
1E
100
AcDbEntity
  8
0
100
AcDbLine
 10
196.49
 20
782.0
 30
0.0
 11
197.0
 21
782.0
 31
0.0
  0
LINE
  5
343
330
1E
100
AcDbEntity
  8
0
100
AcDbLine
 10
196.49
 20
782.0
 30
0.0
 11
196.49
 21
783.4999999999999
 31
0.0
  0
LINE
  5
344
330
1E
100
AcDbEntity
  8
0
100
AcDbLine
 10
197.0
 20
782.0
 30
0.0
 11
197.0
 21
781.5
 31
0.0
  0
LINE
  5
345
330
1E
100
AcDbEntity
  8
0
100
AcDbLine
 10
197.0
 20
781.5
 30
0.0
 11
197.0
 21
782.0
 31
0.0
  0
LINE
  5
346
330
1E
100
AcDbEntity
  8
0
100
AcDbLine
 10
197.0
 20
781.5
 30
0.0
 11
197.0
 21
780.5
 31
0.0
  0
LINE
  5
347
330
1E
100
AcDbEntity
  8
0
100
AcDbLine
 10
197.0
 20
780.5
 30
0.0
 11
197.0
 21
781.5
 31
0.0
  0
LINE
  5
348
330
1E
100
AcDbEntity
  8
0
100
AcDbLine
 10
197.0
 20
780.5
 30
0.0
 11
197.0
 21
780.0
 31
0.0
  0
LINE
  5
349
330
1E
100
AcDbEntity
  8
0
100
AcDbLine
 10
259.0
 20
777.0
 30
0.0
 11
259.2999999999999
 21
777.7000000000001
 31
0.0
  0
LINE
  5
34A
330
1E
100
AcDbEntity
  8
0
100
AcDbLine
 10
259.0
 20
777.0
 30
0.0
 11
259.0
 21
659.0
 31
0.0
  0
LINE
  5
34B
330
1E
100
AcDbEntity
  8
0
100
AcDbLine
 10
260.0
 20
658.0
 30
0.0
 11
279.0
 21
658.0
 31
0.0
  0
LINE
  5
34C
330
1E
100
AcDbEntity
  8
0
100
AcDbLine
 10
260.0
 20
658.2999999999999
 30
0.0
 11
279.0
 21
658.2999999999999
 31
0.0
  0
LINE
  5
34D
330
1E
100
AcDbEntity
  8
0
100
AcDbLine
 10
259.5
 20
658.2999999999999
 30
0.0
 11
260.0
 21
658.2999999999999
 31
0.0
  0
LINE
  5
34E
330
1E
100
AcDbEntity
  8
0
100
AcDbLine
 10
260.192
 20
619.0
 30
0.0
 11
262.976
 21
619.0
 31
0.0
  0
LINE
  5
34F
330
1E
100
AcDbEntity
  8
0
100
AcDbLine
 10
262.536
 20
619.0
 30
0.0
 11
267.0
 21
619.0
 31
0.0
  0
LINE
  5
350
330
1E
100
AcDbEntity
  8
0
100
AcDbLine
 10
267.0
 20
619.0
 30
0.0
 11
271.464
 21
619.0
 31
0.0
  0
LINE
  5
351
330
1E
100
AcDbEntity
  8
0
100
AcDbLine
 10
265.4949999999999
 20
85.18970000000001
 30
0.0
 11
271.2979999999999
 21
102.2829999999999
 31
0.0
  0
LINE
  5
352
330
1E
100
AcDbEntity
  8
0
100
AcDbLine
 10
266.0
 20
619.0
 30
0.0
 11
269.024
 21
619.0
 31
0.0
  0
LINE
  5
353
330
1E
100
AcDbEntity
  8
0
100
AcDbLine
 10
271.464
 20
619.0
 30
0.0
 11
274.812
 21
619.0
 31
0.0
  0
LINE
  5
354
330
1E
100
AcDbEntity
  8
0
100
AcDbLine
 10
271.2979999999999
 20
102.2829999999999
 30
0.0
 11
274.819
 21
119.987
 31
0.0
  0
LINE
  5
355
330
1E
100
AcDbEntity
  8
0
100
AcDbLine
 10
269.024
 20
619.0
 30
0.0
 11
271.808
 21
619.0
 31
0.0
  0
LINE
  5
356
330
1E
100
AcDbEntity
  8
0
100
AcDbLine
 10
271.808
 20
619.0
 30
0.0
 11
274.2559999999999
 21
619.0
 31
0.0
  0
LINE
  5
357
330
1E
100
AcDbEntity
  8
0
100
AcDbLine
 10
274.812
 20
619.0
 30
0.0
 11
276.0
 21
619.0
 31
0.0
  0
LINE
  5
358
330
1E
100
AcDbEntity
  8
0
100
AcDbLine
 10
276.0
 20
138.0
 30
0.0
 11
276.0
 21
619.0
 31
0.0
  0
LINE
  5
359
330
1E
100
AcDbEntity
  8
0
100
AcDbLine
 10
274.819
 20
119.987
 30
0.0
 11
276.0
 21
138.0
 31
0.0
  0
LINE
  5
35A
330
1E
100
AcDbEntity
  8
0
100
AcDbLine
 10
276.0
 20
619.0
 30
0.0
 11
276.1279999999999
 21
619.0
 31
0.0
  0
LINE
  5
35B
330
1E
100
AcDbEntity
  8
0
100
AcDbLine
 10
274.2559999999999
 20
619.0
 30
0.0
 11
276.1279999999999
 21
619.0
 31
0.0
  0
LINE
  5
35C
330
1E
100
AcDbEntity
  8
0
100
AcDbLine
 10
276.1279999999999
 20
619.0
 30
0.0
 11
277.2799999999999
 21
619.0
 31
0.0
  0
LINE
  5
35D
330
1E
100
AcDbEntity
  8
0
100
AcDbLine
 10
278.0
 20
619.615
 30
0.0
 11
278.0
 21
657.385
 31
0.0
  0
LINE
  5
35E
330
1E
100
AcDbEntity
  8
0
100
AcDbLine
 10
277.712
 20
619.0
 30
0.0
 11
278.0
 21
619.615
 31
0.0
  0
LINE
  5
35F
330
1E
100
AcDbEntity
  8
0
100
AcDbLine
 10
277.2799999999999
 20
619.0
 30
0.0
 11
277.712
 21
619.0
 31
0.0
  0
LINE
  5
360
330
1E
100
AcDbEntity
  8
0
100
AcDbLine
 10
266.0
 20
658.0
 30
0.0
 11
269.024
 21
658.0
 31
0.0
  0
LINE
  5
361
330
1E
100
AcDbEntity
  8
0
100
AcDbLine
 10
269.024
 20
658.0
 30
0.0
 11
271.808
 21
658.0
 31
0.0
  0
LINE
  5
362
330
1E
100
AcDbEntity
  8
0
100
AcDbLine
 10
271.808
 20
658.0
 30
0.0
 11
274.2559999999999
 21
658.0
 31
0.0
  0
LINE
  5
363
330
1E
100
AcDbEntity
  8
0
100
AcDbLine
 10
274.2559999999999
 20
658.0
 30
0.0
 11
276.1279999999999
 21
658.0
 31
0.0
  0
LINE
  5
364
330
1E
100
AcDbEntity
  8
0
100
AcDbLine
 10
276.1279999999999
 20
658.0
 30
0.0
 11
277.2799999999999
 21
658.0
 31
0.0
  0
LINE
  5
365
330
1E
100
AcDbEntity
  8
0
100
AcDbLine
 10
277.2799999999999
 20
658.0
 30
0.0
 11
277.712
 21
658.0
 31
0.0
  0
LINE
  5
366
330
1E
100
AcDbEntity
  8
0
100
AcDbLine
 10
277.712
 20
658.0
 30
0.0
 11
278.0
 21
657.385
 31
0.0
  0
LINE
  5
367
330
1E
100
AcDbEntity
  8
0
100
AcDbLine
 10
278.0
 20
657.385
 30
0.0
 11
278.0
 21
619.615
 31
0.0
  0
LINE
  5
368
330
1E
100
AcDbEntity
  8
0
100
AcDbLine
 10
262.976
 20
619.0
 30
0.0
 11
266.0
 21
619.0
 31
0.0
  0
LINE
  5
369
330
1E
100
AcDbEntity
  8
0
100
AcDbLine
 10
262.976
 20
658.0
 30
0.0
 11
266.0
 21
658.0
 31
0.0
  0
LINE
  5
36A
330
1E
100
AcDbEntity
  8
0
100
AcDbLine
 10
260.192
 20
658.0
 30
0.0
 11
262.976
 21
658.0
 31
0.0
  0
LINE
  5
36B
330
1E
100
AcDbEntity
  8
0
100
AcDbLine
 10
279.0
 20
658.0
 30
0.0
 11
279.7
 21
658.2999999999999
 31
0.0
  0
LINE
  5
36C
330
1E
100
AcDbEntity
  8
0
100
AcDbLine
 10
279.0
 20
658.2999999999999
 30
0.0
 11
279.4999999999999
 21
658.2999999999999
 31
0.0
  0
LINE
  5
36D
330
1E
100
AcDbEntity
  8
0
100
AcDbLine
 10
279.4999999999999
 20
658.2999999999999
 30
0.0
 11
279.7
 21
659.0
 31
0.0
  0
LINE
  5
36E
330
1E
100
AcDbEntity
  8
0
100
AcDbLine
 10
279.4999999999999
 20
658.2999999999999
 30
0.0
 11
279.7
 21
658.2999999999999
 31
0.0
  0
LINE
  5
36F
330
1E
100
AcDbEntity
  8
0
100
AcDbLine
 10
279.7
 20
658.2999999999999
 30
0.0
 11
280.0
 21
659.0
 31
0.0
  0
LINE
  5
370
330
1E
100
AcDbEntity
  8
0
100
AcDbLine
 10
279.7
 20
777.0
 30
0.0
 11
279.7
 21
659.0
 31
0.0
  0
LINE
  5
4B7
330
1E
100
AcDbEntity
  8
0
100
AcDbLine
 10
280.0
 20
777.0
 30
0.0
 11
280.0
 21
659.0
 31
0.0
  0
LINE
  5
4B8
330
1E
100
AcDbEntity
  8
0
100
AcDbLine
 10
280.0
 20
659.0
 30
0.0
 11
280.0
 21
777.0
 31
0.0
  0
LINE
  5
4B9
330
1E
100
AcDbEntity
  8
0
100
AcDbLine
 10
279.7
 20
659.0
 30
0.0
 11
279.7
 21
777.0
 31
0.0
  0
LINE
  5
4BA
330
1E
100
AcDbEntity
  8
0
100
AcDbLine
 10
279.7
 20
777.7000000000001
 30
0.0
 11
280.0
 21
777.0
 31
0.0
  0
LINE
  5
4BB
330
1E
100
AcDbEntity
  8
0
100
AcDbLine
 10
279.4999999999999
 20
777.7000000000001
 30
0.0
 11
279.7
 21
777.7000000000001
 31
0.0
  0
LINE
  5
4BC
330
1E
100
AcDbEntity
  8
0
100
AcDbLine
 10
279.4999999999999
 20
777.7000000000001
 30
0.0
 11
279.7
 21
777.0
 31
0.0
  0
LINE
  5
4BD
330
1E
100
AcDbEntity
  8
0
100
AcDbLine
 10
279.0
 20
777.7000000000001
 30
0.0
 11
279.4999999999999
 21
777.7000000000001
 31
0.0
  0
LINE
  5
4BE
330
1E
100
AcDbEntity
  8
0
100
AcDbLine
 10
260.0
 20
777.7000000000001
 30
0.0
 11
279.0
 21
777.7000000000001
 31
0.0
  0
LINE
  5
5E2
330
1E
100
AcDbEntity
  8
0
100
AcDbLine
 10
279.0
 20
778.0
 30
0.0
 11
279.7
 21
777.7000000000001
 31
0.0
  0
LINE
  5
5E3
330
1E
100
AcDbEntity
  8
0
100
AcDbLine
 10
260.0
 20
778.0
 30
0.0
 11
279.0
 21
778.0
 31
0.0
  0
LINE
  5
5E4
330
1E
100
AcDbEntity
  8
0
100
AcDbLine
 10
259.5
 20
777.7000000000001
 30
0.0
 11
260.0
 21
777.7000000000001
 31
0.0
  0
LINE
  5
5E5
330
1E
100
AcDbEntity
  8
0
100
AcDbLine
 10
259.2999999999999
 20
777.7000000000001
 30
0.0
 11
260.0
 21
778.0
 31
0.0
  0
LINE
  5
5E6
330
1E
100
AcDbEntity
  8
0
100
AcDbLine
 10
259.2999999999999
 20
777.7000000000001
 30
0.0
 11
259.5
 21
777.7000000000001
 31
0.0
  0
ENDSEC
  0
SECTION
  2
OBJECTS
  0
DICTIONARY
  5
C
330
0
100
AcDbDictionary
281
     1
  3
ACAD_GROUP
350
D
  3
ACAD_LAYOUT
350
19
  3
ACAD_MLINESTYLE
350
16
  3
ACAD_PLOTSETTINGS
350
18
  3
ACAD_PLOTSTYLENAME
350
E
  3
AcDbVariableDictionary
350
5ED
  0
DICTIONARY
  5
D
102
{ACAD_REACTORS
330
C
102
}
330
C
100
AcDbDictionary
281
     1
  0
DICTIONARY
  5
19
102
{ACAD_REACTORS
330
C
102
}
330
C
100
AcDbDictionary
281
     1
  3
Layout1
350
1D
  3
Model
350
21
  0
DICTIONARY
  5
16
102
{ACAD_REACTORS
330
C
102
}
330
C
100
AcDbDictionary
281
     1
  3
Standard
350
17
  0
DICTIONARY
  5
18
102
{ACAD_REACTORS
330
C
102
}
330
C
100
AcDbDictionary
281
     1
  0
ACDBDICTIONARYWDFLT
  5
E
102
{ACAD_REACTORS
330
C
102
}
330
C
100
AcDbDictionary
281
     1
  3
Normal
350
F
100
AcDbDictionaryWithDefault
340
F
  0
DICTIONARY
  5
5ED
102
{ACAD_REACTORS
330
C
102
}
330
C
100
AcDbDictionary
281
     1
  3
DIMASSOC
350
5EE
  0
LAYOUT
  5
1D
102
{ACAD_REACTORS
330
19
102
}
330
19
100
AcDbPlotSettings
  1

  2
hp deskjet 980c series
  4

  6

 40
0.0
 41
0.0
 42
0.0
 43
0.0
 44
0.0
 45
0.0
 46
0.0
 47
0.0
 48
0.0
 49
0.0
140
0.0
141
0.0
142
1.0
143
1.0
 70
   688
 72
     0
 73
     0
 74
     5
  7

 75
    16
147
1.0
148
0.0
149
0.0
100
AcDbLayout
  1
Layout1
 70
     1
 71
     1
 10
0.0
 20
0.0
 11
12.0
 21
9.0
 12
0.0
 22
0.0
 32
0.0
 14
1.000000000000000E+20
 24
1.000000000000000E+20
 34
1.000000000000000E+20
 15
-1.000000000000000E+20
 25
-1.000000000000000E+20
 35
-1.000000000000000E+20
146
0.0
 13
0.0
 23
0.0
 33
0.0
 16
1.0
 26
0.0
 36
0.0
 17
0.0
 27
1.0
 37
0.0
 76
     0
330
1A
  0
LAYOUT
  5
21
102
{ACAD_REACTORS
330
19
102
}
330
19
100
AcDbPlotSettings
  1

  2
hp deskjet 980c series
  4

  6

 40
0.0
 41
0.0
 42
0.0
 43
0.0
 44
0.0
 45
0.0
 46
0.0
 47
0.0
 48
0.0
 49
0.0
140
0.0
141
0.0
142
1.0
143
1.0
 70
  1712
 72
     0
 73
     0
 74
     0
  7

 75
     0
147
1.0
148
0.0
149
0.0
100
AcDbLayout
  1
Model
 70
     1
 71
     0
 10
0.0
 20
0.0
 11
12.0
 21
9.0
 12
0.0
 22
0.0
 32
0.0
 14
0.0
 24
0.0
 34
0.0
 15
0.0
 25
0.0
 35
0.0
146
0.0
 13
0.0
 23
0.0
 33
0.0
 16
1.0
 26
0.0
 36
0.0
 17
0.0
 27
1.0
 37
0.0
 76
     0
330
1E
  0
MLINESTYLE
  5
17
102
{ACAD_REACTORS
330
16
102
}
330
16
100
AcDbMlineStyle
  2
STANDARD
 70
     0
  3

 62
   256
 51
90.0
 52
90.0
 71
     2
 49
0.5
 62
   256
  6
BYLAYER
 49
-0.5
 62
   256
  6
BYLAYER
  0
ACDBPLACEHOLDER
  5
F
102
{ACAD_REACTORS
330
E
102
}
330
E
  0
DICTIONARYVAR
  5
5EE
102
{ACAD_REACTORS
330
5ED
102
}
330
5ED
100
DictionaryVariables
280
     0
  1
1
  0
ENDSEC
  0
EOF
