  0
SECTION
  2
HEADER
  9
$ACADVER
  1
AC1014
  9
$ACADMAINTVER
 70
     9
  9
$DWGCODEPAGE
  3
ANSI_1252
  9
$INSBASE
 10
0.0
 20
0.0
 30
0.0
  9
$EXTMIN
 10
0.0
 20
90.0
 30
0.0
  9
$EXTMAX
 10
289.0
 20
213.0
 30
0.0
  9
$LIMMIN
 10
0.0
 20
0.0
  9
$LIMMAX
 10
12.0
 20
9.0
  9
$ORTHOMODE
 70
     0
  9
$REGENMODE
 70
     1
  9
$FILLMODE
 70
     1
  9
$QTEXTMODE
 70
     0
  9
$MIRRTEXT
 70
     1
  9
$DRAGMODE
 70
     2
  9
$LTSCALE
 40
1.0
  9
$OSMODE
 70
    37
  9
$ATTMODE
 70
     1
  9
$TEXTSIZE
 40
0.2
  9
$TRACEWID
 40
0.05
  9
$TEXTSTYLE
  7
STANDARD
  9
$CLAYER
  8
0
  9
$CELTYPE
  6
CONTINUOUS
  9
$CECOLOR
 62
   256
  9
$CELTSCALE
 40
1.0
  9
$DELOBJ
 70
     1
  9
$DISPSILH
 70
     0
  9
$DIMSCALE
 40
1.0
  9
$DIMASZ
 40
0.18
  9
$DIMEXO
 40
0.0625
  9
$DIMDLI
 40
0.38
  9
$DIMRND
 40
0.0
  9
$DIMDLE
 40
0.0
  9
$DIMEXE
 40
0.18
  9
$DIMTP
 40
0.0
  9
$DIMTM
 40
0.0
  9
$DIMTXT
 40
0.18
  9
$DIMCEN
 40
0.09
  9
$DIMTSZ
 40
0.0
  9
$DIMTOL
 70
     0
  9
$DIMLIM
 70
     0
  9
$DIMTIH
 70
     1
  9
$DIMTOH
 70
     1
  9
$DIMSE1
 70
     0
  9
$DIMSE2
 70
     0
  9
$DIMTAD
 70
     0
  9
$DIMZIN
 70
     0
  9
$DIMBLK
  1

  9
$DIMASO
 70
     1
  9
$DIMSHO
 70
     1
  9
$DIMPOST
  1

  9
$DIMAPOST
  1

  9
$DIMALT
 70
     0
  9
$DIMALTD
 70
     2
  9
$DIMALTF
 40
25.4
  9
$DIMLFAC
 40
1.0
  9
$DIMTOFL
 70
     0
  9
$DIMTVP
 40
0.0
  9
$DIMTIX
 70
     0
  9
$DIMSOXD
 70
     0
  9
$DIMSAH
 70
     0
  9
$DIMBLK1
  1

  9
$DIMBLK2
  1

  9
$DIMSTYLE
  2
STANDARD
  9
$DIMCLRD
 70
     0
  9
$DIMCLRE
 70
     0
  9
$DIMCLRT
 70
     0
  9
$DIMTFAC
 40
1.0
  9
$DIMGAP
 40
0.09
  9
$DIMJUST
 70
     0
  9
$DIMSD1
 70
     0
  9
$DIMSD2
 70
     0
  9
$DIMTOLJ
 70
     1
  9
$DIMTZIN
 70
     0
  9
$DIMALTZ
 70
     0
  9
$DIMALTTZ
 70
     0
  9
$DIMFIT
 70
     3
  9
$DIMUPT
 70
     0
  9
$DIMUNIT
 70
     2
  9
$DIMDEC
 70
     4
  9
$DIMTDEC
 70
     4
  9
$DIMALTU
 70
     2
  9
$DIMALTTD
 70
     2
  9
$DIMTXSTY
  7
STANDARD
  9
$DIMAUNIT
 70
     0
  9
$LUNITS
 70
     2
  9
$LUPREC
 70
     4
  9
$SKETCHINC
 40
0.1
  9
$FILLETRAD
 40
0.0
  9
$AUNITS
 70
     0
  9
$AUPREC
 70
     0
  9
$MENU
  1
.
  9
$ELEVATION
 40
0.0
  9
$PELEVATION
 40
0.0
  9
$THICKNESS
 40
0.0
  9
$LIMCHECK
 70
     0
  9
$BLIPMODE
 70
     0
  9
$CHAMFERA
 40
0.0
  9
$CHAMFERB
 40
0.0
  9
$CHAMFERC
 40
0.0
  9
$CHAMFERD
 40
0.0
  9
$SKPOLY
 70
     0
  9
$TDCREATE
 40
2455235.747914305
  9
$TDUPDATE
 40
2455235.753922164
  9
$TDINDWG
 40
0.0060080324
  9
$TDUSRTIMER
 40
0.0060080324
  9
$USRTIMER
 70
     1
  9
$ANGBASE
 50
0.0
  9
$ANGDIR
 70
     0
  9
$PDMODE
 70
     0
  9
$PDSIZE
 40
0.0
  9
$PLINEWID
 40
0.0
  9
$COORDS
 70
     1
  9
$SPLFRAME
 70
     0
  9
$SPLINETYPE
 70
     6
  9
$SPLINESEGS
 70
     8
  9
$ATTDIA
 70
     0
  9
$ATTREQ
 70
     1
  9
$HANDLING
 70
 22529
  9
$HANDSEED
  5
DB0
  9
$SURFTAB1
 70
     6
  9
$SURFTAB2
 70
     6
  9
$SURFTYPE
 70
     6
  9
$SURFU
 70
     6
  9
$SURFV
 70
     6
  9
$UCSNAME
  2

  9
$UCSORG
 10
0.0
 20
0.0
 30
0.0
  9
$UCSXDIR
 10
1.0
 20
0.0
 30
0.0
  9
$UCSYDIR
 10
0.0
 20
1.0
 30
0.0
  9
$PUCSNAME
  2

  9
$PUCSORG
 10
0.0
 20
0.0
 30
0.0
  9
$PUCSXDIR
 10
1.0
 20
0.0
 30
0.0
  9
$PUCSYDIR
 10
0.0
 20
1.0
 30
0.0
  9
$USERI1
 70
     0
  9
$USERI2
 70
     0
  9
$USERI3
 70
     0
  9
$USERI4
 70
     0
  9
$USERI5
 70
     0
  9
$USERR1
 40
0.0
  9
$USERR2
 40
0.0
  9
$USERR3
 40
0.0
  9
$USERR4
 40
0.0
  9
$USERR5
 40
0.0
  9
$WORLDVIEW
 70
     1
  9
$SHADEDGE
 70
     3
  9
$SHADEDIF
 70
    70
  9
$TILEMODE
 70
     1
  9
$MAXACTVP
 70
    64
  9
$PINSBASE
 10
0.0
 20
0.0
 30
0.0
  9
$PLIMCHECK
 70
     0
  9
$PEXTMIN
 10
1.000000000000000E+20
 20
1.000000000000000E+20
 30
1.000000000000000E+20
  9
$PEXTMAX
 10
-1.000000000000000E+20
 20
-1.000000000000000E+20
 30
-1.000000000000000E+20
  9
$PLIMMIN
 10
0.0
 20
0.0
  9
$PLIMMAX
 10
12.0
 20
9.0
  9
$UNITMODE
 70
     0
  9
$VISRETAIN
 70
     1
  9
$PLINEGEN
 70
     0
  9
$PSLTSCALE
 70
     1
  9
$TREEDEPTH
 70
  3020
  9
$PICKSTYLE
 70
     1
  9
$CMLSTYLE
  2
STANDARD
  9
$CMLJUST
 70
     0
  9
$CMLSCALE
 40
1.0
  9
$PROXYGRAPHICS
 70
     1
  9
$MEASUREMENT
 70
     0
  0
ENDSEC
  0
SECTION
  2
CLASSES
  0
CLASS
  1
ACDBDICTIONARYWDFLT
  2
AcDbDictionaryWithDefault
  3
AutoCAD 2000
 90
        0
280
     0
281
     0
  0
CLASS
  1
ACDBPLACEHOLDER
  2
AcDbPlaceHolder
  3
AutoCAD 2000
 90
        0
280
     0
281
     0
  0
CLASS
  1
LAYOUT
  2
AcDbLayout
  3
AutoCAD 2000
 90
        0
280
     0
281
     0
  0
CLASS
  1
DICTIONARYVAR
  2
AcDbDictionaryVar
  3
AutoCAD 2000
 90
        0
280
     0
281
     0
  0
CLASS
  1
LONG_TRANSACTION
  2
AcDbLongTransaction
  3
AutoCAD 2000
 90
        0
280
     0
281
     0
  0
CLASS
  1
LWPOLYLINE
  2
AcDbPolyline
  3
AutoCAD 2000
 90
        0
280
     0
281
     1
  0
CLASS
  1
HATCH
  2
AcDbHatch
  3
AutoCAD 2000
 90
        0
280
     0
281
     1
  0
CLASS
  1
XRECORD
  2
AcDbXrecord
  3
AutoCAD 2000
 90
        0
280
     0
281
     0
  0
ENDSEC
  0
SECTION
  2
TABLES
  0
TABLE
  2
VPORT
  5
8
330
0
100
AcDbSymbolTable
 70
     5
  0
VPORT
  5
D8B
330
8
100
AcDbSymbolTableRecord
100
AcDbViewportTableRecord
  2
*ACTIVE
 70
     0
 10
0.0
 20
0.0
 11
1.0
 21
1.0
 12
144.5
 22
151.5
 13
0.0
 23
0.0
 14
1.0
 24
1.0
 15
0.0
 25
0.0
 16
0.0
 26
0.0
 36
1.0
 17
0.0
 27
0.0
 37
0.0
 40
142.0095867516597
 41
2.041621029572836
 42
50.0
 43
0.0
 44
0.0
 50
0.0
 51
0.0
 71
     0
 72
   100
 73
     1
 74
     3
 75
     0
 76
     0
 77
     0
 78
     0
  0
ENDTAB
  0
TABLE
  2
LTYPE
  5
5
330
0
100
AcDbSymbolTable
 70
     1
  0
LTYPE
  5
13
330
5
100
AcDbSymbolTableRecord
100
AcDbLinetypeTableRecord
  2
BYBLOCK
 70
     0
  3

 72
    65
 73
     0
 40
0.0
  0
LTYPE
  5
14
330
5
100
AcDbSymbolTableRecord
100
AcDbLinetypeTableRecord
  2
BYLAYER
 70
     0
  3

 72
    65
 73
     0
 40
0.0
  0
LTYPE
  5
15
330
5
100
AcDbSymbolTableRecord
100
AcDbLinetypeTableRecord
  2
CONTINUOUS
 70
     0
  3
Solid line
 72
    65
 73
     0
 40
0.0
  0
ENDTAB
  0
TABLE
  2
LAYER
  5
2
330
0
100
AcDbSymbolTable
 70
     1
  0
LAYER
  5
10
330
2
100
AcDbSymbolTableRecord
100
AcDbLayerTableRecord
  2
0
 70
     0
 62
     7
  6
CONTINUOUS
  0
ENDTAB
  0
TABLE
  2
STYLE
  5
3
330
0
100
AcDbSymbolTable
 70
     1
  0
STYLE
  5
11
330
3
100
AcDbSymbolTableRecord
100
AcDbTextStyleTableRecord
  2
STANDARD
 70
     0
 40
0.0
 41
1.0
 50
0.0
 71
     0
 42
0.2
  3
txt
  4

  0
ENDTAB
  0
TABLE
  2
VIEW
  5
6
330
0
100
AcDbSymbolTable
 70
     0
  0
ENDTAB
  0
TABLE
  2
UCS
  5
7
330
0
100
AcDbSymbolTable
 70
     0
  0
ENDTAB
  0
TABLE
  2
APPID
  5
9
330
0
100
AcDbSymbolTable
 70
     1
  0
APPID
  5
12
330
9
100
AcDbSymbolTableRecord
100
AcDbRegAppTableRecord
  2
ACAD
 70
     0
  0
ENDTAB
  0
TABLE
  2
DIMSTYLE
  5
A
330
0
100
AcDbSymbolTable
 70
     1
  0
DIMSTYLE
105
47F
330
A
100
AcDbSymbolTableRecord
100
AcDbDimStyleTableRecord
  2
STANDARD
 70
     0
  3

  4

  5

  6

  7

 40
1.0
 41
0.18
 42
0.0625
 43
0.38
 44
0.18
 45
0.0
 46
0.0
 47
0.0
 48
0.0
140
0.18
141
0.09
142
0.0
143
25.4
144
1.0
145
0.0
146
1.0
147
0.09
 71
     0
 72
     0
 73
     1
 74
     1
 75
     0
 76
     0
 77
     0
 78
     0
170
     0
171
     2
172
     0
173
     0
174
     0
175
     0
176
     0
177
     0
178
     0
270
     2
271
     4
272
     4
273
     2
274
     2
340
11
275
     0
280
     0
281
     0
282
     0
283
     1
284
     0
285
     0
286
     0
287
     3
288
     0
  0
ENDTAB
  0
TABLE
  2
BLOCK_RECORD
  5
1
330
0
100
AcDbSymbolTable
 70
     1
  0
BLOCK_RECORD
  5
1E
102
{ACAD_XDICTIONARY
360
DAE
102
}
330
1
100
AcDbSymbolTableRecord
100
AcDbBlockTableRecord
  2
*MODEL_SPACE
  0
BLOCK_RECORD
  5
1A
102
{ACAD_XDICTIONARY
360
DAC
102
}
330
1
100
AcDbSymbolTableRecord
100
AcDbBlockTableRecord
  2
*PAPER_SPACE
  0
ENDTAB
  0
ENDSEC
  0
SECTION
  2
BLOCKS
  0
BLOCK
  5
1F
330
1E
100
AcDbEntity
  8
0
100
AcDbBlockBegin
  2
*MODEL_SPACE
 70
     0
 10
0.0
 20
0.0
 30
0.0
  3
*MODEL_SPACE
  1

  0
ENDBLK
  5
20
330
1E
100
AcDbEntity
  8
0
100
AcDbBlockEnd
  0
BLOCK
  5
1B
330
1A
100
AcDbEntity
 67
     1
  8
0
100
AcDbBlockBegin
  2
*PAPER_SPACE
 70
     0
 10
0.0
 20
0.0
 30
0.0
  3
*PAPER_SPACE
  1

  0
ENDBLK
  5
1C
330
1A
100
AcDbEntity
 67
     1
  8
0
100
AcDbBlockEnd
  0
ENDSEC
  0
SECTION
  2
ENTITIES
  0
LINE
  5
22
330
1E
100
AcDbEntity
  8
0
100
AcDbLine
 10
0.111
 20
94.0098
 30
0.0
 11
0.191355368518808
 21
93.7371189655173
 31
0.0
  0
LINE
  5
23
330
1E
100
AcDbEntity
  8
0
100
AcDbLine
 10
0.0920000000000001
 20
94.1252
 30
0.0
 11
0.4760000000000001
 21
92.62529999999999
 31
0.0
  0
LINE
  5
24
330
1E
100
AcDbEntity
  8
0
100
AcDbLine
 10
0.092
 20
94.1252
 30
0.0
 11
0.4760000000000001
 21
92.62529999999999
 31
0.0
  0
LINE
  5
25
330
1E
100
AcDbEntity
  8
0
100
AcDbLine
 10
0.092
 20
94.1252
 30
0.0
 11
0.212
 21
96.02290000000001
 31
0.0
  0
LINE
  5
26
330
1E
100
AcDbEntity
  8
0
100
AcDbLine
 10
0.112530328414948
 20
94.04500875106881
 30
0.0
 11
0.191355368518808
 21
93.7371189655173
 31
0.0
  0
LINE
  5
27
330
1E
100
AcDbEntity
  8
0
100
AcDbLine
 10
0.16881460739242
 20
95.33995900373829
 30
0.0
 11
0.212
 21
96.02290000000001
 31
0.0
  0
LINE
  5
28
330
1E
100
AcDbEntity
  8
0
100
AcDbLine
 10
0.16881460739242
 20
95.33995900373829
 30
0.0
 11
0.193
 21
95.89640000000001
 31
0.0
  0
LINE
  5
29
330
1E
100
AcDbEntity
  8
0
100
AcDbLine
 10
0.16881460739242
 20
95.33995900373829
 30
0.0
 11
0.193
 21
95.89640000000001
 31
0.0
  0
LINE
  5
2A
330
1E
100
AcDbEntity
  8
0
100
AcDbLine
 10
0.16881460739242
 20
95.33995900373829
 30
0.0
 11
0.212
 21
96.02290000000001
 31
0.0
  0
LINE
  5
2B
330
1E
100
AcDbEntity
  8
0
100
AcDbLine
 10
0.112530328414948
 20
94.04500875106881
 30
0.0
 11
0.191355368518808
 21
93.7371189655173
 31
0.0
  0
LINE
  5
2C
330
1E
100
AcDbEntity
  8
0
100
AcDbLine
 10
0.111
 20
94.0098
 30
0.0
 11
0.191355368518808
 21
93.7371189655173
 31
0.0
  0
LINE
  5
2D
330
1E
100
AcDbEntity
  8
0
100
AcDbLine
 10
1.955999999999999
 20
90.8754
 30
0.0
 11
3.071
 21
90.35619999999999
 31
0.0
  0
LINE
  5
2E
330
1E
100
AcDbEntity
  8
0
100
AcDbLine
 10
8.929
 20
90.35619999999999
 30
0.0
 11
10.044
 21
90.8754
 31
0.0
  0
LINE
  5
2F
330
1E
100
AcDbEntity
  8
0
100
AcDbLine
 10
6.0
 20
90.0
 30
0.0
 11
8.929
 21
90.35619999999999
 31
0.0
  0
LINE
  5
31
330
1E
100
AcDbEntity
  8
0
100
AcDbLine
 10
10.044
 20
90.8754
 30
0.0
 11
10.81299999999999
 21
91.52919999999999
 31
0.0
  0
LINE
  5
32
330
1E
100
AcDbEntity
  8
0
100
AcDbLine
 10
3.071
 20
90.35619999999999
 30
0.0
 11
6.0
 21
90.0
 31
0.0
  0
LINE
  5
33
330
1E
100
AcDbEntity
  8
0
100
AcDbLine
 10
1.955999999999999
 20
90.8754
 30
0.0
 11
3.071
 21
90.35619999999999
 31
0.0
  0
LINE
  5
34
330
1E
100
AcDbEntity
  8
0
100
AcDbLine
 10
1.187
 20
91.52919999999999
 30
0.0
 11
1.955999999999999
 21
90.8754
 31
0.0
  0
LINE
  5
35
330
1E
100
AcDbEntity
  8
0
100
AcDbLine
 10
0.4760000000000001
 20
92.62529999999999
 30
0.0
 11
1.187
 21
91.52919999999999
 31
0.0
  0
LINE
  5
38
330
1E
100
AcDbEntity
  8
0
100
AcDbLine
 10
0.4760000000000001
 20
92.62529999999999
 30
0.0
 11
1.187
 21
91.52919999999999
 31
0.0
  0
LINE
  5
3B
330
1E
100
AcDbEntity
  8
0
100
AcDbLine
 10
1.25967034997511
 20
91.46741602755041
 30
0.0
 11
1.47733275563247
 21
91.28236052583551
 31
0.0
  0
LINE
  5
3C
330
1E
100
AcDbEntity
  8
0
100
AcDbLine
 10
1.25967034997511
 20
91.46741602755041
 30
0.0
 11
1.47733275563247
 21
91.28236052583551
 31
0.0
  0
LINE
  5
3D
330
1E
100
AcDbEntity
  8
0
100
AcDbLine
 10
1.283
 20
91.43299999999999
 30
0.0
 11
1.47733275563247
 21
91.28236052583551
 31
0.0
  0
LINE
  5
3E
330
1E
100
AcDbEntity
  8
0
100
AcDbLine
 10
1.283
 20
91.43299999999999
 30
0.0
 11
1.47733275563247
 21
91.28236052583551
 31
0.0
  0
LINE
  5
40
330
1E
100
AcDbEntity
  8
0
100
AcDbLine
 10
11.524
 20
92.62529999999999
 30
0.0
 11
11.908
 21
94.1252
 31
0.0
  0
LINE
  5
41
330
1E
100
AcDbEntity
  8
0
100
AcDbLine
 10
10.81299999999999
 20
91.52919999999999
 30
0.0
 11
11.524
 21
92.62529999999999
 31
0.0
  0
LINE
  5
42
330
1E
100
AcDbEntity
  8
0
100
AcDbLine
 10
11.807
 20
95.89640000000001
 30
0.0
 11
11.8311853926076
 21
95.33995900373822
 31
0.0
  0
LINE
  5
43
330
1E
100
AcDbEntity
  8
0
100
AcDbLine
 10
11.80864463148119
 20
93.7371189655173
 30
0.0
 11
11.889
 21
94.0098
 31
0.0
  0
LINE
  5
44
330
1E
100
AcDbEntity
  8
0
100
AcDbLine
 10
10.5226672443675
 20
91.28236052583551
 30
0.0
 11
10.717
 21
91.43299999999999
 31
0.0
  0
LINE
  5
45
330
1E
100
AcDbEntity
  8
0
100
AcDbLine
 10
10.5226672443675
 20
91.28236052583551
 30
0.0
 11
10.7403296500249
 21
91.46741602755041
 31
0.0
  0
LINE
  5
46
330
1E
100
AcDbEntity
  8
0
100
AcDbLine
 10
0.193
 20
95.89640000000001
 30
0.0
 11
0.2738358490925919
 21
96.53713364796651
 31
0.0
  0
LINE
  5
47
330
1E
100
AcDbEntity
  8
0
100
AcDbLine
 10
0.193
 20
95.89640000000001
 30
0.0
 11
0.2738358490925919
 21
96.53713364796651
 31
0.0
  0
LINE
  5
48
330
1E
100
AcDbEntity
  8
0
100
AcDbLine
 10
11.788
 20
96.02290000000001
 30
0.0
 11
11.908
 21
94.1252
 31
0.0
  0
LINE
  5
49
330
1E
100
AcDbEntity
  8
0
100
AcDbLine
 10
0.212
 20
96.02290000000001
 30
0.0
 11
0.69
 21
99.998
 31
0.0
  0
LINE
  5
4A
330
1E
100
AcDbEntity
  8
0
100
AcDbLine
 10
56.0
 20
96.5
 30
0.0
 11
57.5
 21
96.0
 31
0.0
  0
LINE
  5
4B
330
1E
100
AcDbEntity
  8
0
100
AcDbLine
 10
56.0
 20
96.5
 30
0.0
 11
56.0
 21
97.3
 31
0.0
  0
LINE
  5
4C
330
1E
100
AcDbEntity
  8
0
100
AcDbLine
 10
57.5
 20
96.0
 30
0.0
 11
58.0
 21
96.0
 31
0.0
  0
LINE
  5
4D
330
1E
100
AcDbEntity
  8
0
100
AcDbLine
 10
58.0
 20
96.0
 30
0.0
 11
59.5
 21
96.5
 31
0.0
  0
LINE
  5
4E
330
1E
100
AcDbEntity
  8
0
100
AcDbLine
 10
11.72616415090739
 20
96.5371336479666
 30
0.0
 11
11.807
 21
95.89640000000001
 31
0.0
  0
LINE
  5
4F
330
1E
100
AcDbEntity
  8
0
100
AcDbLine
 10
11.72616415090739
 20
96.5371336479666
 30
0.0
 11
11.807
 21
95.89640000000001
 31
0.0
  0
LINE
  5
50
330
1E
100
AcDbEntity
  8
0
100
AcDbLine
 10
56.0
 20
97.3
 30
0.0
 11
56.0
 21
96.5
 31
0.0
  0
LINE
  5
51
330
1E
100
AcDbEntity
  8
0
100
AcDbLine
 10
56.0
 20
97.3
 30
0.0
 11
56.0
 21
99.50000000000001
 31
0.0
  0
LINE
  5
52
330
1E
100
AcDbEntity
  8
0
100
AcDbLine
 10
60.0
 20
98.0
 30
0.0
 11
60.0
 21
98.8
 31
0.0
  0
LINE
  5
53
330
1E
100
AcDbEntity
  8
0
100
AcDbLine
 10
59.5
 20
97.3
 30
0.0
 11
59.5
 21
96.5
 31
0.0
  0
LINE
  5
54
330
1E
100
AcDbEntity
  8
0
100
AcDbLine
 10
59.5
 20
97.3
 30
0.0
 11
59.5
 21
99.50000000000001
 31
0.0
  0
LINE
  5
55
330
1E
100
AcDbEntity
  8
0
100
AcDbLine
 10
55.5
 20
98.0
 30
0.0
 11
56.0
 21
96.5
 31
0.0
  0
LINE
  5
56
330
1E
100
AcDbEntity
  8
0
100
AcDbLine
 10
55.5
 20
98.0
 30
0.0
 11
55.5
 21
98.8
 31
0.0
  0
LINE
  5
57
330
1E
100
AcDbEntity
  8
0
100
AcDbLine
 10
59.5
 20
96.5
 30
0.0
 11
60.0
 21
98.0
 31
0.0
  0
LINE
  5
58
330
1E
100
AcDbEntity
  8
0
100
AcDbLine
 10
59.5
 20
96.5
 30
0.0
 11
59.5
 21
97.3
 31
0.0
  0
LINE
  5
72
330
1E
100
AcDbEntity
  8
0
100
AcDbLine
 10
174.0
 20
98.0
 30
0.0
 11
245.0
 21
98.0
 31
0.0
  0
LINE
  5
73
330
1E
100
AcDbEntity
  8
0
100
AcDbLine
 10
245.0
 20
98.0
 30
0.0
 11
245.0
 21
98.8
 31
0.0
  0
LINE
  5
77
330
1E
100
AcDbEntity
  8
0
100
AcDbLine
 10
42.0
 20
98.50000000000001
 30
0.0
 11
54.5
 21
98.50000000000001
 31
0.0
  0
LINE
  5
78
330
1E
100
AcDbEntity
  8
0
100
AcDbLine
 10
54.5
 20
98.50000000000001
 30
0.0
 11
55.5
 21
98.0
 31
0.0
  0
LINE
  5
79
330
1E
100
AcDbEntity
  8
0
100
AcDbLine
 10
61.0
 20
98.0
 30
0.0
 11
61.0
 21
98.8
 31
0.0
  0
LINE
  5
7A
330
1E
100
AcDbEntity
  8
0
100
AcDbLine
 10
61.0
 20
98.0
 30
0.0
 11
174.0
 21
98.0
 31
0.0
  0
LINE
  5
7B
330
1E
100
AcDbEntity
  8
0
100
AcDbLine
 10
247.0
 20
98.0
 30
0.0
 11
288.3329999999999
 21
98.0
 31
0.0
  0
LINE
  5
7C
330
1E
100
AcDbEntity
  8
0
100
AcDbLine
 10
247.0
 20
98.0
 30
0.0
 11
247.0
 21
98.756
 31
0.0
  0
LINE
  5
7D
330
1E
100
AcDbEntity
  8
0
100
AcDbLine
 10
55.5
 20
98.8
 30
0.0
 11
55.5
 21
98.0
 31
0.0
  0
LINE
  5
7E
330
1E
100
AcDbEntity
  8
0
100
AcDbLine
 10
55.5
 20
98.8
 30
0.0
 11
55.5
 21
100.8
 31
0.0
  0
LINE
  5
7F
330
1E
100
AcDbEntity
  8
0
100
AcDbLine
 10
60.0
 20
98.8
 30
0.0
 11
60.0
 21
100.8
 31
0.0
  0
LINE
  5
80
330
1E
100
AcDbEntity
  8
0
100
AcDbLine
 10
56.0
 20
99.50000000000001
 30
0.0
 11
56.0
 21
97.3
 31
0.0
  0
LINE
  5
81
330
1E
100
AcDbEntity
  8
0
100
AcDbLine
 10
56.0
 20
99.50000000000001
 30
0.0
 11
56.0
 21
103.0999999999999
 31
0.0
  0
LINE
  5
82
330
1E
100
AcDbEntity
  8
0
100
AcDbLine
 10
59.5
 20
99.50000000000001
 30
0.0
 11
59.5
 21
97.3
 31
0.0
  0
LINE
  5
83
330
1E
100
AcDbEntity
  8
0
100
AcDbLine
 10
59.5
 20
99.50000000000001
 30
0.0
 11
59.5
 21
103.0999999999999
 31
0.0
  0
LINE
  5
84
330
1E
100
AcDbEntity
  8
0
100
AcDbLine
 10
40.49999999999999
 20
99.0
 30
0.0
 11
42.0
 21
98.50000000000001
 31
0.0
  0
LINE
  5
85
330
1E
100
AcDbEntity
  8
0
100
AcDbLine
 10
40.49999999999999
 20
99.0
 30
0.0
 11
40.49999999999999
 21
99.7
 31
0.0
  0
LINE
  5
86
330
1E
100
AcDbEntity
  8
0
100
AcDbLine
 10
60.0
 20
99.50000000000001
 30
0.0
 11
61.0
 21
99.50000000000001
 31
0.0
  0
LINE
  5
87
330
1E
100
AcDbEntity
  8
0
100
AcDbLine
 10
11.31
 20
99.998
 30
0.0
 11
11.788
 21
96.02290000000001
 31
0.0
  0
LINE
  5
88
330
1E
100
AcDbEntity
  8
0
100
AcDbLine
 10
0.69
 20
99.998
 30
0.0
 11
0.957349853170432
 21
101.7958897146789
 31
0.0
  0
LINE
  5
89
330
1E
100
AcDbEntity
  8
0
100
AcDbLine
 10
0.69
 20
99.998
 30
0.0
 11
0.9573498531704341
 21
101.7958897146789
 31
0.0
  0
LINE
  5
8A
330
1E
100
AcDbEntity
  8
0
100
AcDbLine
 10
0.69
 20
99.998
 30
0.0
 11
1.217
 21
103.542
 31
0.0
  0
LINE
  5
8B
330
1E
100
AcDbEntity
  8
0
100
AcDbLine
 10
40.49999999999999
 20
99.7
 30
0.0
 11
40.49999999999999
 21
99.0
 31
0.0
  0
LINE
  5
8C
330
1E
100
AcDbEntity
  8
0
100
AcDbLine
 10
40.49999999999999
 20
99.7
 30
0.0
 11
40.49999999999999
 21
101.7
 31
0.0
  0
LINE
  5
8D
330
1E
100
AcDbEntity
  8
0
100
AcDbLine
 10
0.9573498531704341
 20
101.7958897146789
 30
0.0
 11
1.242999999999999
 21
103.862
 31
0.0
  0
LINE
  5
8E
330
1E
100
AcDbEntity
  8
0
100
AcDbLine
 10
0.9573498531704331
 20
101.7958897146789
 30
0.0
 11
1.242999999999999
 21
103.862
 31
0.0
  0
LINE
  5
8F
330
1E
100
AcDbEntity
  8
0
100
AcDbLine
 10
10.757
 20
103.862
 30
0.0
 11
11.0426501468296
 21
101.7958897146789
 31
0.0
  0
LINE
  5
90
330
1E
100
AcDbEntity
  8
0
100
AcDbLine
 10
10.757
 20
103.862
 30
0.0
 11
10.783
 21
103.542
 31
0.0
  0
LINE
  5
91
330
1E
100
AcDbEntity
  8
0
100
AcDbLine
 10
10.783
 20
103.542
 30
0.0
 11
11.31
 21
99.998
 31
0.0
  0
LINE
  5
92
330
1E
100
AcDbEntity
  8
0
100
AcDbLine
 10
1.217
 20
103.542
 30
0.0
 11
1.242999999999999
 21
103.862
 31
0.0
  0
LINE
  5
93
330
1E
100
AcDbEntity
  8
0
100
AcDbLine
 10
1.217
 20
103.542
 30
0.0
 11
1.551999999999999
 21
106.296
 31
0.0
  0
LINE
  5
94
330
1E
100
AcDbEntity
  8
0
100
AcDbLine
 10
38.5
 20
104.0999999999999
 30
0.0
 11
38.5
 21
103.4999999999999
 31
0.0
  0
LINE
  5
95
330
1E
100
AcDbEntity
  8
0
100
AcDbLine
 10
38.5
 20
104.0999999999999
 30
0.0
 11
38.5
 21
105.6
 31
0.0
  0
LINE
  5
96
330
1E
100
AcDbEntity
  8
0
100
AcDbLine
 10
40.0
 20
101.2
 30
0.0
 11
40.0
 21
100.5
 31
0.0
  0
LINE
  5
97
330
1E
100
AcDbEntity
  8
0
100
AcDbLine
 10
40.0
 20
101.2
 30
0.0
 11
40.0
 21
103.0
 31
0.0
  0
LINE
  5
98
330
1E
100
AcDbEntity
  8
0
100
AcDbLine
 10
40.0
 20
103.0
 30
0.0
 11
40.0
 21
101.2
 31
0.0
  0
LINE
  5
99
330
1E
100
AcDbEntity
  8
0
100
AcDbLine
 10
40.0
 20
103.0
 30
0.0
 11
40.0
 21
105.9
 31
0.0
  0
LINE
  5
9A
330
1E
100
AcDbEntity
  8
0
100
AcDbLine
 10
40.0
 20
103.0
 30
0.0
 11
40.0
 21
103.6
 31
0.0
  0
LINE
  5
9B
330
1E
100
AcDbEntity
  8
0
100
AcDbLine
 10
40.49999999999999
 20
101.7
 30
0.0
 11
40.49999999999999
 21
99.7
 31
0.0
  0
LINE
  5
9C
330
1E
100
AcDbEntity
  8
0
100
AcDbLine
 10
40.49999999999999
 20
101.7
 30
0.0
 11
40.49999999999999
 21
104.9
 31
0.0
  0
LINE
  5
9D
330
1E
100
AcDbEntity
  8
0
100
AcDbLine
 10
55.5
 20
100.8
 30
0.0
 11
55.5
 21
98.8
 31
0.0
  0
LINE
  5
9E
330
1E
100
AcDbEntity
  8
0
100
AcDbLine
 10
55.5
 20
100.8
 30
0.0
 11
55.5
 21
104.2
 31
0.0
  0
LINE
  5
9F
330
1E
100
AcDbEntity
  8
0
100
AcDbLine
 10
56.0
 20
103.0999999999999
 30
0.0
 11
56.0
 21
99.50000000000001
 31
0.0
  0
LINE
  5
A0
330
1E
100
AcDbEntity
  8
0
100
AcDbLine
 10
56.0
 20
103.0999999999999
 30
0.0
 11
56.0
 21
107.8
 31
0.0
  0
LINE
  5
A1
330
1E
100
AcDbEntity
  8
0
100
AcDbLine
 10
60.0
 20
100.8
 30
0.0
 11
60.0
 21
104.2
 31
0.0
  0
LINE
  5
A2
330
1E
100
AcDbEntity
  8
0
100
AcDbLine
 10
40.0
 20
103.6
 30
0.0
 11
40.0
 21
103.0
 31
0.0
  0
LINE
  5
A3
330
1E
100
AcDbEntity
  8
0
100
AcDbLine
 10
40.0
 20
103.6
 30
0.0
 11
40.0
 21
105.0999999999999
 31
0.0
  0
LINE
  5
A4
330
1E
100
AcDbEntity
  8
0
100
AcDbLine
 10
59.5
 20
103.0999999999999
 30
0.0
 11
59.5
 21
99.50000000000001
 31
0.0
  0
LINE
  5
A5
330
1E
100
AcDbEntity
  8
0
100
AcDbLine
 10
59.5
 20
103.0999999999999
 30
0.0
 11
59.5
 21
107.8
 31
0.0
  0
LINE
  5
A6
330
1E
100
AcDbEntity
  8
0
100
AcDbLine
 10
38.5
 20
103.4999999999999
 30
0.0
 11
40.0
 21
103.0
 31
0.0
  0
LINE
  5
A7
330
1E
100
AcDbEntity
  8
0
100
AcDbLine
 10
38.5
 20
103.4999999999999
 30
0.0
 11
38.5
 21
104.0999999999999
 31
0.0
  0
LINE
  5
A8
330
1E
100
AcDbEntity
  8
0
100
AcDbLine
 10
40.0
 20
100.5
 30
0.0
 11
40.49999999999999
 21
99.0
 31
0.0
  0
LINE
  5
A9
330
1E
100
AcDbEntity
  8
0
100
AcDbLine
 10
40.0
 20
100.5
 30
0.0
 11
40.0
 21
101.2
 31
0.0
  0
LINE
  5
AA
330
1E
100
AcDbEntity
  8
0
100
AcDbLine
 10
61.0
 20
102.0999999999999
 30
0.0
 11
61.0
 21
100.2
 31
0.0
  0
LINE
  5
AB
330
1E
100
AcDbEntity
  8
0
100
AcDbLine
 10
61.0
 20
102.0999999999999
 30
0.0
 11
61.0
 21
105.2
 31
0.0
  0
LINE
  5
AC
330
1E
100
AcDbEntity
  8
0
100
AcDbLine
 10
61.0
 20
100.2
 30
0.0
 11
61.0
 21
99.50000000000001
 31
0.0
  0
LINE
  5
AD
330
1E
100
AcDbEntity
  8
0
100
AcDbLine
 10
61.0
 20
100.2
 30
0.0
 11
61.0
 21
102.0999999999999
 31
0.0
  0
LINE
  5
AE
330
1E
100
AcDbEntity
  8
0
100
AcDbLine
 10
61.0
 20
100.8
 30
0.0
 11
61.0
 21
98.8
 31
0.0
  0
LINE
  5
AF
330
1E
100
AcDbEntity
  8
0
100
AcDbLine
 10
61.0
 20
100.8
 30
0.0
 11
61.0
 21
104.2
 31
0.0
  0
LINE
  5
B0
330
1E
100
AcDbEntity
  8
0
100
AcDbLine
 10
61.0
 20
99.50000000000001
 30
0.0
 11
61.0
 21
98.8
 31
0.0
  0
LINE
  5
B1
330
1E
100
AcDbEntity
  8
0
100
AcDbLine
 10
61.0
 20
99.50000000000001
 30
0.0
 11
61.0
 21
100.2
 31
0.0
  0
LINE
  5
B2
330
1E
100
AcDbEntity
  8
0
100
AcDbLine
 10
245.0
 20
98.8
 30
0.0
 11
245.0
 21
100.8
 31
0.0
  0
LINE
  5
B3
330
1E
100
AcDbEntity
  8
0
100
AcDbLine
 10
245.0
 20
98.8
 30
0.0
 11
245.0
 21
98.0
 31
0.0
  0
LINE
  5
B5
330
1E
100
AcDbEntity
  8
0
100
AcDbLine
 10
245.0
 20
99.50000000000001
 30
0.0
 11
247.0
 21
99.50000000000001
 31
0.0
  0
LINE
  5
B6
330
1E
100
AcDbEntity
  8
0
100
AcDbLine
 10
245.0
 20
100.8
 30
0.0
 11
245.0
 21
104.2
 31
0.0
  0
LINE
  5
B7
330
1E
100
AcDbEntity
  8
0
100
AcDbLine
 10
245.0
 20
100.8
 30
0.0
 11
245.0
 21
98.8
 31
0.0
  0
LINE
  5
B9
330
1E
100
AcDbEntity
  8
0
100
AcDbLine
 10
247.0
 20
102.0999999999999
 30
0.0
 11
247.0
 21
105.2
 31
0.0
  0
LINE
  5
BA
330
1E
100
AcDbEntity
  8
0
100
AcDbLine
 10
247.0
 20
100.2
 30
0.0
 11
247.0
 21
102.0999999999999
 31
0.0
  0
LINE
  5
BB
330
1E
100
AcDbEntity
  8
0
100
AcDbLine
 10
247.0
 20
99.50000000000001
 30
0.0
 11
247.0
 21
100.2
 31
0.0
  0
LINE
  5
BE
330
1E
100
AcDbEntity
  8
0
100
AcDbLine
 10
61.0
 20
98.8
 30
0.0
 11
61.0
 21
99.50000000000001
 31
0.0
  0
LINE
  5
BF
330
1E
100
AcDbEntity
  8
0
100
AcDbLine
 10
61.0
 20
98.8
 30
0.0
 11
61.0
 21
98.0
 31
0.0
  0
LINE
  5
C0
330
1E
100
AcDbEntity
  8
0
100
AcDbLine
 10
61.0
 20
98.8
 30
0.0
 11
61.0
 21
100.8
 31
0.0
  0
LINE
  5
C1
330
1E
100
AcDbEntity
  8
0
100
AcDbLine
 10
247.0
 20
98.756
 30
0.0
 11
247.0
 21
98.0
 31
0.0
  0
LINE
  5
C2
330
1E
100
AcDbEntity
  8
0
100
AcDbLine
 10
247.0
 20
98.756
 30
0.0
 11
247.0
 21
99.50000000000001
 31
0.0
  0
LINE
  5
C3
330
1E
100
AcDbEntity
  8
0
100
AcDbLine
 10
247.0
 20
100.772
 30
0.0
 11
247.0
 21
98.756
 31
0.0
  0
LINE
  5
C4
330
1E
100
AcDbEntity
  8
0
100
AcDbLine
 10
40.49999999999999
 20
104.9
 30
0.0
 11
40.49999999999999
 21
101.7
 31
0.0
  0
LINE
  5
C5
330
1E
100
AcDbEntity
  8
0
100
AcDbLine
 10
40.49999999999999
 20
104.9
 30
0.0
 11
40.49999999999999
 21
109.0999999999999
 31
0.0
  0
LINE
  5
C6
330
1E
100
AcDbEntity
  8
0
100
AcDbLine
 10
60.0
 20
104.2
 30
0.0
 11
60.0
 21
108.6
 31
0.0
  0
LINE
  5
C7
330
1E
100
AcDbEntity
  8
0
100
AcDbLine
 10
55.5
 20
104.2
 30
0.0
 11
55.5
 21
100.8
 31
0.0
  0
LINE
  5
C8
330
1E
100
AcDbEntity
  8
0
100
AcDbLine
 10
55.5
 20
104.2
 30
0.0
 11
55.5
 21
108.6
 31
0.0
  0
LINE
  5
C9
330
1E
100
AcDbEntity
  8
0
100
AcDbLine
 10
38.0
 20
105.4999999999999
 30
0.0
 11
38.0
 21
105.0
 31
0.0
  0
LINE
  5
CA
330
1E
100
AcDbEntity
  8
0
100
AcDbLine
 10
38.0
 20
105.4999999999999
 30
0.0
 11
38.0
 21
106.9
 31
0.0
  0
LINE
  5
CB
330
1E
100
AcDbEntity
  8
0
100
AcDbLine
 10
1.551999999999999
 20
106.296
 30
0.0
 11
1.857
 21
108.5779999999999
 31
0.0
  0
LINE
  5
CC
330
1E
100
AcDbEntity
  8
0
100
AcDbLine
 10
10.448
 20
106.296
 30
0.0
 11
10.783
 21
103.542
 31
0.0
  0
LINE
  5
CD
330
1E
100
AcDbEntity
  8
0
100
AcDbLine
 10
0.5
 20
108.4999999999999
 30
0.0
 11
1.783802479851209
 21
108.0720658400499
 31
0.0
  0
LINE
  5
CE
330
1E
100
AcDbEntity
  8
0
100
AcDbLine
 10
0.5
 20
108.4999999999999
 30
0.0
 11
0.5
 21
108.9
 31
0.0
  0
LINE
  5
CF
330
1E
100
AcDbEntity
  8
0
100
AcDbLine
 10
0.5
 20
108.4999999999999
 30
0.0
 11
1.783802479851209
 21
108.0720658400499
 31
0.0
  0
LINE
  5
D0
330
1E
100
AcDbEntity
  8
0
100
AcDbLine
 10
1.76172307817568
 20
107.8651411947439
 30
0.0
 11
1.783802479851209
 21
108.0720658400499
 31
0.0
  0
LINE
  5
D1
330
1E
100
AcDbEntity
  8
0
100
AcDbLine
 10
38.0
 20
106.9
 30
0.0
 11
38.0
 21
105.4999999999999
 31
0.0
  0
LINE
  5
D2
330
1E
100
AcDbEntity
  8
0
100
AcDbLine
 10
38.0
 20
106.9
 30
0.0
 11
38.0
 21
109.0999999999999
 31
0.0
  0
LINE
  5
D3
330
1E
100
AcDbEntity
  8
0
100
AcDbLine
 10
38.5
 20
108.0999999999999
 30
0.0
 11
38.5
 21
105.6
 31
0.0
  0
LINE
  5
D4
330
1E
100
AcDbEntity
  8
0
100
AcDbLine
 10
38.5
 20
108.0999999999999
 30
0.0
 11
38.5
 21
111.2999999999999
 31
0.0
  0
LINE
  5
D5
330
1E
100
AcDbEntity
  8
0
100
AcDbLine
 10
38.5
 20
105.6
 30
0.0
 11
38.5
 21
104.0999999999999
 31
0.0
  0
LINE
  5
D6
330
1E
100
AcDbEntity
  8
0
100
AcDbLine
 10
38.5
 20
105.6
 30
0.0
 11
38.5
 21
108.0999999999999
 31
0.0
  0
LINE
  5
D7
330
1E
100
AcDbEntity
  8
0
100
AcDbLine
 10
40.0
 20
107.6999999999999
 30
0.0
 11
40.0
 21
105.0999999999999
 31
0.0
  0
LINE
  5
D8
330
1E
100
AcDbEntity
  8
0
100
AcDbLine
 10
40.0
 20
107.6999999999999
 30
0.0
 11
40.0
 21
111.0
 31
0.0
  0
LINE
  5
D9
330
1E
100
AcDbEntity
  8
0
100
AcDbLine
 10
40.0
 20
105.0999999999999
 30
0.0
 11
40.0
 21
103.6
 31
0.0
  0
LINE
  5
DA
330
1E
100
AcDbEntity
  8
0
100
AcDbLine
 10
40.0
 20
105.0999999999999
 30
0.0
 11
40.0
 21
107.6999999999999
 31
0.0
  0
LINE
  5
DB
330
1E
100
AcDbEntity
  8
0
100
AcDbLine
 10
56.0
 20
107.8
 30
0.0
 11
56.0
 21
103.0999999999999
 31
0.0
  0
LINE
  5
DC
330
1E
100
AcDbEntity
  8
0
100
AcDbLine
 10
56.0
 20
107.8
 30
0.0
 11
56.0
 21
113.2
 31
0.0
  0
LINE
  5
DD
330
1E
100
AcDbEntity
  8
0
100
AcDbLine
 10
59.5
 20
107.8
 30
0.0
 11
59.5
 21
103.0999999999999
 31
0.0
  0
LINE
  5
DE
330
1E
100
AcDbEntity
  8
0
100
AcDbLine
 10
59.5
 20
107.8
 30
0.0
 11
59.5
 21
113.2
 31
0.0
  0
LINE
  5
DF
330
1E
100
AcDbEntity
  8
0
100
AcDbLine
 10
40.0
 20
105.9
 30
0.0
 11
40.0
 21
103.0
 31
0.0
  0
LINE
  5
E0
330
1E
100
AcDbEntity
  8
0
100
AcDbLine
 10
40.0
 20
105.9
 30
0.0
 11
40.0
 21
109.8
 31
0.0
  0
LINE
  5
E1
330
1E
100
AcDbEntity
  8
0
100
AcDbLine
 10
38.0
 20
105.0
 30
0.0
 11
38.5
 21
103.4999999999999
 31
0.0
  0
LINE
  5
E2
330
1E
100
AcDbEntity
  8
0
100
AcDbLine
 10
38.0
 20
105.0
 30
0.0
 11
38.0
 21
105.4999999999999
 31
0.0
  0
LINE
  5
E3
330
1E
100
AcDbEntity
  8
0
100
AcDbLine
 10
61.0
 20
105.2
 30
0.0
 11
61.0
 21
102.0999999999999
 31
0.0
  0
LINE
  5
E4
330
1E
100
AcDbEntity
  8
0
100
AcDbLine
 10
61.0
 20
105.2
 30
0.0
 11
61.0
 21
109.2999999999999
 31
0.0
  0
LINE
  5
E5
330
1E
100
AcDbEntity
  8
0
100
AcDbLine
 10
10.1695976072367
 20
108.5087928217099
 30
0.0
 11
11.0
 21
111.0
 31
0.0
  0
LINE
  5
E6
330
1E
100
AcDbEntity
  8
0
100
AcDbLine
 10
1.857
 20
108.5779999999999
 30
0.0
 11
2.0
 21
110.4999999999999
 31
0.0
  0
LINE
  5
E7
330
1E
100
AcDbEntity
  8
0
100
AcDbLine
 10
0.5
 20
108.9
 30
0.0
 11
0.5
 21
108.4999999999999
 31
0.0
  0
LINE
  5
E8
330
1E
100
AcDbEntity
  8
0
100
AcDbLine
 10
0.5
 20
108.9
 30
0.0
 11
0.5
 21
109.8999999999999
 31
0.0
  0
LINE
  5
E9
330
1E
100
AcDbEntity
  8
0
100
AcDbLine
 10
10.14299999999999
 20
108.5779999999999
 30
0.0
 11
10.448
 21
106.296
 31
0.0
  0
LINE
  5
EA
330
1E
100
AcDbEntity
  8
0
100
AcDbLine
 10
17.6
 20
109.0
 30
0.0
 11
38.0
 21
109.0
 31
0.0
  0
LINE
  5
EB
330
1E
100
AcDbEntity
  8
0
100
AcDbLine
 10
17.0
 20
109.24
 30
0.0
 11
17.6
 21
109.0
 31
0.0
  0
LINE
  5
EC
330
1E
100
AcDbEntity
  8
0
100
AcDbLine
 10
17.0
 20
109.24
 30
0.0
 11
17.0
 21
109.5999999999999
 31
0.0
  0
LINE
  5
ED
330
1E
100
AcDbEntity
  8
0
100
AcDbLine
 10
17.6
 20
109.0
 30
0.0
 11
38.0
 21
109.0
 31
0.0
  0
LINE
  5
EE
330
1E
100
AcDbEntity
  8
0
100
AcDbLine
 10
55.5
 20
108.6
 30
0.0
 11
55.5
 21
104.2
 31
0.0
  0
LINE
  5
EF
330
1E
100
AcDbEntity
  8
0
100
AcDbLine
 10
55.5
 20
108.6
 30
0.0
 11
55.5
 21
113.5999999999999
 31
0.0
  0
LINE
  5
F0
330
1E
100
AcDbEntity
  8
0
100
AcDbLine
 10
40.49999999999999
 20
109.0999999999999
 30
0.0
 11
40.49999999999999
 21
104.9
 31
0.0
  0
LINE
  5
F1
330
1E
100
AcDbEntity
  8
0
100
AcDbLine
 10
40.49999999999999
 20
109.0999999999999
 30
0.0
 11
40.49999999999999
 21
113.9
 31
0.0
  0
LINE
  5
F2
330
1E
100
AcDbEntity
  8
0
100
AcDbLine
 10
60.0
 20
108.6
 30
0.0
 11
60.0
 21
113.5999999999999
 31
0.0
  0
LINE
  5
F3
330
1E
100
AcDbEntity
  8
0
100
AcDbLine
 10
38.0
 20
109.0999999999999
 30
0.0
 11
38.0
 21
106.9
 31
0.0
  0
LINE
  5
F4
330
1E
100
AcDbEntity
  8
0
100
AcDbLine
 10
38.0
 20
109.0999999999999
 30
0.0
 11
38.0
 21
112.0
 31
0.0
  0
LINE
  5
F5
330
1E
100
AcDbEntity
  8
0
100
AcDbLine
 10
38.0
 20
109.36
 30
0.0
 11
38.0
 21
109.0
 31
0.0
  0
LINE
  5
F6
330
1E
100
AcDbEntity
  8
0
100
AcDbLine
 10
17.0
 20
109.5999999999999
 30
0.0
 11
17.0
 21
109.24
 31
0.0
  0
LINE
  5
F7
330
1E
100
AcDbEntity
  8
0
100
AcDbLine
 10
17.0
 20
109.5999999999999
 30
0.0
 11
17.0
 21
110.56
 31
0.0
  0
LINE
  5
F8
330
1E
100
AcDbEntity
  8
0
100
AcDbLine
 10
0.5
 20
109.8999999999999
 30
0.0
 11
0.5
 21
108.9
 31
0.0
  0
LINE
  5
F9
330
1E
100
AcDbEntity
  8
0
100
AcDbLine
 10
0.5
 20
109.8999999999999
 30
0.0
 11
0.5
 21
111.5999999999999
 31
0.0
  0
LINE
  5
FA
330
1E
100
AcDbEntity
  8
0
100
AcDbLine
 10
0.0
 20
111.2
 30
0.0
 11
0.0
 21
110.2999999999999
 31
0.0
  0
LINE
  5
FB
330
1E
100
AcDbEntity
  8
0
100
AcDbLine
 10
0.0
 20
111.2
 30
0.0
 11
0.0
 21
112.5999999999999
 31
0.0
  0
LINE
  5
FC
330
1E
100
AcDbEntity
  8
0
100
AcDbLine
 10
11.0
 20
111.2999999999999
 30
0.0
 11
11.0
 21
111.0
 31
0.0
  0
LINE
  5
FD
330
1E
100
AcDbEntity
  8
0
100
AcDbLine
 10
11.0
 20
111.2999999999999
 30
0.0
 11
11.0
 21
112.0999999999999
 31
0.0
  0
LINE
  5
FE
330
1E
100
AcDbEntity
  8
0
100
AcDbLine
 10
11.0
 20
111.0
 30
0.0
 11
13.0
 21
112.5
 31
0.0
  0
LINE
  5
FF
330
1E
100
AcDbEntity
  8
0
100
AcDbLine
 10
11.0
 20
111.0
 30
0.0
 11
11.0
 21
111.2999999999999
 31
0.0
  0
LINE
  5
100
330
1E
100
AcDbEntity
  8
0
100
AcDbLine
 10
10.0
 20
110.4999999999999
 30
0.0
 11
10.14299999999999
 21
108.5779999999999
 31
0.0
  0
LINE
  5
101
330
1E
100
AcDbEntity
  8
0
100
AcDbLine
 10
10.0
 20
110.4999999999999
 30
0.0
 11
10.14299999999999
 21
113.0
 31
0.0
  0
LINE
  5
102
330
1E
100
AcDbEntity
  8
0
100
AcDbLine
 10
0.0
 20
110.2999999999999
 30
0.0
 11
0.0
 21
110.0
 31
0.0
  0
LINE
  5
103
330
1E
100
AcDbEntity
  8
0
100
AcDbLine
 10
0.0
 20
110.2999999999999
 30
0.0
 11
0.0
 21
111.2
 31
0.0
  0
LINE
  5
104
330
1E
100
AcDbEntity
  8
0
100
AcDbLine
 10
0.0
 20
110.0
 30
0.0
 11
0.5
 21
108.4999999999999
 31
0.0
  0
LINE
  5
105
330
1E
100
AcDbEntity
  8
0
100
AcDbLine
 10
0.0
 20
110.0
 30
0.0
 11
0.0
 21
110.2999999999999
 31
0.0
  0
LINE
  5
106
330
1E
100
AcDbEntity
  8
0
100
AcDbLine
 10
38.0
 20
110.3199999999999
 30
0.0
 11
38.0
 21
109.36
 31
0.0
  0
LINE
  5
107
330
1E
100
AcDbEntity
  8
0
100
AcDbLine
 10
17.0
 20
110.56
 30
0.0
 11
17.0
 21
109.5999999999999
 31
0.0
  0
LINE
  5
108
330
1E
100
AcDbEntity
  8
0
100
AcDbLine
 10
17.0
 20
110.56
 30
0.0
 11
17.0
 21
112.1199999999999
 31
0.0
  0
LINE
  5
109
330
1E
100
AcDbEntity
  8
0
100
AcDbLine
 10
11.0
 20
112.0999999999999
 30
0.0
 11
11.0
 21
111.2999999999999
 31
0.0
  0
LINE
  5
10A
330
1E
100
AcDbEntity
  8
0
100
AcDbLine
 10
11.0
 20
112.0999999999999
 30
0.0
 11
11.0
 21
113.4
 31
0.0
  0
LINE
  5
10B
330
1E
100
AcDbEntity
  8
0
100
AcDbLine
 10
13.0
 20
112.5
 30
0.0
 11
17.0
 21
112.5
 31
0.0
  0
LINE
  5
10C
330
1E
100
AcDbEntity
  8
0
100
AcDbLine
 10
13.0
 20
112.5
 30
0.0
 11
13.0
 21
112.7
 31
0.0
  0
LINE
  5
10D
330
1E
100
AcDbEntity
  8
0
100
AcDbLine
 10
0.5
 20
111.5999999999999
 30
0.0
 11
0.5
 21
109.8999999999999
 31
0.0
  0
LINE
  5
10E
330
1E
100
AcDbEntity
  8
0
100
AcDbLine
 10
0.5
 20
111.5999999999999
 30
0.0
 11
0.5
 21
113.7999999999999
 31
0.0
  0
LINE
  5
10F
330
1E
100
AcDbEntity
  8
0
100
AcDbLine
 10
38.0
 20
111.9199999999999
 30
0.0
 11
38.0
 21
110.3199999999999
 31
0.0
  0
LINE
  5
110
330
1E
100
AcDbEntity
  8
0
100
AcDbLine
 10
17.0
 20
112.1199999999999
 30
0.0
 11
17.0
 21
110.56
 31
0.0
  0
LINE
  5
111
330
1E
100
AcDbEntity
  8
0
100
AcDbLine
 10
17.0
 20
112.1199999999999
 30
0.0
 11
17.0
 21
112.5
 31
0.0
  0
LINE
  5
112
330
1E
100
AcDbEntity
  8
0
100
AcDbLine
 10
17.0
 20
112.1199999999999
 30
0.0
 11
17.0
 21
114.1599999999999
 31
0.0
  0
LINE
  5
113
330
1E
100
AcDbEntity
  8
0
100
AcDbLine
 10
17.0
 20
112.7
 30
0.0
 11
17.0
 21
113.4
 31
0.0
  0
LINE
  5
114
330
1E
100
AcDbEntity
  8
0
100
AcDbLine
 10
13.0
 20
112.7
 30
0.0
 11
13.0
 21
112.5
 31
0.0
  0
LINE
  5
115
330
1E
100
AcDbEntity
  8
0
100
AcDbLine
 10
13.0
 20
112.7
 30
0.0
 11
13.0
 21
113.4
 31
0.0
  0
LINE
  5
116
330
1E
100
AcDbEntity
  8
0
100
AcDbLine
 10
1.857
 20
113.0
 30
0.0
 11
2.0
 21
110.4999999999999
 31
0.0
  0
LINE
  5
117
330
1E
100
AcDbEntity
  8
0
100
AcDbLine
 10
10.14299999999999
 20
113.0
 30
0.0
 11
10.448
 21
115.01
 31
0.0
  0
LINE
  5
118
330
1E
100
AcDbEntity
  8
0
100
AcDbLine
 10
0.0
 20
112.5999999999999
 30
0.0
 11
0.0
 21
111.2
 31
0.0
  0
LINE
  5
119
330
1E
100
AcDbEntity
  8
0
100
AcDbLine
 10
0.0
 20
112.5999999999999
 30
0.0
 11
0.0
 21
114.5
 31
0.0
  0
LINE
  5
11A
330
1E
100
AcDbEntity
  8
0
100
AcDbLine
 10
17.0
 20
112.5
 30
0.0
 11
17.0
 21
112.1199999999999
 31
0.0
  0
LINE
  5
11B
330
1E
100
AcDbEntity
  8
0
100
AcDbLine
 10
17.0
 20
112.5
 30
0.0
 11
17.0
 21
112.7
 31
0.0
  0
LINE
  5
11C
330
1E
100
AcDbEntity
  8
0
100
AcDbLine
 10
38.0
 20
112.0
 30
0.0
 11
38.0
 21
109.0999999999999
 31
0.0
  0
LINE
  5
11D
330
1E
100
AcDbEntity
  8
0
100
AcDbLine
 10
38.0
 20
112.0
 30
0.0
 11
38.0
 21
115.4
 31
0.0
  0
LINE
  5
11E
330
1E
100
AcDbEntity
  8
0
100
AcDbLine
 10
38.5
 20
111.2999999999999
 30
0.0
 11
38.5
 21
108.0999999999999
 31
0.0
  0
LINE
  5
11F
330
1E
100
AcDbEntity
  8
0
100
AcDbLine
 10
38.5
 20
111.2999999999999
 30
0.0
 11
38.5
 21
115.0
 31
0.0
  0
LINE
  5
120
330
1E
100
AcDbEntity
  8
0
100
AcDbLine
 10
40.0
 20
111.0
 30
0.0
 11
40.0
 21
107.6999999999999
 31
0.0
  0
LINE
  5
121
330
1E
100
AcDbEntity
  8
0
100
AcDbLine
 10
40.0
 20
111.0
 30
0.0
 11
40.0
 21
114.9
 31
0.0
  0
LINE
  5
122
330
1E
100
AcDbEntity
  8
0
100
AcDbLine
 10
40.0
 20
109.8
 30
0.0
 11
40.0
 21
105.9
 31
0.0
  0
LINE
  5
123
330
1E
100
AcDbEntity
  8
0
100
AcDbLine
 10
40.0
 20
109.8
 30
0.0
 11
40.0
 21
114.2
 31
0.0
  0
LINE
  5
124
330
1E
100
AcDbEntity
  8
0
100
AcDbLine
 10
56.0
 20
113.2
 30
0.0
 11
56.0
 21
107.8
 31
0.0
  0
LINE
  5
125
330
1E
100
AcDbEntity
  8
0
100
AcDbLine
 10
56.0
 20
113.2
 30
0.0
 11
56.0
 21
119.0
 31
0.0
  0
LINE
  5
126
330
1E
100
AcDbEntity
  8
0
100
AcDbLine
 10
11.0
 20
113.4
 30
0.0
 11
11.0
 21
112.0999999999999
 31
0.0
  0
LINE
  5
127
330
1E
100
AcDbEntity
  8
0
100
AcDbLine
 10
11.0
 20
113.4
 30
0.0
 11
11.0
 21
115.0
 31
0.0
  0
LINE
  5
128
330
1E
100
AcDbEntity
  8
0
100
AcDbLine
 10
17.0
 20
113.4
 30
0.0
 11
17.0
 21
114.4
 31
0.0
  0
LINE
  5
129
330
1E
100
AcDbEntity
  8
0
100
AcDbLine
 10
13.0
 20
113.4
 30
0.0
 11
13.0
 21
112.7
 31
0.0
  0
LINE
  5
12A
330
1E
100
AcDbEntity
  8
0
100
AcDbLine
 10
13.0
 20
113.4
 30
0.0
 11
13.0
 21
114.4
 31
0.0
  0
LINE
  5
12B
330
1E
100
AcDbEntity
  8
0
100
AcDbLine
 10
55.5
 20
113.5999999999999
 30
0.0
 11
55.5
 21
108.6
 31
0.0
  0
LINE
  5
12C
330
1E
100
AcDbEntity
  8
0
100
AcDbLine
 10
55.5
 20
113.5999999999999
 30
0.0
 11
55.5
 21
119.0
 31
0.0
  0
LINE
  5
12D
330
1E
100
AcDbEntity
  8
0
100
AcDbLine
 10
59.5
 20
113.2
 30
0.0
 11
59.5
 21
107.8
 31
0.0
  0
LINE
  5
12E
330
1E
100
AcDbEntity
  8
0
100
AcDbLine
 10
59.5
 20
113.2
 30
0.0
 11
59.5
 21
119.0
 31
0.0
  0
LINE
  5
12F
330
1E
100
AcDbEntity
  8
0
100
AcDbLine
 10
60.0
 20
113.5999999999999
 30
0.0
 11
60.0
 21
119.0
 31
0.0
  0
LINE
  5
130
330
1E
100
AcDbEntity
  8
0
100
AcDbLine
 10
61.0
 20
109.2999999999999
 30
0.0
 11
61.0
 21
105.2
 31
0.0
  0
LINE
  5
131
330
1E
100
AcDbEntity
  8
0
100
AcDbLine
 10
61.0
 20
109.2999999999999
 30
0.0
 11
61.0
 21
114.0
 31
0.0
  0
LINE
  5
132
330
1E
100
AcDbEntity
  8
0
100
AcDbLine
 10
61.0
 20
113.5999999999999
 30
0.0
 11
61.0
 21
108.4999999999999
 31
0.0
  0
LINE
  5
133
330
1E
100
AcDbEntity
  8
0
100
AcDbLine
 10
61.0
 20
113.5999999999999
 30
0.0
 11
61.0
 21
119.0
 31
0.0
  0
LINE
  5
134
330
1E
100
AcDbEntity
  8
0
100
AcDbLine
 10
61.0
 20
108.4999999999999
 30
0.0
 11
61.0
 21
104.2
 31
0.0
  0
LINE
  5
135
330
1E
100
AcDbEntity
  8
0
100
AcDbLine
 10
61.0
 20
108.4999999999999
 30
0.0
 11
61.0
 21
113.5999999999999
 31
0.0
  0
LINE
  5
136
330
1E
100
AcDbEntity
  8
0
100
AcDbLine
 10
245.0
 20
104.2
 30
0.0
 11
245.0
 21
108.4999999999999
 31
0.0
  0
LINE
  5
137
330
1E
100
AcDbEntity
  8
0
100
AcDbLine
 10
245.0
 20
104.2
 30
0.0
 11
245.0
 21
100.8
 31
0.0
  0
LINE
  5
139
330
1E
100
AcDbEntity
  8
0
100
AcDbLine
 10
245.0
 20
108.4999999999999
 30
0.0
 11
245.0
 21
113.5999999999999
 31
0.0
  0
LINE
  5
13A
330
1E
100
AcDbEntity
  8
0
100
AcDbLine
 10
245.0
 20
108.4999999999999
 30
0.0
 11
245.0
 21
104.2
 31
0.0
  0
LINE
  5
13C
330
1E
100
AcDbEntity
  8
0
100
AcDbLine
 10
245.0
 20
113.5999999999999
 30
0.0
 11
245.0
 21
119.0
 31
0.0
  0
LINE
  5
13D
330
1E
100
AcDbEntity
  8
0
100
AcDbLine
 10
245.0
 20
113.5999999999999
 30
0.0
 11
245.0
 21
108.4999999999999
 31
0.0
  0
LINE
  5
13E
330
1E
100
AcDbEntity
  8
0
100
AcDbLine
 10
247.0
 20
109.2999999999999
 30
0.0
 11
247.0
 21
114.0
 31
0.0
  0
LINE
  5
13F
330
1E
100
AcDbEntity
  8
0
100
AcDbLine
 10
247.0
 20
105.2
 30
0.0
 11
247.0
 21
109.2999999999999
 31
0.0
  0
LINE
  5
141
330
1E
100
AcDbEntity
  8
0
100
AcDbLine
 10
61.0
 20
104.2
 30
0.0
 11
61.0
 21
100.8
 31
0.0
  0
LINE
  5
142
330
1E
100
AcDbEntity
  8
0
100
AcDbLine
 10
61.0
 20
104.2
 30
0.0
 11
61.0
 21
108.4999999999999
 31
0.0
  0
LINE
  5
143
330
1E
100
AcDbEntity
  8
0
100
AcDbLine
 10
247.0
 20
104.132
 30
0.0
 11
247.0
 21
100.772
 31
0.0
  0
LINE
  5
144
330
1E
100
AcDbEntity
  8
0
100
AcDbLine
 10
247.0
 20
108.584
 30
0.0
 11
247.0
 21
104.132
 31
0.0
  0
LINE
  5
145
330
1E
100
AcDbEntity
  8
0
100
AcDbLine
 10
0.5
 20
113.7999999999999
 30
0.0
 11
0.5
 21
111.5999999999999
 31
0.0
  0
LINE
  5
146
330
1E
100
AcDbEntity
  8
0
100
AcDbLine
 10
0.5
 20
113.7999999999999
 30
0.0
 11
0.5
 21
116.3
 31
0.0
  0
LINE
  5
147
330
1E
100
AcDbEntity
  8
0
100
AcDbLine
 10
17.0
 20
114.1599999999999
 30
0.0
 11
17.0
 21
116.48
 31
0.0
  0
LINE
  5
148
330
1E
100
AcDbEntity
  8
0
100
AcDbLine
 10
17.0
 20
114.1599999999999
 30
0.0
 11
17.0
 21
112.1199999999999
 31
0.0
  0
LINE
  5
149
330
1E
100
AcDbEntity
  8
0
100
AcDbLine
 10
38.0
 20
114.04
 30
0.0
 11
38.0
 21
111.9199999999999
 31
0.0
  0
LINE
  5
14A
330
1E
100
AcDbEntity
  8
0
100
AcDbLine
 10
1.551999999999999
 20
115.01
 30
0.0
 11
1.857
 21
113.0
 31
0.0
  0
LINE
  5
14B
330
1E
100
AcDbEntity
  8
0
100
AcDbLine
 10
0.0
 20
114.5
 30
0.0
 11
0.0
 21
112.5999999999999
 31
0.0
  0
LINE
  5
14C
330
1E
100
AcDbEntity
  8
0
100
AcDbLine
 10
0.0
 20
114.5
 30
0.0
 11
0.0
 21
116.7
 31
0.0
  0
LINE
  5
14D
330
1E
100
AcDbEntity
  8
0
100
AcDbLine
 10
0.5
 20
116.3
 30
0.0
 11
0.5
 21
113.7999999999999
 31
0.0
  0
LINE
  5
14E
330
1E
100
AcDbEntity
  8
0
100
AcDbLine
 10
0.5
 20
116.3
 30
0.0
 11
0.5
 21
117.791182364729
 31
0.0
  0
LINE
  5
14F
330
1E
100
AcDbEntity
  8
0
100
AcDbLine
 10
17.0
 20
114.4
 30
0.0
 11
17.0
 21
115.7999999999999
 31
0.0
  0
LINE
  5
150
330
1E
100
AcDbEntity
  8
0
100
AcDbLine
 10
11.0
 20
115.0
 30
0.0
 11
11.0
 21
113.4
 31
0.0
  0
LINE
  5
151
330
1E
100
AcDbEntity
  8
0
100
AcDbLine
 10
11.0
 20
115.0
 30
0.0
 11
11.0
 21
116.9
 31
0.0
  0
LINE
  5
152
330
1E
100
AcDbEntity
  8
0
100
AcDbLine
 10
13.0
 20
115.7999999999999
 30
0.0
 11
13.0
 21
114.4
 31
0.0
  0
LINE
  5
153
330
1E
100
AcDbEntity
  8
0
100
AcDbLine
 10
13.0
 20
115.7999999999999
 30
0.0
 11
13.0
 21
117.3
 31
0.0
  0
LINE
  5
154
330
1E
100
AcDbEntity
  8
0
100
AcDbLine
 10
17.0
 20
115.7999999999999
 30
0.0
 11
17.0
 21
117.3
 31
0.0
  0
LINE
  5
155
330
1E
100
AcDbEntity
  8
0
100
AcDbLine
 10
13.0
 20
114.4
 30
0.0
 11
13.0
 21
113.4
 31
0.0
  0
LINE
  5
156
330
1E
100
AcDbEntity
  8
0
100
AcDbLine
 10
13.0
 20
114.4
 30
0.0
 11
13.0
 21
115.7999999999999
 31
0.0
  0
LINE
  5
157
330
1E
100
AcDbEntity
  8
0
100
AcDbLine
 10
10.448
 20
115.01
 30
0.0
 11
10.783
 21
116.8539999999999
 31
0.0
  0
LINE
  5
158
330
1E
100
AcDbEntity
  8
0
100
AcDbLine
 10
0.0
 20
116.7
 30
0.0
 11
0.0
 21
114.5
 31
0.0
  0
LINE
  5
159
330
1E
100
AcDbEntity
  8
0
100
AcDbLine
 10
0.0
 20
116.7
 30
0.0
 11
0.0
 21
119.0
 31
0.0
  0
LINE
  5
15A
330
1E
100
AcDbEntity
  8
0
100
AcDbLine
 10
0.8286650742973559
 20
117.62477482407
 30
0.0
 11
1.217
 21
116.8539999999999
 31
0.0
  0
LINE
  5
15B
330
1E
100
AcDbEntity
  8
0
100
AcDbLine
 10
1.217
 20
116.8539999999999
 30
0.0
 11
1.551999999999999
 21
115.01
 31
0.0
  0
LINE
  5
15C
330
1E
100
AcDbEntity
  8
0
100
AcDbLine
 10
0.8286650742973559
 20
117.62477482407
 30
0.0
 11
1.217
 21
116.8539999999999
 31
0.0
  0
LINE
  5
15E
330
1E
100
AcDbEntity
  8
0
100
AcDbLine
 10
0.4760000000000001
 20
118.2
 30
0.0
 11
1.187
 21
118.2
 31
0.0
  0
LINE
  5
15F
330
1E
100
AcDbEntity
  8
0
100
AcDbLine
 10
0.0920000000000001
 20
118.2
 30
0.0
 11
0.4760000000000001
 21
118.2
 31
0.0
  0
LINE
  5
160
330
1E
100
AcDbEntity
  8
0
100
AcDbLine
 10
0.0920000000000001
 20
118.2
 30
0.0
 11
0.5910000000000001
 21
117.7
 31
0.0
  0
LINE
  5
161
330
1E
100
AcDbEntity
  8
0
100
AcDbLine
 10
0.092
 20
118.2
 30
0.0
 11
0.111
 21
119.0
 31
0.0
  0
LINE
  5
162
330
1E
100
AcDbEntity
  8
0
100
AcDbLine
 10
0.092
 20
118.2
 30
0.0
 11
0.4760000000000001
 21
118.2
 31
0.0
  0
LINE
  5
163
330
1E
100
AcDbEntity
  8
0
100
AcDbLine
 10
0.092
 20
118.2
 30
0.0
 11
0.5910000000000001
 21
117.7
 31
0.0
  0
LINE
  5
164
330
1E
100
AcDbEntity
  8
0
100
AcDbLine
 10
0.5910000000000001
 20
117.7
 30
0.0
 11
3.051
 21
117.2
 31
0.0
  0
LINE
  5
166
330
1E
100
AcDbEntity
  8
0
100
AcDbLine
 10
0.5910000000000001
 20
117.7
 30
0.0
 11
3.051
 21
117.2
 31
0.0
  0
LINE
  5
168
330
1E
100
AcDbEntity
  8
0
100
AcDbLine
 10
0.5
 20
117.791182364729
 30
0.0
 11
0.5
 21
116.3
 31
0.0
  0
LINE
  5
16A
330
1E
100
AcDbEntity
  8
0
100
AcDbLine
 10
0.4760000000000001
 20
118.2
 30
0.0
 11
1.187
 21
118.2
 31
0.0
  0
LINE
  5
16B
330
1E
100
AcDbEntity
  8
0
100
AcDbLine
 10
0.0
 20
119.0
 30
0.0
 11
0.0
 21
116.7
 31
0.0
  0
LINE
  5
16C
330
1E
100
AcDbEntity
  8
0
100
AcDbLine
 10
0.0
 20
119.0
 30
0.0
 11
0.0
 21
121.3
 31
0.0
  0
LINE
  5
16D
330
1E
100
AcDbEntity
  8
0
100
AcDbLine
 10
1.187
 20
118.2
 30
0.0
 11
1.955999999999999
 21
118.2
 31
0.0
  0
LINE
  5
16E
330
1E
100
AcDbEntity
  8
0
100
AcDbLine
 10
1.955999999999999
 20
118.2
 30
0.0
 11
3.071
 21
118.2
 31
0.0
  0
LINE
  5
170
330
1E
100
AcDbEntity
  8
0
100
AcDbLine
 10
3.051
 20
117.2
 30
0.0
 11
6.0
 21
117.0
 31
0.0
  0
LINE
  5
171
330
1E
100
AcDbEntity
  8
0
100
AcDbLine
 10
6.0
 20
117.0
 30
0.0
 11
8.948999999999999
 21
117.2
 31
0.0
  0
LINE
  5
172
330
1E
100
AcDbEntity
  8
0
100
AcDbLine
 10
8.948999999999999
 20
117.2
 30
0.0
 11
11.409
 21
117.7
 31
0.0
  0
LINE
  5
173
330
1E
100
AcDbEntity
  8
0
100
AcDbLine
 10
11.0
 20
116.9
 30
0.0
 11
11.0
 21
115.0
 31
0.0
  0
LINE
  5
174
330
1E
100
AcDbEntity
  8
0
100
AcDbLine
 10
11.0
 20
116.9
 30
0.0
 11
11.0
 21
117.284705882353
 31
0.0
  0
LINE
  5
175
330
1E
100
AcDbEntity
  8
0
100
AcDbLine
 10
11.0
 20
117.284705882353
 30
0.0
 11
11.0
 21
116.9
 31
0.0
  0
LINE
  5
176
330
1E
100
AcDbEntity
  8
0
100
AcDbLine
 10
13.0
 20
117.3
 30
0.0
 11
13.0
 21
115.7999999999999
 31
0.0
  0
LINE
  5
177
330
1E
100
AcDbEntity
  8
0
100
AcDbLine
 10
13.0
 20
117.3
 30
0.0
 11
13.0
 21
119.0
 31
0.0
  0
LINE
  5
178
330
1E
100
AcDbEntity
  8
0
100
AcDbLine
 10
17.0
 20
117.3
 30
0.0
 11
17.0
 21
119.0
 31
0.0
  0
LINE
  5
179
330
1E
100
AcDbEntity
  8
0
100
AcDbLine
 10
10.783
 20
116.8539999999999
 30
0.0
 11
11.1713349257026
 21
117.62477482407
 31
0.0
  0
LINE
  5
17A
330
1E
100
AcDbEntity
  8
0
100
AcDbLine
 10
3.071
 20
118.2
 30
0.0
 11
6.0
 21
118.2
 31
0.0
  0
LINE
  5
17C
330
1E
100
AcDbEntity
  8
0
100
AcDbLine
 10
11.409
 20
117.7
 30
0.0
 11
11.908
 21
118.2
 31
0.0
  0
LINE
  5
17F
330
1E
100
AcDbEntity
  8
0
100
AcDbLine
 10
11.524
 20
118.2
 30
0.0
 11
11.908
 21
118.2
 31
0.0
  0
LINE
  5
180
330
1E
100
AcDbEntity
  8
0
100
AcDbLine
 10
10.81299999999999
 20
118.2
 30
0.0
 11
11.524
 21
118.2
 31
0.0
  0
LINE
  5
181
330
1E
100
AcDbEntity
  8
0
100
AcDbLine
 10
10.044
 20
118.2
 30
0.0
 11
10.81299999999999
 21
118.2
 31
0.0
  0
LINE
  5
182
330
1E
100
AcDbEntity
  8
0
100
AcDbLine
 10
13.0
 20
119.0
 30
0.0
 11
13.0
 21
117.3
 31
0.0
  0
LINE
  5
183
330
1E
100
AcDbEntity
  8
0
100
AcDbLine
 10
13.0
 20
119.0
 30
0.0
 11
13.0
 21
120.7
 31
0.0
  0
LINE
  5
184
330
1E
100
AcDbEntity
  8
0
100
AcDbLine
 10
11.889
 20
119.0
 30
0.0
 11
11.908
 21
118.2
 31
0.0
  0
LINE
  5
185
330
1E
100
AcDbEntity
  8
0
100
AcDbLine
 10
11.889
 20
119.0
 30
0.0
 11
11.908
 21
119.7999999999999
 31
0.0
  0
LINE
  5
186
330
1E
100
AcDbEntity
  8
0
100
AcDbLine
 10
8.929
 20
118.2
 30
0.0
 11
10.044
 21
118.2
 31
0.0
  0
LINE
  5
187
330
1E
100
AcDbEntity
  8
0
100
AcDbLine
 10
6.0
 20
118.2
 30
0.0
 11
8.929
 21
118.2
 31
0.0
  0
LINE
  5
189
330
1E
100
AcDbEntity
  8
0
100
AcDbLine
 10
17.0
 20
119.0
 30
0.0
 11
17.0
 21
116.48
 31
0.0
  0
LINE
  5
18A
330
1E
100
AcDbEntity
  8
0
100
AcDbLine
 10
17.0
 20
119.0
 30
0.0
 11
17.0
 21
121.52
 31
0.0
  0
LINE
  5
18B
330
1E
100
AcDbEntity
  8
0
100
AcDbLine
 10
17.0
 20
119.0
 30
0.0
 11
17.0
 21
120.7
 31
0.0
  0
LINE
  5
18C
330
1E
100
AcDbEntity
  8
0
100
AcDbLine
 10
17.0
 20
116.48
 30
0.0
 11
17.0
 21
119.0
 31
0.0
  0
LINE
  5
18D
330
1E
100
AcDbEntity
  8
0
100
AcDbLine
 10
17.0
 20
116.48
 30
0.0
 11
17.0
 21
114.1599999999999
 31
0.0
  0
LINE
  5
18E
330
1E
100
AcDbEntity
  8
0
100
AcDbLine
 10
38.0
 20
116.44
 30
0.0
 11
38.0
 21
114.04
 31
0.0
  0
LINE
  5
18F
330
1E
100
AcDbEntity
  8
0
100
AcDbLine
 10
38.0
 20
115.4
 30
0.0
 11
38.0
 21
112.0
 31
0.0
  0
LINE
  5
190
330
1E
100
AcDbEntity
  8
0
100
AcDbLine
 10
38.0
 20
115.4
 30
0.0
 11
38.0
 21
119.0
 31
0.0
  0
LINE
  5
191
330
1E
100
AcDbEntity
  8
0
100
AcDbLine
 10
38.0
 20
119.0
 30
0.0
 11
38.0
 21
115.4
 31
0.0
  0
LINE
  5
192
330
1E
100
AcDbEntity
  8
0
100
AcDbLine
 10
38.0
 20
119.0
 30
0.0
 11
38.0
 21
122.5999999999999
 31
0.0
  0
LINE
  5
193
330
1E
100
AcDbEntity
  8
0
100
AcDbLine
 10
38.0
 20
119.0
 30
0.0
 11
38.0
 21
116.44
 31
0.0
  0
LINE
  5
194
330
1E
100
AcDbEntity
  8
0
100
AcDbLine
 10
38.5
 20
115.0
 30
0.0
 11
38.5
 21
111.2999999999999
 31
0.0
  0
LINE
  5
195
330
1E
100
AcDbEntity
  8
0
100
AcDbLine
 10
38.5
 20
115.0
 30
0.0
 11
38.5
 21
119.0
 31
0.0
  0
LINE
  5
196
330
1E
100
AcDbEntity
  8
0
100
AcDbLine
 10
38.5
 20
119.0
 30
0.0
 11
38.5
 21
115.0
 31
0.0
  0
LINE
  5
197
330
1E
100
AcDbEntity
  8
0
100
AcDbLine
 10
38.5
 20
119.0
 30
0.0
 11
38.5
 21
123.0
 31
0.0
  0
LINE
  5
198
330
1E
100
AcDbEntity
  8
0
100
AcDbLine
 10
40.0
 20
114.9
 30
0.0
 11
40.0
 21
111.0
 31
0.0
  0
LINE
  5
199
330
1E
100
AcDbEntity
  8
0
100
AcDbLine
 10
40.0
 20
114.9
 30
0.0
 11
40.0
 21
119.0
 31
0.0
  0
LINE
  5
19A
330
1E
100
AcDbEntity
  8
0
100
AcDbLine
 10
40.0
 20
114.2
 30
0.0
 11
40.0
 21
109.8
 31
0.0
  0
LINE
  5
19B
330
1E
100
AcDbEntity
  8
0
100
AcDbLine
 10
40.0
 20
114.2
 30
0.0
 11
40.0
 21
119.0
 31
0.0
  0
LINE
  5
19C
330
1E
100
AcDbEntity
  8
0
100
AcDbLine
 10
40.0
 20
119.0
 30
0.0
 11
40.0
 21
114.2
 31
0.0
  0
LINE
  5
19D
330
1E
100
AcDbEntity
  8
0
100
AcDbLine
 10
40.0
 20
119.0
 30
0.0
 11
40.0
 21
114.9
 31
0.0
  0
LINE
  5
19E
330
1E
100
AcDbEntity
  8
0
100
AcDbLine
 10
40.0
 20
119.0
 30
0.0
 11
40.0
 21
123.7999999999999
 31
0.0
  0
LINE
  5
19F
330
1E
100
AcDbEntity
  8
0
100
AcDbLine
 10
40.0
 20
119.0
 30
0.0
 11
40.0
 21
123.0999999999999
 31
0.0
  0
LINE
  5
1A0
330
1E
100
AcDbEntity
  8
0
100
AcDbLine
 10
40.49999999999999
 20
113.9
 30
0.0
 11
40.49999999999999
 21
109.0999999999999
 31
0.0
  0
LINE
  5
1A1
330
1E
100
AcDbEntity
  8
0
100
AcDbLine
 10
40.49999999999999
 20
113.9
 30
0.0
 11
40.49999999999999
 21
119.0
 31
0.0
  0
LINE
  5
1A2
330
1E
100
AcDbEntity
  8
0
100
AcDbLine
 10
40.49999999999999
 20
119.0
 30
0.0
 11
40.49999999999999
 21
113.9
 31
0.0
  0
LINE
  5
1A3
330
1E
100
AcDbEntity
  8
0
100
AcDbLine
 10
40.49999999999999
 20
119.0
 30
0.0
 11
40.49999999999999
 21
124.0999999999999
 31
0.0
  0
LINE
  5
1A4
330
1E
100
AcDbEntity
  8
0
100
AcDbLine
 10
55.5
 20
119.0
 30
0.0
 11
55.5
 21
113.5999999999999
 31
0.0
  0
LINE
  5
1A5
330
1E
100
AcDbEntity
  8
0
100
AcDbLine
 10
55.5
 20
119.0
 30
0.0
 11
55.5
 21
124.3999999999999
 31
0.0
  0
LINE
  5
1A6
330
1E
100
AcDbEntity
  8
0
100
AcDbLine
 10
60.0
 20
119.0
 30
0.0
 11
60.0
 21
124.3999999999999
 31
0.0
  0
LINE
  5
1A7
330
1E
100
AcDbEntity
  8
0
100
AcDbLine
 10
56.0
 20
119.0
 30
0.0
 11
56.0
 21
113.2
 31
0.0
  0
LINE
  5
1A8
330
1E
100
AcDbEntity
  8
0
100
AcDbLine
 10
56.0
 20
119.0
 30
0.0
 11
56.0
 21
124.7999999999999
 31
0.0
  0
LINE
  5
1A9
330
1E
100
AcDbEntity
  8
0
100
AcDbLine
 10
0.0920000000000001
 20
119.7999999999999
 30
0.0
 11
0.4760000000000001
 21
119.7999999999999
 31
0.0
  0
LINE
  5
1AA
330
1E
100
AcDbEntity
  8
0
100
AcDbLine
 10
0.0920000000000001
 20
119.7999999999999
 30
0.0
 11
0.5910000000000001
 21
120.3
 31
0.0
  0
LINE
  5
1AB
330
1E
100
AcDbEntity
  8
0
100
AcDbLine
 10
0.4760000000000001
 20
119.7999999999999
 30
0.0
 11
1.187
 21
119.7999999999999
 31
0.0
  0
LINE
  5
1AC
330
1E
100
AcDbEntity
  8
0
100
AcDbLine
 10
0.092
 20
119.7999999999999
 30
0.0
 11
0.111
 21
119.0
 31
0.0
  0
LINE
  5
1AD
330
1E
100
AcDbEntity
  8
0
100
AcDbLine
 10
0.092
 20
119.7999999999999
 30
0.0
 11
0.4760000000000001
 21
119.7999999999999
 31
0.0
  0
LINE
  5
1AE
330
1E
100
AcDbEntity
  8
0
100
AcDbLine
 10
0.092
 20
119.7999999999999
 30
0.0
 11
0.5910000000000001
 21
120.3
 31
0.0
  0
LINE
  5
1AF
330
1E
100
AcDbEntity
  8
0
100
AcDbLine
 10
0.4760000000000001
 20
119.7999999999999
 30
0.0
 11
1.187
 21
119.7999999999999
 31
0.0
  0
LINE
  5
1B0
330
1E
100
AcDbEntity
  8
0
100
AcDbLine
 10
1.187
 20
119.7999999999999
 30
0.0
 11
1.955999999999999
 21
119.7999999999999
 31
0.0
  0
LINE
  5
1B1
330
1E
100
AcDbEntity
  8
0
100
AcDbLine
 10
1.955999999999999
 20
119.7999999999999
 30
0.0
 11
3.071
 21
119.7999999999999
 31
0.0
  0
LINE
  5
1B2
330
1E
100
AcDbEntity
  8
0
100
AcDbLine
 10
3.071
 20
119.7999999999999
 30
0.0
 11
6.0
 21
119.7999999999999
 31
0.0
  0
LINE
  5
1B3
330
1E
100
AcDbEntity
  8
0
100
AcDbLine
 10
8.929
 20
119.7999999999999
 30
0.0
 11
10.044
 21
119.7999999999999
 31
0.0
  0
LINE
  5
1B4
330
1E
100
AcDbEntity
  8
0
100
AcDbLine
 10
0.5910000000000001
 20
120.3
 30
0.0
 11
3.051
 21
120.7999999999999
 31
0.0
  0
LINE
  5
1B6
330
1E
100
AcDbEntity
  8
0
100
AcDbLine
 10
0.5910000000000001
 20
120.3
 30
0.0
 11
3.051
 21
120.7999999999999
 31
0.0
  0
LINE
  5
1B9
330
1E
100
AcDbEntity
  8
0
100
AcDbLine
 10
6.0
 20
119.7999999999999
 30
0.0
 11
8.929
 21
119.7999999999999
 31
0.0
  0
LINE
  5
1BA
330
1E
100
AcDbEntity
  8
0
100
AcDbLine
 10
0.5
 20
120.2088176352709
 30
0.0
 11
0.5
 21
121.7
 31
0.0
  0
LINE
  5
1BB
330
1E
100
AcDbEntity
  8
0
100
AcDbLine
 10
0.0
 20
121.3
 30
0.0
 11
0.0
 21
119.0
 31
0.0
  0
LINE
  5
1BC
330
1E
100
AcDbEntity
  8
0
100
AcDbLine
 10
0.0
 20
121.3
 30
0.0
 11
0.0
 21
123.5
 31
0.0
  0
LINE
  5
1BD
330
1E
100
AcDbEntity
  8
0
100
AcDbLine
 10
0.8286650742973559
 20
120.37522517593
 30
0.0
 11
1.217
 21
121.1459999999999
 31
0.0
  0
LINE
  5
1BE
330
1E
100
AcDbEntity
  8
0
100
AcDbLine
 10
3.051
 20
120.7999999999999
 30
0.0
 11
6.0
 21
121.0
 31
0.0
  0
LINE
  5
1BF
330
1E
100
AcDbEntity
  8
0
100
AcDbLine
 10
6.0
 20
121.0
 30
0.0
 11
8.948999999999999
 21
120.7999999999999
 31
0.0
  0
LINE
  5
1C0
330
1E
100
AcDbEntity
  8
0
100
AcDbLine
 10
8.948999999999999
 20
120.7999999999999
 30
0.0
 11
11.409
 21
120.3
 31
0.0
  0
LINE
  5
1C1
330
1E
100
AcDbEntity
  8
0
100
AcDbLine
 10
1.217
 20
121.1459999999999
 30
0.0
 11
1.551999999999999
 21
122.9899999999999
 31
0.0
  0
LINE
  5
1C2
330
1E
100
AcDbEntity
  8
0
100
AcDbLine
 10
0.8286650742973559
 20
120.37522517593
 30
0.0
 11
1.217
 21
121.1459999999999
 31
0.0
  0
LINE
  5
1C4
330
1E
100
AcDbEntity
  8
0
100
AcDbLine
 10
10.81299999999999
 20
119.7999999999999
 30
0.0
 11
11.524
 21
119.7999999999999
 31
0.0
  0
LINE
  5
1C7
330
1E
100
AcDbEntity
  8
0
100
AcDbLine
 10
10.044
 20
119.7999999999999
 30
0.0
 11
10.81299999999999
 21
119.7999999999999
 31
0.0
  0
LINE
  5
1C9
330
1E
100
AcDbEntity
  8
0
100
AcDbLine
 10
11.409
 20
120.3
 30
0.0
 11
11.908
 21
119.7999999999999
 31
0.0
  0
LINE
  5
1CA
330
1E
100
AcDbEntity
  8
0
100
AcDbLine
 10
11.524
 20
119.7999999999999
 30
0.0
 11
11.908
 21
119.7999999999999
 31
0.0
  0
LINE
  5
1CB
330
1E
100
AcDbEntity
  8
0
100
AcDbLine
 10
17.0
 20
120.7
 30
0.0
 11
17.0
 21
122.1999999999999
 31
0.0
  0
LINE
  5
1CC
330
1E
100
AcDbEntity
  8
0
100
AcDbLine
 10
11.0
 20
120.715294117647
 30
0.0
 11
11.0
 21
121.1
 31
0.0
  0
LINE
  5
1CD
330
1E
100
AcDbEntity
  8
0
100
AcDbLine
 10
11.0
 20
121.1
 30
0.0
 11
11.0
 21
120.715294117647
 31
0.0
  0
LINE
  5
1CE
330
1E
100
AcDbEntity
  8
0
100
AcDbLine
 10
11.0
 20
121.1
 30
0.0
 11
11.0
 21
123.0
 31
0.0
  0
LINE
  5
1CF
330
1E
100
AcDbEntity
  8
0
100
AcDbLine
 10
13.0
 20
120.7
 30
0.0
 11
13.0
 21
119.0
 31
0.0
  0
LINE
  5
1D0
330
1E
100
AcDbEntity
  8
0
100
AcDbLine
 10
13.0
 20
120.7
 30
0.0
 11
13.0
 21
122.1999999999999
 31
0.0
  0
LINE
  5
1D1
330
1E
100
AcDbEntity
  8
0
100
AcDbLine
 10
10.783
 20
121.1459999999999
 30
0.0
 11
11.1713349257026
 21
120.37522517593
 31
0.0
  0
LINE
  5
1D3
330
1E
100
AcDbEntity
  8
0
100
AcDbLine
 10
17.0
 20
122.1999999999999
 30
0.0
 11
17.0
 21
123.5999999999999
 31
0.0
  0
LINE
  5
1D4
330
1E
100
AcDbEntity
  8
0
100
AcDbLine
 10
13.0
 20
122.1999999999999
 30
0.0
 11
13.0
 21
120.7
 31
0.0
  0
LINE
  5
1D5
330
1E
100
AcDbEntity
  8
0
100
AcDbLine
 10
13.0
 20
122.1999999999999
 30
0.0
 11
13.0
 21
123.5999999999999
 31
0.0
  0
LINE
  5
1D6
330
1E
100
AcDbEntity
  8
0
100
AcDbLine
 10
0.5
 20
121.7
 30
0.0
 11
0.5
 21
120.2088176352709
 31
0.0
  0
LINE
  5
1D7
330
1E
100
AcDbEntity
  8
0
100
AcDbLine
 10
0.5
 20
121.7
 30
0.0
 11
0.5
 21
124.1999999999999
 31
0.0
  0
LINE
  5
1D8
330
1E
100
AcDbEntity
  8
0
100
AcDbLine
 10
17.0
 20
121.52
 30
0.0
 11
17.0
 21
123.84
 31
0.0
  0
LINE
  5
1D9
330
1E
100
AcDbEntity
  8
0
100
AcDbLine
 10
17.0
 20
121.52
 30
0.0
 11
17.0
 21
119.0
 31
0.0
  0
LINE
  5
1DA
330
1E
100
AcDbEntity
  8
0
100
AcDbLine
 10
38.0
 20
121.56
 30
0.0
 11
38.0
 21
119.0
 31
0.0
  0
LINE
  5
1DB
330
1E
100
AcDbEntity
  8
0
100
AcDbLine
 10
1.551999999999999
 20
122.9899999999999
 30
0.0
 11
1.857
 21
125.0
 31
0.0
  0
LINE
  5
1DC
330
1E
100
AcDbEntity
  8
0
100
AcDbLine
 10
11.0
 20
123.0
 30
0.0
 11
11.0
 21
121.1
 31
0.0
  0
LINE
  5
1DD
330
1E
100
AcDbEntity
  8
0
100
AcDbLine
 10
11.0
 20
123.0
 30
0.0
 11
11.0
 21
124.5999999999999
 31
0.0
  0
LINE
  5
1DE
330
1E
100
AcDbEntity
  8
0
100
AcDbLine
 10
10.448
 20
122.9899999999999
 30
0.0
 11
10.783
 21
121.1459999999999
 31
0.0
  0
LINE
  5
1DF
330
1E
100
AcDbEntity
  8
0
100
AcDbLine
 10
38.0
 20
122.5999999999999
 30
0.0
 11
38.0
 21
119.0
 31
0.0
  0
LINE
  5
1E0
330
1E
100
AcDbEntity
  8
0
100
AcDbLine
 10
38.0
 20
122.5999999999999
 30
0.0
 11
38.0
 21
126.0
 31
0.0
  0
LINE
  5
1E1
330
1E
100
AcDbEntity
  8
0
100
AcDbLine
 10
38.5
 20
123.0
 30
0.0
 11
38.5
 21
119.0
 31
0.0
  0
LINE
  5
1E2
330
1E
100
AcDbEntity
  8
0
100
AcDbLine
 10
38.5
 20
123.0
 30
0.0
 11
38.5
 21
126.7
 31
0.0
  0
LINE
  5
1E3
330
1E
100
AcDbEntity
  8
0
100
AcDbLine
 10
13.0
 20
123.5999999999999
 30
0.0
 11
13.0
 21
124.5999999999999
 31
0.0
  0
LINE
  5
1E4
330
1E
100
AcDbEntity
  8
0
100
AcDbLine
 10
13.0
 20
123.5999999999999
 30
0.0
 11
13.0
 21
122.1999999999999
 31
0.0
  0
LINE
  5
1E5
330
1E
100
AcDbEntity
  8
0
100
AcDbLine
 10
17.0
 20
123.5999999999999
 30
0.0
 11
17.0
 21
124.5999999999999
 31
0.0
  0
LINE
  5
1E6
330
1E
100
AcDbEntity
  8
0
100
AcDbLine
 10
0.0
 20
123.5
 30
0.0
 11
0.0
 21
121.3
 31
0.0
  0
LINE
  5
1E7
330
1E
100
AcDbEntity
  8
0
100
AcDbLine
 10
0.0
 20
123.5
 30
0.0
 11
0.0
 21
125.4
 31
0.0
  0
LINE
  5
1E8
330
1E
100
AcDbEntity
  8
0
100
AcDbLine
 10
17.0
 20
123.84
 30
0.0
 11
17.0
 21
125.8799999999999
 31
0.0
  0
LINE
  5
1E9
330
1E
100
AcDbEntity
  8
0
100
AcDbLine
 10
17.0
 20
123.84
 30
0.0
 11
17.0
 21
121.52
 31
0.0
  0
LINE
  5
1EA
330
1E
100
AcDbEntity
  8
0
100
AcDbLine
 10
38.0
 20
123.96
 30
0.0
 11
38.0
 21
121.56
 31
0.0
  0
LINE
  5
1EB
330
1E
100
AcDbEntity
  8
0
100
AcDbLine
 10
40.0
 20
123.0999999999999
 30
0.0
 11
40.0
 21
119.0
 31
0.0
  0
LINE
  5
1EC
330
1E
100
AcDbEntity
  8
0
100
AcDbLine
 10
40.0
 20
123.0999999999999
 30
0.0
 11
40.0
 21
127.0
 31
0.0
  0
LINE
  5
1ED
330
1E
100
AcDbEntity
  8
0
100
AcDbLine
 10
40.0
 20
123.7999999999999
 30
0.0
 11
40.0
 21
119.0
 31
0.0
  0
LINE
  5
1EE
330
1E
100
AcDbEntity
  8
0
100
AcDbLine
 10
40.0
 20
123.7999999999999
 30
0.0
 11
40.0
 21
128.1999999999999
 31
0.0
  0
LINE
  5
1EF
330
1E
100
AcDbEntity
  8
0
100
AcDbLine
 10
59.5
 20
119.0
 30
0.0
 11
59.5
 21
113.2
 31
0.0
  0
LINE
  5
1F0
330
1E
100
AcDbEntity
  8
0
100
AcDbLine
 10
59.5
 20
119.0
 30
0.0
 11
59.5
 21
124.7999999999999
 31
0.0
  0
LINE
  5
1F1
330
1E
100
AcDbEntity
  8
0
100
AcDbLine
 10
61.0
 20
114.0
 30
0.0
 11
61.0
 21
109.2999999999999
 31
0.0
  0
LINE
  5
1F2
330
1E
100
AcDbEntity
  8
0
100
AcDbLine
 10
61.0
 20
114.0
 30
0.0
 11
61.0
 21
119.0
 31
0.0
  0
LINE
  5
1F3
330
1E
100
AcDbEntity
  8
0
100
AcDbLine
 10
0.5
 20
124.1999999999999
 30
0.0
 11
0.5
 21
121.7
 31
0.0
  0
LINE
  5
1F4
330
1E
100
AcDbEntity
  8
0
100
AcDbLine
 10
0.5
 20
124.1999999999999
 30
0.0
 11
0.5
 21
126.4
 31
0.0
  0
LINE
  5
1F5
330
1E
100
AcDbEntity
  8
0
100
AcDbLine
 10
40.49999999999999
 20
124.0999999999999
 30
0.0
 11
40.49999999999999
 21
119.0
 31
0.0
  0
LINE
  5
1F6
330
1E
100
AcDbEntity
  8
0
100
AcDbLine
 10
40.49999999999999
 20
124.0999999999999
 30
0.0
 11
40.49999999999999
 21
128.9
 31
0.0
  0
LINE
  5
1F7
330
1E
100
AcDbEntity
  8
0
100
AcDbLine
 10
61.0
 20
124.0
 30
0.0
 11
61.0
 21
119.0
 31
0.0
  0
LINE
  5
1F8
330
1E
100
AcDbEntity
  8
0
100
AcDbLine
 10
61.0
 20
124.0
 30
0.0
 11
61.0
 21
128.6999999999999
 31
0.0
  0
LINE
  5
1F9
330
1E
100
AcDbEntity
  8
0
100
AcDbLine
 10
245.0
 20
119.0
 30
0.0
 11
245.0
 21
124.3999999999999
 31
0.0
  0
LINE
  5
1FA
330
1E
100
AcDbEntity
  8
0
100
AcDbLine
 10
245.0
 20
119.0
 30
0.0
 11
245.0
 21
113.5999999999999
 31
0.0
  0
LINE
  5
1FB
330
1E
100
AcDbEntity
  8
0
100
AcDbLine
 10
247.0
 20
114.0
 30
0.0
 11
247.0
 21
119.0
 31
0.0
  0
LINE
  5
1FC
330
1E
100
AcDbEntity
  8
0
100
AcDbLine
 10
247.0
 20
124.0
 30
0.0
 11
247.0
 21
128.6999999999999
 31
0.0
  0
LINE
  5
1FD
330
1E
100
AcDbEntity
  8
0
100
AcDbLine
 10
61.0
 20
119.0
 30
0.0
 11
61.0
 21
124.3999999999999
 31
0.0
  0
LINE
  5
1FE
330
1E
100
AcDbEntity
  8
0
100
AcDbLine
 10
61.0
 20
119.0
 30
0.0
 11
61.0
 21
113.5999999999999
 31
0.0
  0
LINE
  5
1FF
330
1E
100
AcDbEntity
  8
0
100
AcDbLine
 10
61.0
 20
119.0
 30
0.0
 11
61.0
 21
114.0
 31
0.0
  0
LINE
  5
200
330
1E
100
AcDbEntity
  8
0
100
AcDbLine
 10
61.0
 20
119.0
 30
0.0
 11
61.0
 21
124.0
 31
0.0
  0
LINE
  5
201
330
1E
100
AcDbEntity
  8
0
100
AcDbLine
 10
247.0
 20
113.6239999999999
 30
0.0
 11
247.0
 21
108.584
 31
0.0
  0
LINE
  5
202
330
1E
100
AcDbEntity
  8
0
100
AcDbLine
 10
247.0
 20
119.0
 30
0.0
 11
247.0
 21
113.6239999999999
 31
0.0
  0
LINE
  5
203
330
1E
100
AcDbEntity
  8
0
100
AcDbLine
 10
247.0
 20
119.0
 30
0.0
 11
247.0
 21
124.0
 31
0.0
  0
LINE
  5
204
330
1E
100
AcDbEntity
  8
0
100
AcDbLine
 10
11.0
 20
124.5999999999999
 30
0.0
 11
11.0
 21
125.9
 31
0.0
  0
LINE
  5
205
330
1E
100
AcDbEntity
  8
0
100
AcDbLine
 10
11.0
 20
124.5999999999999
 30
0.0
 11
11.0
 21
123.0
 31
0.0
  0
LINE
  5
206
330
1E
100
AcDbEntity
  8
0
100
AcDbLine
 10
13.0
 20
124.5999999999999
 30
0.0
 11
13.0
 21
123.5999999999999
 31
0.0
  0
LINE
  5
207
330
1E
100
AcDbEntity
  8
0
100
AcDbLine
 10
13.0
 20
124.5999999999999
 30
0.0
 11
13.0
 21
125.2999999999999
 31
0.0
  0
LINE
  5
208
330
1E
100
AcDbEntity
  8
0
100
AcDbLine
 10
17.0
 20
124.5999999999999
 30
0.0
 11
17.0
 21
125.2999999999999
 31
0.0
  0
LINE
  5
209
330
1E
100
AcDbEntity
  8
0
100
AcDbLine
 10
55.5
 20
124.3999999999999
 30
0.0
 11
55.5
 21
119.0
 31
0.0
  0
LINE
  5
20A
330
1E
100
AcDbEntity
  8
0
100
AcDbLine
 10
55.5
 20
124.3999999999999
 30
0.0
 11
55.5
 21
129.4
 31
0.0
  0
LINE
  5
20B
330
1E
100
AcDbEntity
  8
0
100
AcDbLine
 10
1.857
 20
125.0
 30
0.0
 11
2.0
 21
127.5
 31
0.0
  0
LINE
  5
20C
330
1E
100
AcDbEntity
  8
0
100
AcDbLine
 10
13.0
 20
125.2999999999999
 30
0.0
 11
13.0
 21
124.5999999999999
 31
0.0
  0
LINE
  5
20D
330
1E
100
AcDbEntity
  8
0
100
AcDbLine
 10
13.0
 20
125.2999999999999
 30
0.0
 11
13.0
 21
125.5
 31
0.0
  0
LINE
  5
20E
330
1E
100
AcDbEntity
  8
0
100
AcDbLine
 10
13.0
 20
125.5
 30
0.0
 11
13.0
 21
125.2999999999999
 31
0.0
  0
LINE
  5
20F
330
1E
100
AcDbEntity
  8
0
100
AcDbLine
 10
13.0
 20
125.5
 30
0.0
 11
17.0
 21
125.5
 31
0.0
  0
LINE
  5
210
330
1E
100
AcDbEntity
  8
0
100
AcDbLine
 10
17.0
 20
125.2999999999999
 30
0.0
 11
17.0
 21
125.5
 31
0.0
  0
LINE
  5
211
330
1E
100
AcDbEntity
  8
0
100
AcDbLine
 10
10.14299999999999
 20
125.0
 30
0.0
 11
10.448
 21
122.9899999999999
 31
0.0
  0
LINE
  5
212
330
1E
100
AcDbEntity
  8
0
100
AcDbLine
 10
0.0
 20
125.4
 30
0.0
 11
0.0
 21
123.5
 31
0.0
  0
LINE
  5
213
330
1E
100
AcDbEntity
  8
0
100
AcDbLine
 10
0.0
 20
125.4
 30
0.0
 11
0.0
 21
126.8
 31
0.0
  0
LINE
  5
214
330
1E
100
AcDbEntity
  8
0
100
AcDbLine
 10
11.0
 20
125.9
 30
0.0
 11
11.0
 21
124.5999999999999
 31
0.0
  0
LINE
  5
215
330
1E
100
AcDbEntity
  8
0
100
AcDbLine
 10
11.0
 20
125.9
 30
0.0
 11
11.0
 21
126.7
 31
0.0
  0
LINE
  5
216
330
1E
100
AcDbEntity
  8
0
100
AcDbLine
 10
17.0
 20
125.5
 30
0.0
 11
17.0
 21
125.8799999999999
 31
0.0
  0
LINE
  5
217
330
1E
100
AcDbEntity
  8
0
100
AcDbLine
 10
17.0
 20
125.8799999999999
 30
0.0
 11
17.0
 21
127.4399999999999
 31
0.0
  0
LINE
  5
218
330
1E
100
AcDbEntity
  8
0
100
AcDbLine
 10
17.0
 20
125.8799999999999
 30
0.0
 11
17.0
 21
123.84
 31
0.0
  0
LINE
  5
219
330
1E
100
AcDbEntity
  8
0
100
AcDbLine
 10
17.0
 20
125.8799999999999
 30
0.0
 11
17.0
 21
125.5
 31
0.0
  0
LINE
  5
21A
330
1E
100
AcDbEntity
  8
0
100
AcDbLine
 10
11.0
 20
126.7
 30
0.0
 11
11.0
 21
125.9
 31
0.0
  0
LINE
  5
21B
330
1E
100
AcDbEntity
  8
0
100
AcDbLine
 10
11.0
 20
126.7
 30
0.0
 11
11.0
 21
127.0
 31
0.0
  0
LINE
  5
21C
330
1E
100
AcDbEntity
  8
0
100
AcDbLine
 10
11.0
 20
127.0
 30
0.0
 11
11.0
 21
126.7
 31
0.0
  0
LINE
  5
21D
330
1E
100
AcDbEntity
  8
0
100
AcDbLine
 10
11.0
 20
127.0
 30
0.0
 11
13.0
 21
125.5
 31
0.0
  0
LINE
  5
21E
330
1E
100
AcDbEntity
  8
0
100
AcDbLine
 10
0.0
 20
126.8
 30
0.0
 11
0.0
 21
125.4
 31
0.0
  0
LINE
  5
21F
330
1E
100
AcDbEntity
  8
0
100
AcDbLine
 10
0.0
 20
126.8
 30
0.0
 11
0.0
 21
127.7
 31
0.0
  0
LINE
  5
220
330
1E
100
AcDbEntity
  8
0
100
AcDbLine
 10
0.5
 20
126.4
 30
0.0
 11
0.5
 21
124.1999999999999
 31
0.0
  0
LINE
  5
221
330
1E
100
AcDbEntity
  8
0
100
AcDbLine
 10
0.5
 20
126.4
 30
0.0
 11
0.5
 21
128.0999999999999
 31
0.0
  0
LINE
  5
222
330
1E
100
AcDbEntity
  8
0
100
AcDbLine
 10
38.0
 20
126.0799999999999
 30
0.0
 11
38.0
 21
123.96
 31
0.0
  0
LINE
  5
223
330
1E
100
AcDbEntity
  8
0
100
AcDbLine
 10
38.0
 20
126.0
 30
0.0
 11
38.0
 21
122.5999999999999
 31
0.0
  0
LINE
  5
224
330
1E
100
AcDbEntity
  8
0
100
AcDbLine
 10
38.0
 20
126.0
 30
0.0
 11
38.0
 21
128.9
 31
0.0
  0
LINE
  5
225
330
1E
100
AcDbEntity
  8
0
100
AcDbLine
 10
38.5
 20
126.7
 30
0.0
 11
38.5
 21
123.0
 31
0.0
  0
LINE
  5
226
330
1E
100
AcDbEntity
  8
0
100
AcDbLine
 10
38.5
 20
126.7
 30
0.0
 11
38.5
 21
129.9
 31
0.0
  0
LINE
  5
227
330
1E
100
AcDbEntity
  8
0
100
AcDbLine
 10
0.0
 20
127.7
 30
0.0
 11
0.0
 21
126.8
 31
0.0
  0
LINE
  5
228
330
1E
100
AcDbEntity
  8
0
100
AcDbLine
 10
0.0
 20
127.7
 30
0.0
 11
0.0
 21
128.0
 31
0.0
  0
LINE
  5
229
330
1E
100
AcDbEntity
  8
0
100
AcDbLine
 10
0.0
 20
128.0
 30
0.0
 11
0.0
 21
127.7
 31
0.0
  0
LINE
  5
22A
330
1E
100
AcDbEntity
  8
0
100
AcDbLine
 10
0.0
 20
128.0
 30
0.0
 11
0.5
 21
129.4999999999999
 31
0.0
  0
LINE
  5
22B
330
1E
100
AcDbEntity
  8
0
100
AcDbLine
 10
10.0
 20
127.5
 30
0.0
 11
10.14299999999999
 21
125.0
 31
0.0
  0
LINE
  5
22C
330
1E
100
AcDbEntity
  8
0
100
AcDbLine
 10
10.0
 20
127.5
 30
0.0
 11
10.14299999999999
 21
129.4219999999999
 31
0.0
  0
LINE
  5
22D
330
1E
100
AcDbEntity
  8
0
100
AcDbLine
 10
0.5
 20
128.0999999999999
 30
0.0
 11
0.5
 21
126.4
 31
0.0
  0
LINE
  5
22E
330
1E
100
AcDbEntity
  8
0
100
AcDbLine
 10
0.5
 20
128.0999999999999
 30
0.0
 11
0.5
 21
129.0999999999999
 31
0.0
  0
LINE
  5
22F
330
1E
100
AcDbEntity
  8
0
100
AcDbLine
 10
17.0
 20
128.4
 30
0.0
 11
17.0
 21
128.7599999999999
 31
0.0
  0
LINE
  5
230
330
1E
100
AcDbEntity
  8
0
100
AcDbLine
 10
17.0
 20
128.4
 30
0.0
 11
17.0
 21
127.4399999999999
 31
0.0
  0
LINE
  5
231
330
1E
100
AcDbEntity
  8
0
100
AcDbLine
 10
17.0
 20
127.4399999999999
 30
0.0
 11
17.0
 21
128.4
 31
0.0
  0
LINE
  5
232
330
1E
100
AcDbEntity
  8
0
100
AcDbLine
 10
17.0
 20
127.4399999999999
 30
0.0
 11
17.0
 21
125.8799999999999
 31
0.0
  0
LINE
  5
233
330
1E
100
AcDbEntity
  8
0
100
AcDbLine
 10
38.0
 20
128.6399999999999
 30
0.0
 11
38.0
 21
127.68
 31
0.0
  0
LINE
  5
234
330
1E
100
AcDbEntity
  8
0
100
AcDbLine
 10
38.0
 20
127.68
 30
0.0
 11
38.0
 21
126.0799999999999
 31
0.0
  0
LINE
  5
235
330
1E
100
AcDbEntity
  8
0
100
AcDbLine
 10
40.0
 20
127.0
 30
0.0
 11
40.0
 21
123.0999999999999
 31
0.0
  0
LINE
  5
236
330
1E
100
AcDbEntity
  8
0
100
AcDbLine
 10
40.0
 20
127.0
 30
0.0
 11
40.0
 21
130.3
 31
0.0
  0
LINE
  5
237
330
1E
100
AcDbEntity
  8
0
100
AcDbLine
 10
40.0
 20
128.1999999999999
 30
0.0
 11
40.0
 21
123.7999999999999
 31
0.0
  0
LINE
  5
238
330
1E
100
AcDbEntity
  8
0
100
AcDbLine
 10
40.0
 20
128.1999999999999
 30
0.0
 11
40.0
 21
132.0999999999999
 31
0.0
  0
LINE
  5
239
330
1E
100
AcDbEntity
  8
0
100
AcDbLine
 10
56.0
 20
124.7999999999999
 30
0.0
 11
56.0
 21
119.0
 31
0.0
  0
LINE
  5
23A
330
1E
100
AcDbEntity
  8
0
100
AcDbLine
 10
56.0
 20
124.7999999999999
 30
0.0
 11
56.0
 21
130.1999999999999
 31
0.0
  0
LINE
  5
23B
330
1E
100
AcDbEntity
  8
0
100
AcDbLine
 10
60.0
 20
124.3999999999999
 30
0.0
 11
60.0
 21
129.4
 31
0.0
  0
LINE
  5
23C
330
1E
100
AcDbEntity
  8
0
100
AcDbLine
 10
59.5
 20
124.7999999999999
 30
0.0
 11
59.5
 21
119.0
 31
0.0
  0
LINE
  5
23D
330
1E
100
AcDbEntity
  8
0
100
AcDbLine
 10
59.5
 20
124.7999999999999
 30
0.0
 11
59.5
 21
130.1999999999999
 31
0.0
  0
LINE
  5
23E
330
1E
100
AcDbEntity
  8
0
100
AcDbLine
 10
10.09874493999969
 20
128.827187235521
 30
0.0
 11
10.2382769218243
 21
130.134858805256
 31
0.0
  0
LINE
  5
23F
330
1E
100
AcDbEntity
  8
0
100
AcDbLine
 10
17.0
 20
128.7599999999999
 30
0.0
 11
17.6
 21
129.0
 31
0.0
  0
LINE
  5
240
330
1E
100
AcDbEntity
  8
0
100
AcDbLine
 10
17.0
 20
128.7599999999999
 30
0.0
 11
17.0
 21
128.4
 31
0.0
  0
LINE
  5
241
330
1E
100
AcDbEntity
  8
0
100
AcDbLine
 10
17.6
 20
129.0
 30
0.0
 11
38.0
 21
129.0
 31
0.0
  0
LINE
  5
242
330
1E
100
AcDbEntity
  8
0
100
AcDbLine
 10
0.5
 20
129.0999999999999
 30
0.0
 11
0.5
 21
128.0999999999999
 31
0.0
  0
LINE
  5
243
330
1E
100
AcDbEntity
  8
0
100
AcDbLine
 10
0.5
 20
129.0999999999999
 30
0.0
 11
0.5
 21
129.4999999999999
 31
0.0
  0
LINE
  5
244
330
1E
100
AcDbEntity
  8
0
100
AcDbLine
 10
17.6
 20
129.0
 30
0.0
 11
38.0
 21
129.0
 31
0.0
  0
LINE
  5
245
330
1E
100
AcDbEntity
  8
0
100
AcDbLine
 10
38.0
 20
129.0
 30
0.0
 11
38.0
 21
128.6399999999999
 31
0.0
  0
LINE
  5
246
330
1E
100
AcDbEntity
  8
0
100
AcDbLine
 10
38.0
 20
128.9
 30
0.0
 11
38.0
 21
126.0
 31
0.0
  0
LINE
  5
247
330
1E
100
AcDbEntity
  8
0
100
AcDbLine
 10
38.0
 20
128.9
 30
0.0
 11
38.0
 21
131.0999999999999
 31
0.0
  0
LINE
  5
248
330
1E
100
AcDbEntity
  8
0
100
AcDbLine
 10
40.49999999999999
 20
128.9
 30
0.0
 11
40.49999999999999
 21
124.0999999999999
 31
0.0
  0
LINE
  5
249
330
1E
100
AcDbEntity
  8
0
100
AcDbLine
 10
40.49999999999999
 20
128.9
 30
0.0
 11
40.49999999999999
 21
133.0999999999999
 31
0.0
  0
LINE
  5
24A
330
1E
100
AcDbEntity
  8
0
100
AcDbLine
 10
1.857
 20
129.4219999999999
 30
0.0
 11
2.0
 21
127.5
 31
0.0
  0
LINE
  5
24B
330
1E
100
AcDbEntity
  8
0
100
AcDbLine
 10
10.1695976072367
 20
129.4912071782899
 30
0.0
 11
11.0
 21
127.0
 31
0.0
  0
LINE
  5
24C
330
1E
100
AcDbEntity
  8
0
100
AcDbLine
 10
10.14299999999999
 20
129.4219999999999
 30
0.0
 11
10.448
 21
131.704
 31
0.0
  0
LINE
  5
24D
330
1E
100
AcDbEntity
  8
0
100
AcDbLine
 10
0.5
 20
129.4999999999999
 30
0.0
 11
1.783802479851209
 21
129.92793415995
 31
0.0
  0
LINE
  5
24E
330
1E
100
AcDbEntity
  8
0
100
AcDbLine
 10
0.5
 20
129.4999999999999
 30
0.0
 11
0.5
 21
129.0999999999999
 31
0.0
  0
LINE
  5
24F
330
1E
100
AcDbEntity
  8
0
100
AcDbLine
 10
0.5
 20
129.4999999999999
 30
0.0
 11
1.783802479851209
 21
129.92793415995
 31
0.0
  0
LINE
  5
250
330
1E
100
AcDbEntity
  8
0
100
AcDbLine
 10
55.5
 20
129.4
 30
0.0
 11
55.5
 21
124.3999999999999
 31
0.0
  0
LINE
  5
251
330
1E
100
AcDbEntity
  8
0
100
AcDbLine
 10
55.5
 20
129.4
 30
0.0
 11
55.5
 21
133.8
 31
0.0
  0
LINE
  5
252
330
1E
100
AcDbEntity
  8
0
100
AcDbLine
 10
60.0
 20
129.4
 30
0.0
 11
60.0
 21
133.8
 31
0.0
  0
LINE
  5
253
330
1E
100
AcDbEntity
  8
0
100
AcDbLine
 10
61.0
 20
128.6999999999999
 30
0.0
 11
61.0
 21
124.0
 31
0.0
  0
LINE
  5
254
330
1E
100
AcDbEntity
  8
0
100
AcDbLine
 10
61.0
 20
128.6999999999999
 30
0.0
 11
61.0
 21
132.8
 31
0.0
  0
LINE
  5
255
330
1E
100
AcDbEntity
  8
0
100
AcDbLine
 10
61.0
 20
124.3999999999999
 30
0.0
 11
61.0
 21
119.0
 31
0.0
  0
LINE
  5
256
330
1E
100
AcDbEntity
  8
0
100
AcDbLine
 10
61.0
 20
124.3999999999999
 30
0.0
 11
61.0
 21
129.4999999999999
 31
0.0
  0
LINE
  5
257
330
1E
100
AcDbEntity
  8
0
100
AcDbLine
 10
1.76172307817568
 20
130.134858805256
 30
0.0
 11
1.90125506000025
 21
128.827187235521
 31
0.0
  0
LINE
  5
258
330
1E
100
AcDbEntity
  8
0
100
AcDbLine
 10
38.5
 20
129.9
 30
0.0
 11
38.5
 21
126.7
 31
0.0
  0
LINE
  5
259
330
1E
100
AcDbEntity
  8
0
100
AcDbLine
 10
38.5
 20
129.9
 30
0.0
 11
38.5
 21
132.4
 31
0.0
  0
LINE
  5
25A
330
1E
100
AcDbEntity
  8
0
100
AcDbLine
 10
56.0
 20
130.1999999999999
 30
0.0
 11
56.0
 21
124.7999999999999
 31
0.0
  0
LINE
  5
25B
330
1E
100
AcDbEntity
  8
0
100
AcDbLine
 10
56.0
 20
130.1999999999999
 30
0.0
 11
56.0
 21
134.8999999999999
 31
0.0
  0
LINE
  5
25C
330
1E
100
AcDbEntity
  8
0
100
AcDbLine
 10
1.551999999999999
 20
131.704
 30
0.0
 11
1.857
 21
129.4219999999999
 31
0.0
  0
LINE
  5
25D
330
1E
100
AcDbEntity
  8
0
100
AcDbLine
 10
10.448
 20
131.704
 30
0.0
 11
10.783
 21
134.458
 31
0.0
  0
LINE
  5
25E
330
1E
100
AcDbEntity
  8
0
100
AcDbLine
 10
38.0
 20
131.0999999999999
 30
0.0
 11
38.0
 21
128.9
 31
0.0
  0
LINE
  5
25F
330
1E
100
AcDbEntity
  8
0
100
AcDbLine
 10
38.0
 20
131.0999999999999
 30
0.0
 11
38.0
 21
132.4999999999999
 31
0.0
  0
LINE
  5
260
330
1E
100
AcDbEntity
  8
0
100
AcDbLine
 10
38.0
 20
132.4999999999999
 30
0.0
 11
38.0
 21
131.0999999999999
 31
0.0
  0
LINE
  5
261
330
1E
100
AcDbEntity
  8
0
100
AcDbLine
 10
38.0
 20
132.4999999999999
 30
0.0
 11
38.0
 21
133.0
 31
0.0
  0
LINE
  5
262
330
1E
100
AcDbEntity
  8
0
100
AcDbLine
 10
38.0
 20
133.0
 30
0.0
 11
38.0
 21
132.4999999999999
 31
0.0
  0
LINE
  5
263
330
1E
100
AcDbEntity
  8
0
100
AcDbLine
 10
38.0
 20
133.0
 30
0.0
 11
38.5
 21
134.4999999999999
 31
0.0
  0
LINE
  5
264
330
1E
100
AcDbEntity
  8
0
100
AcDbLine
 10
38.5
 20
132.4
 30
0.0
 11
38.5
 21
129.9
 31
0.0
  0
LINE
  5
265
330
1E
100
AcDbEntity
  8
0
100
AcDbLine
 10
38.5
 20
132.4
 30
0.0
 11
38.5
 21
133.9
 31
0.0
  0
LINE
  5
266
330
1E
100
AcDbEntity
  8
0
100
AcDbLine
 10
40.0
 20
132.9
 30
0.0
 11
40.0
 21
130.3
 31
0.0
  0
LINE
  5
267
330
1E
100
AcDbEntity
  8
0
100
AcDbLine
 10
40.0
 20
132.9
 30
0.0
 11
40.0
 21
134.4
 31
0.0
  0
LINE
  5
268
330
1E
100
AcDbEntity
  8
0
100
AcDbLine
 10
40.0
 20
130.3
 30
0.0
 11
40.0
 21
127.0
 31
0.0
  0
LINE
  5
269
330
1E
100
AcDbEntity
  8
0
100
AcDbLine
 10
40.0
 20
130.3
 30
0.0
 11
40.0
 21
132.9
 31
0.0
  0
LINE
  5
26A
330
1E
100
AcDbEntity
  8
0
100
AcDbLine
 10
40.0
 20
132.0999999999999
 30
0.0
 11
40.0
 21
128.1999999999999
 31
0.0
  0
LINE
  5
26B
330
1E
100
AcDbEntity
  8
0
100
AcDbLine
 10
40.0
 20
132.0999999999999
 30
0.0
 11
40.0
 21
135.0
 31
0.0
  0
LINE
  5
26C
330
1E
100
AcDbEntity
  8
0
100
AcDbLine
 10
10.65245264001069
 20
133.384783792804
 30
0.0
 11
10.757
 21
134.138
 31
0.0
  0
LINE
  5
26D
330
1E
100
AcDbEntity
  8
0
100
AcDbLine
 10
40.49999999999999
 20
133.0999999999999
 30
0.0
 11
40.49999999999999
 21
128.9
 31
0.0
  0
LINE
  5
26E
330
1E
100
AcDbEntity
  8
0
100
AcDbLine
 10
40.49999999999999
 20
133.0999999999999
 30
0.0
 11
40.49999999999999
 21
136.3
 31
0.0
  0
LINE
  5
26F
330
1E
100
AcDbEntity
  8
0
100
AcDbLine
 10
60.0
 20
133.8
 30
0.0
 11
60.0
 21
137.1999999999999
 31
0.0
  0
LINE
  5
270
330
1E
100
AcDbEntity
  8
0
100
AcDbLine
 10
55.5
 20
133.8
 30
0.0
 11
55.5
 21
129.4
 31
0.0
  0
LINE
  5
271
330
1E
100
AcDbEntity
  8
0
100
AcDbLine
 10
55.5
 20
133.8
 30
0.0
 11
55.5
 21
137.1999999999999
 31
0.0
  0
LINE
  5
272
330
1E
100
AcDbEntity
  8
0
100
AcDbLine
 10
59.5
 20
130.1999999999999
 30
0.0
 11
59.5
 21
124.7999999999999
 31
0.0
  0
LINE
  5
273
330
1E
100
AcDbEntity
  8
0
100
AcDbLine
 10
59.5
 20
130.1999999999999
 30
0.0
 11
59.5
 21
134.8999999999999
 31
0.0
  0
LINE
  5
274
330
1E
100
AcDbEntity
  8
0
100
AcDbLine
 10
61.0
 20
132.8
 30
0.0
 11
61.0
 21
128.6999999999999
 31
0.0
  0
LINE
  5
275
330
1E
100
AcDbEntity
  8
0
100
AcDbLine
 10
61.0
 20
132.8
 30
0.0
 11
61.0
 21
135.8999999999999
 31
0.0
  0
LINE
  5
276
330
1E
100
AcDbEntity
  8
0
100
AcDbLine
 10
61.0
 20
129.4999999999999
 30
0.0
 11
61.0
 21
124.3999999999999
 31
0.0
  0
LINE
  5
277
330
1E
100
AcDbEntity
  8
0
100
AcDbLine
 10
61.0
 20
129.4999999999999
 30
0.0
 11
61.0
 21
133.8
 31
0.0
  0
LINE
  5
278
330
1E
100
AcDbEntity
  8
0
100
AcDbLine
 10
245.0
 20
124.3999999999999
 30
0.0
 11
245.0
 21
129.4999999999999
 31
0.0
  0
LINE
  5
279
330
1E
100
AcDbEntity
  8
0
100
AcDbLine
 10
245.0
 20
124.3999999999999
 30
0.0
 11
245.0
 21
119.0
 31
0.0
  0
LINE
  5
27A
330
1E
100
AcDbEntity
  8
0
100
AcDbLine
 10
245.0
 20
129.4999999999999
 30
0.0
 11
245.0
 21
133.8
 31
0.0
  0
LINE
  5
27B
330
1E
100
AcDbEntity
  8
0
100
AcDbLine
 10
245.0
 20
129.4999999999999
 30
0.0
 11
245.0
 21
124.3999999999999
 31
0.0
  0
LINE
  5
27C
330
1E
100
AcDbEntity
  8
0
100
AcDbLine
 10
247.0
 20
128.6999999999999
 30
0.0
 11
247.0
 21
132.8
 31
0.0
  0
LINE
  5
27D
330
1E
100
AcDbEntity
  8
0
100
AcDbLine
 10
245.0
 20
133.8
 30
0.0
 11
245.0
 21
137.1999999999999
 31
0.0
  0
LINE
  5
27E
330
1E
100
AcDbEntity
  8
0
100
AcDbLine
 10
245.0
 20
133.8
 30
0.0
 11
245.0
 21
129.4999999999999
 31
0.0
  0
LINE
  5
27F
330
1E
100
AcDbEntity
  8
0
100
AcDbLine
 10
247.0
 20
132.8
 30
0.0
 11
247.0
 21
135.8999999999999
 31
0.0
  0
LINE
  5
280
330
1E
100
AcDbEntity
  8
0
100
AcDbLine
 10
61.0
 20
133.8
 30
0.0
 11
61.0
 21
129.4999999999999
 31
0.0
  0
LINE
  5
281
330
1E
100
AcDbEntity
  8
0
100
AcDbLine
 10
61.0
 20
133.8
 30
0.0
 11
61.0
 21
137.1999999999999
 31
0.0
  0
LINE
  5
282
330
1E
100
AcDbEntity
  8
0
100
AcDbLine
 10
10.757
 20
134.138
 30
0.0
 11
10.783
 21
134.458
 31
0.0
  0
LINE
  5
283
330
1E
100
AcDbEntity
  8
0
100
AcDbLine
 10
1.242999999999999
 20
134.138
 30
0.0
 11
1.34754735998933
 21
133.384783792804
 31
0.0
  0
LINE
  5
284
330
1E
100
AcDbEntity
  8
0
100
AcDbLine
 10
1.242999999999999
 20
134.138
 30
0.0
 11
1.34754735998933
 21
133.384783792804
 31
0.0
  0
LINE
  5
285
330
1E
100
AcDbEntity
  8
0
100
AcDbLine
 10
38.5
 20
133.9
 30
0.0
 11
38.5
 21
132.4
 31
0.0
  0
LINE
  5
286
330
1E
100
AcDbEntity
  8
0
100
AcDbLine
 10
38.5
 20
133.9
 30
0.0
 11
38.5
 21
134.4999999999999
 31
0.0
  0
LINE
  5
287
330
1E
100
AcDbEntity
  8
0
100
AcDbLine
 10
10.783
 20
134.458
 30
0.0
 11
11.31
 21
138.002
 31
0.0
  0
LINE
  5
288
330
1E
100
AcDbEntity
  8
0
100
AcDbLine
 10
1.217
 20
134.458
 30
0.0
 11
1.551999999999999
 21
131.704
 31
0.0
  0
LINE
  5
289
330
1E
100
AcDbEntity
  8
0
100
AcDbLine
 10
1.217
 20
134.458
 30
0.0
 11
1.242999999999999
 21
134.138
 31
0.0
  0
LINE
  5
28A
330
1E
100
AcDbEntity
  8
0
100
AcDbLine
 10
38.5
 20
134.4999999999999
 30
0.0
 11
38.5
 21
133.9
 31
0.0
  0
LINE
  5
28B
330
1E
100
AcDbEntity
  8
0
100
AcDbLine
 10
38.5
 20
134.4999999999999
 30
0.0
 11
40.0
 21
135.0
 31
0.0
  0
LINE
  5
28C
330
1E
100
AcDbEntity
  8
0
100
AcDbLine
 10
40.0
 20
134.4
 30
0.0
 11
40.0
 21
132.9
 31
0.0
  0
LINE
  5
28D
330
1E
100
AcDbEntity
  8
0
100
AcDbLine
 10
40.0
 20
134.4
 30
0.0
 11
40.0
 21
135.0
 31
0.0
  0
LINE
  5
28E
330
1E
100
AcDbEntity
  8
0
100
AcDbLine
 10
56.0
 20
134.8999999999999
 30
0.0
 11
56.0
 21
130.1999999999999
 31
0.0
  0
LINE
  5
28F
330
1E
100
AcDbEntity
  8
0
100
AcDbLine
 10
56.0
 20
134.8999999999999
 30
0.0
 11
56.0
 21
138.5
 31
0.0
  0
LINE
  5
290
330
1E
100
AcDbEntity
  8
0
100
AcDbLine
 10
11.0426501468296
 20
136.204110285321
 30
0.0
 11
11.31
 21
138.002
 31
0.0
  0
LINE
  5
291
330
1E
100
AcDbEntity
  8
0
100
AcDbLine
 10
40.0
 20
135.0
 30
0.0
 11
40.0
 21
132.0999999999999
 31
0.0
  0
LINE
  5
292
330
1E
100
AcDbEntity
  8
0
100
AcDbLine
 10
40.0
 20
135.0
 30
0.0
 11
40.0
 21
134.4
 31
0.0
  0
LINE
  5
293
330
1E
100
AcDbEntity
  8
0
100
AcDbLine
 10
40.0
 20
135.0
 30
0.0
 11
40.0
 21
136.8
 31
0.0
  0
LINE
  5
294
330
1E
100
AcDbEntity
  8
0
100
AcDbLine
 10
40.0
 20
136.8
 30
0.0
 11
40.0
 21
135.0
 31
0.0
  0
LINE
  5
295
330
1E
100
AcDbEntity
  8
0
100
AcDbLine
 10
40.0
 20
136.8
 30
0.0
 11
40.0
 21
137.5
 31
0.0
  0
LINE
  5
296
330
1E
100
AcDbEntity
  8
0
100
AcDbLine
 10
40.49999999999999
 20
136.3
 30
0.0
 11
40.49999999999999
 21
133.0999999999999
 31
0.0
  0
LINE
  5
297
330
1E
100
AcDbEntity
  8
0
100
AcDbLine
 10
40.49999999999999
 20
136.3
 30
0.0
 11
40.49999999999999
 21
138.3
 31
0.0
  0
LINE
  5
298
330
1E
100
AcDbEntity
  8
0
100
AcDbLine
 10
40.0
 20
137.5
 30
0.0
 11
40.0
 21
136.8
 31
0.0
  0
LINE
  5
299
330
1E
100
AcDbEntity
  8
0
100
AcDbLine
 10
40.0
 20
137.5
 30
0.0
 11
40.49999999999999
 21
139.0
 31
0.0
  0
LINE
  5
29A
330
1E
100
AcDbEntity
  8
0
100
AcDbLine
 10
55.5
 20
137.1999999999999
 30
0.0
 11
55.5
 21
133.8
 31
0.0
  0
LINE
  5
29B
330
1E
100
AcDbEntity
  8
0
100
AcDbLine
 10
55.5
 20
137.1999999999999
 30
0.0
 11
55.5
 21
139.1999999999999
 31
0.0
  0
LINE
  5
29C
330
1E
100
AcDbEntity
  8
0
100
AcDbLine
 10
60.0
 20
137.1999999999999
 30
0.0
 11
60.0
 21
139.1999999999999
 31
0.0
  0
LINE
  5
29D
330
1E
100
AcDbEntity
  8
0
100
AcDbLine
 10
59.5
 20
134.8999999999999
 30
0.0
 11
59.5
 21
130.1999999999999
 31
0.0
  0
LINE
  5
29E
330
1E
100
AcDbEntity
  8
0
100
AcDbLine
 10
59.5
 20
134.8999999999999
 30
0.0
 11
59.5
 21
138.5
 31
0.0
  0
LINE
  5
29F
330
1E
100
AcDbEntity
  8
0
100
AcDbLine
 10
61.0
 20
135.8999999999999
 30
0.0
 11
61.0
 21
132.8
 31
0.0
  0
LINE
  5
2A0
330
1E
100
AcDbEntity
  8
0
100
AcDbLine
 10
61.0
 20
135.8999999999999
 30
0.0
 11
61.0
 21
137.8
 31
0.0
  0
LINE
  5
2A1
330
1E
100
AcDbEntity
  8
0
100
AcDbLine
 10
11.31
 20
138.002
 30
0.0
 11
11.788
 21
141.9769999999999
 31
0.0
  0
LINE
  5
2A2
330
1E
100
AcDbEntity
  8
0
100
AcDbLine
 10
0.69
 20
138.002
 30
0.0
 11
1.217
 21
134.458
 31
0.0
  0
LINE
  5
2A3
330
1E
100
AcDbEntity
  8
0
100
AcDbLine
 10
0.69
 20
138.002
 30
0.0
 11
0.957349853170386
 21
136.204110285321
 31
0.0
  0
LINE
  5
2A4
330
1E
100
AcDbEntity
  8
0
100
AcDbLine
 10
40.49999999999999
 20
138.3
 30
0.0
 11
40.49999999999999
 21
136.3
 31
0.0
  0
LINE
  5
2A5
330
1E
100
AcDbEntity
  8
0
100
AcDbLine
 10
40.49999999999999
 20
138.3
 30
0.0
 11
40.49999999999999
 21
139.0
 31
0.0
  0
LINE
  5
2A6
330
1E
100
AcDbEntity
  8
0
100
AcDbLine
 10
56.0
 20
138.5
 30
0.0
 11
56.0
 21
134.8999999999999
 31
0.0
  0
LINE
  5
2A7
330
1E
100
AcDbEntity
  8
0
100
AcDbLine
 10
56.0
 20
138.5
 30
0.0
 11
56.0
 21
140.6999999999999
 31
0.0
  0
LINE
  5
2A8
330
1E
100
AcDbEntity
  8
0
100
AcDbLine
 10
59.5
 20
138.5
 30
0.0
 11
59.5
 21
134.8999999999999
 31
0.0
  0
LINE
  5
2A9
330
1E
100
AcDbEntity
  8
0
100
AcDbLine
 10
59.5
 20
138.5
 30
0.0
 11
59.5
 21
140.6999999999999
 31
0.0
  0
LINE
  5
2AA
330
1E
100
AcDbEntity
  8
0
100
AcDbLine
 10
60.0
 20
138.5
 30
0.0
 11
61.0
 21
138.5
 31
0.0
  0
LINE
  5
2AB
330
1E
100
AcDbEntity
  8
0
100
AcDbLine
 10
61.0
 20
137.8
 30
0.0
 11
61.0
 21
135.8999999999999
 31
0.0
  0
LINE
  5
2AC
330
1E
100
AcDbEntity
  8
0
100
AcDbLine
 10
61.0
 20
137.8
 30
0.0
 11
61.0
 21
138.5
 31
0.0
  0
LINE
  5
2AD
330
1E
100
AcDbEntity
  8
0
100
AcDbLine
 10
61.0
 20
137.1999999999999
 30
0.0
 11
61.0
 21
133.8
 31
0.0
  0
LINE
  5
2AE
330
1E
100
AcDbEntity
  8
0
100
AcDbLine
 10
61.0
 20
137.1999999999999
 30
0.0
 11
61.0
 21
139.1999999999999
 31
0.0
  0
LINE
  5
2AF
330
1E
100
AcDbEntity
  8
0
100
AcDbLine
 10
40.49999999999999
 20
139.0
 30
0.0
 11
40.49999999999999
 21
138.3
 31
0.0
  0
LINE
  5
2B0
330
1E
100
AcDbEntity
  8
0
100
AcDbLine
 10
40.49999999999999
 20
139.0
 30
0.0
 11
42.0
 21
139.5
 31
0.0
  0
LINE
  5
2B1
330
1E
100
AcDbEntity
  8
0
100
AcDbLine
 10
55.5
 20
139.1999999999999
 30
0.0
 11
55.5
 21
137.1999999999999
 31
0.0
  0
LINE
  5
2B2
330
1E
100
AcDbEntity
  8
0
100
AcDbLine
 10
55.5
 20
139.1999999999999
 30
0.0
 11
55.5
 21
140.0
 31
0.0
  0
LINE
  5
2B3
330
1E
100
AcDbEntity
  8
0
100
AcDbLine
 10
42.0
 20
139.5
 30
0.0
 11
54.5
 21
139.5
 31
0.0
  0
LINE
  5
2B4
330
1E
100
AcDbEntity
  8
0
100
AcDbLine
 10
54.5
 20
139.5
 30
0.0
 11
55.5
 21
140.0
 31
0.0
  0
LINE
  5
2B5
330
1E
100
AcDbEntity
  8
0
100
AcDbLine
 10
55.5
 20
140.0
 30
0.0
 11
55.5
 21
139.1999999999999
 31
0.0
  0
LINE
  5
2B6
330
1E
100
AcDbEntity
  8
0
100
AcDbLine
 10
55.5
 20
140.0
 30
0.0
 11
56.0
 21
141.5
 31
0.0
  0
LINE
  5
2B7
330
1E
100
AcDbEntity
  8
0
100
AcDbLine
 10
60.0
 20
139.1999999999999
 30
0.0
 11
60.0
 21
140.0
 31
0.0
  0
LINE
  5
2B8
330
1E
100
AcDbEntity
  8
0
100
AcDbLine
 10
61.0
 20
140.0
 30
0.0
 11
61.0
 21
139.1999999999999
 31
0.0
  0
LINE
  5
2B9
330
1E
100
AcDbEntity
  8
0
100
AcDbLine
 10
61.0
 20
138.5
 30
0.0
 11
61.0
 21
139.1999999999999
 31
0.0
  0
LINE
  5
2BA
330
1E
100
AcDbEntity
  8
0
100
AcDbLine
 10
61.0
 20
138.5
 30
0.0
 11
61.0
 21
137.8
 31
0.0
  0
LINE
  5
2BB
330
1E
100
AcDbEntity
  8
0
100
AcDbLine
 10
61.0
 20
138.5
 30
0.0
 11
61.0
 21
156.0
 31
0.0
  0
LINE
  5
2BC
330
1E
100
AcDbEntity
  8
0
100
AcDbLine
 10
245.0
 20
137.1999999999999
 30
0.0
 11
245.0
 21
139.1999999999999
 31
0.0
  0
LINE
  5
2BD
330
1E
100
AcDbEntity
  8
0
100
AcDbLine
 10
245.0
 20
137.1999999999999
 30
0.0
 11
245.0
 21
133.8
 31
0.0
  0
LINE
  5
2BE
330
1E
100
AcDbEntity
  8
0
100
AcDbLine
 10
247.0
 20
135.8999999999999
 30
0.0
 11
247.0
 21
137.8
 31
0.0
  0
LINE
  5
2C0
330
1E
100
AcDbEntity
  8
0
100
AcDbLine
 10
245.0
 20
140.0
 30
0.0
 11
245.0
 21
139.1999999999999
 31
0.0
  0
LINE
  5
2C2
330
1E
100
AcDbEntity
  8
0
100
AcDbLine
 10
153.0
 20
140.0
 30
0.0
 11
245.0
 21
140.0
 31
0.0
  0
LINE
  5
2C3
330
1E
100
AcDbEntity
  8
0
100
AcDbLine
 10
245.0
 20
139.1999999999999
 30
0.0
 11
245.0
 21
140.0
 31
0.0
  0
LINE
  5
2C4
330
1E
100
AcDbEntity
  8
0
100
AcDbLine
 10
245.0
 20
139.1999999999999
 30
0.0
 11
245.0
 21
137.1999999999999
 31
0.0
  0
LINE
  5
2C5
330
1E
100
AcDbEntity
  8
0
100
AcDbLine
 10
245.0
 20
138.5
 30
0.0
 11
247.0
 21
138.5
 31
0.0
  0
LINE
  5
2C6
330
1E
100
AcDbEntity
  8
0
100
AcDbLine
 10
247.0
 20
137.8
 30
0.0
 11
247.0
 21
138.5
 31
0.0
  0
LINE
  5
2C7
330
1E
100
AcDbEntity
  8
0
100
AcDbLine
 10
61.0
 20
140.0
 30
0.0
 11
153.0
 21
140.0
 31
0.0
  0
LINE
  5
2C8
330
1E
100
AcDbEntity
  8
0
100
AcDbLine
 10
61.0
 20
139.1999999999999
 30
0.0
 11
61.0
 21
140.0
 31
0.0
  0
LINE
  5
2C9
330
1E
100
AcDbEntity
  8
0
100
AcDbLine
 10
61.0
 20
139.1999999999999
 30
0.0
 11
61.0
 21
138.5
 31
0.0
  0
LINE
  5
2CA
330
1E
100
AcDbEntity
  8
0
100
AcDbLine
 10
61.0
 20
139.1999999999999
 30
0.0
 11
61.0
 21
137.1999999999999
 31
0.0
  0
LINE
  5
2CB
330
1E
100
AcDbEntity
  8
0
100
AcDbLine
 10
61.0
 20
140.0
 30
0.0
 11
153.0
 21
140.0
 31
0.0
  0
LINE
  5
2CC
330
1E
100
AcDbEntity
  8
0
100
AcDbLine
 10
95.0
 20
140.0
 30
0.0
 11
95.0
 21
156.0
 31
0.0
  0
LINE
  5
2CD
330
1E
100
AcDbEntity
  8
0
100
AcDbLine
 10
247.0
 20
137.2279999999999
 30
0.0
 11
247.0
 21
133.8679999999999
 31
0.0
  0
LINE
  5
2CE
330
1E
100
AcDbEntity
  8
0
100
AcDbLine
 10
247.0
 20
133.8679999999999
 30
0.0
 11
247.0
 21
129.4159999999999
 31
0.0
  0
LINE
  5
2CF
330
1E
100
AcDbEntity
  8
0
100
AcDbLine
 10
247.0
 20
129.4159999999999
 30
0.0
 11
247.0
 21
124.3759999999999
 31
0.0
  0
LINE
  5
2D0
330
1E
100
AcDbEntity
  8
0
100
AcDbLine
 10
247.0
 20
124.3759999999999
 30
0.0
 11
247.0
 21
119.0
 31
0.0
  0
LINE
  5
2D1
330
1E
100
AcDbEntity
  8
0
100
AcDbLine
 10
247.0
 20
139.244
 30
0.0
 11
247.0
 21
140.0
 31
0.0
  0
LINE
  5
2D2
330
1E
100
AcDbEntity
  8
0
100
AcDbLine
 10
247.0
 20
139.244
 30
0.0
 11
247.0
 21
137.2279999999999
 31
0.0
  0
LINE
  5
2D3
330
1E
100
AcDbEntity
  8
0
100
AcDbLine
 10
11.7272614480975
 20
141.471904301648
 30
0.0
 11
11.807
 21
142.1039999999999
 31
0.0
  0
LINE
  5
2D4
330
1E
100
AcDbEntity
  8
0
100
AcDbLine
 10
11.7272614480975
 20
141.471904301648
 30
0.0
 11
11.788
 21
141.9769999999999
 31
0.0
  0
LINE
  5
2D5
330
1E
100
AcDbEntity
  8
0
100
AcDbLine
 10
11.7272614480975
 20
141.471904301648
 30
0.0
 11
11.807
 21
142.1039999999999
 31
0.0
  0
LINE
  5
2D6
330
1E
100
AcDbEntity
  8
0
100
AcDbLine
 10
56.0
 20
140.6999999999999
 30
0.0
 11
56.0
 21
138.5
 31
0.0
  0
LINE
  5
2D7
330
1E
100
AcDbEntity
  8
0
100
AcDbLine
 10
56.0
 20
140.6999999999999
 30
0.0
 11
56.0
 21
141.5
 31
0.0
  0
LINE
  5
2D8
330
1E
100
AcDbEntity
  8
0
100
AcDbLine
 10
56.0
 20
141.5
 30
0.0
 11
56.0
 21
140.6999999999999
 31
0.0
  0
LINE
  5
2D9
330
1E
100
AcDbEntity
  8
0
100
AcDbLine
 10
56.0
 20
141.5
 30
0.0
 11
57.5
 21
142.0
 31
0.0
  0
LINE
  5
2DA
330
1E
100
AcDbEntity
  8
0
100
AcDbLine
 10
59.5
 20
140.6999999999999
 30
0.0
 11
59.5
 21
138.5
 31
0.0
  0
LINE
  5
2DB
330
1E
100
AcDbEntity
  8
0
100
AcDbLine
 10
59.5
 20
140.6999999999999
 30
0.0
 11
59.5
 21
141.5
 31
0.0
  0
LINE
  5
2DC
330
1E
100
AcDbEntity
  8
0
100
AcDbLine
 10
11.788
 20
141.9769999999999
 30
0.0
 11
11.908
 21
143.8749999999999
 31
0.0
  0
LINE
  5
2DD
330
1E
100
AcDbEntity
  8
0
100
AcDbLine
 10
0.212
 20
141.9769999999999
 30
0.0
 11
0.272738551902445
 21
141.471904301648
 31
0.0
  0
LINE
  5
2DE
330
1E
100
AcDbEntity
  8
0
100
AcDbLine
 10
0.212
 20
141.9769999999999
 30
0.0
 11
0.69
 21
138.002
 31
0.0
  0
LINE
  5
2DF
330
1E
100
AcDbEntity
  8
0
100
AcDbLine
 10
0.168844547563804
 20
142.659575406033
 30
0.0
 11
0.193
 21
142.1039999999999
 31
0.0
  0
LINE
  5
2E0
330
1E
100
AcDbEntity
  8
0
100
AcDbLine
 10
0.168844547563804
 20
142.659575406033
 30
0.0
 11
0.212
 21
141.9769999999999
 31
0.0
  0
LINE
  5
2E1
330
1E
100
AcDbEntity
  8
0
100
AcDbLine
 10
0.168844547563804
 20
142.659575406033
 30
0.0
 11
0.193
 21
142.1039999999999
 31
0.0
  0
LINE
  5
2E2
330
1E
100
AcDbEntity
  8
0
100
AcDbLine
 10
0.168844547563804
 20
142.659575406033
 30
0.0
 11
0.212
 21
141.9769999999999
 31
0.0
  0
LINE
  5
2E3
330
1E
100
AcDbEntity
  8
0
100
AcDbLine
 10
0.092
 20
143.8749999999999
 30
0.0
 11
0.212
 21
141.9769999999999
 31
0.0
  0
LINE
  5
2E4
330
1E
100
AcDbEntity
  8
0
100
AcDbLine
 10
0.092
 20
143.8749999999999
 30
0.0
 11
0.4760000000000001
 21
145.375
 31
0.0
  0
LINE
  5
2E5
330
1E
100
AcDbEntity
  8
0
100
AcDbLine
 10
0.112515679442509
 20
143.955139372822
 30
0.0
 11
0.190560000000035
 21
144.2599999999999
 31
0.0
  0
LINE
  5
2E6
330
1E
100
AcDbEntity
  8
0
100
AcDbLine
 10
0.111
 20
143.99
 30
0.0
 11
0.190560000000035
 21
144.2599999999999
 31
0.0
  0
LINE
  5
2E7
330
1E
100
AcDbEntity
  8
0
100
AcDbLine
 10
0.112515679442509
 20
143.955139372822
 30
0.0
 11
0.190560000000035
 21
144.2599999999999
 31
0.0
  0
LINE
  5
2E8
330
1E
100
AcDbEntity
  8
0
100
AcDbLine
 10
0.111
 20
143.99
 30
0.0
 11
0.190560000000035
 21
144.2599999999999
 31
0.0
  0
LINE
  5
2E9
330
1E
100
AcDbEntity
  8
0
100
AcDbLine
 10
0.0920000000000001
 20
143.8749999999999
 30
0.0
 11
0.4760000000000001
 21
145.375
 31
0.0
  0
LINE
  5
2EA
330
1E
100
AcDbEntity
  8
0
100
AcDbLine
 10
0.4760000000000001
 20
145.375
 30
0.0
 11
1.187
 21
146.471
 31
0.0
  0
LINE
  5
2EB
330
1E
100
AcDbEntity
  8
0
100
AcDbLine
 10
0.4760000000000001
 20
145.375
 30
0.0
 11
1.187
 21
146.471
 31
0.0
  0
LINE
  5
2EF
330
1E
100
AcDbEntity
  8
0
100
AcDbLine
 10
0.4760000000000001
 20
145.375
 30
0.0
 11
1.187
 21
146.471
 31
0.0
  0
LINE
  5
2F0
330
1E
100
AcDbEntity
  8
0
100
AcDbLine
 10
1.283
 20
146.567
 30
0.0
 11
1.47334482758608
 21
146.714523429443
 31
0.0
  0
LINE
  5
2F1
330
1E
100
AcDbEntity
  8
0
100
AcDbLine
 10
1.283
 20
146.567
 30
0.0
 11
1.47334482758608
 21
146.714523429443
 31
0.0
  0
LINE
  5
2F2
330
1E
100
AcDbEntity
  8
0
100
AcDbLine
 10
1.187
 20
146.471
 30
0.0
 11
1.955999999999999
 21
147.1249999999999
 31
0.0
  0
LINE
  5
2F3
330
1E
100
AcDbEntity
  8
0
100
AcDbLine
 10
1.955999999999999
 20
147.1249999999999
 30
0.0
 11
3.071
 21
147.644
 31
0.0
  0
LINE
  5
2F4
330
1E
100
AcDbEntity
  8
0
100
AcDbLine
 10
3.071
 20
147.644
 30
0.0
 11
6.0
 21
148.0
 31
0.0
  0
LINE
  5
2F8
330
1E
100
AcDbEntity
  8
0
100
AcDbLine
 10
11.807
 20
142.1039999999999
 30
0.0
 11
11.83115545243619
 21
142.659575406033
 31
0.0
  0
LINE
  5
2F9
330
1E
100
AcDbEntity
  8
0
100
AcDbLine
 10
11.80944
 20
144.2599999999999
 30
0.0
 11
11.889
 21
143.99
 31
0.0
  0
LINE
  5
2FA
330
1E
100
AcDbEntity
  8
0
100
AcDbLine
 10
11.524
 20
145.375
 30
0.0
 11
11.908
 21
143.8749999999999
 31
0.0
  0
LINE
  5
2FB
330
1E
100
AcDbEntity
  8
0
100
AcDbLine
 10
10.81299999999999
 20
146.471
 30
0.0
 11
11.524
 21
145.375
 31
0.0
  0
LINE
  5
2FC
330
1E
100
AcDbEntity
  8
0
100
AcDbLine
 10
10.5266551724139
 20
146.714523429443
 30
0.0
 11
10.717
 21
146.567
 31
0.0
  0
LINE
  5
2FD
330
1E
100
AcDbEntity
  8
0
100
AcDbLine
 10
10.044
 20
147.1249999999999
 30
0.0
 11
10.81299999999999
 21
146.471
 31
0.0
  0
LINE
  5
2FE
330
1E
100
AcDbEntity
  8
0
100
AcDbLine
 10
8.929
 20
147.644
 30
0.0
 11
10.044
 21
147.1249999999999
 31
0.0
  0
LINE
  5
2FF
330
1E
100
AcDbEntity
  8
0
100
AcDbLine
 10
41.9
 20
205.5
 30
0.0
 11
45.49999999999999
 21
205.5
 31
0.0
  0
LINE
  5
300
330
1E
100
AcDbEntity
  8
0
100
AcDbLine
 10
53.5
 20
192.5
 30
0.0
 11
59.0
 21
183.0
 31
0.0
  0
LINE
  5
301
330
1E
100
AcDbEntity
  8
0
100
AcDbLine
 10
51.6
 20
205.5
 30
0.0
 11
59.4
 21
205.5
 31
0.0
  0
LINE
  5
302
330
1E
100
AcDbEntity
  8
0
100
AcDbLine
 10
45.49999999999999
 20
205.5
 30
0.0
 11
51.6
 21
205.5
 31
0.0
  0
LINE
  5
303
330
1E
100
AcDbEntity
  8
0
100
AcDbLine
 10
47.5
 20
200.0
 30
0.0
 11
53.5
 21
192.5
 31
0.0
  0
LINE
  5
304
330
1E
100
AcDbEntity
  8
0
100
AcDbLine
 10
42.0
 20
204.4999999999999
 30
0.0
 11
47.5
 21
200.0
 31
0.0
  0
LINE
  5
305
330
1E
100
AcDbEntity
  8
0
100
AcDbLine
 10
51.2
 20
207.0
 30
0.0
 11
59.1
 21
207.0
 31
0.0
  0
LINE
  5
306
330
1E
100
AcDbEntity
  8
0
100
AcDbLine
 10
45.1
 20
207.0
 30
0.0
 11
51.2
 21
207.0
 31
0.0
  0
LINE
  5
307
330
1E
100
AcDbEntity
  8
0
100
AcDbLine
 10
41.39999999999999
 20
207.0
 30
0.0
 11
45.1
 21
207.0
 31
0.0
  0
LINE
  5
308
330
1E
100
AcDbEntity
  8
0
100
AcDbLine
 10
40.49999999999999
 20
205.5
 30
0.0
 11
42.0
 21
204.4999999999999
 31
0.0
  0
LINE
  5
309
330
1E
100
AcDbEntity
  8
0
100
AcDbLine
 10
40.49999999999999
 20
205.5
 30
0.0
 11
41.9
 21
205.5
 31
0.0
  0
LINE
  5
30A
330
1E
100
AcDbEntity
  8
0
100
AcDbLine
 10
40.0
 20
207.0
 30
0.0
 11
40.49999999999999
 21
205.5
 31
0.0
  0
LINE
  5
30B
330
1E
100
AcDbEntity
  8
0
100
AcDbLine
 10
40.0
 20
207.0
 30
0.0
 11
41.39999999999999
 21
207.0
 31
0.0
  0
LINE
  5
30C
330
1E
100
AcDbEntity
  8
0
100
AcDbLine
 10
38.0
 20
208.0
 30
0.0
 11
40.0
 21
207.0
 31
0.0
  0
LINE
  5
30D
330
1E
100
AcDbEntity
  8
0
100
AcDbLine
 10
35.5
 20
208.4999999999999
 30
0.0
 11
38.0
 21
208.0
 31
0.0
  0
LINE
  5
30E
330
1E
100
AcDbEntity
  8
0
100
AcDbLine
 10
46.29999999999999
 20
213.0
 30
0.0
 11
55.6
 21
213.0
 31
0.0
  0
LINE
  5
30F
330
1E
100
AcDbEntity
  8
0
100
AcDbLine
 10
55.6
 20
213.0
 30
0.0
 11
66.4
 21
213.0
 31
0.0
  0
LINE
  5
310
330
1E
100
AcDbEntity
  8
0
100
AcDbLine
 10
39.0
 20
213.0
 30
0.0
 11
46.29999999999999
 21
213.0
 31
0.0
  0
LINE
  5
311
330
1E
100
AcDbEntity
  8
0
100
AcDbLine
 10
34.6
 20
213.0
 30
0.0
 11
39.0
 21
213.0
 31
0.0
  0
LINE
  5
312
330
1E
100
AcDbEntity
  8
0
100
AcDbLine
 10
33.5
 20
210.4999999999999
 30
0.0
 11
35.5
 21
208.4999999999999
 31
0.0
  0
LINE
  5
313
330
1E
100
AcDbEntity
  8
0
100
AcDbLine
 10
33.0
 20
213.0
 30
0.0
 11
33.5
 21
210.4999999999999
 31
0.0
  0
LINE
  5
314
330
1E
100
AcDbEntity
  8
0
100
AcDbLine
 10
33.0
 20
213.0
 30
0.0
 11
34.6
 21
213.0
 31
0.0
  0
LINE
  5
315
330
1E
100
AcDbEntity
  8
0
100
AcDbLine
 10
6.0
 20
148.0
 30
0.0
 11
8.929
 21
147.644
 31
0.0
  0
LINE
  5
316
330
1E
100
AcDbEntity
  8
0
100
AcDbLine
 10
0.193
 20
142.1039999999999
 30
0.0
 11
0.272738551902445
 21
141.471904301648
 31
0.0
  0
LINE
  5
317
330
1E
100
AcDbEntity
  8
0
100
AcDbLine
 10
0.193
 20
142.1039999999999
 30
0.0
 11
0.272738551902447
 21
141.471904301648
 31
0.0
  0
LINE
  5
318
330
1E
100
AcDbEntity
  8
0
100
AcDbLine
 10
57.5
 20
142.0
 30
0.0
 11
58.0
 21
142.0
 31
0.0
  0
LINE
  5
319
330
1E
100
AcDbEntity
  8
0
100
AcDbLine
 10
61.0
 20
182.0
 30
0.0
 11
61.6
 21
182.0
 31
0.0
  0
LINE
  5
31A
330
1E
100
AcDbEntity
  8
0
100
AcDbLine
 10
59.4
 20
205.5
 30
0.0
 11
68.4
 21
205.5
 31
0.0
  0
LINE
  5
31B
330
1E
100
AcDbEntity
  8
0
100
AcDbLine
 10
59.1
 20
207.0
 30
0.0
 11
68.2
 21
207.0
 31
0.0
  0
LINE
  5
31C
330
1E
100
AcDbEntity
  8
0
100
AcDbLine
 10
59.0
 20
183.0
 30
0.0
 11
61.0
 21
182.0
 31
0.0
  0
LINE
  5
31D
330
1E
100
AcDbEntity
  8
0
100
AcDbLine
 10
58.0
 20
142.0
 30
0.0
 11
59.5
 21
141.5
 31
0.0
  0
LINE
  5
31E
330
1E
100
AcDbEntity
  8
0
100
AcDbLine
 10
59.5
 20
141.5
 30
0.0
 11
59.5
 21
140.6999999999999
 31
0.0
  0
LINE
  5
31F
330
1E
100
AcDbEntity
  8
0
100
AcDbLine
 10
59.5
 20
141.5
 30
0.0
 11
60.0
 21
140.0
 31
0.0
  0
LINE
  5
320
330
1E
100
AcDbEntity
  8
0
100
AcDbLine
 10
65.8571
 20
156.0
 30
0.0
 11
65.8571
 21
160.0
 31
0.0
  0
LINE
  5
321
330
1E
100
AcDbEntity
  8
0
100
AcDbLine
 10
78.0
 20
156.0
 30
0.0
 11
82.4
 21
156.0
 31
0.0
  0
LINE
  5
322
330
1E
100
AcDbEntity
  8
0
100
AcDbLine
 10
82.4
 20
156.0
 30
0.0
 11
86.45000000000001
 21
156.0
 31
0.0
  0
LINE
  5
323
330
1E
100
AcDbEntity
  8
0
100
AcDbLine
 10
90.1429
 20
156.0
 30
0.0
 11
90.1429
 21
160.0
 31
0.0
  0
LINE
  5
324
330
1E
100
AcDbEntity
  8
0
100
AcDbLine
 10
90.00010000000001
 20
156.0
 30
0.0
 11
92.70000000000001
 21
156.0
 31
0.0
  0
LINE
  5
325
330
1E
100
AcDbEntity
  8
0
100
AcDbLine
 10
86.45000000000001
 20
156.0
 30
0.0
 11
89.9999
 21
156.0
 31
0.0
  0
LINE
  5
326
330
1E
100
AcDbEntity
  8
0
100
AcDbLine
 10
86.45000000000001
 20
156.0
 30
0.0
 11
90.00010000000001
 21
156.0
 31
0.0
  0
LINE
  5
327
330
1E
100
AcDbEntity
  8
0
100
AcDbLine
 10
89.9999
 20
156.0
 30
0.0
 11
92.70000000000001
 21
156.0
 31
0.0
  0
LINE
  5
338
330
1E
100
AcDbEntity
  8
0
100
AcDbLine
 10
95.0
 20
156.0
 30
0.0
 11
95.0
 21
140.0
 31
0.0
  0
LINE
  5
339
330
1E
100
AcDbEntity
  8
0
100
AcDbLine
 10
92.70000000000001
 20
156.0
 30
0.0
 11
94.40000000000001
 21
156.0
 31
0.0
  0
LINE
  5
33A
330
1E
100
AcDbEntity
  8
0
100
AcDbLine
 10
94.40000000000001
 20
156.0
 30
0.0
 11
95.0
 21
156.0
 31
0.0
  0
LINE
  5
33B
330
1E
100
AcDbEntity
  8
0
100
AcDbLine
 10
73.59999999999999
 20
156.0
 30
0.0
 11
78.0
 21
156.0
 31
0.0
  0
LINE
  5
33C
330
1E
100
AcDbEntity
  8
0
100
AcDbLine
 10
69.55
 20
156.0
 30
0.0
 11
73.59999999999999
 21
156.0
 31
0.0
  0
LINE
  5
33D
330
1E
100
AcDbEntity
  8
0
100
AcDbLine
 10
66.00010000000001
 20
156.0
 30
0.0
 11
69.55
 21
156.0
 31
0.0
  0
LINE
  5
33E
330
1E
100
AcDbEntity
  8
0
100
AcDbLine
 10
63.3
 20
156.0
 30
0.0
 11
66.00010000000001
 21
156.0
 31
0.0
  0
LINE
  5
33F
330
1E
100
AcDbEntity
  8
0
100
AcDbLine
 10
63.3
 20
156.0
 30
0.0
 11
65.9999
 21
156.0
 31
0.0
  0
LINE
  5
340
330
1E
100
AcDbEntity
  8
0
100
AcDbLine
 10
61.6
 20
156.0
 30
0.0
 11
63.3
 21
156.0
 31
0.0
  0
LINE
  5
341
330
1E
100
AcDbEntity
  8
0
100
AcDbLine
 10
62.2143
 20
170.0
 30
0.0
 11
62.2143
 21
167.0
 31
0.0
  0
LINE
  5
342
330
1E
100
AcDbEntity
  8
0
100
AcDbLine
 10
62.2143
 20
170.0
 30
0.0
 11
62.2143
 21
172.0
 31
0.0
  0
LINE
  5
343
330
1E
100
AcDbEntity
  8
0
100
AcDbLine
 10
61.6
 20
182.0
 30
0.0
 11
63.3
 21
182.0
 31
0.0
  0
LINE
  5
345
330
1E
100
AcDbEntity
  8
0
100
AcDbLine
 10
62.2143
 20
172.0
 30
0.0
 11
64.6429
 21
174.0
 31
0.0
  0
LINE
  5
346
330
1E
100
AcDbEntity
  8
0
100
AcDbLine
 10
62.2143
 20
172.0
 30
0.0
 11
62.2143
 21
170.0
 31
0.0
  0
LINE
  5
347
330
1E
100
AcDbEntity
  8
0
100
AcDbLine
 10
62.2143
 20
167.0
 30
0.0
 11
62.2143
 21
164.0
 31
0.0
  0
LINE
  5
348
330
1E
100
AcDbEntity
  8
0
100
AcDbLine
 10
62.2143
 20
167.0
 30
0.0
 11
62.2143
 21
170.0
 31
0.0
  0
LINE
  5
349
330
1E
100
AcDbEntity
  8
0
100
AcDbLine
 10
62.2143
 20
164.0
 30
0.0
 11
62.2143
 21
162.0
 31
0.0
  0
LINE
  5
34A
330
1E
100
AcDbEntity
  8
0
100
AcDbLine
 10
62.2143
 20
164.0
 30
0.0
 11
62.2143
 21
167.0
 31
0.0
  0
LINE
  5
34B
330
1E
100
AcDbEntity
  8
0
100
AcDbLine
 10
65.8571
 20
160.0
 30
0.0
 11
66.2857
 21
160.0
 31
0.0
  0
LINE
  5
34C
330
1E
100
AcDbEntity
  8
0
100
AcDbLine
 10
65.8571
 20
160.0
 30
0.0
 11
65.8571
 21
156.0
 31
0.0
  0
LINE
  5
34D
330
1E
100
AcDbEntity
  8
0
100
AcDbLine
 10
66.2857
 20
160.0
 30
0.0
 11
67.4999
 21
160.0
 31
0.0
  0
LINE
  5
34E
330
1E
100
AcDbEntity
  8
0
100
AcDbLine
 10
67.4999
 20
160.0
 30
0.0
 11
69.4286
 21
160.0
 31
0.0
  0
LINE
  5
34F
330
1E
100
AcDbEntity
  8
0
100
AcDbLine
 10
69.4286
 20
160.0
 30
0.0
 11
71.96429999999999
 21
160.0
 31
0.0
  0
LINE
  5
35F
330
1E
100
AcDbEntity
  8
0
100
AcDbLine
 10
89.71429999999999
 20
160.0
 30
0.0
 11
90.1429
 21
160.0
 31
0.0
  0
LINE
  5
360
330
1E
100
AcDbEntity
  8
0
100
AcDbLine
 10
88.49999999999999
 20
160.0
 30
0.0
 11
89.71429999999999
 21
160.0
 31
0.0
  0
LINE
  5
361
330
1E
100
AcDbEntity
  8
0
100
AcDbLine
 10
86.5714
 20
160.0
 30
0.0
 11
88.49999999999999
 21
160.0
 31
0.0
  0
LINE
  5
362
330
1E
100
AcDbEntity
  8
0
100
AcDbLine
 10
84.0357
 20
160.0
 30
0.0
 11
86.5714
 21
160.0
 31
0.0
  0
LINE
  5
363
330
1E
100
AcDbEntity
  8
0
100
AcDbLine
 10
81.14279999999999
 20
160.0
 30
0.0
 11
84.0357
 21
160.0
 31
0.0
  0
LINE
  5
364
330
1E
100
AcDbEntity
  8
0
100
AcDbLine
 10
78.0
 20
160.0
 30
0.0
 11
81.14279999999999
 21
160.0
 31
0.0
  0
LINE
  5
365
330
1E
100
AcDbEntity
  8
0
100
AcDbLine
 10
90.1429
 20
160.0
 30
0.0
 11
93.78570000000001
 21
162.0
 31
0.0
  0
LINE
  5
366
330
1E
100
AcDbEntity
  8
0
100
AcDbLine
 10
90.1429
 20
160.0
 30
0.0
 11
90.1429
 21
156.0
 31
0.0
  0
LINE
  5
367
330
1E
100
AcDbEntity
  8
0
100
AcDbLine
 10
71.96429999999999
 20
160.0
 30
0.0
 11
74.8572
 21
160.0
 31
0.0
  0
LINE
  5
368
330
1E
100
AcDbEntity
  8
0
100
AcDbLine
 10
65.0
 20
174.0
 30
0.0
 11
65.0
 21
182.0
 31
0.0
  0
LINE
  5
369
330
1E
100
AcDbEntity
  8
0
100
AcDbLine
 10
64.6429
 20
174.0
 30
0.0
 11
65.1286
 21
174.0
 31
0.0
  0
LINE
  5
36A
330
1E
100
AcDbEntity
  8
0
100
AcDbLine
 10
65.1286
 20
174.0
 30
0.0
 11
66.46429999999999
 21
174.0
 31
0.0
  0
LINE
  5
36B
330
1E
100
AcDbEntity
  8
0
100
AcDbLine
 10
65.0
 20
182.0
 30
0.0
 11
65.0
 21
174.0
 31
0.0
  0
LINE
  5
36C
330
1E
100
AcDbEntity
  8
0
100
AcDbLine
 10
68.4
 20
205.5
 30
0.0
 11
78.0
 21
205.5
 31
0.0
  0
LINE
  5
36D
330
1E
100
AcDbEntity
  8
0
100
AcDbLine
 10
68.2
 20
207.0
 30
0.0
 11
78.0
 21
207.0
 31
0.0
  0
LINE
  5
36E
330
1E
100
AcDbEntity
  8
0
100
AcDbLine
 10
66.4
 20
213.0
 30
0.0
 11
78.0
 21
213.0
 31
0.0
  0
LINE
  5
36F
330
1E
100
AcDbEntity
  8
0
100
AcDbLine
 10
63.3
 20
182.0
 30
0.0
 11
65.0
 21
182.0
 31
0.0
  0
LINE
  5
370
330
1E
100
AcDbEntity
  8
0
100
AcDbLine
 10
66.46429999999999
 20
174.0
 30
0.0
 11
68.52859999999999
 21
174.0
 31
0.0
  0
LINE
  5
371
330
1E
100
AcDbEntity
  8
0
100
AcDbLine
 10
68.52859999999999
 20
174.0
 30
0.0
 11
71.32139999999999
 21
174.0
 31
0.0
  0
LINE
  5
37D
330
1E
100
AcDbEntity
  8
0
100
AcDbLine
 10
93.78570000000001
 20
162.0
 30
0.0
 11
93.78570000000001
 21
164.0
 31
0.0
  0
LINE
  5
383
330
1E
100
AcDbEntity
  8
0
100
AcDbLine
 10
81.4
 20
174.0
 30
0.0
 11
84.67859999999999
 21
174.0
 31
0.0
  0
LINE
  5
384
330
1E
100
AcDbEntity
  8
0
100
AcDbLine
 10
91.0
 20
174.0
 30
0.0
 11
91.0
 21
182.0
 31
0.0
  0
LINE
  5
385
330
1E
100
AcDbEntity
  8
0
100
AcDbLine
 10
90.87139999999999
 20
174.0
 30
0.0
 11
91.35710000000001
 21
174.0
 31
0.0
  0
LINE
  5
386
330
1E
100
AcDbEntity
  8
0
100
AcDbLine
 10
89.5357
 20
174.0
 30
0.0
 11
90.87139999999999
 21
174.0
 31
0.0
  0
LINE
  5
387
330
1E
100
AcDbEntity
  8
0
100
AcDbLine
 10
87.47139999999999
 20
174.0
 30
0.0
 11
89.5357
 21
174.0
 31
0.0
  0
LINE
  5
388
330
1E
100
AcDbEntity
  8
0
100
AcDbLine
 10
84.67859999999999
 20
174.0
 30
0.0
 11
87.47139999999999
 21
174.0
 31
0.0
  0
LINE
  5
38B
330
1E
100
AcDbEntity
  8
0
100
AcDbLine
 10
78.0
 20
174.0
 30
0.0
 11
81.4
 21
174.0
 31
0.0
  0
LINE
  5
3A9
330
1E
100
AcDbEntity
  8
0
100
AcDbLine
 10
93.78570000000001
 20
170.0
 30
0.0
 11
93.78570000000001
 21
167.0
 31
0.0
  0
LINE
  5
3AB
330
1E
100
AcDbEntity
  8
0
100
AcDbLine
 10
93.78570000000001
 20
167.0
 30
0.0
 11
93.78570000000001
 21
164.0
 31
0.0
  0
LINE
  5
3AC
330
1E
100
AcDbEntity
  8
0
100
AcDbLine
 10
93.78570000000001
 20
167.0
 30
0.0
 11
93.78570000000001
 21
172.0
 31
0.0
  0
LINE
  5
3AD
330
1E
100
AcDbEntity
  8
0
100
AcDbLine
 10
91.35710000000001
 20
174.0
 30
0.0
 11
93.78570000000001
 21
172.0
 31
0.0
  0
LINE
  5
3AE
330
1E
100
AcDbEntity
  8
0
100
AcDbLine
 10
93.78570000000001
 20
164.0
 30
0.0
 11
93.78570000000001
 21
162.0
 31
0.0
  0
LINE
  5
3AF
330
1E
100
AcDbEntity
  8
0
100
AcDbLine
 10
93.78570000000001
 20
164.0
 30
0.0
 11
93.78570000000001
 21
167.0
 31
0.0
  0
LINE
  5
3B0
330
1E
100
AcDbEntity
  8
0
100
AcDbLine
 10
71.32139999999999
 20
174.0
 30
0.0
 11
74.59999999999999
 21
174.0
 31
0.0
  0
LINE
  5
3B1
330
1E
100
AcDbEntity
  8
0
100
AcDbLine
 10
78.0
 20
205.5
 30
0.0
 11
87.59999999999999
 21
205.5
 31
0.0
  0
LINE
  5
3B2
330
1E
100
AcDbEntity
  8
0
100
AcDbLine
 10
78.0
 20
207.0
 30
0.0
 11
87.79999999999999
 21
207.0
 31
0.0
  0
LINE
  5
3B3
330
1E
100
AcDbEntity
  8
0
100
AcDbLine
 10
91.0
 20
182.0
 30
0.0
 11
92.70000000000001
 21
182.0
 31
0.0
  0
LINE
  5
3B4
330
1E
100
AcDbEntity
  8
0
100
AcDbLine
 10
91.0
 20
182.0
 30
0.0
 11
91.0
 21
174.0
 31
0.0
  0
LINE
  5
3B5
330
1E
100
AcDbEntity
  8
0
100
AcDbLine
 10
92.70000000000001
 20
182.0
 30
0.0
 11
94.40000000000001
 21
182.0
 31
0.0
  0
LINE
  5
3B6
330
1E
100
AcDbEntity
  8
0
100
AcDbLine
 10
94.40000000000001
 20
182.0
 30
0.0
 11
95.0
 21
182.0
 31
0.0
  0
LINE
  5
3B7
330
1E
100
AcDbEntity
  8
0
100
AcDbLine
 10
95.0
 20
182.0
 30
0.0
 11
97.0
 21
183.0
 31
0.0
  0
LINE
  5
3B8
330
1E
100
AcDbEntity
  8
0
100
AcDbLine
 10
96.6
 20
205.5
 30
0.0
 11
104.4
 21
205.5
 31
0.0
  0
LINE
  5
3B9
330
1E
100
AcDbEntity
  8
0
100
AcDbLine
 10
87.59999999999999
 20
205.5
 30
0.0
 11
96.6
 21
205.5
 31
0.0
  0
LINE
  5
3BA
330
1E
100
AcDbEntity
  8
0
100
AcDbLine
 10
97.0
 20
183.0
 30
0.0
 11
102.4999999999999
 21
192.5
 31
0.0
  0
LINE
  5
3BB
330
1E
100
AcDbEntity
  8
0
100
AcDbLine
 10
96.90000000000001
 20
207.0
 30
0.0
 11
104.8
 21
207.0
 31
0.0
  0
LINE
  5
3BC
330
1E
100
AcDbEntity
  8
0
100
AcDbLine
 10
87.79999999999999
 20
207.0
 30
0.0
 11
96.90000000000001
 21
207.0
 31
0.0
  0
LINE
  5
3BD
330
1E
100
AcDbEntity
  8
0
100
AcDbLine
 10
102.4999999999999
 20
192.5
 30
0.0
 11
108.4999999999999
 21
200.0
 31
0.0
  0
LINE
  5
3BE
330
1E
100
AcDbEntity
  8
0
100
AcDbLine
 10
108.4999999999999
 20
200.0
 30
0.0
 11
114.0
 21
204.4999999999999
 31
0.0
  0
LINE
  5
3BF
330
1E
100
AcDbEntity
  8
0
100
AcDbLine
 10
104.4
 20
205.5
 30
0.0
 11
110.4999999999999
 21
205.5
 31
0.0
  0
LINE
  5
3C0
330
1E
100
AcDbEntity
  8
0
100
AcDbLine
 10
110.4999999999999
 20
205.5
 30
0.0
 11
114.1
 21
205.5
 31
0.0
  0
LINE
  5
3C1
330
1E
100
AcDbEntity
  8
0
100
AcDbLine
 10
104.8
 20
207.0
 30
0.0
 11
110.8999999999999
 21
207.0
 31
0.0
  0
LINE
  5
3C2
330
1E
100
AcDbEntity
  8
0
100
AcDbLine
 10
114.0
 20
204.4999999999999
 30
0.0
 11
115.5
 21
205.5
 31
0.0
  0
LINE
  5
3C3
330
1E
100
AcDbEntity
  8
0
100
AcDbLine
 10
114.1
 20
205.5
 30
0.0
 11
115.5
 21
205.5
 31
0.0
  0
LINE
  5
3C4
330
1E
100
AcDbEntity
  8
0
100
AcDbLine
 10
115.5
 20
205.5
 30
0.0
 11
116.0
 21
207.0
 31
0.0
  0
LINE
  5
3C5
330
1E
100
AcDbEntity
  8
0
100
AcDbLine
 10
110.8999999999999
 20
207.0
 30
0.0
 11
114.5999999999999
 21
207.0
 31
0.0
  0
LINE
  5
3C6
330
1E
100
AcDbEntity
  8
0
100
AcDbLine
 10
114.5999999999999
 20
207.0
 30
0.0
 11
116.0
 21
207.0
 31
0.0
  0
LINE
  5
3C7
330
1E
100
AcDbEntity
  8
0
100
AcDbLine
 10
116.0
 20
207.0
 30
0.0
 11
118.0
 21
208.0
 31
0.0
  0
LINE
  5
3C8
330
1E
100
AcDbEntity
  8
0
100
AcDbLine
 10
109.6999999999999
 20
213.0
 30
0.0
 11
117.0
 21
213.0
 31
0.0
  0
LINE
  5
3C9
330
1E
100
AcDbEntity
  8
0
100
AcDbLine
 10
118.0
 20
208.0
 30
0.0
 11
120.5
 21
208.4999999999999
 31
0.0
  0
LINE
  5
3EF
330
1E
100
AcDbEntity
  8
0
100
AcDbLine
 10
120.5
 20
208.4999999999999
 30
0.0
 11
122.5
 21
210.4999999999999
 31
0.0
  0
LINE
  5
3F9
330
1E
100
AcDbEntity
  8
0
100
AcDbLine
 10
122.5
 20
210.4999999999999
 30
0.0
 11
123.0
 21
213.0
 31
0.0
  0
LINE
  5
3FA
330
1E
100
AcDbEntity
  8
0
100
AcDbLine
 10
117.0
 20
213.0
 30
0.0
 11
121.4
 21
213.0
 31
0.0
  0
LINE
  5
3FB
330
1E
100
AcDbEntity
  8
0
100
AcDbLine
 10
121.4
 20
213.0
 30
0.0
 11
123.0
 21
213.0
 31
0.0
  0
LINE
  5
3FC
330
1E
100
AcDbEntity
  8
0
100
AcDbLine
 10
100.4
 20
213.0
 30
0.0
 11
109.6999999999999
 21
213.0
 31
0.0
  0
LINE
  5
3FD
330
1E
100
AcDbEntity
  8
0
100
AcDbLine
 10
89.59999999999999
 20
213.0
 30
0.0
 11
100.4
 21
213.0
 31
0.0
  0
LINE
  5
3FE
330
1E
100
AcDbEntity
  8
0
100
AcDbLine
 10
78.0
 20
213.0
 30
0.0
 11
89.59999999999999
 21
213.0
 31
0.0
  0
LINE
  5
3FF
330
1E
100
AcDbEntity
  8
0
100
AcDbLine
 10
74.59999999999999
 20
174.0
 30
0.0
 11
78.0
 21
174.0
 31
0.0
  0
LINE
  5
401
330
1E
100
AcDbEntity
  8
0
100
AcDbLine
 10
74.8572
 20
160.0
 30
0.0
 11
78.0
 21
160.0
 31
0.0
  0
LINE
  5
402
330
1E
100
AcDbEntity
  8
0
100
AcDbLine
 10
62.2143
 20
162.0
 30
0.0
 11
65.8571
 21
160.0
 31
0.0
  0
LINE
  5
403
330
1E
100
AcDbEntity
  8
0
100
AcDbLine
 10
62.2143
 20
162.0
 30
0.0
 11
62.2143
 21
164.0
 31
0.0
  0
LINE
  5
405
330
1E
100
AcDbEntity
  8
0
100
AcDbLine
 10
65.9999
 20
156.0
 30
0.0
 11
69.55
 21
156.0
 31
0.0
  0
LINE
  5
406
330
1E
100
AcDbEntity
  8
0
100
AcDbLine
 10
61.0
 20
156.0
 30
0.0
 11
61.6
 21
156.0
 31
0.0
  0
LINE
  5
407
330
1E
100
AcDbEntity
  8
0
100
AcDbLine
 10
61.0
 20
156.0
 30
0.0
 11
61.0
 21
138.5
 31
0.0
  0
LINE
  5
408
330
1E
100
AcDbEntity
  8
0
100
AcDbLine
 10
247.0
 20
140.0
 30
0.0
 11
288.3329999999999
 21
140.0
 31
0.0
  0
LINE
  5
409
330
1E
100
AcDbEntity
  8
0
100
AcDbLine
 10
247.0
 20
140.0
 30
0.0
 11
247.0
 21
139.244
 31
0.0
  0
LINE
  5
40A
330
1E
100
AcDbEntity
  8
0
100
AcDbLine
 10
288.3329999999999
 20
98.0
 30
0.0
 11
288.3329999999999
 21
98.756
 31
0.0
  0
LINE
  5
40B
330
1E
100
AcDbEntity
  8
0
100
AcDbLine
 10
288.3329999999999
 20
98.0
 30
0.0
 11
289.0
 21
98.504
 31
0.0
  0
LINE
  5
40C
330
1E
100
AcDbEntity
  8
0
100
AcDbLine
 10
288.3329999999999
 20
98.756
 30
0.0
 11
288.3329999999999
 21
100.772
 31
0.0
  0
LINE
  5
40D
330
1E
100
AcDbEntity
  8
0
100
AcDbLine
 10
288.3329999999999
 20
98.756
 30
0.0
 11
288.3329999999999
 21
98.0
 31
0.0
  0
LINE
  5
40E
330
1E
100
AcDbEntity
  8
0
100
AcDbLine
 10
288.3329999999999
 20
100.772
 30
0.0
 11
288.3329999999999
 21
104.132
 31
0.0
  0
LINE
  5
40F
330
1E
100
AcDbEntity
  8
0
100
AcDbLine
 10
288.3329999999999
 20
100.772
 30
0.0
 11
288.3329999999999
 21
98.756
 31
0.0
  0
LINE
  5
410
330
1E
100
AcDbEntity
  8
0
100
AcDbLine
 10
288.3329999999999
 20
104.132
 30
0.0
 11
288.3329999999999
 21
108.584
 31
0.0
  0
LINE
  5
411
330
1E
100
AcDbEntity
  8
0
100
AcDbLine
 10
288.3329999999999
 20
104.132
 30
0.0
 11
288.3329999999999
 21
100.772
 31
0.0
  0
LINE
  5
414
330
1E
100
AcDbEntity
  8
0
100
AcDbLine
 10
272.798
 20
115.0
 30
0.0
 11
273.822
 21
115.144
 31
0.0
  0
LINE
  5
415
330
1E
100
AcDbEntity
  8
0
100
AcDbLine
 10
273.822
 20
115.144
 30
0.0
 11
274.7819999999999
 21
115.5279999999999
 31
0.0
  0
LINE
  5
416
330
1E
100
AcDbEntity
  8
0
100
AcDbLine
 10
274.7819999999999
 20
115.5279999999999
 30
0.0
 11
275.6299999999999
 21
116.168
 31
0.0
  0
LINE
  5
418
330
1E
100
AcDbEntity
  8
0
100
AcDbLine
 10
271.774
 20
115.144
 30
0.0
 11
272.798
 21
115.0
 31
0.0
  0
LINE
  5
41B
330
1E
100
AcDbEntity
  8
0
100
AcDbLine
 10
275.6299999999999
 20
116.168
 30
0.0
 11
276.2699999999999
 21
117.016
 31
0.0
  0
LINE
  5
41C
330
1E
100
AcDbEntity
  8
0
100
AcDbLine
 10
276.2699999999999
 20
117.016
 30
0.0
 11
276.6539999999999
 21
117.9759999999999
 31
0.0
  0
LINE
  5
41F
330
1E
100
AcDbEntity
  8
0
100
AcDbLine
 10
270.814
 20
115.5279999999999
 30
0.0
 11
271.774
 21
115.144
 31
0.0
  0
LINE
  5
420
330
1E
100
AcDbEntity
  8
0
100
AcDbLine
 10
269.966
 20
116.168
 30
0.0
 11
270.814
 21
115.5279999999999
 31
0.0
  0
LINE
  5
425
330
1E
100
AcDbEntity
  8
0
100
AcDbLine
 10
269.3259999999999
 20
117.016
 30
0.0
 11
269.966
 21
116.168
 31
0.0
  0
LINE
  5
426
330
1E
100
AcDbEntity
  8
0
100
AcDbLine
 10
268.942
 20
117.9759999999999
 30
0.0
 11
269.3259999999999
 21
117.016
 31
0.0
  0
LINE
  5
42B
330
1E
100
AcDbEntity
  8
0
100
AcDbLine
 10
268.942
 20
120.0239999999999
 30
0.0
 11
269.3259999999999
 21
120.984
 31
0.0
  0
LINE
  5
42C
330
1E
100
AcDbEntity
  8
0
100
AcDbLine
 10
268.798
 20
119.0
 30
0.0
 11
268.942
 21
120.0239999999999
 31
0.0
  0
LINE
  5
42D
330
1E
100
AcDbEntity
  8
0
100
AcDbLine
 10
268.798
 20
119.0
 30
0.0
 11
268.942
 21
117.9759999999999
 31
0.0
  0
LINE
  5
42E
330
1E
100
AcDbEntity
  8
0
100
AcDbLine
 10
269.3259999999999
 20
120.984
 30
0.0
 11
269.966
 21
121.832
 31
0.0
  0
LINE
  5
430
330
1E
100
AcDbEntity
  8
0
100
AcDbLine
 10
276.6539999999999
 20
117.9759999999999
 30
0.0
 11
276.798
 21
119.0
 31
0.0
  0
LINE
  5
434
330
1E
100
AcDbEntity
  8
0
100
AcDbLine
 10
269.966
 20
121.832
 30
0.0
 11
270.814
 21
122.472
 31
0.0
  0
LINE
  5
435
330
1E
100
AcDbEntity
  8
0
100
AcDbLine
 10
270.814
 20
122.472
 30
0.0
 11
271.774
 21
122.856
 31
0.0
  0
LINE
  5
439
330
1E
100
AcDbEntity
  8
0
100
AcDbLine
 10
271.774
 20
122.856
 30
0.0
 11
272.798
 21
123.0
 31
0.0
  0
LINE
  5
43C
330
1E
100
AcDbEntity
  8
0
100
AcDbLine
 10
272.798
 20
123.0
 30
0.0
 11
273.822
 21
122.856
 31
0.0
  0
LINE
  5
43D
330
1E
100
AcDbEntity
  8
0
100
AcDbLine
 10
273.822
 20
122.856
 30
0.0
 11
274.7819999999999
 21
122.472
 31
0.0
  0
LINE
  5
43E
330
1E
100
AcDbEntity
  8
0
100
AcDbLine
 10
274.7819999999999
 20
122.472
 30
0.0
 11
275.6299999999999
 21
121.832
 31
0.0
  0
LINE
  5
43F
330
1E
100
AcDbEntity
  8
0
100
AcDbLine
 10
275.6299999999999
 20
121.832
 30
0.0
 11
276.2699999999999
 21
120.984
 31
0.0
  0
LINE
  5
440
330
1E
100
AcDbEntity
  8
0
100
AcDbLine
 10
276.2699999999999
 20
120.984
 30
0.0
 11
276.6539999999999
 21
120.0239999999999
 31
0.0
  0
LINE
  5
441
330
1E
100
AcDbEntity
  8
0
100
AcDbLine
 10
276.6539999999999
 20
120.0239999999999
 30
0.0
 11
276.798
 21
119.0
 31
0.0
  0
LINE
  5
442
330
1E
100
AcDbEntity
  8
0
100
AcDbLine
 10
288.3329999999999
 20
108.584
 30
0.0
 11
288.3329999999999
 21
113.6239999999999
 31
0.0
  0
LINE
  5
443
330
1E
100
AcDbEntity
  8
0
100
AcDbLine
 10
288.3329999999999
 20
108.584
 30
0.0
 11
288.3329999999999
 21
104.132
 31
0.0
  0
LINE
  5
444
330
1E
100
AcDbEntity
  8
0
100
AcDbLine
 10
288.3329999999999
 20
113.6239999999999
 30
0.0
 11
288.3329999999999
 21
119.0
 31
0.0
  0
LINE
  5
445
330
1E
100
AcDbEntity
  8
0
100
AcDbLine
 10
288.3329999999999
 20
113.6239999999999
 30
0.0
 11
288.3329999999999
 21
108.584
 31
0.0
  0
LINE
  5
446
330
1E
100
AcDbEntity
  8
0
100
AcDbLine
 10
288.3329999999999
 20
139.244
 30
0.0
 11
288.3329999999999
 21
140.0
 31
0.0
  0
LINE
  5
447
330
1E
100
AcDbEntity
  8
0
100
AcDbLine
 10
288.3329999999999
 20
139.244
 30
0.0
 11
288.3329999999999
 21
137.2279999999999
 31
0.0
  0
LINE
  5
448
330
1E
100
AcDbEntity
  8
0
100
AcDbLine
 10
288.3329999999999
 20
137.2279999999999
 30
0.0
 11
288.3329999999999
 21
139.244
 31
0.0
  0
LINE
  5
449
330
1E
100
AcDbEntity
  8
0
100
AcDbLine
 10
288.3329999999999
 20
137.2279999999999
 30
0.0
 11
288.3329999999999
 21
133.8679999999999
 31
0.0
  0
LINE
  5
44A
330
1E
100
AcDbEntity
  8
0
100
AcDbLine
 10
288.3329999999999
 20
133.8679999999999
 30
0.0
 11
288.3329999999999
 21
137.2279999999999
 31
0.0
  0
LINE
  5
44B
330
1E
100
AcDbEntity
  8
0
100
AcDbLine
 10
288.3329999999999
 20
133.8679999999999
 30
0.0
 11
288.3329999999999
 21
129.4159999999999
 31
0.0
  0
LINE
  5
44C
330
1E
100
AcDbEntity
  8
0
100
AcDbLine
 10
288.3329999999999
 20
129.4159999999999
 30
0.0
 11
288.3329999999999
 21
133.8679999999999
 31
0.0
  0
LINE
  5
44D
330
1E
100
AcDbEntity
  8
0
100
AcDbLine
 10
288.3329999999999
 20
129.4159999999999
 30
0.0
 11
288.3329999999999
 21
124.3759999999999
 31
0.0
  0
LINE
  5
44E
330
1E
100
AcDbEntity
  8
0
100
AcDbLine
 10
288.3329999999999
 20
124.3759999999999
 30
0.0
 11
288.3329999999999
 21
129.4159999999999
 31
0.0
  0
LINE
  5
44F
330
1E
100
AcDbEntity
  8
0
100
AcDbLine
 10
288.3329999999999
 20
124.3759999999999
 30
0.0
 11
288.3329999999999
 21
119.0
 31
0.0
  0
LINE
  5
450
330
1E
100
AcDbEntity
  8
0
100
AcDbLine
 10
289.0
 20
98.504
 30
0.0
 11
289.0
 21
99.26000000000001
 31
0.0
  0
LINE
  5
451
330
1E
100
AcDbEntity
  8
0
100
AcDbLine
 10
289.0
 20
99.26000000000001
 30
0.0
 11
289.0
 21
101.276
 31
0.0
  0
LINE
  5
452
330
1E
100
AcDbEntity
  8
0
100
AcDbLine
 10
289.0
 20
99.26000000000001
 30
0.0
 11
289.0
 21
98.504
 31
0.0
  0
LINE
  5
453
330
1E
100
AcDbEntity
  8
0
100
AcDbLine
 10
289.0
 20
101.276
 30
0.0
 11
289.0
 21
104.552
 31
0.0
  0
LINE
  5
454
330
1E
100
AcDbEntity
  8
0
100
AcDbLine
 10
289.0
 20
101.276
 30
0.0
 11
289.0
 21
99.26000000000001
 31
0.0
  0
LINE
  5
455
330
1E
100
AcDbEntity
  8
0
100
AcDbLine
 10
289.0
 20
104.552
 30
0.0
 11
289.0
 21
108.8359999999999
 31
0.0
  0
LINE
  5
456
330
1E
100
AcDbEntity
  8
0
100
AcDbLine
 10
289.0
 20
104.552
 30
0.0
 11
289.0
 21
101.276
 31
0.0
  0
LINE
  5
457
330
1E
100
AcDbEntity
  8
0
100
AcDbLine
 10
289.0
 20
108.8359999999999
 30
0.0
 11
289.0
 21
113.708
 31
0.0
  0
LINE
  5
458
330
1E
100
AcDbEntity
  8
0
100
AcDbLine
 10
289.0
 20
108.8359999999999
 30
0.0
 11
289.0
 21
104.552
 31
0.0
  0
LINE
  5
459
330
1E
100
AcDbEntity
  8
0
100
AcDbLine
 10
289.0
 20
113.708
 30
0.0
 11
289.0
 21
119.0
 31
0.0
  0
LINE
  5
45A
330
1E
100
AcDbEntity
  8
0
100
AcDbLine
 10
289.0
 20
113.708
 30
0.0
 11
289.0
 21
108.8359999999999
 31
0.0
  0
LINE
  5
45B
330
1E
100
AcDbEntity
  8
0
100
AcDbLine
 10
289.0
 20
139.496
 30
0.0
 11
289.0
 21
138.74
 31
0.0
  0
LINE
  5
45C
330
1E
100
AcDbEntity
  8
0
100
AcDbLine
 10
289.0
 20
138.74
 30
0.0
 11
289.0
 21
139.496
 31
0.0
  0
LINE
  5
45D
330
1E
100
AcDbEntity
  8
0
100
AcDbLine
 10
289.0
 20
138.74
 30
0.0
 11
289.0
 21
136.724
 31
0.0
  0
LINE
  5
45E
330
1E
100
AcDbEntity
  8
0
100
AcDbLine
 10
289.0
 20
136.724
 30
0.0
 11
289.0
 21
138.74
 31
0.0
  0
LINE
  5
45F
330
1E
100
AcDbEntity
  8
0
100
AcDbLine
 10
289.0
 20
136.724
 30
0.0
 11
289.0
 21
133.4479999999999
 31
0.0
  0
LINE
  5
460
330
1E
100
AcDbEntity
  8
0
100
AcDbLine
 10
289.0
 20
133.4479999999999
 30
0.0
 11
289.0
 21
136.724
 31
0.0
  0
LINE
  5
461
330
1E
100
AcDbEntity
  8
0
100
AcDbLine
 10
289.0
 20
133.4479999999999
 30
0.0
 11
289.0
 21
129.1639999999999
 31
0.0
  0
LINE
  5
462
330
1E
100
AcDbEntity
  8
0
100
AcDbLine
 10
289.0
 20
129.1639999999999
 30
0.0
 11
289.0
 21
133.4479999999999
 31
0.0
  0
LINE
  5
463
330
1E
100
AcDbEntity
  8
0
100
AcDbLine
 10
289.0
 20
129.1639999999999
 30
0.0
 11
289.0
 21
124.292
 31
0.0
  0
LINE
  5
464
330
1E
100
AcDbEntity
  8
0
100
AcDbLine
 10
289.0
 20
124.292
 30
0.0
 11
289.0
 21
129.1639999999999
 31
0.0
  0
LINE
  5
465
330
1E
100
AcDbEntity
  8
0
100
AcDbLine
 10
289.0
 20
124.292
 30
0.0
 11
289.0
 21
119.0
 31
0.0
  0
LINE
  5
466
330
1E
100
AcDbEntity
  8
0
100
AcDbLine
 10
289.0
 20
119.0
 30
0.0
 11
289.0
 21
124.292
 31
0.0
  0
LINE
  5
467
330
1E
100
AcDbEntity
  8
0
100
AcDbLine
 10
289.0
 20
119.0
 30
0.0
 11
289.0
 21
113.708
 31
0.0
  0
LINE
  5
468
330
1E
100
AcDbEntity
  8
0
100
AcDbLine
 10
288.3329999999999
 20
119.0
 30
0.0
 11
288.3329999999999
 21
124.3759999999999
 31
0.0
  0
LINE
  5
469
330
1E
100
AcDbEntity
  8
0
100
AcDbLine
 10
288.3329999999999
 20
119.0
 30
0.0
 11
288.3329999999999
 21
113.6239999999999
 31
0.0
  0
LINE
  5
47C
330
1E
100
AcDbEntity
  8
0
100
AcDbLine
 10
288.3329999999999
 20
140.0
 30
0.0
 11
289.0
 21
139.496
 31
0.0
  0
LINE
  5
47D
330
1E
100
AcDbEntity
  8
0
100
AcDbLine
 10
288.3329999999999
 20
140.0
 30
0.0
 11
288.3329999999999
 21
139.244
 31
0.0
  0
LINE
  5
47E
330
1E
100
AcDbEntity
  8
0
100
AcDbLine
 10
247.0
 20
138.5
 30
0.0
 11
247.0
 21
139.244
 31
0.0
  0
LINE
  5
48A
330
1E
100
AcDbEntity
  8
0
100
AcDbLine
 10
65.0
 20
182.0
 30
0.0
 11
91.0
 21
182.0
 31
0.0
  0
LINE
  5
48B
330
1E
100
AcDbEntity
  8
0
100
AcDbLine
 10
259.6999999999999
 20
213.0
 30
0.0
 11
250.4
 21
213.0
 31
0.0
  0
LINE
  5
48C
330
1E
100
AcDbEntity
  8
0
100
AcDbLine
 10
254.8
 20
207.0
 30
0.0
 11
246.9
 21
207.0
 31
0.0
  0
LINE
  5
48D
330
1E
100
AcDbEntity
  8
0
100
AcDbLine
 10
254.4
 20
205.5
 30
0.0
 11
246.6
 21
205.5
 31
0.0
  0
LINE
  5
48E
330
1E
100
AcDbEntity
  8
0
100
AcDbLine
 10
252.4999999999999
 20
192.5
 30
0.0
 11
247.0
 21
183.0
 31
0.0
  0
LINE
  5
48F
330
1E
100
AcDbEntity
  8
0
100
AcDbLine
 10
266.0
 20
207.0
 30
0.0
 11
265.5
 21
205.5
 31
0.0
  0
LINE
  5
490
330
1E
100
AcDbEntity
  8
0
100
AcDbLine
 10
264.0
 20
204.4999999999999
 30
0.0
 11
258.4999999999999
 21
200.0
 31
0.0
  0
LINE
  5
491
330
1E
100
AcDbEntity
  8
0
100
AcDbLine
 10
264.1
 20
205.5
 30
0.0
 11
260.4999999999999
 21
205.5
 31
0.0
  0
LINE
  5
492
330
1E
100
AcDbEntity
  8
0
100
AcDbLine
 10
265.5
 20
205.5
 30
0.0
 11
264.1
 21
205.5
 31
0.0
  0
LINE
  5
493
330
1E
100
AcDbEntity
  8
0
100
AcDbLine
 10
265.5
 20
205.5
 30
0.0
 11
264.0
 21
204.4999999999999
 31
0.0
  0
LINE
  5
494
330
1E
100
AcDbEntity
  8
0
100
AcDbLine
 10
258.4999999999999
 20
200.0
 30
0.0
 11
252.4999999999999
 21
192.5
 31
0.0
  0
LINE
  5
495
330
1E
100
AcDbEntity
  8
0
100
AcDbLine
 10
260.4999999999999
 20
205.5
 30
0.0
 11
254.4
 21
205.5
 31
0.0
  0
LINE
  5
496
330
1E
100
AcDbEntity
  8
0
100
AcDbLine
 10
267.0
 20
213.0
 30
0.0
 11
259.6999999999999
 21
213.0
 31
0.0
  0
LINE
  5
497
330
1E
100
AcDbEntity
  8
0
100
AcDbLine
 10
264.6
 20
207.0
 30
0.0
 11
260.8999999999999
 21
207.0
 31
0.0
  0
LINE
  5
498
330
1E
100
AcDbEntity
  8
0
100
AcDbLine
 10
271.3999999999999
 20
213.0
 30
0.0
 11
267.0
 21
213.0
 31
0.0
  0
LINE
  5
499
330
1E
100
AcDbEntity
  8
0
100
AcDbLine
 10
270.5
 20
208.4999999999999
 30
0.0
 11
268.0
 21
208.0
 31
0.0
  0
LINE
  5
49A
330
1E
100
AcDbEntity
  8
0
100
AcDbLine
 10
273.0
 20
213.0
 30
0.0
 11
272.5
 21
210.4999999999999
 31
0.0
  0
LINE
  5
49B
330
1E
100
AcDbEntity
  8
0
100
AcDbLine
 10
272.5
 20
210.4999999999999
 30
0.0
 11
270.5
 21
208.4999999999999
 31
0.0
  0
LINE
  5
49C
330
1E
100
AcDbEntity
  8
0
100
AcDbLine
 10
273.0
 20
213.0
 30
0.0
 11
271.3999999999999
 21
213.0
 31
0.0
  0
LINE
  5
49D
330
1E
100
AcDbEntity
  8
0
100
AcDbLine
 10
266.0
 20
207.0
 30
0.0
 11
264.6
 21
207.0
 31
0.0
  0
LINE
  5
49E
330
1E
100
AcDbEntity
  8
0
100
AcDbLine
 10
268.0
 20
208.0
 30
0.0
 11
266.0
 21
207.0
 31
0.0
  0
LINE
  5
49F
330
1E
100
AcDbEntity
  8
0
100
AcDbLine
 10
260.8999999999999
 20
207.0
 30
0.0
 11
254.8
 21
207.0
 31
0.0
  0
LINE
  5
4A0
330
1E
100
AcDbEntity
  8
0
100
AcDbLine
 10
214.6428999999999
 20
174.0
 30
0.0
 11
212.2142999999999
 21
172.0
 31
0.0
  0
LINE
  5
4A1
330
1E
100
AcDbEntity
  8
0
100
AcDbLine
 10
243.7857
 20
172.0
 30
0.0
 11
241.3571
 21
174.0
 31
0.0
  0
LINE
  5
4A2
330
1E
100
AcDbEntity
  8
0
100
AcDbLine
 10
245.0
 20
156.0
 30
0.0
 11
245.0
 21
138.5
 31
0.0
  0
LINE
  5
4A3
330
1E
100
AcDbEntity
  8
0
100
AcDbLine
 10
245.0
 20
138.5
 30
0.0
 11
245.0
 21
156.0
 31
0.0
  0
LINE
  5
4A4
330
1E
100
AcDbEntity
  8
0
100
AcDbLine
 10
231.1427999999999
 20
160.0
 30
0.0
 11
228.0
 21
160.0
 31
0.0
  0
LINE
  5
4A5
330
1E
100
AcDbEntity
  8
0
100
AcDbLine
 10
232.4
 20
156.0
 30
0.0
 11
228.0
 21
156.0
 31
0.0
  0
LINE
  5
4A6
330
1E
100
AcDbEntity
  8
0
100
AcDbLine
 10
240.1428999999999
 20
160.0
 30
0.0
 11
240.1428999999999
 21
156.0
 31
0.0
  0
LINE
  5
4A7
330
1E
100
AcDbEntity
  8
0
100
AcDbLine
 10
240.1428999999999
 20
156.0
 30
0.0
 11
240.1428999999999
 21
160.0
 31
0.0
  0
LINE
  5
4A8
330
1E
100
AcDbEntity
  8
0
100
AcDbLine
 10
242.7
 20
156.0
 30
0.0
 11
240.0001
 21
156.0
 31
0.0
  0
LINE
  5
4A9
330
1E
100
AcDbEntity
  8
0
100
AcDbLine
 10
242.7
 20
156.0
 30
0.0
 11
239.9999
 21
156.0
 31
0.0
  0
LINE
  5
4AA
330
1E
100
AcDbEntity
  8
0
100
AcDbLine
 10
244.3999999999999
 20
156.0
 30
0.0
 11
242.7
 21
156.0
 31
0.0
  0
LINE
  5
4AB
330
1E
100
AcDbEntity
  8
0
100
AcDbLine
 10
245.0
 20
156.0
 30
0.0
 11
244.3999999999999
 21
156.0
 31
0.0
  0
LINE
  5
4AC
330
1E
100
AcDbEntity
  8
0
100
AcDbLine
 10
236.45
 20
156.0
 30
0.0
 11
232.4
 21
156.0
 31
0.0
  0
LINE
  5
4AD
330
1E
100
AcDbEntity
  8
0
100
AcDbLine
 10
240.0001
 20
156.0
 30
0.0
 11
236.45
 21
156.0
 31
0.0
  0
LINE
  5
4AE
330
1E
100
AcDbEntity
  8
0
100
AcDbLine
 10
239.9999
 20
156.0
 30
0.0
 11
236.45
 21
156.0
 31
0.0
  0
LINE
  5
4AF
330
1E
100
AcDbEntity
  8
0
100
AcDbLine
 10
243.7857
 20
162.0
 30
0.0
 11
240.1428999999999
 21
160.0
 31
0.0
  0
LINE
  5
4B0
330
1E
100
AcDbEntity
  8
0
100
AcDbLine
 10
243.7857
 20
164.0
 30
0.0
 11
243.7857
 21
167.0
 31
0.0
  0
LINE
  5
4B1
330
1E
100
AcDbEntity
  8
0
100
AcDbLine
 10
243.7857
 20
167.0
 30
0.0
 11
243.7857
 21
164.0
 31
0.0
  0
LINE
  5
4B2
330
1E
100
AcDbEntity
  8
0
100
AcDbLine
 10
243.7857
 20
162.0
 30
0.0
 11
243.7857
 21
164.0
 31
0.0
  0
LINE
  5
4B3
330
1E
100
AcDbEntity
  8
0
100
AcDbLine
 10
243.7857
 20
164.0
 30
0.0
 11
243.7857
 21
162.0
 31
0.0
  0
LINE
  5
4B4
330
1E
100
AcDbEntity
  8
0
100
AcDbLine
 10
243.7857
 20
167.0
 30
0.0
 11
243.7857
 21
170.0
 31
0.0
  0
LINE
  5
4B5
330
1E
100
AcDbEntity
  8
0
100
AcDbLine
 10
243.7857
 20
170.0
 30
0.0
 11
243.7857
 21
167.0
 31
0.0
  0
LINE
  5
4B6
330
1E
100
AcDbEntity
  8
0
100
AcDbLine
 10
243.7857
 20
172.0
 30
0.0
 11
243.7857
 21
170.0
 31
0.0
  0
LINE
  5
4B7
330
1E
100
AcDbEntity
  8
0
100
AcDbLine
 10
243.7857
 20
170.0
 30
0.0
 11
243.7857
 21
172.0
 31
0.0
  0
LINE
  5
4B8
330
1E
100
AcDbEntity
  8
0
100
AcDbLine
 10
236.5714
 20
160.0
 30
0.0
 11
234.0357
 21
160.0
 31
0.0
  0
LINE
  5
4B9
330
1E
100
AcDbEntity
  8
0
100
AcDbLine
 10
238.5000999999999
 20
160.0
 30
0.0
 11
236.5714
 21
160.0
 31
0.0
  0
LINE
  5
4BA
330
1E
100
AcDbEntity
  8
0
100
AcDbLine
 10
239.7142999999999
 20
160.0
 30
0.0
 11
238.5000999999999
 21
160.0
 31
0.0
  0
LINE
  5
4BB
330
1E
100
AcDbEntity
  8
0
100
AcDbLine
 10
240.1428999999999
 20
160.0
 30
0.0
 11
239.7142999999999
 21
160.0
 31
0.0
  0
LINE
  5
4BC
330
1E
100
AcDbEntity
  8
0
100
AcDbLine
 10
234.0357
 20
160.0
 30
0.0
 11
231.1427999999999
 21
160.0
 31
0.0
  0
LINE
  5
4BD
330
1E
100
AcDbEntity
  8
0
100
AcDbLine
 10
215.8571
 20
160.0
 30
0.0
 11
215.8571
 21
156.0
 31
0.0
  0
LINE
  5
4BE
330
1E
100
AcDbEntity
  8
0
100
AcDbLine
 10
215.8571
 20
156.0
 30
0.0
 11
215.8571
 21
160.0
 31
0.0
  0
LINE
  5
4BF
330
1E
100
AcDbEntity
  8
0
100
AcDbLine
 10
219.55
 20
156.0
 30
0.0
 11
215.9999
 21
156.0
 31
0.0
  0
LINE
  5
4C0
330
1E
100
AcDbEntity
  8
0
100
AcDbLine
 10
219.55
 20
156.0
 30
0.0
 11
216.0001
 21
156.0
 31
0.0
  0
LINE
  5
4C1
330
1E
100
AcDbEntity
  8
0
100
AcDbLine
 10
223.6
 20
156.0
 30
0.0
 11
219.55
 21
156.0
 31
0.0
  0
LINE
  5
4C2
330
1E
100
AcDbEntity
  8
0
100
AcDbLine
 10
228.0
 20
156.0
 30
0.0
 11
223.6
 21
156.0
 31
0.0
  0
LINE
  5
4C3
330
1E
100
AcDbEntity
  8
0
100
AcDbLine
 10
211.0
 20
156.0
 30
0.0
 11
211.0
 21
140.0
 31
0.0
  0
LINE
  5
4C4
330
1E
100
AcDbEntity
  8
0
100
AcDbLine
 10
211.0
 20
140.0
 30
0.0
 11
211.0
 21
156.0
 31
0.0
  0
LINE
  5
4C5
330
1E
100
AcDbEntity
  8
0
100
AcDbLine
 10
213.3
 20
156.0
 30
0.0
 11
211.6
 21
156.0
 31
0.0
  0
LINE
  5
4C6
330
1E
100
AcDbEntity
  8
0
100
AcDbLine
 10
216.0001
 20
156.0
 30
0.0
 11
213.3
 21
156.0
 31
0.0
  0
LINE
  5
4C7
330
1E
100
AcDbEntity
  8
0
100
AcDbLine
 10
215.9999
 20
156.0
 30
0.0
 11
213.3
 21
156.0
 31
0.0
  0
LINE
  5
4C8
330
1E
100
AcDbEntity
  8
0
100
AcDbLine
 10
211.6
 20
156.0
 30
0.0
 11
211.0
 21
156.0
 31
0.0
  0
LINE
  5
4C9
330
1E
100
AcDbEntity
  8
0
100
AcDbLine
 10
219.4286
 20
160.0
 30
0.0
 11
217.5
 21
160.0
 31
0.0
  0
LINE
  5
4CA
330
1E
100
AcDbEntity
  8
0
100
AcDbLine
 10
224.8572
 20
160.0
 30
0.0
 11
221.9643
 21
160.0
 31
0.0
  0
LINE
  5
4CB
330
1E
100
AcDbEntity
  8
0
100
AcDbLine
 10
228.0
 20
160.0
 30
0.0
 11
224.8572
 21
160.0
 31
0.0
  0
LINE
  5
4CC
330
1E
100
AcDbEntity
  8
0
100
AcDbLine
 10
221.9643
 20
160.0
 30
0.0
 11
219.4286
 21
160.0
 31
0.0
  0
LINE
  5
4CD
330
1E
100
AcDbEntity
  8
0
100
AcDbLine
 10
212.2142999999999
 20
164.0
 30
0.0
 11
212.2142999999999
 21
167.0
 31
0.0
  0
LINE
  5
4CE
330
1E
100
AcDbEntity
  8
0
100
AcDbLine
 10
212.2142999999999
 20
167.0
 30
0.0
 11
212.2142999999999
 21
164.0
 31
0.0
  0
LINE
  5
4CF
330
1E
100
AcDbEntity
  8
0
100
AcDbLine
 10
215.8571
 20
160.0
 30
0.0
 11
212.2142999999999
 21
162.0
 31
0.0
  0
LINE
  5
4D0
330
1E
100
AcDbEntity
  8
0
100
AcDbLine
 10
217.5
 20
160.0
 30
0.0
 11
216.2857
 21
160.0
 31
0.0
  0
LINE
  5
4D1
330
1E
100
AcDbEntity
  8
0
100
AcDbLine
 10
216.2857
 20
160.0
 30
0.0
 11
215.8571
 21
160.0
 31
0.0
  0
LINE
  5
4D2
330
1E
100
AcDbEntity
  8
0
100
AcDbLine
 10
212.2142999999999
 20
164.0
 30
0.0
 11
212.2142999999999
 21
162.0
 31
0.0
  0
LINE
  5
4D3
330
1E
100
AcDbEntity
  8
0
100
AcDbLine
 10
212.2142999999999
 20
162.0
 30
0.0
 11
212.2142999999999
 21
164.0
 31
0.0
  0
LINE
  5
4D4
330
1E
100
AcDbEntity
  8
0
100
AcDbLine
 10
212.2142999999999
 20
167.0
 30
0.0
 11
212.2142999999999
 21
172.0
 31
0.0
  0
LINE
  5
4D5
330
1E
100
AcDbEntity
  8
0
100
AcDbLine
 10
212.2142999999999
 20
170.0
 30
0.0
 11
212.2142999999999
 21
167.0
 31
0.0
  0
LINE
  5
4D6
330
1E
100
AcDbEntity
  8
0
100
AcDbLine
 10
216.4
 20
213.0
 30
0.0
 11
205.6
 21
213.0
 31
0.0
  0
LINE
  5
4D7
330
1E
100
AcDbEntity
  8
0
100
AcDbLine
 10
209.1
 20
207.0
 30
0.0
 11
201.2
 21
207.0
 31
0.0
  0
LINE
  5
4D8
330
1E
100
AcDbEntity
  8
0
100
AcDbLine
 10
209.0
 20
183.0
 30
0.0
 11
203.5
 21
192.5
 31
0.0
  0
LINE
  5
4D9
330
1E
100
AcDbEntity
  8
0
100
AcDbLine
 10
209.4
 20
205.5
 30
0.0
 11
201.6
 21
205.5
 31
0.0
  0
LINE
  5
4DA
330
1E
100
AcDbEntity
  8
0
100
AcDbLine
 10
241.0
 20
182.0
 30
0.0
 11
215.0
 21
182.0
 31
0.0
  0
LINE
  5
4DB
330
1E
100
AcDbEntity
  8
0
100
AcDbLine
 10
231.4
 20
174.0
 30
0.0
 11
228.0
 21
174.0
 31
0.0
  0
LINE
  5
4DC
330
1E
100
AcDbEntity
  8
0
100
AcDbLine
 10
237.5999999999999
 20
205.5
 30
0.0
 11
228.0
 21
205.5
 31
0.0
  0
LINE
  5
4DD
330
1E
100
AcDbEntity
  8
0
100
AcDbLine
 10
240.8713999999999
 20
174.0
 30
0.0
 11
239.5357
 21
174.0
 31
0.0
  0
LINE
  5
4DE
330
1E
100
AcDbEntity
  8
0
100
AcDbLine
 10
241.0
 20
182.0
 30
0.0
 11
241.0
 21
174.0
 31
0.0
  0
LINE
  5
4DF
330
1E
100
AcDbEntity
  8
0
100
AcDbLine
 10
241.0
 20
174.0
 30
0.0
 11
241.0
 21
182.0
 31
0.0
  0
LINE
  5
4E0
330
1E
100
AcDbEntity
  8
0
100
AcDbLine
 10
241.3571
 20
174.0
 30
0.0
 11
240.8713999999999
 21
174.0
 31
0.0
  0
LINE
  5
4E1
330
1E
100
AcDbEntity
  8
0
100
AcDbLine
 10
247.0
 20
183.0
 30
0.0
 11
245.0
 21
182.0
 31
0.0
  0
LINE
  5
4E2
330
1E
100
AcDbEntity
  8
0
100
AcDbLine
 10
244.3999999999999
 20
182.0
 30
0.0
 11
242.7
 21
182.0
 31
0.0
  0
LINE
  5
4E3
330
1E
100
AcDbEntity
  8
0
100
AcDbLine
 10
245.0
 20
182.0
 30
0.0
 11
244.3999999999999
 21
182.0
 31
0.0
  0
LINE
  5
4E4
330
1E
100
AcDbEntity
  8
0
100
AcDbLine
 10
242.7
 20
182.0
 30
0.0
 11
241.0
 21
182.0
 31
0.0
  0
LINE
  5
4E5
330
1E
100
AcDbEntity
  8
0
100
AcDbLine
 10
237.4714
 20
174.0
 30
0.0
 11
234.6786
 21
174.0
 31
0.0
  0
LINE
  5
4E6
330
1E
100
AcDbEntity
  8
0
100
AcDbLine
 10
239.5357
 20
174.0
 30
0.0
 11
237.4714
 21
174.0
 31
0.0
  0
LINE
  5
4E7
330
1E
100
AcDbEntity
  8
0
100
AcDbLine
 10
234.6786
 20
174.0
 30
0.0
 11
231.4
 21
174.0
 31
0.0
  0
LINE
  5
4E8
330
1E
100
AcDbEntity
  8
0
100
AcDbLine
 10
246.6
 20
205.5
 30
0.0
 11
237.5999999999999
 21
205.5
 31
0.0
  0
LINE
  5
4E9
330
1E
100
AcDbEntity
  8
0
100
AcDbLine
 10
218.5286
 20
174.0
 30
0.0
 11
216.4642999999999
 21
174.0
 31
0.0
  0
LINE
  5
4EA
330
1E
100
AcDbEntity
  8
0
100
AcDbLine
 10
224.5999999999999
 20
174.0
 30
0.0
 11
221.3213999999999
 21
174.0
 31
0.0
  0
LINE
  5
4EB
330
1E
100
AcDbEntity
  8
0
100
AcDbLine
 10
228.0
 20
174.0
 30
0.0
 11
224.5999999999999
 21
174.0
 31
0.0
  0
LINE
  5
4EC
330
1E
100
AcDbEntity
  8
0
100
AcDbLine
 10
221.3213999999999
 20
174.0
 30
0.0
 11
218.5286
 21
174.0
 31
0.0
  0
LINE
  5
4ED
330
1E
100
AcDbEntity
  8
0
100
AcDbLine
 10
215.0
 20
182.0
 30
0.0
 11
215.0
 21
174.0
 31
0.0
  0
LINE
  5
4EE
330
1E
100
AcDbEntity
  8
0
100
AcDbLine
 10
215.0
 20
174.0
 30
0.0
 11
215.0
 21
182.0
 31
0.0
  0
LINE
  5
4EF
330
1E
100
AcDbEntity
  8
0
100
AcDbLine
 10
215.1286
 20
174.0
 30
0.0
 11
214.6428999999999
 21
174.0
 31
0.0
  0
LINE
  5
4F0
330
1E
100
AcDbEntity
  8
0
100
AcDbLine
 10
216.4642999999999
 20
174.0
 30
0.0
 11
215.1286
 21
174.0
 31
0.0
  0
LINE
  5
4F1
330
1E
100
AcDbEntity
  8
0
100
AcDbLine
 10
213.3
 20
182.0
 30
0.0
 11
211.6
 21
182.0
 31
0.0
  0
LINE
  5
4F2
330
1E
100
AcDbEntity
  8
0
100
AcDbLine
 10
215.0
 20
182.0
 30
0.0
 11
213.3
 21
182.0
 31
0.0
  0
LINE
  5
4F3
330
1E
100
AcDbEntity
  8
0
100
AcDbLine
 10
211.0
 20
182.0
 30
0.0
 11
209.0
 21
183.0
 31
0.0
  0
LINE
  5
4F4
330
1E
100
AcDbEntity
  8
0
100
AcDbLine
 10
211.6
 20
182.0
 30
0.0
 11
211.0
 21
182.0
 31
0.0
  0
LINE
  5
4F5
330
1E
100
AcDbEntity
  8
0
100
AcDbLine
 10
218.4
 20
205.5
 30
0.0
 11
209.4
 21
205.5
 31
0.0
  0
LINE
  5
4F6
330
1E
100
AcDbEntity
  8
0
100
AcDbLine
 10
228.0
 20
205.5
 30
0.0
 11
218.4
 21
205.5
 31
0.0
  0
LINE
  5
4F7
330
1E
100
AcDbEntity
  8
0
100
AcDbLine
 10
239.5999999999999
 20
213.0
 30
0.0
 11
228.0
 21
213.0
 31
0.0
  0
LINE
  5
4F8
330
1E
100
AcDbEntity
  8
0
100
AcDbLine
 10
237.8
 20
207.0
 30
0.0
 11
228.0
 21
207.0
 31
0.0
  0
LINE
  5
4F9
330
1E
100
AcDbEntity
  8
0
100
AcDbLine
 10
246.9
 20
207.0
 30
0.0
 11
237.8
 21
207.0
 31
0.0
  0
LINE
  5
4FA
330
1E
100
AcDbEntity
  8
0
100
AcDbLine
 10
250.4
 20
213.0
 30
0.0
 11
239.5999999999999
 21
213.0
 31
0.0
  0
LINE
  5
4FB
330
1E
100
AcDbEntity
  8
0
100
AcDbLine
 10
228.0
 20
213.0
 30
0.0
 11
216.4
 21
213.0
 31
0.0
  0
LINE
  5
4FC
330
1E
100
AcDbEntity
  8
0
100
AcDbLine
 10
218.1999999999999
 20
207.0
 30
0.0
 11
209.1
 21
207.0
 31
0.0
  0
LINE
  5
4FD
330
1E
100
AcDbEntity
  8
0
100
AcDbLine
 10
228.0
 20
207.0
 30
0.0
 11
218.1999999999999
 21
207.0
 31
0.0
  0
LINE
  5
4FE
330
1E
100
AcDbEntity
  8
0
100
AcDbLine
 10
190.5
 20
205.5
 30
0.0
 11
190.0
 21
207.0
 31
0.0
  0
LINE
  5
4FF
330
1E
100
AcDbEntity
  8
0
100
AcDbLine
 10
195.5
 20
205.5
 30
0.0
 11
191.9
 21
205.5
 31
0.0
  0
LINE
  5
500
330
1E
100
AcDbEntity
  8
0
100
AcDbLine
 10
197.5
 20
200.0
 30
0.0
 11
192.0
 21
204.4999999999999
 31
0.0
  0
LINE
  5
501
330
1E
100
AcDbEntity
  8
0
100
AcDbLine
 10
203.5
 20
192.5
 30
0.0
 11
197.5
 21
200.0
 31
0.0
  0
LINE
  5
502
330
1E
100
AcDbEntity
  8
0
100
AcDbLine
 10
201.6
 20
205.5
 30
0.0
 11
195.5
 21
205.5
 31
0.0
  0
LINE
  5
503
330
1E
100
AcDbEntity
  8
0
100
AcDbLine
 10
191.9
 20
205.5
 30
0.0
 11
190.5
 21
205.5
 31
0.0
  0
LINE
  5
504
330
1E
100
AcDbEntity
  8
0
100
AcDbLine
 10
192.0
 20
204.4999999999999
 30
0.0
 11
190.5
 21
205.5
 31
0.0
  0
LINE
  5
505
330
1E
100
AcDbEntity
  8
0
100
AcDbLine
 10
184.6
 20
213.0
 30
0.0
 11
183.0
 21
213.0
 31
0.0
  0
LINE
  5
506
330
1E
100
AcDbEntity
  8
0
100
AcDbLine
 10
185.5
 20
208.4999999999999
 30
0.0
 11
183.4999999999999
 21
210.4999999999999
 31
0.0
  0
LINE
  5
507
330
1E
100
AcDbEntity
  8
0
100
AcDbLine
 10
196.3
 20
213.0
 30
0.0
 11
189.0
 21
213.0
 31
0.0
  0
LINE
  5
508
330
1E
100
AcDbEntity
  8
0
100
AcDbLine
 10
201.2
 20
207.0
 30
0.0
 11
195.1
 21
207.0
 31
0.0
  0
LINE
  5
509
330
1E
100
AcDbEntity
  8
0
100
AcDbLine
 10
205.6
 20
213.0
 30
0.0
 11
196.3
 21
213.0
 31
0.0
  0
LINE
  5
50A
330
1E
100
AcDbEntity
  8
0
100
AcDbLine
 10
190.0
 20
207.0
 30
0.0
 11
188.0
 21
208.0
 31
0.0
  0
LINE
  5
50B
330
1E
100
AcDbEntity
  8
0
100
AcDbLine
 10
195.1
 20
207.0
 30
0.0
 11
191.4
 21
207.0
 31
0.0
  0
LINE
  5
50C
330
1E
100
AcDbEntity
  8
0
100
AcDbLine
 10
191.4
 20
207.0
 30
0.0
 11
190.0
 21
207.0
 31
0.0
  0
LINE
  5
50D
330
1E
100
AcDbEntity
  8
0
100
AcDbLine
 10
188.0
 20
208.0
 30
0.0
 11
185.5
 21
208.4999999999999
 31
0.0
  0
LINE
  5
50E
330
1E
100
AcDbEntity
  8
0
100
AcDbLine
 10
189.0
 20
213.0
 30
0.0
 11
184.6
 21
213.0
 31
0.0
  0
LINE
  5
50F
330
1E
100
AcDbEntity
  8
0
100
AcDbLine
 10
183.4999999999999
 20
210.4999999999999
 30
0.0
 11
183.0
 21
213.0
 31
0.0
  0
ENDSEC
  0
SECTION
  2
OBJECTS
  0
DICTIONARY
  5
C
330
0
100
AcDbDictionary
  3
ACAD_GROUP
350
D
  3
ACAD_LAYOUT
350
19
  3
ACAD_MLINESTYLE
350
16
  3
ACAD_PLOTSETTINGS
350
18
  3
ACAD_PLOTSTYLENAME
350
E
  3
ACDBHEADERROUNDTRIPXREC
350
D8C
  3
ACDBVARIABLEDICTIONARY
350
511
  0
DICTIONARY
  5
DAE
330
1E
100
AcDbDictionary
280
     1
  3
ACAD_LAYOUTSELFREF
360
DAF
  0
DICTIONARY
  5
DAC
330
1A
100
AcDbDictionary
280
     1
  3
ACAD_LAYOUTSELFREF
360
DAD
  0
DICTIONARY
  5
D
102
{ACAD_REACTORS
330
C
102
}
330
C
100
AcDbDictionary
  0
DICTIONARY
  5
19
102
{ACAD_REACTORS
330
C
102
}
330
C
100
AcDbDictionary
  0
DICTIONARY
  5
16
102
{ACAD_REACTORS
330
C
102
}
330
C
100
AcDbDictionary
  3
STANDARD
350
17
  0
DICTIONARY
  5
18
102
{ACAD_REACTORS
330
C
102
}
330
C
100
AcDbDictionary
  0
ACDBDICTIONARYWDFLT
  5
E
102
{ACAD_REACTORS
330
C
102
}
330
C
100
AcDbDictionary
281
     1
  3
Normal
350
F
100
AcDbDictionaryWithDefault
340
F
  0
DICTIONARY
  5
D8C
102
{ACAD_REACTORS
330
C
102
}
330
C
100
AcDbDictionary
  3
CEPSNTYPE
350
D96
  3
FINGERPRINTGUID
350
D97
  3
HYPERLINKBASE
350
D8F
  3
INSUNITS
350
D95
  3
LAYOUTDICT
350
D91
  3
LWETCUNION
350
D94
  3
PLOTSETDICT
350
D92
  3
PLOTSTYLNAMDICT
350
D93
  3
PSVPSCALE
350
D99
  3
PUCSBASE
350
D9C
  3
PUCSORGBACK
350
DA2
  3
PUCSORGBOTTOM
350
D9E
  3
PUCSORGFRONT
350
DA1
  3
PUCSORGLEFT
350
D9F
  3
PUCSORGRIGHT
350
DA0
  3
PUCSORGTOP
350
D9D
  3
PUCSORTHOREF
350
D9A
  3
PUCSORTHOVIEW
350
D9B
  3
STYLESHEET
350
D90
  3
TSTACKALIGN
350
D8D
  3
TSTACKSIZE
350
D8E
  3
UCSBASE
350
DA5
  3
UCSORGBACK
350
DAB
  3
UCSORGBOTTOM
350
DA7
  3
UCSORGFRONT
350
DAA
  3
UCSORGLEFT
350
DA8
  3
UCSORGRIGHT
350
DA9
  3
UCSORGTOP
350
DA6
  3
UCSORTHOREF
350
DA3
  3
UCSORTHOVIEW
350
DA4
  3
VERSIONGUID
350
D98
  0
DICTIONARY
  5
511
102
{ACAD_REACTORS
330
C
102
}
330
C
100
AcDbDictionary
  3
DIMASSOC
350
512
  0
XRECORD
  5
DAF
102
{ACAD_REACTORS
330
DAE
102
}
330
DAE
100
AcDbXrecord
340
1E
  0
XRECORD
  5
DAD
102
{ACAD_REACTORS
330
DAC
102
}
330
DAC
100
AcDbXrecord
340
1A
  0
MLINESTYLE
  5
17
102
{ACAD_REACTORS
330
16
102
}
330
16
100
AcDbMlineStyle
  2
STANDARD
 70
     0
  3

 62
   256
 51
90.0
 52
90.0
 71
     2
 49
0.5
 62
   256
  6
BYLAYER
 49
-0.5
 62
   256
  6
BYLAYER
  0
ACDBPLACEHOLDER
  5
F
102
{ACAD_REACTORS
330
E
102
}
330
E
100
AcDbPlaceHolder
280
     0
  0
XRECORD
  5
D96
102
{ACAD_REACTORS
330
D8C
102
}
330
D8C
100
AcDbXrecord
 90
        0
  0
XRECORD
  5
D97
102
{ACAD_REACTORS
330
D8C
102
}
330
D8C
100
AcDbXrecord
  1
{6EFF16FD-1F95-443D-87A0-57DD663B7864}
  0
XRECORD
  5
D8F
102
{ACAD_REACTORS
330
D8C
102
}
330
D8C
100
AcDbXrecord
  1

  0
XRECORD
  5
D95
102
{ACAD_REACTORS
330
D8C
102
}
330
D8C
100
AcDbXrecord
 90
        0
  0
XRECORD
  5
D91
102
{ACAD_REACTORS
330
D8C
102
}
330
D8C
100
AcDbXrecord
340
19
  0
XRECORD
  5
D94
102
{ACAD_REACTORS
330
D8C
102
}
330
D8C
100
AcDbXrecord
 90
    10781
  0
XRECORD
  5
D92
102
{ACAD_REACTORS
330
D8C
102
}
330
D8C
100
AcDbXrecord
340
18
  0
XRECORD
  5
D93
102
{ACAD_REACTORS
330
D8C
102
}
330
D8C
100
AcDbXrecord
340
E
  0
XRECORD
  5
D99
102
{ACAD_REACTORS
330
D8C
102
}
330
D8C
100
AcDbXrecord
 40
0.0
  0
XRECORD
  5
D9C
102
{ACAD_REACTORS
330
D8C
102
}
330
D8C
100
AcDbXrecord
340
0
  0
XRECORD
  5
DA2
102
{ACAD_REACTORS
330
D8C
102
}
330
D8C
100
AcDbXrecord
 10
0.0
 20
0.0
 30
0.0
  0
XRECORD
  5
D9E
102
{ACAD_REACTORS
330
D8C
102
}
330
D8C
100
AcDbXrecord
 10
0.0
 20
0.0
 30
0.0
  0
XRECORD
  5
DA1
102
{ACAD_REACTORS
330
D8C
102
}
330
D8C
100
AcDbXrecord
 10
0.0
 20
0.0
 30
0.0
  0
XRECORD
  5
D9F
102
{ACAD_REACTORS
330
D8C
102
}
330
D8C
100
AcDbXrecord
 10
0.0
 20
0.0
 30
0.0
  0
XRECORD
  5
DA0
102
{ACAD_REACTORS
330
D8C
102
}
330
D8C
100
AcDbXrecord
 10
0.0
 20
0.0
 30
0.0
  0
XRECORD
  5
D9D
102
{ACAD_REACTORS
330
D8C
102
}
330
D8C
100
AcDbXrecord
 10
0.0
 20
0.0
 30
0.0
  0
XRECORD
  5
D9A
102
{ACAD_REACTORS
330
D8C
102
}
330
D8C
100
AcDbXrecord
340
0
  0
XRECORD
  5
D9B
102
{ACAD_REACTORS
330
D8C
102
}
330
D8C
100
AcDbXrecord
 70
     0
  0
XRECORD
  5
D90
102
{ACAD_REACTORS
330
D8C
102
}
330
D8C
100
AcDbXrecord
  1

  0
XRECORD
  5
D8D
102
{ACAD_REACTORS
330
D8C
102
}
330
D8C
100
AcDbXrecord
 90
        1
  0
XRECORD
  5
D8E
102
{ACAD_REACTORS
330
D8C
102
}
330
D8C
100
AcDbXrecord
 90
       70
  0
XRECORD
  5
DA5
102
{ACAD_REACTORS
330
D8C
102
}
330
D8C
100
AcDbXrecord
340
0
  0
XRECORD
  5
DAB
102
{ACAD_REACTORS
330
D8C
102
}
330
D8C
100
AcDbXrecord
 10
0.0
 20
0.0
 30
0.0
  0
XRECORD
  5
DA7
102
{ACAD_REACTORS
330
D8C
102
}
330
D8C
100
AcDbXrecord
 10
0.0
 20
0.0
 30
0.0
  0
XRECORD
  5
DAA
102
{ACAD_REACTORS
330
D8C
102
}
330
D8C
100
AcDbXrecord
 10
0.0
 20
0.0
 30
0.0
  0
XRECORD
  5
DA8
102
{ACAD_REACTORS
330
D8C
102
}
330
D8C
100
AcDbXrecord
 10
0.0
 20
0.0
 30
0.0
  0
XRECORD
  5
DA9
102
{ACAD_REACTORS
330
D8C
102
}
330
D8C
100
AcDbXrecord
 10
0.0
 20
0.0
 30
0.0
  0
XRECORD
  5
DA6
102
{ACAD_REACTORS
330
D8C
102
}
330
D8C
100
AcDbXrecord
 10
0.0
 20
0.0
 30
0.0
  0
XRECORD
  5
DA3
102
{ACAD_REACTORS
330
D8C
102
}
330
D8C
100
AcDbXrecord
340
0
  0
XRECORD
  5
DA4
102
{ACAD_REACTORS
330
D8C
102
}
330
D8C
100
AcDbXrecord
 70
     1
  0
XRECORD
  5
D98
102
{ACAD_REACTORS
330
D8C
102
}
330
D8C
100
AcDbXrecord
  1
{105644D8-1AC2-44DD-BE23-B40882EEB0B2}
  0
DICTIONARYVAR
  5
512
102
{ACAD_REACTORS
330
511
102
}
330
511
100
DictionaryVariables
280
     0
  1
1
  0
ENDSEC
  0
EOF
