  0
SECTION
  2
HEADER
  9
$ACADVER
  1
AC1014
  9
$ACADMAINTVER
 70
     9
  9
$DWGCODEPAGE
  3
ANSI_1252
  9
$INSBASE
 10
0.0
 20
0.0
 30
0.0
  9
$EXTMIN
 10
0.0
 20
0.172099999999995
 30
0.0
  9
$EXTMAX
 10
289.0
 20
153.8278999999999
 30
0.0
  9
$LIMMIN
 10
0.0
 20
0.0
  9
$LIMMAX
 10
12.0
 20
9.0
  9
$ORTHOMODE
 70
     0
  9
$REGENMODE
 70
     1
  9
$FILLMODE
 70
     1
  9
$QTEXTMODE
 70
     0
  9
$MIRRTEXT
 70
     1
  9
$DRAGMODE
 70
     2
  9
$LTSCALE
 40
1.0
  9
$OSMODE
 70
    37
  9
$ATTMODE
 70
     1
  9
$TEXTSIZE
 40
0.2
  9
$TRACEWID
 40
0.05
  9
$TEXTSTYLE
  7
STANDARD
  9
$CLAYER
  8
0
  9
$CELTYPE
  6
CONTINUOUS
  9
$CECOLOR
 62
   256
  9
$CELTSCALE
 40
1.0
  9
$DELOBJ
 70
     1
  9
$DISPSILH
 70
     0
  9
$DIMSCALE
 40
1.0
  9
$DIMASZ
 40
0.18
  9
$DIMEXO
 40
0.0625
  9
$DIMDLI
 40
0.38
  9
$DIMRND
 40
0.0
  9
$DIMDLE
 40
0.0
  9
$DIMEXE
 40
0.18
  9
$DIMTP
 40
0.0
  9
$DIMTM
 40
0.0
  9
$DIMTXT
 40
0.18
  9
$DIMCEN
 40
0.09
  9
$DIMTSZ
 40
0.0
  9
$DIMTOL
 70
     0
  9
$DIMLIM
 70
     0
  9
$DIMTIH
 70
     1
  9
$DIMTOH
 70
     1
  9
$DIMSE1
 70
     0
  9
$DIMSE2
 70
     0
  9
$DIMTAD
 70
     0
  9
$DIMZIN
 70
     0
  9
$DIMBLK
  1

  9
$DIMASO
 70
     1
  9
$DIMSHO
 70
     1
  9
$DIMPOST
  1

  9
$DIMAPOST
  1

  9
$DIMALT
 70
     0
  9
$DIMALTD
 70
     2
  9
$DIMALTF
 40
25.4
  9
$DIMLFAC
 40
1.0
  9
$DIMTOFL
 70
     0
  9
$DIMTVP
 40
0.0
  9
$DIMTIX
 70
     0
  9
$DIMSOXD
 70
     0
  9
$DIMSAH
 70
     0
  9
$DIMBLK1
  1

  9
$DIMBLK2
  1

  9
$DIMSTYLE
  2
STANDARD
  9
$DIMCLRD
 70
     0
  9
$DIMCLRE
 70
     0
  9
$DIMCLRT
 70
     0
  9
$DIMTFAC
 40
1.0
  9
$DIMGAP
 40
0.09
  9
$DIMJUST
 70
     0
  9
$DIMSD1
 70
     0
  9
$DIMSD2
 70
     0
  9
$DIMTOLJ
 70
     1
  9
$DIMTZIN
 70
     0
  9
$DIMALTZ
 70
     0
  9
$DIMALTTZ
 70
     0
  9
$DIMFIT
 70
     3
  9
$DIMUPT
 70
     0
  9
$DIMUNIT
 70
     2
  9
$DIMDEC
 70
     4
  9
$DIMTDEC
 70
     4
  9
$DIMALTU
 70
     2
  9
$DIMALTTD
 70
     2
  9
$DIMTXSTY
  7
STANDARD
  9
$DIMAUNIT
 70
     0
  9
$LUNITS
 70
     2
  9
$LUPREC
 70
     4
  9
$SKETCHINC
 40
0.1
  9
$FILLETRAD
 40
0.0
  9
$AUNITS
 70
     0
  9
$AUPREC
 70
     0
  9
$MENU
  1
.
  9
$ELEVATION
 40
0.0
  9
$PELEVATION
 40
0.0
  9
$THICKNESS
 40
0.0
  9
$LIMCHECK
 70
     0
  9
$BLIPMODE
 70
     0
  9
$CHAMFERA
 40
0.0
  9
$CHAMFERB
 40
0.0
  9
$CHAMFERC
 40
0.0
  9
$CHAMFERD
 40
0.0
  9
$SKPOLY
 70
     0
  9
$TDCREATE
 40
2455235.747917384
  9
$TDUPDATE
 40
2455235.751468275
  9
$TDINDWG
 40
0.0035510764
  9
$TDUSRTIMER
 40
0.0035510764
  9
$USRTIMER
 70
     1
  9
$ANGBASE
 50
0.0
  9
$ANGDIR
 70
     0
  9
$PDMODE
 70
     0
  9
$PDSIZE
 40
0.0
  9
$PLINEWID
 40
0.0
  9
$COORDS
 70
     1
  9
$SPLFRAME
 70
     0
  9
$SPLINETYPE
 70
     6
  9
$SPLINESEGS
 70
     8
  9
$ATTDIA
 70
     0
  9
$ATTREQ
 70
     1
  9
$HANDLING
 70
 22529
  9
$HANDSEED
  5
3DB
  9
$SURFTAB1
 70
     6
  9
$SURFTAB2
 70
     6
  9
$SURFTYPE
 70
     6
  9
$SURFU
 70
     6
  9
$SURFV
 70
     6
  9
$UCSNAME
  2

  9
$UCSORG
 10
0.0
 20
0.0
 30
0.0
  9
$UCSXDIR
 10
1.0
 20
0.0
 30
0.0
  9
$UCSYDIR
 10
0.0
 20
1.0
 30
0.0
  9
$PUCSNAME
  2

  9
$PUCSORG
 10
0.0
 20
0.0
 30
0.0
  9
$PUCSXDIR
 10
1.0
 20
0.0
 30
0.0
  9
$PUCSYDIR
 10
0.0
 20
1.0
 30
0.0
  9
$USERI1
 70
     0
  9
$USERI2
 70
     0
  9
$USERI3
 70
     0
  9
$USERI4
 70
     0
  9
$USERI5
 70
     0
  9
$USERR1
 40
0.0
  9
$USERR2
 40
0.0
  9
$USERR3
 40
0.0
  9
$USERR4
 40
0.0
  9
$USERR5
 40
0.0
  9
$WORLDVIEW
 70
     1
  9
$SHADEDGE
 70
     3
  9
$SHADEDIF
 70
    70
  9
$TILEMODE
 70
     1
  9
$MAXACTVP
 70
    64
  9
$PINSBASE
 10
0.0
 20
0.0
 30
0.0
  9
$PLIMCHECK
 70
     0
  9
$PEXTMIN
 10
1.000000000000000E+20
 20
1.000000000000000E+20
 30
1.000000000000000E+20
  9
$PEXTMAX
 10
-1.000000000000000E+20
 20
-1.000000000000000E+20
 30
-1.000000000000000E+20
  9
$PLIMMIN
 10
0.0
 20
0.0
  9
$PLIMMAX
 10
12.0
 20
9.0
  9
$UNITMODE
 70
     0
  9
$VISRETAIN
 70
     1
  9
$PLINEGEN
 70
     0
  9
$PSLTSCALE
 70
     1
  9
$TREEDEPTH
 70
  3020
  9
$PICKSTYLE
 70
     1
  9
$CMLSTYLE
  2
STANDARD
  9
$CMLJUST
 70
     0
  9
$CMLSCALE
 40
1.0
  9
$PROXYGRAPHICS
 70
     1
  9
$MEASUREMENT
 70
     0
  0
ENDSEC
  0
SECTION
  2
CLASSES
  0
CLASS
  1
ACDBDICTIONARYWDFLT
  2
AcDbDictionaryWithDefault
  3
AutoCAD 2000
 90
        0
280
     0
281
     0
  0
CLASS
  1
ACDBPLACEHOLDER
  2
AcDbPlaceHolder
  3
AutoCAD 2000
 90
        0
280
     0
281
     0
  0
CLASS
  1
LAYOUT
  2
AcDbLayout
  3
AutoCAD 2000
 90
        0
280
     0
281
     0
  0
CLASS
  1
DICTIONARYVAR
  2
AcDbDictionaryVar
  3
AutoCAD 2000
 90
        0
280
     0
281
     0
  0
CLASS
  1
LONG_TRANSACTION
  2
AcDbLongTransaction
  3
AutoCAD 2000
 90
        0
280
     0
281
     0
  0
CLASS
  1
LWPOLYLINE
  2
AcDbPolyline
  3
AutoCAD 2000
 90
        0
280
     0
281
     1
  0
CLASS
  1
HATCH
  2
AcDbHatch
  3
AutoCAD 2000
 90
        0
280
     0
281
     1
  0
CLASS
  1
XRECORD
  2
AcDbXrecord
  3
AutoCAD 2000
 90
        0
280
     0
281
     0
  0
ENDSEC
  0
SECTION
  2
TABLES
  0
TABLE
  2
VPORT
  5
8
330
0
100
AcDbSymbolTable
 70
     3
  0
VPORT
  5
3B6
330
8
100
AcDbSymbolTableRecord
100
AcDbViewportTableRecord
  2
*ACTIVE
 70
     0
 10
0.0
 20
0.0
 11
1.0
 21
1.0
 12
144.5
 22
77.0
 13
0.0
 23
0.0
 14
1.0
 24
1.0
 15
0.0
 25
0.0
 16
0.0
 26
0.0
 36
1.0
 17
0.0
 27
0.0
 37
0.0
 40
154.6644814004376
 41
2.041621029572836
 42
50.0
 43
0.0
 44
0.0
 50
0.0
 51
0.0
 71
     0
 72
   100
 73
     1
 74
     3
 75
     0
 76
     0
 77
     0
 78
     0
  0
ENDTAB
  0
TABLE
  2
LTYPE
  5
5
330
0
100
AcDbSymbolTable
 70
     1
  0
LTYPE
  5
13
330
5
100
AcDbSymbolTableRecord
100
AcDbLinetypeTableRecord
  2
BYBLOCK
 70
     0
  3

 72
    65
 73
     0
 40
0.0
  0
LTYPE
  5
14
330
5
100
AcDbSymbolTableRecord
100
AcDbLinetypeTableRecord
  2
BYLAYER
 70
     0
  3

 72
    65
 73
     0
 40
0.0
  0
LTYPE
  5
15
330
5
100
AcDbSymbolTableRecord
100
AcDbLinetypeTableRecord
  2
CONTINUOUS
 70
     0
  3
Solid line
 72
    65
 73
     0
 40
0.0
  0
ENDTAB
  0
TABLE
  2
LAYER
  5
2
330
0
100
AcDbSymbolTable
 70
     1
  0
LAYER
  5
10
330
2
100
AcDbSymbolTableRecord
100
AcDbLayerTableRecord
  2
0
 70
     0
 62
     7
  6
CONTINUOUS
  0
ENDTAB
  0
TABLE
  2
STYLE
  5
3
330
0
100
AcDbSymbolTable
 70
     1
  0
STYLE
  5
11
330
3
100
AcDbSymbolTableRecord
100
AcDbTextStyleTableRecord
  2
STANDARD
 70
     0
 40
0.0
 41
1.0
 50
0.0
 71
     0
 42
0.2
  3
txt
  4

  0
ENDTAB
  0
TABLE
  2
VIEW
  5
6
330
0
100
AcDbSymbolTable
 70
     0
  0
ENDTAB
  0
TABLE
  2
UCS
  5
7
330
0
100
AcDbSymbolTable
 70
     0
  0
ENDTAB
  0
TABLE
  2
APPID
  5
9
330
0
100
AcDbSymbolTable
 70
     1
  0
APPID
  5
12
330
9
100
AcDbSymbolTableRecord
100
AcDbRegAppTableRecord
  2
ACAD
 70
     0
  0
ENDTAB
  0
TABLE
  2
DIMSTYLE
  5
A
330
0
100
AcDbSymbolTable
 70
     1
  0
DIMSTYLE
105
3A8
330
A
100
AcDbSymbolTableRecord
100
AcDbDimStyleTableRecord
  2
STANDARD
 70
     0
  3

  4

  5

  6

  7

 40
1.0
 41
0.18
 42
0.0625
 43
0.38
 44
0.18
 45
0.0
 46
0.0
 47
0.0
 48
0.0
140
0.18
141
0.09
142
0.0
143
25.4
144
1.0
145
0.0
146
1.0
147
0.09
 71
     0
 72
     0
 73
     1
 74
     1
 75
     0
 76
     0
 77
     0
 78
     0
170
     0
171
     2
172
     0
173
     0
174
     0
175
     0
176
     0
177
     0
178
     0
270
     2
271
     4
272
     4
273
     2
274
     2
340
11
275
     0
280
     0
281
     0
282
     0
283
     1
284
     0
285
     0
286
     0
287
     3
288
     0
  0
ENDTAB
  0
TABLE
  2
BLOCK_RECORD
  5
1
330
0
100
AcDbSymbolTable
 70
     0
  0
BLOCK_RECORD
  5
1E
102
{ACAD_XDICTIONARY
360
3D9
102
}
330
1
100
AcDbSymbolTableRecord
100
AcDbBlockTableRecord
  2
*MODEL_SPACE
  0
BLOCK_RECORD
  5
1A
102
{ACAD_XDICTIONARY
360
3D7
102
}
330
1
100
AcDbSymbolTableRecord
100
AcDbBlockTableRecord
  2
*PAPER_SPACE
  0
ENDTAB
  0
ENDSEC
  0
SECTION
  2
BLOCKS
  0
BLOCK
  5
1F
330
1E
100
AcDbEntity
  8
0
100
AcDbBlockBegin
  2
*MODEL_SPACE
 70
     0
 10
0.0
 20
0.0
 30
0.0
  3
*MODEL_SPACE
  1

  0
ENDBLK
  5
20
330
1E
100
AcDbEntity
  8
0
100
AcDbBlockEnd
  0
BLOCK
  5
1B
330
1A
100
AcDbEntity
 67
     1
  8
0
100
AcDbBlockBegin
  2
*PAPER_SPACE
 70
     0
 10
0.0
 20
0.0
 30
0.0
  3
*PAPER_SPACE
  1

  0
ENDBLK
  5
1C
330
1A
100
AcDbEntity
 67
     1
  8
0
100
AcDbBlockEnd
  0
ENDSEC
  0
SECTION
  2
ENTITIES
  0
LINE
  5
22
330
1E
100
AcDbEntity
  8
0
100
AcDbLine
 10
1.955999999999999
 20
80.70326999999998
 30
0.0
 11
3.071
 21
80.18406999999999
 31
0.0
  0
LINE
  5
23
330
1E
100
AcDbEntity
  8
0
100
AcDbLine
 10
1.25975033355735
 20
81.29522707986591
 30
0.0
 11
1.47668330733231
 21
81.11078891655798
 31
0.0
  0
LINE
  5
24
330
1E
100
AcDbEntity
  8
0
100
AcDbLine
 10
0.111
 20
83.83773000000001
 30
0.0
 11
0.191297380710228
 21
83.56524029355501
 31
0.0
  0
LINE
  5
25
330
1E
100
AcDbEntity
  8
0
100
AcDbLine
 10
0.4760000000000001
 20
82.45318000000001
 30
0.0
 11
1.187
 21
81.35708000000001
 31
0.0
  0
LINE
  5
26
330
1E
100
AcDbEntity
  8
0
100
AcDbLine
 10
0.092
 20
83.9531
 30
0.0
 11
0.212
 21
85.85080000000001
 31
0.0
  0
LINE
  5
27
330
1E
100
AcDbEntity
  8
0
100
AcDbLine
 10
0.092
 20
83.9531
 30
0.0
 11
0.4760000000000001
 21
82.45318000000001
 31
0.0
  0
LINE
  5
28
330
1E
100
AcDbEntity
  8
0
100
AcDbLine
 10
0.112529194783627
 20
83.87291210979199
 30
0.0
 11
0.191297380710228
 21
83.56524029355501
 31
0.0
  0
LINE
  5
29
330
1E
100
AcDbEntity
  8
0
100
AcDbLine
 10
0.112529194783627
 20
83.87291210979199
 30
0.0
 11
0.191297380710228
 21
83.56524029355501
 31
0.0
  0
LINE
  5
2D
330
1E
100
AcDbEntity
  8
0
100
AcDbLine
 10
0.0920000000000001
 20
83.9531
 30
0.0
 11
0.4760000000000001
 21
82.45318000000001
 31
0.0
  0
LINE
  5
2E
330
1E
100
AcDbEntity
  8
0
100
AcDbLine
 10
0.111
 20
83.83773000000001
 30
0.0
 11
0.191297380710228
 21
83.56524029355501
 31
0.0
  0
LINE
  5
31
330
1E
100
AcDbEntity
  8
0
100
AcDbLine
 10
0.4760000000000001
 20
82.45318000000001
 30
0.0
 11
1.187
 21
81.35708000000001
 31
0.0
  0
LINE
  5
32
330
1E
100
AcDbEntity
  8
0
100
AcDbLine
 10
1.187
 20
81.35708000000001
 30
0.0
 11
1.955999999999999
 21
80.70326999999998
 31
0.0
  0
LINE
  5
34
330
1E
100
AcDbEntity
  8
0
100
AcDbLine
 10
1.283
 20
81.26093
 30
0.0
 11
1.47668330733231
 21
81.11078891655798
 31
0.0
  0
LINE
  5
35
330
1E
100
AcDbEntity
  8
0
100
AcDbLine
 10
1.283
 20
81.26093
 30
0.0
 11
1.47668330733231
 21
81.11078891655798
 31
0.0
  0
LINE
  5
36
330
1E
100
AcDbEntity
  8
0
100
AcDbLine
 10
1.955999999999999
 20
80.70326999999998
 30
0.0
 11
3.071
 21
80.18406999999999
 31
0.0
  0
LINE
  5
37
330
1E
100
AcDbEntity
  8
0
100
AcDbLine
 10
46.29999999999999
 20
77.1279
 30
0.0
 11
55.6
 21
69.8279
 31
0.0
  0
LINE
  5
38
330
1E
100
AcDbEntity
  8
0
100
AcDbLine
 10
55.6
 20
69.8279
 30
0.0
 11
66.4
 21
65.4279
 31
0.0
  0
LINE
  5
3A
330
1E
100
AcDbEntity
  8
0
100
AcDbLine
 10
10.044
 20
80.70326999999998
 30
0.0
 11
10.81299999999999
 21
81.35708000000001
 31
0.0
  0
LINE
  5
3D
330
1E
100
AcDbEntity
  8
0
100
AcDbLine
 10
11.807
 20
85.7243
 30
0.0
 11
11.8311866227729
 21
85.16783954969829
 31
0.0
  0
LINE
  5
3E
330
1E
100
AcDbEntity
  8
0
100
AcDbLine
 10
11.524
 20
82.45318000000001
 30
0.0
 11
11.908
 21
83.9531
 31
0.0
  0
LINE
  5
3F
330
1E
100
AcDbEntity
  8
0
100
AcDbLine
 10
51.6
 20
82.42789999999999
 30
0.0
 11
59.4
 21
76.32789999999999
 31
0.0
  0
LINE
  5
40
330
1E
100
AcDbEntity
  8
0
100
AcDbLine
 10
51.2
 20
82.0279
 30
0.0
 11
59.1
 21
75.92789999999999
 31
0.0
  0
LINE
  5
41
330
1E
100
AcDbEntity
  8
0
100
AcDbLine
 10
11.8087026192898
 20
83.56524029355501
 30
0.0
 11
11.889
 21
83.83773000000001
 31
0.0
  0
LINE
  5
42
330
1E
100
AcDbEntity
  8
0
100
AcDbLine
 10
10.81299999999999
 20
81.35708000000001
 30
0.0
 11
11.524
 21
82.45318000000001
 31
0.0
  0
LINE
  5
43
330
1E
100
AcDbEntity
  8
0
100
AcDbLine
 10
10.52331669266769
 20
81.11078891655798
 30
0.0
 11
10.717
 21
81.26093
 31
0.0
  0
LINE
  5
44
330
1E
100
AcDbEntity
  8
0
100
AcDbLine
 10
8.929
 20
80.18406999999999
 30
0.0
 11
10.044
 21
80.70326999999998
 31
0.0
  0
LINE
  5
45
330
1E
100
AcDbEntity
  8
0
100
AcDbLine
 10
6.0
 20
79.8279
 30
0.0
 11
8.929
 21
80.18406999999999
 31
0.0
  0
LINE
  5
46
330
1E
100
AcDbEntity
  8
0
100
AcDbLine
 10
3.071
 20
80.18406999999999
 30
0.0
 11
6.0
 21
79.8279
 31
0.0
  0
LINE
  5
49
330
1E
100
AcDbEntity
  8
0
100
AcDbLine
 10
56.0
 20
86.32789999999999
 30
0.0
 11
56.0
 21
87.1279
 31
0.0
  0
LINE
  5
4A
330
1E
100
AcDbEntity
  8
0
100
AcDbLine
 10
56.0
 20
86.32789999999999
 30
0.0
 11
57.5
 21
85.82790000000001
 31
0.0
  0
LINE
  5
4B
330
1E
100
AcDbEntity
  8
0
100
AcDbLine
 10
57.5
 20
85.82790000000001
 30
0.0
 11
58.0
 21
85.82790000000001
 31
0.0
  0
LINE
  5
4C
330
1E
100
AcDbEntity
  8
0
100
AcDbLine
 10
59.4
 20
76.32789999999999
 30
0.0
 11
68.4
 21
72.7279
 31
0.0
  0
LINE
  5
4D
330
1E
100
AcDbEntity
  8
0
100
AcDbLine
 10
59.1
 20
75.92789999999999
 30
0.0
 11
68.2
 21
72.2279
 31
0.0
  0
LINE
  5
4E
330
1E
100
AcDbEntity
  8
0
100
AcDbLine
 10
58.0
 20
85.82790000000001
 30
0.0
 11
59.5
 21
86.32789999999999
 31
0.0
  0
LINE
  5
4F
330
1E
100
AcDbEntity
  8
0
100
AcDbLine
 10
39.0
 20
86.42789999999999
 30
0.0
 11
46.29999999999999
 21
77.1279
 31
0.0
  0
LINE
  5
50
330
1E
100
AcDbEntity
  8
0
100
AcDbLine
 10
11.7262802842455
 20
86.36406787049279
 30
0.0
 11
11.807
 21
85.7243
 31
0.0
  0
LINE
  5
51
330
1E
100
AcDbEntity
  8
0
100
AcDbLine
 10
11.7262802842455
 20
86.36406787049279
 30
0.0
 11
11.807
 21
85.7243
 31
0.0
  0
LINE
  5
52
330
1E
100
AcDbEntity
  8
0
100
AcDbLine
 10
46.9858974358974
 20
88.32790000000001
 30
0.0
 11
51.6
 21
82.42789999999999
 31
0.0
  0
LINE
  5
53
330
1E
100
AcDbEntity
  8
0
100
AcDbLine
 10
46.3354430379747
 20
88.32790000000001
 30
0.0
 11
51.2
 21
82.0279
 31
0.0
  0
LINE
  5
54
330
1E
100
AcDbEntity
  8
0
100
AcDbLine
 10
42.0
 20
88.32790000000001
 30
0.0
 11
54.5
 21
88.32790000000001
 31
0.0
  0
LINE
  5
55
330
1E
100
AcDbEntity
  8
0
100
AcDbLine
 10
54.5
 20
88.32790000000001
 30
0.0
 11
55.5
 21
87.8279
 31
0.0
  0
LINE
  5
56
330
1E
100
AcDbEntity
  8
0
100
AcDbLine
 10
55.5
 20
87.8279
 30
0.0
 11
56.0
 21
86.32789999999999
 31
0.0
  0
LINE
  5
57
330
1E
100
AcDbEntity
  8
0
100
AcDbLine
 10
55.5
 20
87.8279
 30
0.0
 11
55.5
 21
88.6279
 31
0.0
  0
LINE
  5
58
330
1E
100
AcDbEntity
  8
0
100
AcDbLine
 10
56.0
 20
87.1279
 30
0.0
 11
56.0
 21
89.3279
 31
0.0
  0
LINE
  5
59
330
1E
100
AcDbEntity
  8
0
100
AcDbLine
 10
56.0
 20
87.1279
 30
0.0
 11
56.0
 21
86.32789999999999
 31
0.0
  0
LINE
  5
5A
330
1E
100
AcDbEntity
  8
0
100
AcDbLine
 10
59.5
 20
87.1279
 30
0.0
 11
59.5
 21
89.3279
 31
0.0
  0
LINE
  5
5B
330
1E
100
AcDbEntity
  8
0
100
AcDbLine
 10
59.5
 20
87.1279
 30
0.0
 11
59.5
 21
86.32789999999999
 31
0.0
  0
LINE
  5
5C
330
1E
100
AcDbEntity
  8
0
100
AcDbLine
 10
59.5
 20
86.32789999999999
 30
0.0
 11
59.5
 21
87.1279
 31
0.0
  0
LINE
  5
5D
330
1E
100
AcDbEntity
  8
0
100
AcDbLine
 10
59.5
 20
86.32789999999999
 30
0.0
 11
60.0
 21
87.8279
 31
0.0
  0
LINE
  5
5E
330
1E
100
AcDbEntity
  8
0
100
AcDbLine
 10
145.491
 20
60.1721
 30
0.0
 11
145.791
 21
60.1721
 31
0.0
  0
LINE
  5
5F
330
1E
100
AcDbEntity
  8
0
100
AcDbLine
 10
145.491
 20
60.1721
 30
0.0
 11
145.491
 21
0.172099999999995
 31
0.0
  0
LINE
  5
60
330
1E
100
AcDbEntity
  8
0
100
AcDbLine
 10
145.491
 20
0.172099999999995
 30
0.0
 11
145.491
 21
60.1721
 31
0.0
  0
LINE
  5
61
330
1E
100
AcDbEntity
  8
0
100
AcDbLine
 10
145.491
 20
0.172099999999995
 30
0.0
 11
145.8539999999999
 21
0.198299999999987
 31
0.0
  0
LINE
  5
62
330
1E
100
AcDbEntity
  8
0
100
AcDbLine
 10
149.291
 20
60.1721
 30
0.0
 11
151.091
 21
60.1721
 31
0.0
  0
LINE
  5
63
330
1E
100
AcDbEntity
  8
0
100
AcDbLine
 10
149.268
 20
1.322799999999979
 30
0.0
 11
151.0679999999999
 21
2.447299999999979
 31
0.0
  0
LINE
  5
64
330
1E
100
AcDbEntity
  8
0
100
AcDbLine
 10
147.6909999999999
 20
60.1721
 30
0.0
 11
149.291
 21
60.1721
 31
0.0
  0
LINE
  5
65
330
1E
100
AcDbEntity
  8
0
100
AcDbLine
 10
147.7669999999999
 20
0.6480999999999941
 30
0.0
 11
149.268
 21
1.322799999999979
 31
0.0
  0
LINE
  5
66
330
1E
100
AcDbEntity
  8
0
100
AcDbLine
 10
146.491
 20
60.1721
 30
0.0
 11
147.6909999999999
 21
60.1721
 31
0.0
  0
LINE
  5
67
330
1E
100
AcDbEntity
  8
0
100
AcDbLine
 10
146.5289999999999
 20
0.273299999999978
 30
0.0
 11
147.7669999999999
 21
0.6480999999999941
 31
0.0
  0
LINE
  5
68
330
1E
100
AcDbEntity
  8
0
100
AcDbLine
 10
145.791
 20
60.1721
 30
0.0
 11
146.491
 21
60.1721
 31
0.0
  0
LINE
  5
69
330
1E
100
AcDbEntity
  8
0
100
AcDbLine
 10
145.8539999999999
 20
0.198299999999987
 30
0.0
 11
146.5289999999999
 21
0.273299999999978
 31
0.0
  0
LINE
  5
6A
330
1E
100
AcDbEntity
  8
0
100
AcDbLine
 10
153.019
 20
4.433799999999969
 30
0.0
 11
154.782
 21
5.783199999999981
 31
0.0
  0
LINE
  5
6B
330
1E
100
AcDbEntity
  8
0
100
AcDbLine
 10
154.782
 20
5.783199999999981
 30
0.0
 11
156.62
 21
6.98259999999999
 31
0.0
  0
LINE
  5
6C
330
1E
100
AcDbEntity
  8
0
100
AcDbLine
 10
156.62
 20
6.98259999999999
 30
0.0
 11
158.4209999999999
 21
8.182099999999991
 31
0.0
  0
LINE
  5
6D
330
1E
100
AcDbEntity
  8
0
100
AcDbLine
 10
158.4209999999999
 20
8.182099999999991
 30
0.0
 11
159.5089999999999
 21
9.23159999999998
 31
0.0
  0
LINE
  5
6E
330
1E
100
AcDbEntity
  8
0
100
AcDbLine
 10
159.5089999999999
 20
9.23159999999998
 30
0.0
 11
160.222
 21
9.943799999999981
 31
0.0
  0
LINE
  5
6F
330
1E
100
AcDbEntity
  8
0
100
AcDbLine
 10
155.691
 20
60.1721
 30
0.0
 11
158.191
 21
60.1721
 31
0.0
  0
LINE
  5
70
330
1E
100
AcDbEntity
  8
0
100
AcDbLine
 10
152.991
 20
60.1721
 30
0.0
 11
154.891
 21
60.1721
 31
0.0
  0
LINE
  5
71
330
1E
100
AcDbEntity
  8
0
100
AcDbLine
 10
152.991
 20
60.1721
 30
0.0
 11
155.691
 21
60.1721
 31
0.0
  0
LINE
  5
72
330
1E
100
AcDbEntity
  8
0
100
AcDbLine
 10
154.891
 20
60.1721
 30
0.0
 11
156.691
 21
60.1721
 31
0.0
  0
LINE
  5
73
330
1E
100
AcDbEntity
  8
0
100
AcDbLine
 10
158.191
 20
60.1721
 30
0.0
 11
160.3909999999999
 21
60.1721
 31
0.0
  0
LINE
  5
74
330
1E
100
AcDbEntity
  8
0
100
AcDbLine
 10
156.691
 20
60.1721
 30
0.0
 11
158.291
 21
60.1721
 31
0.0
  0
LINE
  5
75
330
1E
100
AcDbEntity
  8
0
100
AcDbLine
 10
158.291
 20
60.1721
 30
0.0
 11
159.491
 21
60.1721
 31
0.0
  0
LINE
  5
76
330
1E
100
AcDbEntity
  8
0
100
AcDbLine
 10
160.491
 20
10.1721
 30
0.0
 11
160.491
 21
60.1721
 31
0.0
  0
LINE
  5
77
330
1E
100
AcDbEntity
  8
0
100
AcDbLine
 10
160.3909999999999
 20
60.1721
 30
0.0
 11
162.091
 21
60.1721
 31
0.0
  0
LINE
  5
78
330
1E
100
AcDbEntity
  8
0
100
AcDbLine
 10
159.491
 20
60.1721
 30
0.0
 11
160.191
 21
60.1721
 31
0.0
  0
LINE
  5
79
330
1E
100
AcDbEntity
  8
0
100
AcDbLine
 10
160.191
 20
60.1721
 30
0.0
 11
160.491
 21
60.1721
 31
0.0
  0
LINE
  5
7A
330
1E
100
AcDbEntity
  8
0
100
AcDbLine
 10
162.091
 20
60.1721
 30
0.0
 11
163.091
 21
60.1721
 31
0.0
  0
LINE
  5
7B
330
1E
100
AcDbEntity
  8
0
100
AcDbLine
 10
163.091
 20
60.1721
 30
0.0
 11
163.491
 21
60.1721
 31
0.0
  0
LINE
  5
7C
330
1E
100
AcDbEntity
  8
0
100
AcDbLine
 10
163.491
 20
60.1721
 30
0.0
 11
164.41286
 21
87.8279
 31
0.0
  0
LINE
  5
7D
330
1E
100
AcDbEntity
  8
0
100
AcDbLine
 10
160.491
 20
60.1721
 30
0.0
 11
160.491
 21
10.1721
 31
0.0
  0
LINE
  5
7E
330
1E
100
AcDbEntity
  8
0
100
AcDbLine
 10
160.491
 20
60.1721
 30
0.0
 11
162.091
 21
60.1721
 31
0.0
  0
LINE
  5
7F
330
1E
100
AcDbEntity
  8
0
100
AcDbLine
 10
160.222
 20
9.943799999999981
 30
0.0
 11
160.491
 21
10.1721
 31
0.0
  0
LINE
  5
80
330
1E
100
AcDbEntity
  8
0
100
AcDbLine
 10
151.091
 20
60.1721
 30
0.0
 11
152.991
 21
60.1721
 31
0.0
  0
LINE
  5
81
330
1E
100
AcDbEntity
  8
0
100
AcDbLine
 10
151.0679999999999
 20
2.447299999999979
 30
0.0
 11
153.019
 21
4.433799999999969
 31
0.0
  0
LINE
  5
82
330
1E
100
AcDbEntity
  8
0
100
AcDbLine
 10
150.2909999999999
 20
60.1721
 30
0.0
 11
152.991
 21
60.1721
 31
0.0
  0
LINE
  5
83
330
1E
100
AcDbEntity
  8
0
100
AcDbLine
 10
147.791
 20
60.1721
 30
0.0
 11
150.2909999999999
 21
60.1721
 31
0.0
  0
LINE
  5
84
330
1E
100
AcDbEntity
  8
0
100
AcDbLine
 10
145.591
 20
60.1721
 30
0.0
 11
147.791
 21
60.1721
 31
0.0
  0
LINE
  5
85
330
1E
100
AcDbEntity
  8
0
100
AcDbLine
 10
143.8909999999999
 20
60.1721
 30
0.0
 11
145.591
 21
60.1721
 31
0.0
  0
LINE
  5
86
330
1E
100
AcDbEntity
  8
0
100
AcDbLine
 10
143.8909999999999
 20
60.1721
 30
0.0
 11
145.491
 21
60.1721
 31
0.0
  0
LINE
  5
87
330
1E
100
AcDbEntity
  8
0
100
AcDbLine
 10
142.8909999999999
 20
60.1721
 30
0.0
 11
143.8909999999999
 21
60.1721
 31
0.0
  0
LINE
  5
88
330
1E
100
AcDbEntity
  8
0
100
AcDbLine
 10
89.59999999999999
 20
65.4279
 30
0.0
 11
100.4
 21
69.8279
 31
0.0
  0
LINE
  5
89
330
1E
100
AcDbEntity
  8
0
100
AcDbLine
 10
78.0
 20
63.82789999999999
 30
0.0
 11
89.59999999999999
 21
65.4279
 31
0.0
  0
LINE
  5
8A
330
1E
100
AcDbEntity
  8
0
100
AcDbLine
 10
87.59999999999999
 20
72.7279
 30
0.0
 11
96.6
 21
76.32789999999999
 31
0.0
  0
LINE
  5
8B
330
1E
100
AcDbEntity
  8
0
100
AcDbLine
 10
78.0
 20
71.32789999999999
 30
0.0
 11
87.59999999999999
 21
72.7279
 31
0.0
  0
LINE
  5
8C
330
1E
100
AcDbEntity
  8
0
100
AcDbLine
 10
87.79999999999999
 20
72.2279
 30
0.0
 11
96.90000000000001
 21
75.92789999999999
 31
0.0
  0
LINE
  5
8D
330
1E
100
AcDbEntity
  8
0
100
AcDbLine
 10
78.0
 20
70.8279
 30
0.0
 11
87.79999999999999
 21
72.2279
 31
0.0
  0
LINE
  5
8E
330
1E
100
AcDbEntity
  8
0
100
AcDbLine
 10
100.4
 20
69.8279
 30
0.0
 11
109.6999999999999
 21
77.1279
 31
0.0
  0
LINE
  5
8F
330
1E
100
AcDbEntity
  8
0
100
AcDbLine
 10
96.6
 20
76.32789999999999
 30
0.0
 11
104.4
 21
82.42789999999999
 31
0.0
  0
LINE
  5
90
330
1E
100
AcDbEntity
  8
0
100
AcDbLine
 10
96.90000000000001
 20
75.92789999999999
 30
0.0
 11
104.8
 21
82.0279
 31
0.0
  0
LINE
  5
91
330
1E
100
AcDbEntity
  8
0
100
AcDbLine
 10
104.4
 20
82.42789999999999
 30
0.0
 11
108.623076923077
 21
87.8279
 31
0.0
  0
LINE
  5
92
330
1E
100
AcDbEntity
  8
0
100
AcDbLine
 10
104.8
 20
82.0279
 30
0.0
 11
109.278481012658
 21
87.8279
 31
0.0
  0
LINE
  5
93
330
1E
100
AcDbEntity
  8
0
100
AcDbLine
 10
109.6999999999999
 20
77.1279
 30
0.0
 11
117.0
 21
86.42789999999999
 31
0.0
  0
LINE
  5
94
330
1E
100
AcDbEntity
  8
0
100
AcDbLine
 10
117.0
 20
86.42789999999999
 30
0.0
 11
117.5703703703699
 21
87.8279
 31
0.0
  0
LINE
  5
95
330
1E
100
AcDbEntity
  8
0
100
AcDbLine
 10
68.4
 20
72.7279
 30
0.0
 11
78.0
 21
71.32789999999999
 31
0.0
  0
LINE
  5
96
330
1E
100
AcDbEntity
  8
0
100
AcDbLine
 10
68.2
 20
72.2279
 30
0.0
 11
78.0
 21
70.8279
 31
0.0
  0
LINE
  5
97
330
1E
100
AcDbEntity
  8
0
100
AcDbLine
 10
66.4
 20
65.4279
 30
0.0
 11
78.0
 21
63.82789999999999
 31
0.0
  0
LINE
  5
98
330
1E
100
AcDbEntity
  8
0
100
AcDbLine
 10
141.56914
 20
87.8279
 30
0.0
 11
142.491
 21
60.1721
 31
0.0
  0
LINE
  5
99
330
1E
100
AcDbEntity
  8
0
100
AcDbLine
 10
142.491
 20
60.1721
 30
0.0
 11
142.8909999999999
 21
60.1721
 31
0.0
  0
LINE
  5
9A
330
1E
100
AcDbEntity
  8
0
100
AcDbLine
 10
205.6
 20
69.8279
 30
0.0
 11
216.4
 21
65.4279
 31
0.0
  0
LINE
  5
9B
330
1E
100
AcDbEntity
  8
0
100
AcDbLine
 10
216.4
 20
65.4279
 30
0.0
 11
228.0
 21
63.82789999999999
 31
0.0
  0
LINE
  5
9C
330
1E
100
AcDbEntity
  8
0
100
AcDbLine
 10
196.3
 20
77.1279
 30
0.0
 11
205.6
 21
69.8279
 31
0.0
  0
LINE
  5
9D
330
1E
100
AcDbEntity
  8
0
100
AcDbLine
 10
201.6
 20
82.42789999999999
 30
0.0
 11
209.4
 21
76.32789999999999
 31
0.0
  0
LINE
  5
9E
330
1E
100
AcDbEntity
  8
0
100
AcDbLine
 10
201.2
 20
82.0279
 30
0.0
 11
209.1
 21
75.92789999999999
 31
0.0
  0
LINE
  5
9F
330
1E
100
AcDbEntity
  8
0
100
AcDbLine
 10
209.4
 20
76.32789999999999
 30
0.0
 11
218.4
 21
72.7279
 31
0.0
  0
LINE
  5
A0
330
1E
100
AcDbEntity
  8
0
100
AcDbLine
 10
218.4
 20
72.7279
 30
0.0
 11
228.0
 21
71.32789999999999
 31
0.0
  0
LINE
  5
A1
330
1E
100
AcDbEntity
  8
0
100
AcDbLine
 10
209.1
 20
75.92789999999999
 30
0.0
 11
218.1999999999999
 21
72.2279
 31
0.0
  0
LINE
  5
A2
330
1E
100
AcDbEntity
  8
0
100
AcDbLine
 10
218.1999999999999
 20
72.2279
 30
0.0
 11
228.0
 21
70.8279
 31
0.0
  0
LINE
  5
A3
330
1E
100
AcDbEntity
  8
0
100
AcDbLine
 10
197.376923076923
 20
87.8279
 30
0.0
 11
201.6
 21
82.42789999999999
 31
0.0
  0
LINE
  5
A4
330
1E
100
AcDbEntity
  8
0
100
AcDbLine
 10
196.7215189873419
 20
87.8279
 30
0.0
 11
201.2
 21
82.0279
 31
0.0
  0
LINE
  5
A5
330
1E
100
AcDbEntity
  8
0
100
AcDbLine
 10
189.0
 20
86.42789999999999
 30
0.0
 11
196.3
 21
77.1279
 31
0.0
  0
LINE
  5
A6
330
1E
100
AcDbEntity
  8
0
100
AcDbLine
 10
188.42962962963
 20
87.8279
 30
0.0
 11
189.0
 21
86.42789999999999
 31
0.0
  0
LINE
  5
A7
330
1E
100
AcDbEntity
  8
0
100
AcDbLine
 10
237.5999999999999
 20
72.7279
 30
0.0
 11
246.6
 21
76.32789999999999
 31
0.0
  0
LINE
  5
A8
330
1E
100
AcDbEntity
  8
0
100
AcDbLine
 10
228.0
 20
71.32789999999999
 30
0.0
 11
237.5999999999999
 21
72.7279
 31
0.0
  0
LINE
  5
A9
330
1E
100
AcDbEntity
  8
0
100
AcDbLine
 10
237.8
 20
72.2279
 30
0.0
 11
246.9
 21
75.92789999999999
 31
0.0
  0
LINE
  5
AA
330
1E
100
AcDbEntity
  8
0
100
AcDbLine
 10
228.0
 20
70.8279
 30
0.0
 11
237.8
 21
72.2279
 31
0.0
  0
LINE
  5
AB
330
1E
100
AcDbEntity
  8
0
100
AcDbLine
 10
246.6
 20
76.32789999999999
 30
0.0
 11
254.4
 21
82.42789999999999
 31
0.0
  0
LINE
  5
AC
330
1E
100
AcDbEntity
  8
0
100
AcDbLine
 10
246.9
 20
75.92789999999999
 30
0.0
 11
254.8
 21
82.0279
 31
0.0
  0
LINE
  5
AD
330
1E
100
AcDbEntity
  8
0
100
AcDbLine
 10
239.5999999999999
 20
65.4279
 30
0.0
 11
250.4
 21
69.8279
 31
0.0
  0
LINE
  5
AE
330
1E
100
AcDbEntity
  8
0
100
AcDbLine
 10
228.0
 20
63.82789999999999
 30
0.0
 11
239.5999999999999
 21
65.4279
 31
0.0
  0
LINE
  5
AF
330
1E
100
AcDbEntity
  8
0
100
AcDbLine
 10
164.381604
 20
87.8279
 30
0.0
 11
245.0
 21
87.8279
 31
0.0
  0
LINE
  5
B0
330
1E
100
AcDbEntity
  8
0
100
AcDbLine
 10
245.0
 20
87.8279
 30
0.0
 11
245.0
 21
88.6279
 31
0.0
  0
LINE
  5
B1
330
1E
100
AcDbEntity
  8
0
100
AcDbLine
 10
61.0
 20
87.8279
 30
0.0
 11
141.56914
 21
87.8279
 31
0.0
  0
LINE
  5
B2
330
1E
100
AcDbEntity
  8
0
100
AcDbLine
 10
61.0
 20
87.8279
 30
0.0
 11
61.0
 21
88.6279
 31
0.0
  0
LINE
  5
B3
330
1E
100
AcDbEntity
  8
0
100
AcDbLine
 10
40.49999999999999
 20
88.82789999999999
 30
0.0
 11
40.49999999999999
 21
89.5279
 31
0.0
  0
LINE
  5
B4
330
1E
100
AcDbEntity
  8
0
100
AcDbLine
 10
40.49999999999999
 20
88.82789999999999
 30
0.0
 11
42.0
 21
88.32790000000001
 31
0.0
  0
LINE
  5
B5
330
1E
100
AcDbEntity
  8
0
100
AcDbLine
 10
55.5
 20
88.6279
 30
0.0
 11
55.5
 21
90.62789999999999
 31
0.0
  0
LINE
  5
B6
330
1E
100
AcDbEntity
  8
0
100
AcDbLine
 10
55.5
 20
88.6279
 30
0.0
 11
55.5
 21
87.8279
 31
0.0
  0
LINE
  5
B7
330
1E
100
AcDbEntity
  8
0
100
AcDbLine
 10
56.0
 20
89.3279
 30
0.0
 11
56.0
 21
92.9279
 31
0.0
  0
LINE
  5
B8
330
1E
100
AcDbEntity
  8
0
100
AcDbLine
 10
56.0
 20
89.3279
 30
0.0
 11
56.0
 21
87.1279
 31
0.0
  0
LINE
  5
B9
330
1E
100
AcDbEntity
  8
0
100
AcDbLine
 10
59.5
 20
89.3279
 30
0.0
 11
59.5
 21
92.9279
 31
0.0
  0
LINE
  5
BA
330
1E
100
AcDbEntity
  8
0
100
AcDbLine
 10
59.5
 20
89.3279
 30
0.0
 11
59.5
 21
87.1279
 31
0.0
  0
LINE
  5
BB
330
1E
100
AcDbEntity
  8
0
100
AcDbLine
 10
60.0
 20
88.6279
 30
0.0
 11
60.0
 21
87.8279
 31
0.0
  0
LINE
  5
BD
330
1E
100
AcDbEntity
  8
0
100
AcDbLine
 10
0.69
 20
89.8259
 30
0.0
 11
1.217
 21
93.37000000000001
 31
0.0
  0
LINE
  5
BE
330
1E
100
AcDbEntity
  8
0
100
AcDbLine
 10
40.49999999999999
 20
89.5279
 30
0.0
 11
40.49999999999999
 21
91.52790000000001
 31
0.0
  0
LINE
  5
BF
330
1E
100
AcDbEntity
  8
0
100
AcDbLine
 10
40.49999999999999
 20
89.5279
 30
0.0
 11
40.49999999999999
 21
88.82789999999999
 31
0.0
  0
LINE
  5
C0
330
1E
100
AcDbEntity
  8
0
100
AcDbLine
 10
60.0
 20
89.3279
 30
0.0
 11
61.0
 21
89.3279
 31
0.0
  0
LINE
  5
C1
330
1E
100
AcDbEntity
  8
0
100
AcDbLine
 10
61.0
 20
89.3279
 30
0.0
 11
61.0
 21
88.6279
 31
0.0
  0
LINE
  5
C2
330
1E
100
AcDbEntity
  8
0
100
AcDbLine
 10
61.0
 20
89.3279
 30
0.0
 11
61.0
 21
90.0279
 31
0.0
  0
LINE
  5
C3
330
1E
100
AcDbEntity
  8
0
100
AcDbLine
 10
40.0
 20
90.3279
 30
0.0
 11
40.49999999999999
 21
88.82789999999999
 31
0.0
  0
LINE
  5
C4
330
1E
100
AcDbEntity
  8
0
100
AcDbLine
 10
40.0
 20
90.3279
 30
0.0
 11
40.0
 21
91.0279
 31
0.0
  0
LINE
  5
C5
330
1E
100
AcDbEntity
  8
0
100
AcDbLine
 10
61.0
 20
90.0279
 30
0.0
 11
61.0
 21
89.3279
 31
0.0
  0
LINE
  5
C6
330
1E
100
AcDbEntity
  8
0
100
AcDbLine
 10
61.0
 20
90.0279
 30
0.0
 11
61.0
 21
91.9279
 31
0.0
  0
LINE
  5
C7
330
1E
100
AcDbEntity
  8
0
100
AcDbLine
 10
245.0
 20
89.3279
 30
0.0
 11
247.0
 21
89.3279
 31
0.0
  0
LINE
  5
CC
330
1E
100
AcDbEntity
  8
0
100
AcDbLine
 10
247.0
 20
89.3279
 30
0.0
 11
247.0
 21
90.0279
 31
0.0
  0
LINE
  5
CD
330
1E
100
AcDbEntity
  8
0
100
AcDbLine
 10
247.0
 20
90.0279
 30
0.0
 11
247.0
 21
91.9279
 31
0.0
  0
LINE
  5
CE
330
1E
100
AcDbEntity
  8
0
100
AcDbLine
 10
245.0
 20
88.6279
 30
0.0
 11
245.0
 21
90.62789999999999
 31
0.0
  0
LINE
  5
CF
330
1E
100
AcDbEntity
  8
0
100
AcDbLine
 10
245.0
 20
88.6279
 30
0.0
 11
245.0
 21
87.8279
 31
0.0
  0
LINE
  5
D0
330
1E
100
AcDbEntity
  8
0
100
AcDbLine
 10
61.0
 20
88.6279
 30
0.0
 11
61.0
 21
87.8279
 31
0.0
  0
LINE
  5
D1
330
1E
100
AcDbEntity
  8
0
100
AcDbLine
 10
61.0
 20
88.6279
 30
0.0
 11
61.0
 21
90.62789999999999
 31
0.0
  0
LINE
  5
D2
330
1E
100
AcDbEntity
  8
0
100
AcDbLine
 10
61.0
 20
88.6279
 30
0.0
 11
61.0
 21
89.3279
 31
0.0
  0
LINE
  5
D5
330
1E
100
AcDbEntity
  8
0
100
AcDbLine
 10
40.0
 20
91.0279
 30
0.0
 11
40.0
 21
90.3279
 31
0.0
  0
LINE
  5
D6
330
1E
100
AcDbEntity
  8
0
100
AcDbLine
 10
40.0
 20
91.0279
 30
0.0
 11
40.0
 21
92.8279
 31
0.0
  0
LINE
  5
D7
330
1E
100
AcDbEntity
  8
0
100
AcDbLine
 10
40.49999999999999
 20
91.52790000000001
 30
0.0
 11
40.49999999999999
 21
94.72790000000001
 31
0.0
  0
LINE
  5
D8
330
1E
100
AcDbEntity
  8
0
100
AcDbLine
 10
40.49999999999999
 20
91.52790000000001
 30
0.0
 11
40.49999999999999
 21
89.5279
 31
0.0
  0
LINE
  5
D9
330
1E
100
AcDbEntity
  8
0
100
AcDbLine
 10
55.5
 20
90.62789999999999
 30
0.0
 11
55.5
 21
94.02790000000001
 31
0.0
  0
LINE
  5
DA
330
1E
100
AcDbEntity
  8
0
100
AcDbLine
 10
55.5
 20
90.62789999999999
 30
0.0
 11
55.5
 21
88.6279
 31
0.0
  0
LINE
  5
DB
330
1E
100
AcDbEntity
  8
0
100
AcDbLine
 10
60.0
 20
90.62789999999999
 30
0.0
 11
60.0
 21
88.6279
 31
0.0
  0
LINE
  5
DC
330
1E
100
AcDbEntity
  8
0
100
AcDbLine
 10
40.0
 20
92.8279
 30
0.0
 11
40.0
 21
93.42789999999999
 31
0.0
  0
LINE
  5
DD
330
1E
100
AcDbEntity
  8
0
100
AcDbLine
 10
40.0
 20
92.8279
 30
0.0
 11
40.0
 21
91.0279
 31
0.0
  0
LINE
  5
DE
330
1E
100
AcDbEntity
  8
0
100
AcDbLine
 10
56.0
 20
92.9279
 30
0.0
 11
56.0
 21
89.3279
 31
0.0
  0
LINE
  5
DF
330
1E
100
AcDbEntity
  8
0
100
AcDbLine
 10
56.0
 20
92.9279
 30
0.0
 11
56.0
 21
97.6279
 31
0.0
  0
LINE
  5
E0
330
1E
100
AcDbEntity
  8
0
100
AcDbLine
 10
10.783
 20
93.37000000000001
 30
0.0
 11
11.31
 21
89.8259
 31
0.0
  0
LINE
  5
E1
330
1E
100
AcDbEntity
  8
0
100
AcDbLine
 10
1.217
 20
93.37000000000001
 30
0.0
 11
1.551999999999999
 21
96.12390000000001
 31
0.0
  0
LINE
  5
E2
330
1E
100
AcDbEntity
  8
0
100
AcDbLine
 10
1.217
 20
93.37000000000001
 30
0.0
 11
1.242999999999999
 21
93.6897
 31
0.0
  0
LINE
  5
E3
330
1E
100
AcDbEntity
  8
0
100
AcDbLine
 10
38.5
 20
93.32790000000001
 30
0.0
 11
38.5
 21
93.92789999999999
 31
0.0
  0
LINE
  5
E4
330
1E
100
AcDbEntity
  8
0
100
AcDbLine
 10
38.5
 20
93.32790000000001
 30
0.0
 11
40.0
 21
92.8279
 31
0.0
  0
LINE
  5
E6
330
1E
100
AcDbEntity
  8
0
100
AcDbLine
 10
10.757
 20
93.6897
 30
0.0
 11
10.783
 21
93.37000000000001
 31
0.0
  0
LINE
  5
E7
330
1E
100
AcDbEntity
  8
0
100
AcDbLine
 10
38.5
 20
93.92789999999999
 30
0.0
 11
38.5
 21
95.4279
 31
0.0
  0
LINE
  5
E8
330
1E
100
AcDbEntity
  8
0
100
AcDbLine
 10
38.5
 20
93.92789999999999
 30
0.0
 11
38.5
 21
93.32790000000001
 31
0.0
  0
LINE
  5
E9
330
1E
100
AcDbEntity
  8
0
100
AcDbLine
 10
40.0
 20
93.42789999999999
 30
0.0
 11
40.0
 21
94.92789999999999
 31
0.0
  0
LINE
  5
EA
330
1E
100
AcDbEntity
  8
0
100
AcDbLine
 10
40.0
 20
93.42789999999999
 30
0.0
 11
40.0
 21
92.8279
 31
0.0
  0
LINE
  5
EB
330
1E
100
AcDbEntity
  8
0
100
AcDbLine
 10
55.5
 20
94.02790000000001
 30
0.0
 11
55.5
 21
90.62789999999999
 31
0.0
  0
LINE
  5
EC
330
1E
100
AcDbEntity
  8
0
100
AcDbLine
 10
55.5
 20
94.02790000000001
 30
0.0
 11
55.5
 21
98.4279
 31
0.0
  0
LINE
  5
ED
330
1E
100
AcDbEntity
  8
0
100
AcDbLine
 10
59.5
 20
92.9279
 30
0.0
 11
59.5
 21
89.3279
 31
0.0
  0
LINE
  5
EE
330
1E
100
AcDbEntity
  8
0
100
AcDbLine
 10
59.5
 20
92.9279
 30
0.0
 11
59.5
 21
97.6279
 31
0.0
  0
LINE
  5
EF
330
1E
100
AcDbEntity
  8
0
100
AcDbLine
 10
60.0
 20
94.02790000000001
 30
0.0
 11
60.0
 21
90.62789999999999
 31
0.0
  0
LINE
  5
F0
330
1E
100
AcDbEntity
  8
0
100
AcDbLine
 10
61.0
 20
91.9279
 30
0.0
 11
61.0
 21
90.0279
 31
0.0
  0
LINE
  5
F1
330
1E
100
AcDbEntity
  8
0
100
AcDbLine
 10
61.0
 20
91.9279
 30
0.0
 11
61.0
 21
95.0279
 31
0.0
  0
LINE
  5
F2
330
1E
100
AcDbEntity
  8
0
100
AcDbLine
 10
61.0
 20
90.62789999999999
 30
0.0
 11
61.0
 21
88.6279
 31
0.0
  0
LINE
  5
F3
330
1E
100
AcDbEntity
  8
0
100
AcDbLine
 10
61.0
 20
90.62789999999999
 30
0.0
 11
61.0
 21
94.02790000000001
 31
0.0
  0
LINE
  5
F4
330
1E
100
AcDbEntity
  8
0
100
AcDbLine
 10
10.448
 20
96.12390000000001
 30
0.0
 11
10.783
 21
93.37000000000001
 31
0.0
  0
LINE
  5
F5
330
1E
100
AcDbEntity
  8
0
100
AcDbLine
 10
1.551999999999999
 20
96.12390000000001
 30
0.0
 11
1.857
 21
98.40560000000001
 31
0.0
  0
LINE
  5
F6
330
1E
100
AcDbEntity
  8
0
100
AcDbLine
 10
1.551999999999999
 20
96.12390000000001
 30
0.0
 11
1.76163133605916
 21
97.69214858847929
 31
0.0
  0
LINE
  5
F7
330
1E
100
AcDbEntity
  8
0
100
AcDbLine
 10
34.6
 20
97.22790000000001
 30
0.0
 11
39.0
 21
86.42789999999999
 31
0.0
  0
LINE
  5
F8
330
1E
100
AcDbEntity
  8
0
100
AcDbLine
 10
38.0
 20
96.7279
 30
0.0
 11
38.0
 21
95.3279
 31
0.0
  0
LINE
  5
F9
330
1E
100
AcDbEntity
  8
0
100
AcDbLine
 10
38.0
 20
96.7279
 30
0.0
 11
38.0
 21
98.82789999999999
 31
0.0
  0
LINE
  5
FA
330
1E
100
AcDbEntity
  8
0
100
AcDbLine
 10
38.0
 20
95.3279
 30
0.0
 11
38.0
 21
94.82789999999999
 31
0.0
  0
LINE
  5
FB
330
1E
100
AcDbEntity
  8
0
100
AcDbLine
 10
38.0
 20
95.3279
 30
0.0
 11
38.0
 21
96.7279
 31
0.0
  0
LINE
  5
FC
330
1E
100
AcDbEntity
  8
0
100
AcDbLine
 10
38.0
 20
94.82789999999999
 30
0.0
 11
38.5
 21
93.32790000000001
 31
0.0
  0
LINE
  5
FD
330
1E
100
AcDbEntity
  8
0
100
AcDbLine
 10
38.0
 20
94.82789999999999
 30
0.0
 11
38.0
 21
95.3279
 31
0.0
  0
LINE
  5
FE
330
1E
100
AcDbEntity
  8
0
100
AcDbLine
 10
38.5
 20
95.4279
 30
0.0
 11
38.5
 21
97.9279
 31
0.0
  0
LINE
  5
FF
330
1E
100
AcDbEntity
  8
0
100
AcDbLine
 10
38.5
 20
95.4279
 30
0.0
 11
38.5
 21
93.92789999999999
 31
0.0
  0
LINE
  5
100
330
1E
100
AcDbEntity
  8
0
100
AcDbLine
 10
0.5
 20
98.32790000000001
 30
0.0
 11
1.78380833571012
 21
97.8999638880966
 31
0.0
  0
LINE
  5
101
330
1E
100
AcDbEntity
  8
0
100
AcDbLine
 10
10.1695889339598
 20
98.3366668018794
 30
0.0
 11
11.0
 21
100.8278999999999
 31
0.0
  0
LINE
  5
102
330
1E
100
AcDbEntity
  8
0
100
AcDbLine
 10
10.14299999999999
 20
98.40560000000001
 30
0.0
 11
10.448
 21
96.12390000000001
 31
0.0
  0
LINE
  5
103
330
1E
100
AcDbEntity
  8
0
100
AcDbLine
 10
1.857
 20
98.40560000000001
 30
0.0
 11
2.0
 21
100.3279
 31
0.0
  0
LINE
  5
104
330
1E
100
AcDbEntity
  8
0
100
AcDbLine
 10
0.5
 20
98.32790000000001
 30
0.0
 11
0.5
 21
98.72790000000001
 31
0.0
  0
LINE
  5
105
330
1E
100
AcDbEntity
  8
0
100
AcDbLine
 10
0.5
 20
98.32790000000001
 30
0.0
 11
1.78380833571012
 21
97.8999638880966
 31
0.0
  0
LINE
  5
106
330
1E
100
AcDbEntity
  8
0
100
AcDbLine
 10
38.5
 20
97.9279
 30
0.0
 11
38.5
 21
95.4279
 31
0.0
  0
LINE
  5
107
330
1E
100
AcDbEntity
  8
0
100
AcDbLine
 10
38.5
 20
97.9279
 30
0.0
 11
38.5
 21
101.1279
 31
0.0
  0
LINE
  5
108
330
1E
100
AcDbEntity
  8
0
100
AcDbLine
 10
40.0
 20
97.5279
 30
0.0
 11
40.0
 21
94.92789999999999
 31
0.0
  0
LINE
  5
109
330
1E
100
AcDbEntity
  8
0
100
AcDbLine
 10
40.0
 20
97.5279
 30
0.0
 11
40.0
 21
100.8278999999999
 31
0.0
  0
LINE
  5
10A
330
1E
100
AcDbEntity
  8
0
100
AcDbLine
 10
56.0
 20
97.6279
 30
0.0
 11
56.0
 21
103.0278999999999
 31
0.0
  0
LINE
  5
10B
330
1E
100
AcDbEntity
  8
0
100
AcDbLine
 10
56.0
 20
97.6279
 30
0.0
 11
56.0
 21
92.9279
 31
0.0
  0
LINE
  5
10C
330
1E
100
AcDbEntity
  8
0
100
AcDbLine
 10
59.5
 20
97.6279
 30
0.0
 11
59.5
 21
103.0278999999999
 31
0.0
  0
LINE
  5
10D
330
1E
100
AcDbEntity
  8
0
100
AcDbLine
 10
59.5
 20
97.6279
 30
0.0
 11
59.5
 21
92.9279
 31
0.0
  0
LINE
  5
10E
330
1E
100
AcDbEntity
  8
0
100
AcDbLine
 10
40.0
 20
94.92789999999999
 30
0.0
 11
40.0
 21
97.5279
 31
0.0
  0
LINE
  5
10F
330
1E
100
AcDbEntity
  8
0
100
AcDbLine
 10
40.0
 20
94.92789999999999
 30
0.0
 11
40.0
 21
93.42789999999999
 31
0.0
  0
LINE
  5
110
330
1E
100
AcDbEntity
  8
0
100
AcDbLine
 10
40.49999999999999
 20
94.72790000000001
 30
0.0
 11
40.49999999999999
 21
91.52790000000001
 31
0.0
  0
LINE
  5
111
330
1E
100
AcDbEntity
  8
0
100
AcDbLine
 10
40.49999999999999
 20
94.72790000000001
 30
0.0
 11
40.49999999999999
 21
98.92789999999999
 31
0.0
  0
LINE
  5
112
330
1E
100
AcDbEntity
  8
0
100
AcDbLine
 10
61.0
 20
95.0279
 30
0.0
 11
61.0
 21
91.9279
 31
0.0
  0
LINE
  5
113
330
1E
100
AcDbEntity
  8
0
100
AcDbLine
 10
61.0
 20
95.0279
 30
0.0
 11
61.0
 21
99.12790000000001
 31
0.0
  0
LINE
  5
114
330
1E
100
AcDbEntity
  8
0
100
AcDbLine
 10
61.0
 20
94.02790000000001
 30
0.0
 11
61.0
 21
90.62789999999999
 31
0.0
  0
LINE
  5
115
330
1E
100
AcDbEntity
  8
0
100
AcDbLine
 10
61.0
 20
94.02790000000001
 30
0.0
 11
61.0
 21
98.32790000000001
 31
0.0
  0
LINE
  5
116
330
1E
100
AcDbEntity
  8
0
100
AcDbLine
 10
245.0
 20
90.62789999999999
 30
0.0
 11
245.0
 21
94.02790000000001
 31
0.0
  0
LINE
  5
117
330
1E
100
AcDbEntity
  8
0
100
AcDbLine
 10
245.0
 20
90.62789999999999
 30
0.0
 11
245.0
 21
88.6279
 31
0.0
  0
LINE
  5
118
330
1E
100
AcDbEntity
  8
0
100
AcDbLine
 10
247.0
 20
91.9279
 30
0.0
 11
247.0
 21
95.0279
 31
0.0
  0
LINE
  5
119
330
1E
100
AcDbEntity
  8
0
100
AcDbLine
 10
247.0
 20
95.0279
 30
0.0
 11
247.0
 21
99.12790000000001
 31
0.0
  0
LINE
  5
11A
330
1E
100
AcDbEntity
  8
0
100
AcDbLine
 10
245.0
 20
94.02790000000001
 30
0.0
 11
245.0
 21
98.32790000000001
 31
0.0
  0
LINE
  5
11B
330
1E
100
AcDbEntity
  8
0
100
AcDbLine
 10
245.0
 20
94.02790000000001
 30
0.0
 11
245.0
 21
90.62789999999999
 31
0.0
  0
LINE
  5
11C
330
1E
100
AcDbEntity
  8
0
100
AcDbLine
 10
245.0
 20
98.32790000000001
 30
0.0
 11
245.0
 21
103.4278999999999
 31
0.0
  0
LINE
  5
11D
330
1E
100
AcDbEntity
  8
0
100
AcDbLine
 10
245.0
 20
98.32790000000001
 30
0.0
 11
245.0
 21
94.02790000000001
 31
0.0
  0
LINE
  5
11E
330
1E
100
AcDbEntity
  8
0
100
AcDbLine
 10
61.0
 20
98.32790000000001
 30
0.0
 11
61.0
 21
94.02790000000001
 31
0.0
  0
LINE
  5
11F
330
1E
100
AcDbEntity
  8
0
100
AcDbLine
 10
61.0
 20
98.32790000000001
 30
0.0
 11
61.0
 21
103.4278999999999
 31
0.0
  0
LINE
  5
120
330
1E
100
AcDbEntity
  8
0
100
AcDbLine
 10
0.5
 20
98.72790000000001
 30
0.0
 11
0.5
 21
99.72790000000001
 31
0.0
  0
LINE
  5
121
330
1E
100
AcDbEntity
  8
0
100
AcDbLine
 10
0.5
 20
98.72790000000001
 30
0.0
 11
0.5
 21
98.32790000000001
 31
0.0
  0
LINE
  5
122
330
1E
100
AcDbEntity
  8
0
100
AcDbLine
 10
34.3793103448276
 20
98.82789999999999
 30
0.0
 11
34.6
 21
97.22790000000001
 31
0.0
  0
LINE
  5
123
330
1E
100
AcDbEntity
  8
0
100
AcDbLine
 10
17.6
 20
98.82789999999999
 30
0.0
 11
38.0
 21
98.82789999999999
 31
0.0
  0
LINE
  5
124
330
1E
100
AcDbEntity
  8
0
100
AcDbLine
 10
17.6
 20
98.82789999999999
 30
0.0
 11
38.0
 21
98.82789999999999
 31
0.0
  0
LINE
  5
125
330
1E
100
AcDbEntity
  8
0
100
AcDbLine
 10
38.0
 20
98.82789999999999
 30
0.0
 11
38.0
 21
96.7279
 31
0.0
  0
LINE
  5
126
330
1E
100
AcDbEntity
  8
0
100
AcDbLine
 10
38.0
 20
98.82789999999999
 30
0.0
 11
38.0
 21
99.18790000000001
 31
0.0
  0
LINE
  5
127
330
1E
100
AcDbEntity
  8
0
100
AcDbLine
 10
0.0
 20
100.1279
 30
0.0
 11
0.0
 21
99.82790000000001
 31
0.0
  0
LINE
  5
128
330
1E
100
AcDbEntity
  8
0
100
AcDbLine
 10
0.0
 20
100.1279
 30
0.0
 11
0.0
 21
101.0279
 31
0.0
  0
LINE
  5
129
330
1E
100
AcDbEntity
  8
0
100
AcDbLine
 10
0.0
 20
99.82790000000001
 30
0.0
 11
0.5
 21
98.32790000000001
 31
0.0
  0
LINE
  5
12A
330
1E
100
AcDbEntity
  8
0
100
AcDbLine
 10
0.0
 20
99.82790000000001
 30
0.0
 11
0.0
 21
100.1279
 31
0.0
  0
LINE
  5
12B
330
1E
100
AcDbEntity
  8
0
100
AcDbLine
 10
0.5
 20
99.72790000000001
 30
0.0
 11
0.5
 21
101.4278999999999
 31
0.0
  0
LINE
  5
12C
330
1E
100
AcDbEntity
  8
0
100
AcDbLine
 10
0.5
 20
99.72790000000001
 30
0.0
 11
0.5
 21
98.72790000000001
 31
0.0
  0
LINE
  5
12D
330
1E
100
AcDbEntity
  8
0
100
AcDbLine
 10
17.0
 20
99.4279
 30
0.0
 11
17.0
 21
99.0679
 31
0.0
  0
LINE
  5
12E
330
1E
100
AcDbEntity
  8
0
100
AcDbLine
 10
17.0
 20
99.4279
 30
0.0
 11
17.0
 21
100.3878999999999
 31
0.0
  0
LINE
  5
12F
330
1E
100
AcDbEntity
  8
0
100
AcDbLine
 10
17.0
 20
99.0679
 30
0.0
 11
17.6
 21
98.82789999999999
 31
0.0
  0
LINE
  5
130
330
1E
100
AcDbEntity
  8
0
100
AcDbLine
 10
17.0
 20
99.0679
 30
0.0
 11
17.0
 21
99.4279
 31
0.0
  0
LINE
  5
131
330
1E
100
AcDbEntity
  8
0
100
AcDbLine
 10
11.0
 20
101.1279
 30
0.0
 11
11.0
 21
101.9279
 31
0.0
  0
LINE
  5
132
330
1E
100
AcDbEntity
  8
0
100
AcDbLine
 10
11.0
 20
101.1279
 30
0.0
 11
11.0
 21
100.8278999999999
 31
0.0
  0
LINE
  5
133
330
1E
100
AcDbEntity
  8
0
100
AcDbLine
 10
11.0
 20
100.8278999999999
 30
0.0
 11
11.0
 21
101.1279
 31
0.0
  0
LINE
  5
134
330
1E
100
AcDbEntity
  8
0
100
AcDbLine
 10
11.0
 20
100.8278999999999
 30
0.0
 11
13.0
 21
102.3279
 31
0.0
  0
LINE
  5
135
330
1E
100
AcDbEntity
  8
0
100
AcDbLine
 10
0.0
 20
101.0279
 30
0.0
 11
0.0
 21
100.1279
 31
0.0
  0
LINE
  5
136
330
1E
100
AcDbEntity
  8
0
100
AcDbLine
 10
0.0
 20
101.0279
 30
0.0
 11
0.0
 21
102.4278999999999
 31
0.0
  0
LINE
  5
137
330
1E
100
AcDbEntity
  8
0
100
AcDbLine
 10
10.0
 20
100.3279
 30
0.0
 11
10.14299999999999
 21
98.40560000000001
 31
0.0
  0
LINE
  5
138
330
1E
100
AcDbEntity
  8
0
100
AcDbLine
 10
10.0
 20
100.3279
 30
0.0
 11
10.14299999999999
 21
102.8278999999999
 31
0.0
  0
LINE
  5
139
330
1E
100
AcDbEntity
  8
0
100
AcDbLine
 10
17.0
 20
100.3878999999999
 30
0.0
 11
17.0
 21
99.4279
 31
0.0
  0
LINE
  5
13A
330
1E
100
AcDbEntity
  8
0
100
AcDbLine
 10
17.0
 20
100.3878999999999
 30
0.0
 11
17.0
 21
101.9479
 31
0.0
  0
LINE
  5
13B
330
1E
100
AcDbEntity
  8
0
100
AcDbLine
 10
38.0
 20
100.1479
 30
0.0
 11
38.0
 21
101.7479
 31
0.0
  0
LINE
  5
13C
330
1E
100
AcDbEntity
  8
0
100
AcDbLine
 10
38.0
 20
99.18790000000001
 30
0.0
 11
38.0
 21
100.1479
 31
0.0
  0
LINE
  5
13D
330
1E
100
AcDbEntity
  8
0
100
AcDbLine
 10
11.0
 20
101.9279
 30
0.0
 11
11.0
 21
103.2279
 31
0.0
  0
LINE
  5
13E
330
1E
100
AcDbEntity
  8
0
100
AcDbLine
 10
11.0
 20
101.9279
 30
0.0
 11
11.0
 21
101.1279
 31
0.0
  0
LINE
  5
13F
330
1E
100
AcDbEntity
  8
0
100
AcDbLine
 10
0.5
 20
101.4278999999999
 30
0.0
 11
0.5
 21
99.72790000000001
 31
0.0
  0
LINE
  5
140
330
1E
100
AcDbEntity
  8
0
100
AcDbLine
 10
0.5
 20
101.4278999999999
 30
0.0
 11
0.5
 21
103.6278999999999
 31
0.0
  0
LINE
  5
141
330
1E
100
AcDbEntity
  8
0
100
AcDbLine
 10
0.0
 20
102.4278999999999
 30
0.0
 11
0.0
 21
104.3279
 31
0.0
  0
LINE
  5
142
330
1E
100
AcDbEntity
  8
0
100
AcDbLine
 10
0.0
 20
102.4278999999999
 30
0.0
 11
0.0
 21
101.0279
 31
0.0
  0
LINE
  5
143
330
1E
100
AcDbEntity
  8
0
100
AcDbLine
 10
13.0
 20
102.5279
 30
0.0
 11
13.0
 21
103.2279
 31
0.0
  0
LINE
  5
144
330
1E
100
AcDbEntity
  8
0
100
AcDbLine
 10
13.0
 20
102.5279
 30
0.0
 11
13.0
 21
102.3279
 31
0.0
  0
LINE
  5
145
330
1E
100
AcDbEntity
  8
0
100
AcDbLine
 10
13.0
 20
102.3279
 30
0.0
 11
13.0
 21
102.5279
 31
0.0
  0
LINE
  5
146
330
1E
100
AcDbEntity
  8
0
100
AcDbLine
 10
13.0
 20
102.3279
 30
0.0
 11
17.0
 21
102.3279
 31
0.0
  0
LINE
  5
147
330
1E
100
AcDbEntity
  8
0
100
AcDbLine
 10
17.0
 20
102.5279
 30
0.0
 11
17.0
 21
102.3279
 31
0.0
  0
LINE
  5
148
330
1E
100
AcDbEntity
  8
0
100
AcDbLine
 10
1.857
 20
102.8278999999999
 30
0.0
 11
2.0
 21
100.3279
 31
0.0
  0
LINE
  5
149
330
1E
100
AcDbEntity
  8
0
100
AcDbLine
 10
10.14299999999999
 20
102.8278999999999
 30
0.0
 11
10.448
 21
104.8376999999999
 31
0.0
  0
LINE
  5
14A
330
1E
100
AcDbEntity
  8
0
100
AcDbLine
 10
17.0
 20
102.3279
 30
0.0
 11
17.0
 21
101.9479
 31
0.0
  0
LINE
  5
14B
330
1E
100
AcDbEntity
  8
0
100
AcDbLine
 10
17.0
 20
101.9479
 30
0.0
 11
17.0
 21
100.3878999999999
 31
0.0
  0
LINE
  5
14C
330
1E
100
AcDbEntity
  8
0
100
AcDbLine
 10
17.0
 20
101.9479
 30
0.0
 11
17.0
 21
103.9878999999999
 31
0.0
  0
LINE
  5
14D
330
1E
100
AcDbEntity
  8
0
100
AcDbLine
 10
17.0
 20
101.9479
 30
0.0
 11
17.0
 21
102.3279
 31
0.0
  0
LINE
  5
14E
330
1E
100
AcDbEntity
  8
0
100
AcDbLine
 10
38.0
 20
101.7479
 30
0.0
 11
38.0
 21
103.8679
 31
0.0
  0
LINE
  5
14F
330
1E
100
AcDbEntity
  8
0
100
AcDbLine
 10
38.5
 20
101.1279
 30
0.0
 11
38.5
 21
104.8278999999999
 31
0.0
  0
LINE
  5
150
330
1E
100
AcDbEntity
  8
0
100
AcDbLine
 10
38.5
 20
101.1279
 30
0.0
 11
38.5
 21
97.9279
 31
0.0
  0
LINE
  5
151
330
1E
100
AcDbEntity
  8
0
100
AcDbLine
 10
40.0
 20
100.8278999999999
 30
0.0
 11
40.0
 21
104.7279
 31
0.0
  0
LINE
  5
152
330
1E
100
AcDbEntity
  8
0
100
AcDbLine
 10
40.0
 20
100.8278999999999
 30
0.0
 11
40.0
 21
97.5279
 31
0.0
  0
LINE
  5
153
330
1E
100
AcDbEntity
  8
0
100
AcDbLine
 10
40.49999999999999
 20
98.92789999999999
 30
0.0
 11
40.49999999999999
 21
103.7279
 31
0.0
  0
LINE
  5
154
330
1E
100
AcDbEntity
  8
0
100
AcDbLine
 10
40.49999999999999
 20
98.92789999999999
 30
0.0
 11
40.49999999999999
 21
94.72790000000001
 31
0.0
  0
LINE
  5
155
330
1E
100
AcDbEntity
  8
0
100
AcDbLine
 10
55.5
 20
98.4279
 30
0.0
 11
55.5
 21
103.4278999999999
 31
0.0
  0
LINE
  5
156
330
1E
100
AcDbEntity
  8
0
100
AcDbLine
 10
55.5
 20
98.4279
 30
0.0
 11
55.5
 21
94.02790000000001
 31
0.0
  0
LINE
  5
157
330
1E
100
AcDbEntity
  8
0
100
AcDbLine
 10
56.0
 20
103.0278999999999
 30
0.0
 11
56.0
 21
108.8278999999999
 31
0.0
  0
LINE
  5
158
330
1E
100
AcDbEntity
  8
0
100
AcDbLine
 10
56.0
 20
103.0278999999999
 30
0.0
 11
56.0
 21
97.6279
 31
0.0
  0
LINE
  5
159
330
1E
100
AcDbEntity
  8
0
100
AcDbLine
 10
60.0
 20
98.4279
 30
0.0
 11
60.0
 21
94.02790000000001
 31
0.0
  0
LINE
  5
15A
330
1E
100
AcDbEntity
  8
0
100
AcDbLine
 10
11.0
 20
103.2279
 30
0.0
 11
11.0
 21
101.9279
 31
0.0
  0
LINE
  5
15B
330
1E
100
AcDbEntity
  8
0
100
AcDbLine
 10
11.0
 20
103.2279
 30
0.0
 11
11.0
 21
104.8278999999999
 31
0.0
  0
LINE
  5
15C
330
1E
100
AcDbEntity
  8
0
100
AcDbLine
 10
13.0
 20
103.2279
 30
0.0
 11
13.0
 21
104.2279
 31
0.0
  0
LINE
  5
15D
330
1E
100
AcDbEntity
  8
0
100
AcDbLine
 10
13.0
 20
103.2279
 30
0.0
 11
13.0
 21
102.5279
 31
0.0
  0
LINE
  5
15E
330
1E
100
AcDbEntity
  8
0
100
AcDbLine
 10
17.0
 20
103.2279
 30
0.0
 11
17.0
 21
102.5279
 31
0.0
  0
LINE
  5
15F
330
1E
100
AcDbEntity
  8
0
100
AcDbLine
 10
55.5
 20
103.4278999999999
 30
0.0
 11
55.5
 21
108.8278999999999
 31
0.0
  0
LINE
  5
160
330
1E
100
AcDbEntity
  8
0
100
AcDbLine
 10
55.5
 20
103.4278999999999
 30
0.0
 11
55.5
 21
98.4279
 31
0.0
  0
LINE
  5
161
330
1E
100
AcDbEntity
  8
0
100
AcDbLine
 10
60.0
 20
103.4278999999999
 30
0.0
 11
60.0
 21
98.4279
 31
0.0
  0
LINE
  5
162
330
1E
100
AcDbEntity
  8
0
100
AcDbLine
 10
59.5
 20
103.0278999999999
 30
0.0
 11
59.5
 21
108.8278999999999
 31
0.0
  0
LINE
  5
163
330
1E
100
AcDbEntity
  8
0
100
AcDbLine
 10
59.5
 20
103.0278999999999
 30
0.0
 11
59.5
 21
97.6279
 31
0.0
  0
LINE
  5
164
330
1E
100
AcDbEntity
  8
0
100
AcDbLine
 10
61.0
 20
99.12790000000001
 30
0.0
 11
61.0
 21
95.0279
 31
0.0
  0
LINE
  5
165
330
1E
100
AcDbEntity
  8
0
100
AcDbLine
 10
61.0
 20
99.12790000000001
 30
0.0
 11
61.0
 21
103.8278999999999
 31
0.0
  0
LINE
  5
166
330
1E
100
AcDbEntity
  8
0
100
AcDbLine
 10
0.5
 20
103.6278999999999
 30
0.0
 11
0.5
 21
106.1279
 31
0.0
  0
LINE
  5
167
330
1E
100
AcDbEntity
  8
0
100
AcDbLine
 10
0.5
 20
103.6278999999999
 30
0.0
 11
0.5
 21
101.4278999999999
 31
0.0
  0
LINE
  5
168
330
1E
100
AcDbEntity
  8
0
100
AcDbLine
 10
13.0
 20
104.2279
 30
0.0
 11
13.0
 21
103.2279
 31
0.0
  0
LINE
  5
169
330
1E
100
AcDbEntity
  8
0
100
AcDbLine
 10
13.0
 20
104.2279
 30
0.0
 11
13.0
 21
105.6278999999999
 31
0.0
  0
LINE
  5
16A
330
1E
100
AcDbEntity
  8
0
100
AcDbLine
 10
17.0
 20
104.2279
 30
0.0
 11
17.0
 21
103.2279
 31
0.0
  0
LINE
  5
16B
330
1E
100
AcDbEntity
  8
0
100
AcDbLine
 10
0.0
 20
104.3279
 30
0.0
 11
0.0
 21
102.4278999999999
 31
0.0
  0
LINE
  5
16C
330
1E
100
AcDbEntity
  8
0
100
AcDbLine
 10
0.0
 20
104.3279
 30
0.0
 11
0.0
 21
106.5279
 31
0.0
  0
LINE
  5
16D
330
1E
100
AcDbEntity
  8
0
100
AcDbLine
 10
17.0
 20
103.9878999999999
 30
0.0
 11
17.0
 21
101.9479
 31
0.0
  0
LINE
  5
16E
330
1E
100
AcDbEntity
  8
0
100
AcDbLine
 10
17.0
 20
103.9878999999999
 30
0.0
 11
17.0
 21
106.3079
 31
0.0
  0
LINE
  5
16F
330
1E
100
AcDbEntity
  8
0
100
AcDbLine
 10
38.0
 20
103.8679
 30
0.0
 11
38.0
 21
106.2678999999999
 31
0.0
  0
LINE
  5
170
330
1E
100
AcDbEntity
  8
0
100
AcDbLine
 10
1.551999999999999
 20
104.8376999999999
 30
0.0
 11
1.857
 21
102.8278999999999
 31
0.0
  0
LINE
  5
171
330
1E
100
AcDbEntity
  8
0
100
AcDbLine
 10
0.5
 20
106.1279
 30
0.0
 11
0.5
 21
107.619082364729
 31
0.0
  0
LINE
  5
172
330
1E
100
AcDbEntity
  8
0
100
AcDbLine
 10
0.5
 20
106.1279
 30
0.0
 11
0.5
 21
103.6278999999999
 31
0.0
  0
LINE
  5
173
330
1E
100
AcDbEntity
  8
0
100
AcDbLine
 10
11.0
 20
104.8278999999999
 30
0.0
 11
11.0
 21
106.7279
 31
0.0
  0
LINE
  5
174
330
1E
100
AcDbEntity
  8
0
100
AcDbLine
 10
11.0
 20
104.8278999999999
 30
0.0
 11
11.0
 21
103.2279
 31
0.0
  0
LINE
  5
175
330
1E
100
AcDbEntity
  8
0
100
AcDbLine
 10
17.0
 20
105.6278999999999
 30
0.0
 11
17.0
 21
104.2279
 31
0.0
  0
LINE
  5
176
330
1E
100
AcDbEntity
  8
0
100
AcDbLine
 10
13.0
 20
105.6278999999999
 30
0.0
 11
13.0
 21
107.1279
 31
0.0
  0
LINE
  5
177
330
1E
100
AcDbEntity
  8
0
100
AcDbLine
 10
13.0
 20
105.6278999999999
 30
0.0
 11
13.0
 21
104.2279
 31
0.0
  0
LINE
  5
178
330
1E
100
AcDbEntity
  8
0
100
AcDbLine
 10
10.448
 20
104.8376999999999
 30
0.0
 11
10.783
 21
106.6815
 31
0.0
  0
LINE
  5
179
330
1E
100
AcDbEntity
  8
0
100
AcDbLine
 10
0.0
 20
106.5279
 30
0.0
 11
0.0
 21
104.3279
 31
0.0
  0
LINE
  5
17A
330
1E
100
AcDbEntity
  8
0
100
AcDbLine
 10
0.0
 20
106.5279
 30
0.0
 11
0.0
 21
108.8278999999999
 31
0.0
  0
LINE
  5
17B
330
1E
100
AcDbEntity
  8
0
100
AcDbLine
 10
3.051
 20
107.0278999999999
 30
0.0
 11
6.0
 21
106.8278999999999
 31
0.0
  0
LINE
  5
17C
330
1E
100
AcDbEntity
  8
0
100
AcDbLine
 10
6.0
 20
106.8278999999999
 30
0.0
 11
8.948999999999999
 21
107.0278999999999
 31
0.0
  0
LINE
  5
17D
330
1E
100
AcDbEntity
  8
0
100
AcDbLine
 10
11.0
 20
107.1123705882349
 30
0.0
 11
11.0
 21
106.7279
 31
0.0
  0
LINE
  5
17E
330
1E
100
AcDbEntity
  8
0
100
AcDbLine
 10
11.0
 20
106.7279
 30
0.0
 11
11.0
 21
107.1123705882349
 31
0.0
  0
LINE
  5
17F
330
1E
100
AcDbEntity
  8
0
100
AcDbLine
 10
11.0
 20
106.7279
 30
0.0
 11
11.0
 21
104.8278999999999
 31
0.0
  0
LINE
  5
180
330
1E
100
AcDbEntity
  8
0
100
AcDbLine
 10
17.0
 20
107.1279
 30
0.0
 11
17.0
 21
105.6278999999999
 31
0.0
  0
LINE
  5
181
330
1E
100
AcDbEntity
  8
0
100
AcDbLine
 10
13.0
 20
107.1279
 30
0.0
 11
13.0
 21
108.8278999999999
 31
0.0
  0
LINE
  5
182
330
1E
100
AcDbEntity
  8
0
100
AcDbLine
 10
13.0
 20
107.1279
 30
0.0
 11
13.0
 21
105.6278999999999
 31
0.0
  0
LINE
  5
183
330
1E
100
AcDbEntity
  8
0
100
AcDbLine
 10
8.948999999999999
 20
107.0278999999999
 30
0.0
 11
11.409
 21
107.5279
 31
0.0
  0
LINE
  5
184
330
1E
100
AcDbEntity
  8
0
100
AcDbLine
 10
10.783
 20
106.6815
 30
0.0
 11
11.1714078588698
 21
107.452714389984
 31
0.0
  0
LINE
  5
185
330
1E
100
AcDbEntity
  8
0
100
AcDbLine
 10
1.217
 20
106.6815
 30
0.0
 11
1.551999999999999
 21
104.8376999999999
 31
0.0
  0
LINE
  5
186
330
1E
100
AcDbEntity
  8
0
100
AcDbLine
 10
0.5
 20
107.619082364729
 30
0.0
 11
0.5
 21
106.1279
 31
0.0
  0
LINE
  5
187
330
1E
100
AcDbEntity
  8
0
100
AcDbLine
 10
0.5910000000000001
 20
107.5279
 30
0.0
 11
3.051
 21
107.0278999999999
 31
0.0
  0
LINE
  5
188
330
1E
100
AcDbEntity
  8
0
100
AcDbLine
 10
0.0920000000000001
 20
108.0278999999999
 30
0.0
 11
0.4760000000000001
 21
108.0278999999999
 31
0.0
  0
LINE
  5
189
330
1E
100
AcDbEntity
  8
0
100
AcDbLine
 10
0.0920000000000001
 20
108.0278999999999
 30
0.0
 11
0.5910000000000001
 21
107.5279
 31
0.0
  0
LINE
  5
18B
330
1E
100
AcDbEntity
  8
0
100
AcDbLine
 10
0.5910000000000001
 20
107.5279
 30
0.0
 11
3.051
 21
107.0278999999999
 31
0.0
  0
LINE
  5
18C
330
1E
100
AcDbEntity
  8
0
100
AcDbLine
 10
0.4760000000000001
 20
108.0278999999999
 30
0.0
 11
1.187
 21
108.0278999999999
 31
0.0
  0
LINE
  5
18D
330
1E
100
AcDbEntity
  8
0
100
AcDbLine
 10
0.092
 20
108.0278999999999
 30
0.0
 11
0.4760000000000001
 21
108.0278999999999
 31
0.0
  0
LINE
  5
18E
330
1E
100
AcDbEntity
  8
0
100
AcDbLine
 10
0.092
 20
108.0278999999999
 30
0.0
 11
0.111
 21
108.8278999999999
 31
0.0
  0
LINE
  5
18F
330
1E
100
AcDbEntity
  8
0
100
AcDbLine
 10
0.092
 20
108.0278999999999
 30
0.0
 11
0.5910000000000001
 21
107.5279
 31
0.0
  0
LINE
  5
190
330
1E
100
AcDbEntity
  8
0
100
AcDbLine
 10
0.0
 20
108.8278999999999
 30
0.0
 11
0.0
 21
111.1278999999999
 31
0.0
  0
LINE
  5
191
330
1E
100
AcDbEntity
  8
0
100
AcDbLine
 10
0.0
 20
108.8278999999999
 30
0.0
 11
0.0
 21
106.5279
 31
0.0
  0
LINE
  5
192
330
1E
100
AcDbEntity
  8
0
100
AcDbLine
 10
0.4760000000000001
 20
108.0278999999999
 30
0.0
 11
1.187
 21
108.0278999999999
 31
0.0
  0
LINE
  5
194
330
1E
100
AcDbEntity
  8
0
100
AcDbLine
 10
0.8285921411301858
 20
107.452714389984
 30
0.0
 11
1.217
 21
106.6815
 31
0.0
  0
LINE
  5
197
330
1E
100
AcDbEntity
  8
0
100
AcDbLine
 10
1.187
 20
108.0278999999999
 30
0.0
 11
1.955999999999999
 21
108.0278999999999
 31
0.0
  0
LINE
  5
198
330
1E
100
AcDbEntity
  8
0
100
AcDbLine
 10
1.955999999999999
 20
108.0278999999999
 30
0.0
 11
3.071
 21
108.0278999999999
 31
0.0
  0
LINE
  5
199
330
1E
100
AcDbEntity
  8
0
100
AcDbLine
 10
3.071
 20
108.0278999999999
 30
0.0
 11
6.0
 21
108.0278999999999
 31
0.0
  0
LINE
  5
19C
330
1E
100
AcDbEntity
  8
0
100
AcDbLine
 10
11.409
 20
107.5279
 30
0.0
 11
11.908
 21
108.0278999999999
 31
0.0
  0
LINE
  5
19E
330
1E
100
AcDbEntity
  8
0
100
AcDbLine
 10
11.524
 20
108.0278999999999
 30
0.0
 11
11.908
 21
108.0278999999999
 31
0.0
  0
LINE
  5
19F
330
1E
100
AcDbEntity
  8
0
100
AcDbLine
 10
10.81299999999999
 20
108.0278999999999
 30
0.0
 11
11.524
 21
108.0278999999999
 31
0.0
  0
LINE
  5
1A0
330
1E
100
AcDbEntity
  8
0
100
AcDbLine
 10
10.044
 20
108.0278999999999
 30
0.0
 11
10.81299999999999
 21
108.0278999999999
 31
0.0
  0
LINE
  5
1A1
330
1E
100
AcDbEntity
  8
0
100
AcDbLine
 10
13.0
 20
108.8278999999999
 30
0.0
 11
13.0
 21
107.1279
 31
0.0
  0
LINE
  5
1A2
330
1E
100
AcDbEntity
  8
0
100
AcDbLine
 10
13.0
 20
108.8278999999999
 30
0.0
 11
13.0
 21
110.5279
 31
0.0
  0
LINE
  5
1A3
330
1E
100
AcDbEntity
  8
0
100
AcDbLine
 10
11.889
 20
108.8278999999999
 30
0.0
 11
11.908
 21
108.0278999999999
 31
0.0
  0
LINE
  5
1A4
330
1E
100
AcDbEntity
  8
0
100
AcDbLine
 10
11.889
 20
108.8278999999999
 30
0.0
 11
11.908
 21
109.6279
 31
0.0
  0
LINE
  5
1A5
330
1E
100
AcDbEntity
  8
0
100
AcDbLine
 10
8.929
 20
108.0278999999999
 30
0.0
 11
10.044
 21
108.0278999999999
 31
0.0
  0
LINE
  5
1A6
330
1E
100
AcDbEntity
  8
0
100
AcDbLine
 10
6.0
 20
108.0278999999999
 30
0.0
 11
8.929
 21
108.0278999999999
 31
0.0
  0
LINE
  5
1A8
330
1E
100
AcDbEntity
  8
0
100
AcDbLine
 10
38.0
 20
108.8278999999999
 30
0.0
 11
38.0
 21
111.3879
 31
0.0
  0
LINE
  5
1A9
330
1E
100
AcDbEntity
  8
0
100
AcDbLine
 10
17.0
 20
108.8278999999999
 30
0.0
 11
17.0
 21
106.3079
 31
0.0
  0
LINE
  5
1AA
330
1E
100
AcDbEntity
  8
0
100
AcDbLine
 10
17.0
 20
108.8278999999999
 30
0.0
 11
17.0
 21
111.3478999999999
 31
0.0
  0
LINE
  5
1AB
330
1E
100
AcDbEntity
  8
0
100
AcDbLine
 10
17.0
 20
108.8278999999999
 30
0.0
 11
17.0
 21
107.1279
 31
0.0
  0
LINE
  5
1AC
330
1E
100
AcDbEntity
  8
0
100
AcDbLine
 10
17.0
 20
106.3079
 30
0.0
 11
17.0
 21
103.9878999999999
 31
0.0
  0
LINE
  5
1AD
330
1E
100
AcDbEntity
  8
0
100
AcDbLine
 10
17.0
 20
106.3079
 30
0.0
 11
17.0
 21
108.8278999999999
 31
0.0
  0
LINE
  5
1AE
330
1E
100
AcDbEntity
  8
0
100
AcDbLine
 10
38.0
 20
106.2678999999999
 30
0.0
 11
38.0
 21
108.8278999999999
 31
0.0
  0
LINE
  5
1AF
330
1E
100
AcDbEntity
  8
0
100
AcDbLine
 10
38.5
 20
108.8278999999999
 30
0.0
 11
38.5
 21
104.8278999999999
 31
0.0
  0
LINE
  5
1B0
330
1E
100
AcDbEntity
  8
0
100
AcDbLine
 10
38.5
 20
108.8278999999999
 30
0.0
 11
38.5
 21
112.8279
 31
0.0
  0
LINE
  5
1B1
330
1E
100
AcDbEntity
  8
0
100
AcDbLine
 10
40.0
 20
108.8278999999999
 30
0.0
 11
40.0
 21
104.7279
 31
0.0
  0
LINE
  5
1B2
330
1E
100
AcDbEntity
  8
0
100
AcDbLine
 10
40.0
 20
108.8278999999999
 30
0.0
 11
40.0
 21
112.9278999999999
 31
0.0
  0
LINE
  5
1B3
330
1E
100
AcDbEntity
  8
0
100
AcDbLine
 10
38.5
 20
104.8278999999999
 30
0.0
 11
38.5
 21
108.8278999999999
 31
0.0
  0
LINE
  5
1B4
330
1E
100
AcDbEntity
  8
0
100
AcDbLine
 10
38.5
 20
104.8278999999999
 30
0.0
 11
38.5
 21
101.1279
 31
0.0
  0
LINE
  5
1B5
330
1E
100
AcDbEntity
  8
0
100
AcDbLine
 10
40.0
 20
104.7279
 30
0.0
 11
40.0
 21
108.8278999999999
 31
0.0
  0
LINE
  5
1B6
330
1E
100
AcDbEntity
  8
0
100
AcDbLine
 10
40.0
 20
104.7279
 30
0.0
 11
40.0
 21
100.8278999999999
 31
0.0
  0
LINE
  5
1B7
330
1E
100
AcDbEntity
  8
0
100
AcDbLine
 10
40.49999999999999
 20
108.8278999999999
 30
0.0
 11
40.49999999999999
 21
103.7279
 31
0.0
  0
LINE
  5
1B8
330
1E
100
AcDbEntity
  8
0
100
AcDbLine
 10
40.49999999999999
 20
108.8278999999999
 30
0.0
 11
40.49999999999999
 21
113.9278999999999
 31
0.0
  0
LINE
  5
1B9
330
1E
100
AcDbEntity
  8
0
100
AcDbLine
 10
40.49999999999999
 20
103.7279
 30
0.0
 11
40.49999999999999
 21
108.8278999999999
 31
0.0
  0
LINE
  5
1BA
330
1E
100
AcDbEntity
  8
0
100
AcDbLine
 10
40.49999999999999
 20
103.7279
 30
0.0
 11
40.49999999999999
 21
98.92789999999999
 31
0.0
  0
LINE
  5
1BB
330
1E
100
AcDbEntity
  8
0
100
AcDbLine
 10
55.5
 20
108.8278999999999
 30
0.0
 11
55.5
 21
103.4278999999999
 31
0.0
  0
LINE
  5
1BC
330
1E
100
AcDbEntity
  8
0
100
AcDbLine
 10
55.5
 20
108.8278999999999
 30
0.0
 11
55.5
 21
114.2279
 31
0.0
  0
LINE
  5
1BD
330
1E
100
AcDbEntity
  8
0
100
AcDbLine
 10
56.0
 20
108.8278999999999
 30
0.0
 11
56.0
 21
103.0278999999999
 31
0.0
  0
LINE
  5
1BE
330
1E
100
AcDbEntity
  8
0
100
AcDbLine
 10
56.0
 20
108.8278999999999
 30
0.0
 11
56.0
 21
114.6279
 31
0.0
  0
LINE
  5
1BF
330
1E
100
AcDbEntity
  8
0
100
AcDbLine
 10
59.5
 20
108.8278999999999
 30
0.0
 11
59.5
 21
103.0278999999999
 31
0.0
  0
LINE
  5
1C0
330
1E
100
AcDbEntity
  8
0
100
AcDbLine
 10
59.5
 20
108.8278999999999
 30
0.0
 11
59.5
 21
114.6279
 31
0.0
  0
LINE
  5
1C1
330
1E
100
AcDbEntity
  8
0
100
AcDbLine
 10
60.0
 20
108.8278999999999
 30
0.0
 11
60.0
 21
103.4278999999999
 31
0.0
  0
LINE
  5
1C2
330
1E
100
AcDbEntity
  8
0
100
AcDbLine
 10
61.0
 20
103.8278999999999
 30
0.0
 11
61.0
 21
99.12790000000001
 31
0.0
  0
LINE
  5
1C3
330
1E
100
AcDbEntity
  8
0
100
AcDbLine
 10
61.0
 20
103.8278999999999
 30
0.0
 11
61.0
 21
108.8278999999999
 31
0.0
  0
LINE
  5
1C4
330
1E
100
AcDbEntity
  8
0
100
AcDbLine
 10
61.0
 20
103.4278999999999
 30
0.0
 11
61.0
 21
98.32790000000001
 31
0.0
  0
LINE
  5
1C5
330
1E
100
AcDbEntity
  8
0
100
AcDbLine
 10
61.0
 20
103.4278999999999
 30
0.0
 11
61.0
 21
108.8278999999999
 31
0.0
  0
LINE
  5
1C6
330
1E
100
AcDbEntity
  8
0
100
AcDbLine
 10
247.0
 20
99.12790000000001
 30
0.0
 11
247.0
 21
103.8278999999999
 31
0.0
  0
LINE
  5
1C7
330
1E
100
AcDbEntity
  8
0
100
AcDbLine
 10
247.0
 20
103.8278999999999
 30
0.0
 11
247.0
 21
108.8278999999999
 31
0.0
  0
LINE
  5
1C8
330
1E
100
AcDbEntity
  8
0
100
AcDbLine
 10
245.0
 20
103.4278999999999
 30
0.0
 11
245.0
 21
108.8278999999999
 31
0.0
  0
LINE
  5
1C9
330
1E
100
AcDbEntity
  8
0
100
AcDbLine
 10
245.0
 20
103.4278999999999
 30
0.0
 11
245.0
 21
98.32790000000001
 31
0.0
  0
LINE
  5
1CA
330
1E
100
AcDbEntity
  8
0
100
AcDbLine
 10
245.0
 20
108.8278999999999
 30
0.0
 11
245.0
 21
114.2279
 31
0.0
  0
LINE
  5
1CB
330
1E
100
AcDbEntity
  8
0
100
AcDbLine
 10
245.0
 20
108.8278999999999
 30
0.0
 11
245.0
 21
103.4278999999999
 31
0.0
  0
LINE
  5
1CC
330
1E
100
AcDbEntity
  8
0
100
AcDbLine
 10
61.0
 20
108.8278999999999
 30
0.0
 11
61.0
 21
103.4278999999999
 31
0.0
  0
LINE
  5
1CD
330
1E
100
AcDbEntity
  8
0
100
AcDbLine
 10
61.0
 20
108.8278999999999
 30
0.0
 11
61.0
 21
103.8278999999999
 31
0.0
  0
LINE
  5
1CE
330
1E
100
AcDbEntity
  8
0
100
AcDbLine
 10
61.0
 20
108.8278999999999
 30
0.0
 11
61.0
 21
114.2279
 31
0.0
  0
LINE
  5
1CF
330
1E
100
AcDbEntity
  8
0
100
AcDbLine
 10
61.0
 20
108.8278999999999
 30
0.0
 11
61.0
 21
113.8279
 31
0.0
  0
LINE
  5
1D0
330
1E
100
AcDbEntity
  8
0
100
AcDbLine
 10
0.4760000000000001
 20
109.6279
 30
0.0
 11
1.187
 21
109.6279
 31
0.0
  0
LINE
  5
1D1
330
1E
100
AcDbEntity
  8
0
100
AcDbLine
 10
0.0920000000000001
 20
109.6279
 30
0.0
 11
0.4760000000000001
 21
109.6279
 31
0.0
  0
LINE
  5
1D2
330
1E
100
AcDbEntity
  8
0
100
AcDbLine
 10
0.0920000000000001
 20
109.6279
 30
0.0
 11
0.5910000000000001
 21
110.1278999999999
 31
0.0
  0
LINE
  5
1D3
330
1E
100
AcDbEntity
  8
0
100
AcDbLine
 10
0.092
 20
109.6279
 30
0.0
 11
0.111
 21
108.8278999999999
 31
0.0
  0
LINE
  5
1D4
330
1E
100
AcDbEntity
  8
0
100
AcDbLine
 10
0.092
 20
109.6279
 30
0.0
 11
0.4760000000000001
 21
109.6279
 31
0.0
  0
LINE
  5
1D5
330
1E
100
AcDbEntity
  8
0
100
AcDbLine
 10
0.092
 20
109.6279
 30
0.0
 11
0.5910000000000001
 21
110.1278999999999
 31
0.0
  0
LINE
  5
1D6
330
1E
100
AcDbEntity
  8
0
100
AcDbLine
 10
0.4760000000000001
 20
109.6279
 30
0.0
 11
1.187
 21
109.6279
 31
0.0
  0
LINE
  5
1D7
330
1E
100
AcDbEntity
  8
0
100
AcDbLine
 10
1.187
 20
109.6279
 30
0.0
 11
1.955999999999999
 21
109.6279
 31
0.0
  0
LINE
  5
1D8
330
1E
100
AcDbEntity
  8
0
100
AcDbLine
 10
0.5
 20
110.0367176352709
 30
0.0
 11
0.5
 21
111.5279
 31
0.0
  0
LINE
  5
1D9
330
1E
100
AcDbEntity
  8
0
100
AcDbLine
 10
0.5910000000000001
 20
110.1278999999999
 30
0.0
 11
3.051
 21
110.6279
 31
0.0
  0
LINE
  5
1DB
330
1E
100
AcDbEntity
  8
0
100
AcDbLine
 10
0.5910000000000001
 20
110.1278999999999
 30
0.0
 11
3.051
 21
110.6279
 31
0.0
  0
LINE
  5
1DE
330
1E
100
AcDbEntity
  8
0
100
AcDbLine
 10
1.955999999999999
 20
109.6279
 30
0.0
 11
3.071
 21
109.6279
 31
0.0
  0
LINE
  5
1DF
330
1E
100
AcDbEntity
  8
0
100
AcDbLine
 10
10.81299999999999
 20
109.6279
 30
0.0
 11
11.524
 21
109.6279
 31
0.0
  0
LINE
  5
1E0
330
1E
100
AcDbEntity
  8
0
100
AcDbLine
 10
10.044
 20
109.6279
 30
0.0
 11
10.81299999999999
 21
109.6279
 31
0.0
  0
LINE
  5
1E1
330
1E
100
AcDbEntity
  8
0
100
AcDbLine
 10
8.929
 20
109.6279
 30
0.0
 11
10.044
 21
109.6279
 31
0.0
  0
LINE
  5
1E5
330
1E
100
AcDbEntity
  8
0
100
AcDbLine
 10
6.0
 20
109.6279
 30
0.0
 11
8.929
 21
109.6279
 31
0.0
  0
LINE
  5
1E6
330
1E
100
AcDbEntity
  8
0
100
AcDbLine
 10
3.071
 20
109.6279
 30
0.0
 11
6.0
 21
109.6279
 31
0.0
  0
LINE
  5
1E7
330
1E
100
AcDbEntity
  8
0
100
AcDbLine
 10
0.8285921411301949
 20
110.203085610016
 30
0.0
 11
1.217
 21
110.9742999999999
 31
0.0
  0
LINE
  5
1E9
330
1E
100
AcDbEntity
  8
0
100
AcDbLine
 10
6.0
 20
110.8279
 30
0.0
 11
8.948999999999999
 21
110.6279
 31
0.0
  0
LINE
  5
1EA
330
1E
100
AcDbEntity
  8
0
100
AcDbLine
 10
8.948999999999999
 20
110.6279
 30
0.0
 11
11.409
 21
110.1278999999999
 31
0.0
  0
LINE
  5
1EB
330
1E
100
AcDbEntity
  8
0
100
AcDbLine
 10
3.051
 20
110.6279
 30
0.0
 11
6.0
 21
110.8279
 31
0.0
  0
LINE
  5
1EC
330
1E
100
AcDbEntity
  8
0
100
AcDbLine
 10
0.0
 20
111.1278999999999
 30
0.0
 11
0.0
 21
108.8278999999999
 31
0.0
  0
LINE
  5
1ED
330
1E
100
AcDbEntity
  8
0
100
AcDbLine
 10
0.0
 20
111.1278999999999
 30
0.0
 11
0.0
 21
113.3278999999999
 31
0.0
  0
LINE
  5
1EE
330
1E
100
AcDbEntity
  8
0
100
AcDbLine
 10
1.217
 20
110.9742999999999
 30
0.0
 11
1.551999999999999
 21
112.8181
 31
0.0
  0
LINE
  5
1EF
330
1E
100
AcDbEntity
  8
0
100
AcDbLine
 10
11.0
 20
110.9278999999999
 30
0.0
 11
11.0
 21
112.8279
 31
0.0
  0
LINE
  5
1F0
330
1E
100
AcDbEntity
  8
0
100
AcDbLine
 10
11.0
 20
110.9278999999999
 30
0.0
 11
11.0
 21
110.543429411765
 31
0.0
  0
LINE
  5
1F1
330
1E
100
AcDbEntity
  8
0
100
AcDbLine
 10
11.0
 20
110.543429411765
 30
0.0
 11
11.0
 21
110.9278999999999
 31
0.0
  0
LINE
  5
1F2
330
1E
100
AcDbEntity
  8
0
100
AcDbLine
 10
10.783
 20
110.9742999999999
 30
0.0
 11
11.1714078588698
 21
110.203085610016
 31
0.0
  0
LINE
  5
1F4
330
1E
100
AcDbEntity
  8
0
100
AcDbLine
 10
13.0
 20
110.5279
 30
0.0
 11
13.0
 21
112.0279
 31
0.0
  0
LINE
  5
1F5
330
1E
100
AcDbEntity
  8
0
100
AcDbLine
 10
13.0
 20
110.5279
 30
0.0
 11
13.0
 21
108.8278999999999
 31
0.0
  0
LINE
  5
1F6
330
1E
100
AcDbEntity
  8
0
100
AcDbLine
 10
17.0
 20
110.5279
 30
0.0
 11
17.0
 21
108.8278999999999
 31
0.0
  0
LINE
  5
1F7
330
1E
100
AcDbEntity
  8
0
100
AcDbLine
 10
11.409
 20
110.1278999999999
 30
0.0
 11
11.908
 21
109.6279
 31
0.0
  0
LINE
  5
1F8
330
1E
100
AcDbEntity
  8
0
100
AcDbLine
 10
11.524
 20
109.6279
 30
0.0
 11
11.908
 21
109.6279
 31
0.0
  0
LINE
  5
1F9
330
1E
100
AcDbEntity
  8
0
100
AcDbLine
 10
0.5
 20
111.5279
 30
0.0
 11
0.5
 21
114.0279
 31
0.0
  0
LINE
  5
1FA
330
1E
100
AcDbEntity
  8
0
100
AcDbLine
 10
0.5
 20
111.5279
 30
0.0
 11
0.5
 21
110.0367176352709
 31
0.0
  0
LINE
  5
1FB
330
1E
100
AcDbEntity
  8
0
100
AcDbLine
 10
1.551999999999999
 20
112.8181
 30
0.0
 11
1.857
 21
114.8279
 31
0.0
  0
LINE
  5
1FC
330
1E
100
AcDbEntity
  8
0
100
AcDbLine
 10
13.0
 20
112.0279
 30
0.0
 11
13.0
 21
113.4279
 31
0.0
  0
LINE
  5
1FD
330
1E
100
AcDbEntity
  8
0
100
AcDbLine
 10
13.0
 20
112.0279
 30
0.0
 11
13.0
 21
110.5279
 31
0.0
  0
LINE
  5
1FE
330
1E
100
AcDbEntity
  8
0
100
AcDbLine
 10
11.0
 20
112.8279
 30
0.0
 11
11.0
 21
114.4279
 31
0.0
  0
LINE
  5
1FF
330
1E
100
AcDbEntity
  8
0
100
AcDbLine
 10
11.0
 20
112.8279
 30
0.0
 11
11.0
 21
110.9278999999999
 31
0.0
  0
LINE
  5
200
330
1E
100
AcDbEntity
  8
0
100
AcDbLine
 10
17.0
 20
112.0279
 30
0.0
 11
17.0
 21
110.5279
 31
0.0
  0
LINE
  5
201
330
1E
100
AcDbEntity
  8
0
100
AcDbLine
 10
10.448
 20
112.8181
 30
0.0
 11
10.783
 21
110.9742999999999
 31
0.0
  0
LINE
  5
202
330
1E
100
AcDbEntity
  8
0
100
AcDbLine
 10
17.0
 20
111.3478999999999
 30
0.0
 11
17.0
 21
108.8278999999999
 31
0.0
  0
LINE
  5
203
330
1E
100
AcDbEntity
  8
0
100
AcDbLine
 10
17.0
 20
111.3478999999999
 30
0.0
 11
17.0
 21
113.6678999999999
 31
0.0
  0
LINE
  5
204
330
1E
100
AcDbEntity
  8
0
100
AcDbLine
 10
38.0
 20
111.3879
 30
0.0
 11
38.0
 21
113.7878999999999
 31
0.0
  0
LINE
  5
205
330
1E
100
AcDbEntity
  8
0
100
AcDbLine
 10
13.0
 20
113.4279
 30
0.0
 11
13.0
 21
112.0279
 31
0.0
  0
LINE
  5
206
330
1E
100
AcDbEntity
  8
0
100
AcDbLine
 10
13.0
 20
113.4279
 30
0.0
 11
13.0
 21
114.4279
 31
0.0
  0
LINE
  5
207
330
1E
100
AcDbEntity
  8
0
100
AcDbLine
 10
17.0
 20
113.4279
 30
0.0
 11
17.0
 21
112.0279
 31
0.0
  0
LINE
  5
208
330
1E
100
AcDbEntity
  8
0
100
AcDbLine
 10
0.0
 20
113.3278999999999
 30
0.0
 11
0.0
 21
111.1278999999999
 31
0.0
  0
LINE
  5
209
330
1E
100
AcDbEntity
  8
0
100
AcDbLine
 10
0.0
 20
113.3278999999999
 30
0.0
 11
0.0
 21
115.2279
 31
0.0
  0
LINE
  5
20A
330
1E
100
AcDbEntity
  8
0
100
AcDbLine
 10
17.0
 20
113.6678999999999
 30
0.0
 11
17.0
 21
111.3478999999999
 31
0.0
  0
LINE
  5
20B
330
1E
100
AcDbEntity
  8
0
100
AcDbLine
 10
17.0
 20
113.6678999999999
 30
0.0
 11
17.0
 21
115.7078999999999
 31
0.0
  0
LINE
  5
20C
330
1E
100
AcDbEntity
  8
0
100
AcDbLine
 10
38.0
 20
113.7878999999999
 30
0.0
 11
38.0
 21
115.9078999999999
 31
0.0
  0
LINE
  5
20D
330
1E
100
AcDbEntity
  8
0
100
AcDbLine
 10
38.5
 20
112.8279
 30
0.0
 11
38.5
 21
116.5278999999999
 31
0.0
  0
LINE
  5
20E
330
1E
100
AcDbEntity
  8
0
100
AcDbLine
 10
38.5
 20
112.8279
 30
0.0
 11
38.5
 21
108.8278999999999
 31
0.0
  0
LINE
  5
20F
330
1E
100
AcDbEntity
  8
0
100
AcDbLine
 10
40.0
 20
112.9278999999999
 30
0.0
 11
40.0
 21
116.8279
 31
0.0
  0
LINE
  5
210
330
1E
100
AcDbEntity
  8
0
100
AcDbLine
 10
40.0
 20
112.9278999999999
 30
0.0
 11
40.0
 21
108.8278999999999
 31
0.0
  0
LINE
  5
211
330
1E
100
AcDbEntity
  8
0
100
AcDbLine
 10
0.5
 20
114.0279
 30
0.0
 11
0.5
 21
116.2279
 31
0.0
  0
LINE
  5
212
330
1E
100
AcDbEntity
  8
0
100
AcDbLine
 10
0.5
 20
114.0279
 30
0.0
 11
0.5
 21
111.5279
 31
0.0
  0
LINE
  5
213
330
1E
100
AcDbEntity
  8
0
100
AcDbLine
 10
40.49999999999999
 20
113.9278999999999
 30
0.0
 11
40.49999999999999
 21
118.7278999999999
 31
0.0
  0
LINE
  5
214
330
1E
100
AcDbEntity
  8
0
100
AcDbLine
 10
40.49999999999999
 20
113.9278999999999
 30
0.0
 11
40.49999999999999
 21
108.8278999999999
 31
0.0
  0
LINE
  5
215
330
1E
100
AcDbEntity
  8
0
100
AcDbLine
 10
55.5
 20
114.2279
 30
0.0
 11
55.5
 21
119.2279
 31
0.0
  0
LINE
  5
216
330
1E
100
AcDbEntity
  8
0
100
AcDbLine
 10
55.5
 20
114.2279
 30
0.0
 11
55.5
 21
108.8278999999999
 31
0.0
  0
LINE
  5
217
330
1E
100
AcDbEntity
  8
0
100
AcDbLine
 10
17.0
 20
114.4279
 30
0.0
 11
17.0
 21
113.4279
 31
0.0
  0
LINE
  5
218
330
1E
100
AcDbEntity
  8
0
100
AcDbLine
 10
13.0
 20
114.4279
 30
0.0
 11
13.0
 21
115.1278999999999
 31
0.0
  0
LINE
  5
219
330
1E
100
AcDbEntity
  8
0
100
AcDbLine
 10
13.0
 20
114.4279
 30
0.0
 11
13.0
 21
113.4279
 31
0.0
  0
LINE
  5
21A
330
1E
100
AcDbEntity
  8
0
100
AcDbLine
 10
11.0
 20
114.4279
 30
0.0
 11
11.0
 21
112.8279
 31
0.0
  0
LINE
  5
21B
330
1E
100
AcDbEntity
  8
0
100
AcDbLine
 10
11.0
 20
114.4279
 30
0.0
 11
11.0
 21
115.7279
 31
0.0
  0
LINE
  5
21C
330
1E
100
AcDbEntity
  8
0
100
AcDbLine
 10
56.0
 20
114.6279
 30
0.0
 11
56.0
 21
120.0279
 31
0.0
  0
LINE
  5
21D
330
1E
100
AcDbEntity
  8
0
100
AcDbLine
 10
56.0
 20
114.6279
 30
0.0
 11
56.0
 21
108.8278999999999
 31
0.0
  0
LINE
  5
21E
330
1E
100
AcDbEntity
  8
0
100
AcDbLine
 10
1.857
 20
114.8279
 30
0.0
 11
2.0
 21
117.3278999999999
 31
0.0
  0
LINE
  5
21F
330
1E
100
AcDbEntity
  8
0
100
AcDbLine
 10
17.0
 20
115.1278999999999
 30
0.0
 11
17.0
 21
114.4279
 31
0.0
  0
LINE
  5
220
330
1E
100
AcDbEntity
  8
0
100
AcDbLine
 10
13.0
 20
115.3278999999999
 30
0.0
 11
17.0
 21
115.3278999999999
 31
0.0
  0
LINE
  5
221
330
1E
100
AcDbEntity
  8
0
100
AcDbLine
 10
13.0
 20
115.3278999999999
 30
0.0
 11
13.0
 21
115.1278999999999
 31
0.0
  0
LINE
  5
222
330
1E
100
AcDbEntity
  8
0
100
AcDbLine
 10
13.0
 20
115.1278999999999
 30
0.0
 11
13.0
 21
115.3278999999999
 31
0.0
  0
LINE
  5
223
330
1E
100
AcDbEntity
  8
0
100
AcDbLine
 10
13.0
 20
115.1278999999999
 30
0.0
 11
13.0
 21
114.4279
 31
0.0
  0
LINE
  5
224
330
1E
100
AcDbEntity
  8
0
100
AcDbLine
 10
0.0
 20
115.2279
 30
0.0
 11
0.0
 21
116.6279
 31
0.0
  0
LINE
  5
225
330
1E
100
AcDbEntity
  8
0
100
AcDbLine
 10
0.0
 20
115.2279
 30
0.0
 11
0.0
 21
113.3278999999999
 31
0.0
  0
LINE
  5
226
330
1E
100
AcDbEntity
  8
0
100
AcDbLine
 10
10.14299999999999
 20
114.8279
 30
0.0
 11
10.448
 21
112.8181
 31
0.0
  0
LINE
  5
227
330
1E
100
AcDbEntity
  8
0
100
AcDbLine
 10
17.0
 20
115.3278999999999
 30
0.0
 11
17.0
 21
115.7078999999999
 31
0.0
  0
LINE
  5
228
330
1E
100
AcDbEntity
  8
0
100
AcDbLine
 10
17.0
 20
115.3278999999999
 30
0.0
 11
17.0
 21
115.1278999999999
 31
0.0
  0
LINE
  5
229
330
1E
100
AcDbEntity
  8
0
100
AcDbLine
 10
11.0
 20
115.7279
 30
0.0
 11
11.0
 21
116.5278999999999
 31
0.0
  0
LINE
  5
22A
330
1E
100
AcDbEntity
  8
0
100
AcDbLine
 10
11.0
 20
115.7279
 30
0.0
 11
11.0
 21
114.4279
 31
0.0
  0
LINE
  5
22B
330
1E
100
AcDbEntity
  8
0
100
AcDbLine
 10
11.0
 20
116.5278999999999
 30
0.0
 11
11.0
 21
116.8279
 31
0.0
  0
LINE
  5
22C
330
1E
100
AcDbEntity
  8
0
100
AcDbLine
 10
11.0
 20
116.5278999999999
 30
0.0
 11
11.0
 21
115.7279
 31
0.0
  0
LINE
  5
22D
330
1E
100
AcDbEntity
  8
0
100
AcDbLine
 10
0.5
 20
116.2279
 30
0.0
 11
0.5
 21
114.0279
 31
0.0
  0
LINE
  5
22E
330
1E
100
AcDbEntity
  8
0
100
AcDbLine
 10
0.5
 20
116.2279
 30
0.0
 11
0.5
 21
117.9278999999999
 31
0.0
  0
LINE
  5
22F
330
1E
100
AcDbEntity
  8
0
100
AcDbLine
 10
17.0
 20
115.7078999999999
 30
0.0
 11
17.0
 21
113.6678999999999
 31
0.0
  0
LINE
  5
230
330
1E
100
AcDbEntity
  8
0
100
AcDbLine
 10
17.0
 20
115.7078999999999
 30
0.0
 11
17.0
 21
117.2679
 31
0.0
  0
LINE
  5
231
330
1E
100
AcDbEntity
  8
0
100
AcDbLine
 10
17.0
 20
115.7078999999999
 30
0.0
 11
17.0
 21
115.3278999999999
 31
0.0
  0
LINE
  5
232
330
1E
100
AcDbEntity
  8
0
100
AcDbLine
 10
38.0
 20
115.9078999999999
 30
0.0
 11
38.0
 21
117.5078999999999
 31
0.0
  0
LINE
  5
233
330
1E
100
AcDbEntity
  8
0
100
AcDbLine
 10
11.0
 20
116.8279
 30
0.0
 11
13.0
 21
115.3278999999999
 31
0.0
  0
LINE
  5
234
330
1E
100
AcDbEntity
  8
0
100
AcDbLine
 10
11.0
 20
116.8279
 30
0.0
 11
11.0
 21
116.5278999999999
 31
0.0
  0
LINE
  5
235
330
1E
100
AcDbEntity
  8
0
100
AcDbLine
 10
0.0
 20
116.6279
 30
0.0
 11
0.0
 21
115.2279
 31
0.0
  0
LINE
  5
236
330
1E
100
AcDbEntity
  8
0
100
AcDbLine
 10
0.0
 20
116.6279
 30
0.0
 11
0.0
 21
117.5278999999999
 31
0.0
  0
LINE
  5
237
330
1E
100
AcDbEntity
  8
0
100
AcDbLine
 10
10.0
 20
117.3278999999999
 30
0.0
 11
10.14299999999999
 21
114.8279
 31
0.0
  0
LINE
  5
238
330
1E
100
AcDbEntity
  8
0
100
AcDbLine
 10
10.0
 20
117.3278999999999
 30
0.0
 11
10.14299999999999
 21
119.2502
 31
0.0
  0
LINE
  5
239
330
1E
100
AcDbEntity
  8
0
100
AcDbLine
 10
17.0
 20
117.2679
 30
0.0
 11
17.0
 21
115.7078999999999
 31
0.0
  0
LINE
  5
23A
330
1E
100
AcDbEntity
  8
0
100
AcDbLine
 10
17.0
 20
117.2679
 30
0.0
 11
17.0
 21
118.2279
 31
0.0
  0
LINE
  5
23B
330
1E
100
AcDbEntity
  8
0
100
AcDbLine
 10
0.0
 20
117.5278999999999
 30
0.0
 11
0.0
 21
116.6279
 31
0.0
  0
LINE
  5
23C
330
1E
100
AcDbEntity
  8
0
100
AcDbLine
 10
0.0
 20
117.5278999999999
 30
0.0
 11
0.0
 21
117.8279
 31
0.0
  0
LINE
  5
23D
330
1E
100
AcDbEntity
  8
0
100
AcDbLine
 10
0.0
 20
117.8279
 30
0.0
 11
0.5
 21
119.3278999999999
 31
0.0
  0
LINE
  5
23E
330
1E
100
AcDbEntity
  8
0
100
AcDbLine
 10
0.0
 20
117.8279
 30
0.0
 11
0.0
 21
117.5278999999999
 31
0.0
  0
LINE
  5
23F
330
1E
100
AcDbEntity
  8
0
100
AcDbLine
 10
0.5
 20
117.9278999999999
 30
0.0
 11
0.5
 21
118.9278999999999
 31
0.0
  0
LINE
  5
240
330
1E
100
AcDbEntity
  8
0
100
AcDbLine
 10
0.5
 20
117.9278999999999
 30
0.0
 11
0.5
 21
116.2279
 31
0.0
  0
LINE
  5
241
330
1E
100
AcDbEntity
  8
0
100
AcDbLine
 10
10.0987392604717
 20
118.655218044788
 30
0.0
 11
10.2383686639408
 21
119.963651411521
 31
0.0
  0
LINE
  5
242
330
1E
100
AcDbEntity
  8
0
100
AcDbLine
 10
17.0
 20
118.2279
 30
0.0
 11
17.0
 21
117.2679
 31
0.0
  0
LINE
  5
243
330
1E
100
AcDbEntity
  8
0
100
AcDbLine
 10
17.0
 20
118.2279
 30
0.0
 11
17.0
 21
118.5879
 31
0.0
  0
LINE
  5
244
330
1E
100
AcDbEntity
  8
0
100
AcDbLine
 10
17.0
 20
118.5879
 30
0.0
 11
17.0
 21
118.2279
 31
0.0
  0
LINE
  5
245
330
1E
100
AcDbEntity
  8
0
100
AcDbLine
 10
17.0
 20
118.5879
 30
0.0
 11
17.6
 21
118.8279
 31
0.0
  0
LINE
  5
246
330
1E
100
AcDbEntity
  8
0
100
AcDbLine
 10
38.0
 20
117.5078999999999
 30
0.0
 11
38.0
 21
118.4679
 31
0.0
  0
LINE
  5
247
330
1E
100
AcDbEntity
  8
0
100
AcDbLine
 10
38.0
 20
118.4679
 30
0.0
 11
38.0
 21
118.8279
 31
0.0
  0
LINE
  5
248
330
1E
100
AcDbEntity
  8
0
100
AcDbLine
 10
38.5
 20
116.5278999999999
 30
0.0
 11
38.5
 21
119.7278999999999
 31
0.0
  0
LINE
  5
249
330
1E
100
AcDbEntity
  8
0
100
AcDbLine
 10
38.5
 20
116.5278999999999
 30
0.0
 11
38.5
 21
112.8279
 31
0.0
  0
LINE
  5
24A
330
1E
100
AcDbEntity
  8
0
100
AcDbLine
 10
40.0
 20
116.8279
 30
0.0
 11
40.0
 21
120.1278999999999
 31
0.0
  0
LINE
  5
24B
330
1E
100
AcDbEntity
  8
0
100
AcDbLine
 10
40.0
 20
116.8279
 30
0.0
 11
40.0
 21
112.9278999999999
 31
0.0
  0
LINE
  5
24C
330
1E
100
AcDbEntity
  8
0
100
AcDbLine
 10
34.3793103448276
 20
118.8279
 30
0.0
 11
34.6
 21
120.4278999999999
 31
0.0
  0
LINE
  5
24D
330
1E
100
AcDbEntity
  8
0
100
AcDbLine
 10
17.6
 20
118.8279
 30
0.0
 11
38.0
 21
118.8279
 31
0.0
  0
LINE
  5
24E
330
1E
100
AcDbEntity
  8
0
100
AcDbLine
 10
0.5
 20
118.9278999999999
 30
0.0
 11
0.5
 21
119.3278999999999
 31
0.0
  0
LINE
  5
24F
330
1E
100
AcDbEntity
  8
0
100
AcDbLine
 10
0.5
 20
118.9278999999999
 30
0.0
 11
0.5
 21
117.9278999999999
 31
0.0
  0
LINE
  5
250
330
1E
100
AcDbEntity
  8
0
100
AcDbLine
 10
17.6
 20
118.8279
 30
0.0
 11
38.0
 21
118.8279
 31
0.0
  0
LINE
  5
251
330
1E
100
AcDbEntity
  8
0
100
AcDbLine
 10
38.0
 20
118.8279
 30
0.0
 11
38.0
 21
120.9278999999999
 31
0.0
  0
LINE
  5
252
330
1E
100
AcDbEntity
  8
0
100
AcDbLine
 10
40.49999999999999
 20
118.7278999999999
 30
0.0
 11
40.49999999999999
 21
122.9279
 31
0.0
  0
LINE
  5
253
330
1E
100
AcDbEntity
  8
0
100
AcDbLine
 10
40.49999999999999
 20
118.7278999999999
 30
0.0
 11
40.49999999999999
 21
113.9278999999999
 31
0.0
  0
LINE
  5
254
330
1E
100
AcDbEntity
  8
0
100
AcDbLine
 10
55.5
 20
119.2279
 30
0.0
 11
55.5
 21
123.6278999999999
 31
0.0
  0
LINE
  5
255
330
1E
100
AcDbEntity
  8
0
100
AcDbLine
 10
55.5
 20
119.2279
 30
0.0
 11
55.5
 21
114.2279
 31
0.0
  0
LINE
  5
256
330
1E
100
AcDbEntity
  8
0
100
AcDbLine
 10
59.5
 20
114.6279
 30
0.0
 11
59.5
 21
120.0279
 31
0.0
  0
LINE
  5
257
330
1E
100
AcDbEntity
  8
0
100
AcDbLine
 10
59.5
 20
114.6279
 30
0.0
 11
59.5
 21
108.8278999999999
 31
0.0
  0
LINE
  5
258
330
1E
100
AcDbEntity
  8
0
100
AcDbLine
 10
60.0
 20
119.2279
 30
0.0
 11
60.0
 21
114.2279
 31
0.0
  0
LINE
  5
259
330
1E
100
AcDbEntity
  8
0
100
AcDbLine
 10
60.0
 20
114.2279
 30
0.0
 11
60.0
 21
108.8278999999999
 31
0.0
  0
LINE
  5
25A
330
1E
100
AcDbEntity
  8
0
100
AcDbLine
 10
61.0
 20
118.5278999999999
 30
0.0
 11
61.0
 21
113.8279
 31
0.0
  0
LINE
  5
25B
330
1E
100
AcDbEntity
  8
0
100
AcDbLine
 10
61.0
 20
118.5278999999999
 30
0.0
 11
61.0
 21
122.6278999999999
 31
0.0
  0
LINE
  5
25C
330
1E
100
AcDbEntity
  8
0
100
AcDbLine
 10
61.0
 20
113.8279
 30
0.0
 11
61.0
 21
108.8278999999999
 31
0.0
  0
LINE
  5
25D
330
1E
100
AcDbEntity
  8
0
100
AcDbLine
 10
61.0
 20
113.8279
 30
0.0
 11
61.0
 21
118.5278999999999
 31
0.0
  0
LINE
  5
25E
330
1E
100
AcDbEntity
  8
0
100
AcDbLine
 10
245.0
 20
114.2279
 30
0.0
 11
245.0
 21
119.3278999999999
 31
0.0
  0
LINE
  5
25F
330
1E
100
AcDbEntity
  8
0
100
AcDbLine
 10
245.0
 20
114.2279
 30
0.0
 11
245.0
 21
108.8278999999999
 31
0.0
  0
LINE
  5
260
330
1E
100
AcDbEntity
  8
0
100
AcDbLine
 10
247.0
 20
118.5278999999999
 30
0.0
 11
247.0
 21
122.6278999999999
 31
0.0
  0
LINE
  5
261
330
1E
100
AcDbEntity
  8
0
100
AcDbLine
 10
247.0
 20
113.8279
 30
0.0
 11
247.0
 21
118.5278999999999
 31
0.0
  0
LINE
  5
262
330
1E
100
AcDbEntity
  8
0
100
AcDbLine
 10
61.0
 20
114.2279
 30
0.0
 11
61.0
 21
108.8278999999999
 31
0.0
  0
LINE
  5
263
330
1E
100
AcDbEntity
  8
0
100
AcDbLine
 10
61.0
 20
114.2279
 30
0.0
 11
61.0
 21
119.3278999999999
 31
0.0
  0
LINE
  5
264
330
1E
100
AcDbEntity
  8
0
100
AcDbLine
 10
247.0
 20
108.8278999999999
 30
0.0
 11
247.0
 21
103.4518999999999
 31
0.0
  0
LINE
  5
265
330
1E
100
AcDbEntity
  8
0
100
AcDbLine
 10
247.0
 20
108.8278999999999
 30
0.0
 11
247.0
 21
113.8279
 31
0.0
  0
LINE
  5
266
330
1E
100
AcDbEntity
  8
0
100
AcDbLine
 10
247.0
 20
103.4518999999999
 30
0.0
 11
247.0
 21
98.4119
 31
0.0
  0
LINE
  5
267
330
1E
100
AcDbEntity
  8
0
100
AcDbLine
 10
247.0
 20
98.4119
 30
0.0
 11
247.0
 21
93.95990000000001
 31
0.0
  0
LINE
  5
268
330
1E
100
AcDbEntity
  8
0
100
AcDbLine
 10
247.0
 20
93.95990000000001
 30
0.0
 11
247.0
 21
90.5999
 31
0.0
  0
LINE
  5
269
330
1E
100
AcDbEntity
  8
0
100
AcDbLine
 10
247.0
 20
90.5999
 30
0.0
 11
247.0
 21
88.58389999999999
 31
0.0
  0
LINE
  5
26A
330
1E
100
AcDbEntity
  8
0
100
AcDbLine
 10
247.0
 20
114.2039
 30
0.0
 11
247.0
 21
108.8278999999999
 31
0.0
  0
LINE
  5
26B
330
1E
100
AcDbEntity
  8
0
100
AcDbLine
 10
1.857
 20
119.2502
 30
0.0
 11
2.0
 21
117.3278999999999
 31
0.0
  0
LINE
  5
26C
330
1E
100
AcDbEntity
  8
0
100
AcDbLine
 10
10.1695889339598
 20
119.3191331981209
 30
0.0
 11
11.0
 21
116.8279
 31
0.0
  0
LINE
  5
26D
330
1E
100
AcDbEntity
  8
0
100
AcDbLine
 10
0.5
 20
119.3278999999999
 30
0.0
 11
1.78380833571012
 21
119.7558361119029
 31
0.0
  0
LINE
  5
26E
330
1E
100
AcDbEntity
  8
0
100
AcDbLine
 10
10.14299999999999
 20
119.2502
 30
0.0
 11
10.448
 21
121.5319
 31
0.0
  0
LINE
  5
26F
330
1E
100
AcDbEntity
  8
0
100
AcDbLine
 10
0.5
 20
119.3278999999999
 30
0.0
 11
1.78380833571012
 21
119.7558361119029
 31
0.0
  0
LINE
  5
270
330
1E
100
AcDbEntity
  8
0
100
AcDbLine
 10
0.5
 20
119.3278999999999
 30
0.0
 11
0.5
 21
118.9278999999999
 31
0.0
  0
LINE
  5
271
330
1E
100
AcDbEntity
  8
0
100
AcDbLine
 10
1.76163133605917
 20
119.963651411521
 30
0.0
 11
1.90126073952831
 21
118.655218044788
 31
0.0
  0
LINE
  5
272
330
1E
100
AcDbEntity
  8
0
100
AcDbLine
 10
1.76163133605917
 20
119.963651411521
 30
0.0
 11
1.90126073952831
 21
118.655218044788
 31
0.0
  0
LINE
  5
273
330
1E
100
AcDbEntity
  8
0
100
AcDbLine
 10
38.5
 20
119.7278999999999
 30
0.0
 11
38.5
 21
116.5278999999999
 31
0.0
  0
LINE
  5
274
330
1E
100
AcDbEntity
  8
0
100
AcDbLine
 10
38.5
 20
119.7278999999999
 30
0.0
 11
38.5
 21
122.2279
 31
0.0
  0
LINE
  5
275
330
1E
100
AcDbEntity
  8
0
100
AcDbLine
 10
34.6
 20
120.4278999999999
 30
0.0
 11
39.0
 21
131.2278999999999
 31
0.0
  0
LINE
  5
276
330
1E
100
AcDbEntity
  8
0
100
AcDbLine
 10
1.551999999999999
 20
121.5319
 30
0.0
 11
1.857
 21
119.2502
 31
0.0
  0
LINE
  5
277
330
1E
100
AcDbEntity
  8
0
100
AcDbLine
 10
1.551999999999999
 20
121.5319
 30
0.0
 11
1.76163133605917
 21
119.963651411521
 31
0.0
  0
LINE
  5
278
330
1E
100
AcDbEntity
  8
0
100
AcDbLine
 10
10.448
 20
121.5319
 30
0.0
 11
10.783
 21
124.2858
 31
0.0
  0
LINE
  5
279
330
1E
100
AcDbEntity
  8
0
100
AcDbLine
 10
38.0
 20
120.9278999999999
 30
0.0
 11
38.0
 21
118.8279
 31
0.0
  0
LINE
  5
27A
330
1E
100
AcDbEntity
  8
0
100
AcDbLine
 10
38.0
 20
120.9278999999999
 30
0.0
 11
38.0
 21
122.3279
 31
0.0
  0
LINE
  5
27B
330
1E
100
AcDbEntity
  8
0
100
AcDbLine
 10
38.0
 20
122.3279
 30
0.0
 11
38.0
 21
120.9278999999999
 31
0.0
  0
LINE
  5
27C
330
1E
100
AcDbEntity
  8
0
100
AcDbLine
 10
38.0
 20
122.3279
 30
0.0
 11
38.0
 21
122.8279
 31
0.0
  0
LINE
  5
27D
330
1E
100
AcDbEntity
  8
0
100
AcDbLine
 10
38.5
 20
122.2279
 30
0.0
 11
38.5
 21
123.7279
 31
0.0
  0
LINE
  5
27E
330
1E
100
AcDbEntity
  8
0
100
AcDbLine
 10
38.5
 20
122.2279
 30
0.0
 11
38.5
 21
119.7278999999999
 31
0.0
  0
LINE
  5
27F
330
1E
100
AcDbEntity
  8
0
100
AcDbLine
 10
38.0
 20
122.8279
 30
0.0
 11
38.5
 21
124.3279
 31
0.0
  0
LINE
  5
280
330
1E
100
AcDbEntity
  8
0
100
AcDbLine
 10
38.0
 20
122.8279
 30
0.0
 11
38.0
 21
122.3279
 31
0.0
  0
LINE
  5
281
330
1E
100
AcDbEntity
  8
0
100
AcDbLine
 10
40.0
 20
122.7279
 30
0.0
 11
40.0
 21
124.2279
 31
0.0
  0
LINE
  5
282
330
1E
100
AcDbEntity
  8
0
100
AcDbLine
 10
40.0
 20
122.7279
 30
0.0
 11
40.0
 21
120.1278999999999
 31
0.0
  0
LINE
  5
283
330
1E
100
AcDbEntity
  8
0
100
AcDbLine
 10
40.0
 20
120.1278999999999
 30
0.0
 11
40.0
 21
116.8279
 31
0.0
  0
LINE
  5
284
330
1E
100
AcDbEntity
  8
0
100
AcDbLine
 10
40.0
 20
120.1278999999999
 30
0.0
 11
40.0
 21
122.7279
 31
0.0
  0
LINE
  5
285
330
1E
100
AcDbEntity
  8
0
100
AcDbLine
 10
10.652631729118
 20
123.214094981546
 30
0.0
 11
10.757
 21
123.9660999999999
 31
0.0
  0
LINE
  5
286
330
1E
100
AcDbEntity
  8
0
100
AcDbLine
 10
40.49999999999999
 20
122.9279
 30
0.0
 11
40.49999999999999
 21
118.7278999999999
 31
0.0
  0
LINE
  5
287
330
1E
100
AcDbEntity
  8
0
100
AcDbLine
 10
40.49999999999999
 20
122.9279
 30
0.0
 11
40.49999999999999
 21
126.1279
 31
0.0
  0
LINE
  5
288
330
1E
100
AcDbEntity
  8
0
100
AcDbLine
 10
55.5
 20
123.6278999999999
 30
0.0
 11
55.5
 21
119.2279
 31
0.0
  0
LINE
  5
289
330
1E
100
AcDbEntity
  8
0
100
AcDbLine
 10
55.5
 20
123.6278999999999
 30
0.0
 11
55.5
 21
127.0279
 31
0.0
  0
LINE
  5
28A
330
1E
100
AcDbEntity
  8
0
100
AcDbLine
 10
56.0
 20
120.0279
 30
0.0
 11
56.0
 21
124.7279
 31
0.0
  0
LINE
  5
28B
330
1E
100
AcDbEntity
  8
0
100
AcDbLine
 10
56.0
 20
120.0279
 30
0.0
 11
56.0
 21
114.6279
 31
0.0
  0
LINE
  5
28C
330
1E
100
AcDbEntity
  8
0
100
AcDbLine
 10
59.5
 20
120.0279
 30
0.0
 11
59.5
 21
124.7279
 31
0.0
  0
LINE
  5
28D
330
1E
100
AcDbEntity
  8
0
100
AcDbLine
 10
59.5
 20
120.0279
 30
0.0
 11
59.5
 21
114.6279
 31
0.0
  0
LINE
  5
28E
330
1E
100
AcDbEntity
  8
0
100
AcDbLine
 10
60.0
 20
123.6278999999999
 30
0.0
 11
60.0
 21
119.2279
 31
0.0
  0
LINE
  5
28F
330
1E
100
AcDbEntity
  8
0
100
AcDbLine
 10
61.0
 20
122.6278999999999
 30
0.0
 11
61.0
 21
118.5278999999999
 31
0.0
  0
LINE
  5
290
330
1E
100
AcDbEntity
  8
0
100
AcDbLine
 10
61.0
 20
122.6278999999999
 30
0.0
 11
61.0
 21
125.7279
 31
0.0
  0
LINE
  5
291
330
1E
100
AcDbEntity
  8
0
100
AcDbLine
 10
10.757
 20
123.9660999999999
 30
0.0
 11
10.783
 21
124.2858
 31
0.0
  0
LINE
  5
295
330
1E
100
AcDbEntity
  8
0
100
AcDbLine
 10
1.242999999999999
 20
123.9660999999999
 30
0.0
 11
1.347368270882009
 21
123.214094981546
 31
0.0
  0
LINE
  5
296
330
1E
100
AcDbEntity
  8
0
100
AcDbLine
 10
1.217
 20
124.2858
 30
0.0
 11
1.551999999999999
 21
121.5319
 31
0.0
  0
LINE
  5
297
330
1E
100
AcDbEntity
  8
0
100
AcDbLine
 10
1.217
 20
124.2858
 30
0.0
 11
1.242999999999999
 21
123.9660999999999
 31
0.0
  0
LINE
  5
298
330
1E
100
AcDbEntity
  8
0
100
AcDbLine
 10
38.5
 20
123.7279
 30
0.0
 11
38.5
 21
124.3279
 31
0.0
  0
LINE
  5
299
330
1E
100
AcDbEntity
  8
0
100
AcDbLine
 10
38.5
 20
123.7279
 30
0.0
 11
38.5
 21
122.2279
 31
0.0
  0
LINE
  5
29A
330
1E
100
AcDbEntity
  8
0
100
AcDbLine
 10
38.5
 20
124.3279
 30
0.0
 11
40.0
 21
124.8278999999999
 31
0.0
  0
LINE
  5
29B
330
1E
100
AcDbEntity
  8
0
100
AcDbLine
 10
38.5
 20
124.3279
 30
0.0
 11
38.5
 21
123.7279
 31
0.0
  0
LINE
  5
29C
330
1E
100
AcDbEntity
  8
0
100
AcDbLine
 10
40.0
 20
124.2279
 30
0.0
 11
40.0
 21
124.8278999999999
 31
0.0
  0
LINE
  5
29D
330
1E
100
AcDbEntity
  8
0
100
AcDbLine
 10
40.0
 20
124.2279
 30
0.0
 11
40.0
 21
122.7279
 31
0.0
  0
LINE
  5
29E
330
1E
100
AcDbEntity
  8
0
100
AcDbLine
 10
40.0
 20
124.8278999999999
 30
0.0
 11
40.0
 21
124.2279
 31
0.0
  0
LINE
  5
29F
330
1E
100
AcDbEntity
  8
0
100
AcDbLine
 10
40.0
 20
124.8278999999999
 30
0.0
 11
40.0
 21
126.6278999999999
 31
0.0
  0
LINE
  5
2A0
330
1E
100
AcDbEntity
  8
0
100
AcDbLine
 10
56.0
 20
124.7279
 30
0.0
 11
56.0
 21
120.0279
 31
0.0
  0
LINE
  5
2A1
330
1E
100
AcDbEntity
  8
0
100
AcDbLine
 10
56.0
 20
124.7279
 30
0.0
 11
56.0
 21
128.3279
 31
0.0
  0
LINE
  5
2A2
330
1E
100
AcDbEntity
  8
0
100
AcDbLine
 10
59.5
 20
124.7279
 30
0.0
 11
59.5
 21
120.0279
 31
0.0
  0
LINE
  5
2A3
330
1E
100
AcDbEntity
  8
0
100
AcDbLine
 10
59.5
 20
124.7279
 30
0.0
 11
59.5
 21
128.3279
 31
0.0
  0
LINE
  5
2A4
330
1E
100
AcDbEntity
  8
0
100
AcDbLine
 10
0.9579524167574499
 20
126.027907286091
 30
0.0
 11
1.242999999999999
 21
123.9660999999999
 31
0.0
  0
LINE
  5
2A6
330
1E
100
AcDbEntity
  8
0
100
AcDbLine
 10
40.0
 20
126.6278999999999
 30
0.0
 11
40.0
 21
124.8278999999999
 31
0.0
  0
LINE
  5
2A7
330
1E
100
AcDbEntity
  8
0
100
AcDbLine
 10
40.0
 20
126.6278999999999
 30
0.0
 11
40.0
 21
127.3279
 31
0.0
  0
LINE
  5
2A8
330
1E
100
AcDbEntity
  8
0
100
AcDbLine
 10
40.49999999999999
 20
126.1279
 30
0.0
 11
40.49999999999999
 21
128.1279
 31
0.0
  0
LINE
  5
2A9
330
1E
100
AcDbEntity
  8
0
100
AcDbLine
 10
40.49999999999999
 20
126.1279
 30
0.0
 11
40.49999999999999
 21
122.9279
 31
0.0
  0
LINE
  5
2AA
330
1E
100
AcDbEntity
  8
0
100
AcDbLine
 10
55.5
 20
127.0279
 30
0.0
 11
55.5
 21
129.0278999999999
 31
0.0
  0
LINE
  5
2AB
330
1E
100
AcDbEntity
  8
0
100
AcDbLine
 10
55.5
 20
127.0279
 30
0.0
 11
55.5
 21
123.6278999999999
 31
0.0
  0
LINE
  5
2AC
330
1E
100
AcDbEntity
  8
0
100
AcDbLine
 10
60.0
 20
127.0279
 30
0.0
 11
60.0
 21
123.6278999999999
 31
0.0
  0
LINE
  5
2AD
330
1E
100
AcDbEntity
  8
0
100
AcDbLine
 10
61.0
 20
125.7279
 30
0.0
 11
61.0
 21
122.6278999999999
 31
0.0
  0
LINE
  5
2AE
330
1E
100
AcDbEntity
  8
0
100
AcDbLine
 10
61.0
 20
125.7279
 30
0.0
 11
61.0
 21
127.6278999999999
 31
0.0
  0
LINE
  5
2AF
330
1E
100
AcDbEntity
  8
0
100
AcDbLine
 10
61.0
 20
127.0279
 30
0.0
 11
61.0
 21
123.6278999999999
 31
0.0
  0
LINE
  5
2B0
330
1E
100
AcDbEntity
  8
0
100
AcDbLine
 10
61.0
 20
127.0279
 30
0.0
 11
61.0
 21
129.0278999999999
 31
0.0
  0
LINE
  5
2B1
330
1E
100
AcDbEntity
  8
0
100
AcDbLine
 10
61.0
 20
123.6278999999999
 30
0.0
 11
61.0
 21
119.3278999999999
 31
0.0
  0
LINE
  5
2B2
330
1E
100
AcDbEntity
  8
0
100
AcDbLine
 10
61.0
 20
123.6278999999999
 30
0.0
 11
61.0
 21
127.0279
 31
0.0
  0
LINE
  5
2B3
330
1E
100
AcDbEntity
  8
0
100
AcDbLine
 10
245.0
 20
119.3278999999999
 30
0.0
 11
245.0
 21
123.6278999999999
 31
0.0
  0
LINE
  5
2B4
330
1E
100
AcDbEntity
  8
0
100
AcDbLine
 10
245.0
 20
119.3278999999999
 30
0.0
 11
245.0
 21
114.2279
 31
0.0
  0
LINE
  5
2B5
330
1E
100
AcDbEntity
  8
0
100
AcDbLine
 10
245.0
 20
127.0279
 30
0.0
 11
245.0
 21
129.0278999999999
 31
0.0
  0
LINE
  5
2B6
330
1E
100
AcDbEntity
  8
0
100
AcDbLine
 10
245.0
 20
127.0279
 30
0.0
 11
245.0
 21
123.6278999999999
 31
0.0
  0
LINE
  5
2B7
330
1E
100
AcDbEntity
  8
0
100
AcDbLine
 10
245.0
 20
123.6278999999999
 30
0.0
 11
245.0
 21
127.0279
 31
0.0
  0
LINE
  5
2B8
330
1E
100
AcDbEntity
  8
0
100
AcDbLine
 10
245.0
 20
123.6278999999999
 30
0.0
 11
245.0
 21
119.3278999999999
 31
0.0
  0
LINE
  5
2B9
330
1E
100
AcDbEntity
  8
0
100
AcDbLine
 10
247.0
 20
125.7279
 30
0.0
 11
247.0
 21
127.6278999999999
 31
0.0
  0
LINE
  5
2BA
330
1E
100
AcDbEntity
  8
0
100
AcDbLine
 10
247.0
 20
122.6278999999999
 30
0.0
 11
247.0
 21
125.7279
 31
0.0
  0
LINE
  5
2BB
330
1E
100
AcDbEntity
  8
0
100
AcDbLine
 10
61.0
 20
119.3278999999999
 30
0.0
 11
61.0
 21
114.2279
 31
0.0
  0
LINE
  5
2BC
330
1E
100
AcDbEntity
  8
0
100
AcDbLine
 10
61.0
 20
119.3278999999999
 30
0.0
 11
61.0
 21
123.6278999999999
 31
0.0
  0
LINE
  5
2BD
330
1E
100
AcDbEntity
  8
0
100
AcDbLine
 10
247.0
 20
119.2439
 30
0.0
 11
247.0
 21
114.2039
 31
0.0
  0
LINE
  5
2BE
330
1E
100
AcDbEntity
  8
0
100
AcDbLine
 10
247.0
 20
123.6958999999999
 30
0.0
 11
247.0
 21
119.2439
 31
0.0
  0
LINE
  5
2C1
330
1E
100
AcDbEntity
  8
0
100
AcDbLine
 10
0.69
 20
127.8299
 30
0.0
 11
0.9579524167574499
 21
126.027907286091
 31
0.0
  0
LINE
  5
2C2
330
1E
100
AcDbEntity
  8
0
100
AcDbLine
 10
0.69
 20
127.8299
 30
0.0
 11
0.9579524167574499
 21
126.027907286091
 31
0.0
  0
LINE
  5
2C3
330
1E
100
AcDbEntity
  8
0
100
AcDbLine
 10
40.0
 20
127.3279
 30
0.0
 11
40.49999999999999
 21
128.8278999999999
 31
0.0
  0
LINE
  5
2C4
330
1E
100
AcDbEntity
  8
0
100
AcDbLine
 10
40.0
 20
127.3279
 30
0.0
 11
40.0
 21
126.6278999999999
 31
0.0
  0
LINE
  5
2C5
330
1E
100
AcDbEntity
  8
0
100
AcDbLine
 10
40.49999999999999
 20
128.1279
 30
0.0
 11
40.49999999999999
 21
128.8278999999999
 31
0.0
  0
LINE
  5
2C6
330
1E
100
AcDbEntity
  8
0
100
AcDbLine
 10
40.49999999999999
 20
128.1279
 30
0.0
 11
40.49999999999999
 21
126.1279
 31
0.0
  0
LINE
  5
2C7
330
1E
100
AcDbEntity
  8
0
100
AcDbLine
 10
56.0
 20
128.3279
 30
0.0
 11
56.0
 21
130.5278999999999
 31
0.0
  0
LINE
  5
2C8
330
1E
100
AcDbEntity
  8
0
100
AcDbLine
 10
56.0
 20
128.3279
 30
0.0
 11
56.0
 21
124.7279
 31
0.0
  0
LINE
  5
2C9
330
1E
100
AcDbEntity
  8
0
100
AcDbLine
 10
59.5
 20
128.3279
 30
0.0
 11
59.5
 21
130.5278999999999
 31
0.0
  0
LINE
  5
2CA
330
1E
100
AcDbEntity
  8
0
100
AcDbLine
 10
59.5
 20
128.3279
 30
0.0
 11
59.5
 21
124.7279
 31
0.0
  0
LINE
  5
2CB
330
1E
100
AcDbEntity
  8
0
100
AcDbLine
 10
40.49999999999999
 20
128.8278999999999
 30
0.0
 11
42.0
 21
129.3279
 31
0.0
  0
LINE
  5
2CC
330
1E
100
AcDbEntity
  8
0
100
AcDbLine
 10
40.49999999999999
 20
128.8278999999999
 30
0.0
 11
40.49999999999999
 21
128.1279
 31
0.0
  0
LINE
  5
2CD
330
1E
100
AcDbEntity
  8
0
100
AcDbLine
 10
55.5
 20
129.0278999999999
 30
0.0
 11
55.5
 21
129.8278999999999
 31
0.0
  0
LINE
  5
2CE
330
1E
100
AcDbEntity
  8
0
100
AcDbLine
 10
55.5
 20
129.0278999999999
 30
0.0
 11
55.5
 21
127.0279
 31
0.0
  0
LINE
  5
2CF
330
1E
100
AcDbEntity
  8
0
100
AcDbLine
 10
60.0
 20
129.0278999999999
 30
0.0
 11
60.0
 21
127.0279
 31
0.0
  0
LINE
  5
2D0
330
1E
100
AcDbEntity
  8
0
100
AcDbLine
 10
60.0
 20
128.3279
 30
0.0
 11
61.0
 21
128.3279
 31
0.0
  0
LINE
  5
2D1
330
1E
100
AcDbEntity
  8
0
100
AcDbLine
 10
61.0
 20
127.6278999999999
 30
0.0
 11
61.0
 21
125.7279
 31
0.0
  0
LINE
  5
2D2
330
1E
100
AcDbEntity
  8
0
100
AcDbLine
 10
61.0
 20
127.6278999999999
 30
0.0
 11
61.0
 21
128.3279
 31
0.0
  0
LINE
  5
2D3
330
1E
100
AcDbEntity
  8
0
100
AcDbLine
 10
61.0
 20
129.0278999999999
 30
0.0
 11
61.0
 21
129.8278999999999
 31
0.0
  0
LINE
  5
2D4
330
1E
100
AcDbEntity
  8
0
100
AcDbLine
 10
61.0
 20
129.0278999999999
 30
0.0
 11
61.0
 21
128.3279
 31
0.0
  0
LINE
  5
2D5
330
1E
100
AcDbEntity
  8
0
100
AcDbLine
 10
61.0
 20
129.0278999999999
 30
0.0
 11
61.0
 21
127.0279
 31
0.0
  0
LINE
  5
2D6
330
1E
100
AcDbEntity
  8
0
100
AcDbLine
 10
247.0
 20
127.6278999999999
 30
0.0
 11
247.0
 21
128.3279
 31
0.0
  0
LINE
  5
2D7
330
1E
100
AcDbEntity
  8
0
100
AcDbLine
 10
245.0
 20
129.0278999999999
 30
0.0
 11
245.0
 21
129.8278999999999
 31
0.0
  0
LINE
  5
2D8
330
1E
100
AcDbEntity
  8
0
100
AcDbLine
 10
245.0
 20
129.0278999999999
 30
0.0
 11
245.0
 21
127.0279
 31
0.0
  0
LINE
  5
2D9
330
1E
100
AcDbEntity
  8
0
100
AcDbLine
 10
245.0
 20
128.3279
 30
0.0
 11
247.0
 21
128.3279
 31
0.0
  0
LINE
  5
2DA
330
1E
100
AcDbEntity
  8
0
100
AcDbLine
 10
61.0
 20
128.3279
 30
0.0
 11
61.0
 21
129.0278999999999
 31
0.0
  0
LINE
  5
2DB
330
1E
100
AcDbEntity
  8
0
100
AcDbLine
 10
61.0
 20
128.3279
 30
0.0
 11
61.0
 21
127.6278999999999
 31
0.0
  0
LINE
  5
2DC
330
1E
100
AcDbEntity
  8
0
100
AcDbLine
 10
247.0
 20
127.0558999999999
 30
0.0
 11
247.0
 21
123.6958999999999
 31
0.0
  0
LINE
  5
2DD
330
1E
100
AcDbEntity
  8
0
100
AcDbLine
 10
247.0
 20
128.3279
 30
0.0
 11
247.0
 21
129.0718999999999
 31
0.0
  0
LINE
  5
2DE
330
1E
100
AcDbEntity
  8
0
100
AcDbLine
 10
46.9858974358974
 20
129.3279
 30
0.0
 11
51.6
 21
135.2279
 31
0.0
  0
LINE
  5
2DF
330
1E
100
AcDbEntity
  8
0
100
AcDbLine
 10
46.3354430379747
 20
129.3279
 30
0.0
 11
51.2
 21
135.6279
 31
0.0
  0
LINE
  5
2E0
330
1E
100
AcDbEntity
  8
0
100
AcDbLine
 10
42.0
 20
129.3279
 30
0.0
 11
54.5
 21
129.3279
 31
0.0
  0
LINE
  5
2E1
330
1E
100
AcDbEntity
  8
0
100
AcDbLine
 10
54.5
 20
129.3279
 30
0.0
 11
55.5
 21
129.8278999999999
 31
0.0
  0
LINE
  5
2E2
330
1E
100
AcDbEntity
  8
0
100
AcDbLine
 10
55.5
 20
129.8278999999999
 30
0.0
 11
56.0
 21
131.3279
 31
0.0
  0
LINE
  5
2E3
330
1E
100
AcDbEntity
  8
0
100
AcDbLine
 10
55.5
 20
129.8278999999999
 30
0.0
 11
55.5
 21
129.0278999999999
 31
0.0
  0
LINE
  5
2E4
330
1E
100
AcDbEntity
  8
0
100
AcDbLine
 10
56.0
 20
130.5278999999999
 30
0.0
 11
56.0
 21
131.3279
 31
0.0
  0
LINE
  5
2E5
330
1E
100
AcDbEntity
  8
0
100
AcDbLine
 10
56.0
 20
130.5278999999999
 30
0.0
 11
56.0
 21
128.3279
 31
0.0
  0
LINE
  5
2E6
330
1E
100
AcDbEntity
  8
0
100
AcDbLine
 10
11.7262802842456
 20
131.2917321295079
 30
0.0
 11
11.807
 21
131.9315
 31
0.0
  0
LINE
  5
2E7
330
1E
100
AcDbEntity
  8
0
100
AcDbLine
 10
39.0
 20
131.2278999999999
 30
0.0
 11
46.29999999999999
 21
140.5278999999999
 31
0.0
  0
LINE
  5
2E9
330
1E
100
AcDbEntity
  8
0
100
AcDbLine
 10
11.7262802842456
 20
131.2917321295079
 30
0.0
 11
11.807
 21
131.9315
 31
0.0
  0
LINE
  5
2EB
330
1E
100
AcDbEntity
  8
0
100
AcDbLine
 10
56.0
 20
131.3279
 30
0.0
 11
57.5
 21
131.8278999999999
 31
0.0
  0
LINE
  5
2EC
330
1E
100
AcDbEntity
  8
0
100
AcDbLine
 10
56.0
 20
131.3279
 30
0.0
 11
56.0
 21
130.5278999999999
 31
0.0
  0
LINE
  5
2ED
330
1E
100
AcDbEntity
  8
0
100
AcDbLine
 10
0.168814607392423
 20
132.4879409962619
 30
0.0
 11
0.193
 21
131.9315
 31
0.0
  0
LINE
  5
2EE
330
1E
100
AcDbEntity
  8
0
100
AcDbLine
 10
0.0920000000000001
 20
133.7026999999999
 30
0.0
 11
0.4760000000000001
 21
135.2025999999999
 31
0.0
  0
LINE
  5
2EF
330
1E
100
AcDbEntity
  8
0
100
AcDbLine
 10
0.168814607392423
 20
132.4879409962619
 30
0.0
 11
0.193
 21
131.9315
 31
0.0
  0
LINE
  5
2F0
330
1E
100
AcDbEntity
  8
0
100
AcDbLine
 10
0.111
 20
133.8180999999999
 30
0.0
 11
0.191355368518851
 21
134.0907810344829
 31
0.0
  0
LINE
  5
2F1
330
1E
100
AcDbEntity
  8
0
100
AcDbLine
 10
0.112530328414949
 20
133.782891248931
 30
0.0
 11
0.191355368518851
 21
134.0907810344829
 31
0.0
  0
LINE
  5
2F2
330
1E
100
AcDbEntity
  8
0
100
AcDbLine
 10
0.112530328414949
 20
133.782891248931
 30
0.0
 11
0.191355368518851
 21
134.0907810344829
 31
0.0
  0
LINE
  5
2F3
330
1E
100
AcDbEntity
  8
0
100
AcDbLine
 10
0.111
 20
133.8180999999999
 30
0.0
 11
0.191355368518851
 21
134.0907810344829
 31
0.0
  0
LINE
  5
2F4
330
1E
100
AcDbEntity
  8
0
100
AcDbLine
 10
0.092
 20
133.7026999999999
 30
0.0
 11
0.4760000000000001
 21
135.2025999999999
 31
0.0
  0
LINE
  5
2F5
330
1E
100
AcDbEntity
  8
0
100
AcDbLine
 10
0.092
 20
133.7026999999999
 30
0.0
 11
0.212
 21
131.805
 31
0.0
  0
LINE
  5
2F7
330
1E
100
AcDbEntity
  8
0
100
AcDbLine
 10
0.4760000000000001
 20
135.2025999999999
 30
0.0
 11
1.187
 21
136.2986999999999
 31
0.0
  0
LINE
  5
2FA
330
1E
100
AcDbEntity
  8
0
100
AcDbLine
 10
0.4760000000000001
 20
135.2025999999999
 30
0.0
 11
1.187
 21
136.2986999999999
 31
0.0
  0
LINE
  5
2FB
330
1E
100
AcDbEntity
  8
0
100
AcDbLine
 10
1.283
 20
136.3949
 30
0.0
 11
1.4773327556326
 21
136.5455394741649
 31
0.0
  0
LINE
  5
2FC
330
1E
100
AcDbEntity
  8
0
100
AcDbLine
 10
1.283
 20
136.3949
 30
0.0
 11
1.4773327556326
 21
136.5455394741649
 31
0.0
  0
LINE
  5
2FD
330
1E
100
AcDbEntity
  8
0
100
AcDbLine
 10
1.187
 20
136.2986999999999
 30
0.0
 11
1.955999999999999
 21
136.9524999999999
 31
0.0
  0
LINE
  5
2FE
330
1E
100
AcDbEntity
  8
0
100
AcDbLine
 10
1.955999999999999
 20
136.9524999999999
 30
0.0
 11
3.071
 21
137.4716999999999
 31
0.0
  0
LINE
  5
2FF
330
1E
100
AcDbEntity
  8
0
100
AcDbLine
 10
3.071
 20
137.4716999999999
 30
0.0
 11
6.0
 21
137.8279
 31
0.0
  0
LINE
  5
303
330
1E
100
AcDbEntity
  8
0
100
AcDbLine
 10
11.807
 20
131.9315
 30
0.0
 11
11.8311853926076
 21
132.4879409962619
 31
0.0
  0
LINE
  5
304
330
1E
100
AcDbEntity
  8
0
100
AcDbLine
 10
51.6
 20
135.2279
 30
0.0
 11
59.4
 21
141.3278999999999
 31
0.0
  0
LINE
  5
305
330
1E
100
AcDbEntity
  8
0
100
AcDbLine
 10
51.2
 20
135.6279
 30
0.0
 11
59.1
 21
141.7279
 31
0.0
  0
LINE
  5
306
330
1E
100
AcDbEntity
  8
0
100
AcDbLine
 10
11.80864463148109
 20
134.0907810344829
 30
0.0
 11
11.889
 21
133.8180999999999
 31
0.0
  0
LINE
  5
307
330
1E
100
AcDbEntity
  8
0
100
AcDbLine
 10
11.80864463148109
 20
134.0907810344829
 30
0.0
 11
11.8874696715851
 21
133.782891248931
 31
0.0
  0
LINE
  5
308
330
1E
100
AcDbEntity
  8
0
100
AcDbLine
 10
11.524
 20
135.2025999999999
 30
0.0
 11
11.908
 21
133.7026999999999
 31
0.0
  0
LINE
  5
309
330
1E
100
AcDbEntity
  8
0
100
AcDbLine
 10
10.81299999999999
 20
136.2986999999999
 30
0.0
 11
11.524
 21
135.2025999999999
 31
0.0
  0
LINE
  5
30A
330
1E
100
AcDbEntity
  8
0
100
AcDbLine
 10
10.81299999999999
 20
136.2986999999999
 30
0.0
 11
11.524
 21
135.2025999999999
 31
0.0
  0
LINE
  5
30B
330
1E
100
AcDbEntity
  8
0
100
AcDbLine
 10
10.5226672443674
 20
136.5455394741649
 30
0.0
 11
10.717
 21
136.3949
 31
0.0
  0
LINE
  5
30C
330
1E
100
AcDbEntity
  8
0
100
AcDbLine
 10
10.044
 20
136.9524999999999
 30
0.0
 11
10.81299999999999
 21
136.2986999999999
 31
0.0
  0
LINE
  5
30D
330
1E
100
AcDbEntity
  8
0
100
AcDbLine
 10
8.929
 20
137.4716999999999
 30
0.0
 11
10.044
 21
136.9524999999999
 31
0.0
  0
LINE
  5
30E
330
1E
100
AcDbEntity
  8
0
100
AcDbLine
 10
46.29999999999999
 20
140.5278999999999
 30
0.0
 11
55.6
 21
147.8279
 31
0.0
  0
LINE
  5
30F
330
1E
100
AcDbEntity
  8
0
100
AcDbLine
 10
55.6
 20
147.8279
 30
0.0
 11
66.4
 21
152.2279
 31
0.0
  0
LINE
  5
310
330
1E
100
AcDbEntity
  8
0
100
AcDbLine
 10
6.0
 20
137.8279
 30
0.0
 11
8.929
 21
137.4716999999999
 31
0.0
  0
LINE
  5
311
330
1E
100
AcDbEntity
  8
0
100
AcDbLine
 10
0.193
 20
131.9315
 30
0.0
 11
0.273719715754402
 21
131.2917321295079
 31
0.0
  0
LINE
  5
312
330
1E
100
AcDbEntity
  8
0
100
AcDbLine
 10
0.193
 20
131.9315
 30
0.0
 11
0.273719715754403
 21
131.2917321295079
 31
0.0
  0
LINE
  5
313
330
1E
100
AcDbEntity
  8
0
100
AcDbLine
 10
57.5
 20
131.8278999999999
 30
0.0
 11
58.0
 21
131.8278999999999
 31
0.0
  0
LINE
  5
314
330
1E
100
AcDbEntity
  8
0
100
AcDbLine
 10
59.4
 20
141.3278999999999
 30
0.0
 11
68.4
 21
144.9278999999999
 31
0.0
  0
LINE
  5
315
330
1E
100
AcDbEntity
  8
0
100
AcDbLine
 10
59.1
 20
141.7279
 30
0.0
 11
68.2
 21
145.4278999999999
 31
0.0
  0
LINE
  5
316
330
1E
100
AcDbEntity
  8
0
100
AcDbLine
 10
58.0
 20
131.8278999999999
 30
0.0
 11
59.5
 21
131.3279
 31
0.0
  0
LINE
  5
317
330
1E
100
AcDbEntity
  8
0
100
AcDbLine
 10
59.5
 20
130.5278999999999
 30
0.0
 11
59.5
 21
131.3279
 31
0.0
  0
LINE
  5
318
330
1E
100
AcDbEntity
  8
0
100
AcDbLine
 10
59.5
 20
130.5278999999999
 30
0.0
 11
59.5
 21
128.3279
 31
0.0
  0
LINE
  5
319
330
1E
100
AcDbEntity
  8
0
100
AcDbLine
 10
59.5
 20
131.3279
 30
0.0
 11
60.0
 21
129.8278999999999
 31
0.0
  0
LINE
  5
31A
330
1E
100
AcDbEntity
  8
0
100
AcDbLine
 10
59.5
 20
131.3279
 30
0.0
 11
59.5
 21
130.5278999999999
 31
0.0
  0
LINE
  5
31B
330
1E
100
AcDbEntity
  8
0
100
AcDbLine
 10
60.0
 20
129.8278999999999
 30
0.0
 11
60.0
 21
129.0278999999999
 31
0.0
  0
LINE
  5
31C
330
1E
100
AcDbEntity
  8
0
100
AcDbLine
 10
197.376923076923
 20
129.8278999999999
 30
0.0
 11
201.6
 21
135.2279
 31
0.0
  0
LINE
  5
31D
330
1E
100
AcDbEntity
  8
0
100
AcDbLine
 10
196.7215189873419
 20
129.8278999999999
 30
0.0
 11
201.2
 21
135.6279
 31
0.0
  0
LINE
  5
31E
330
1E
100
AcDbEntity
  8
0
100
AcDbLine
 10
188.42962962963
 20
129.8278999999999
 30
0.0
 11
189.0
 21
131.2278999999999
 31
0.0
  0
LINE
  5
31F
330
1E
100
AcDbEntity
  8
0
100
AcDbLine
 10
245.0
 20
129.8278999999999
 30
0.0
 11
245.0
 21
129.0278999999999
 31
0.0
  0
LINE
  5
320
330
1E
100
AcDbEntity
  8
0
100
AcDbLine
 10
96.6
 20
141.3278999999999
 30
0.0
 11
104.4
 21
135.2279
 31
0.0
  0
LINE
  5
321
330
1E
100
AcDbEntity
  8
0
100
AcDbLine
 10
87.59999999999999
 20
144.9278999999999
 30
0.0
 11
96.6
 21
141.3278999999999
 31
0.0
  0
LINE
  5
322
330
1E
100
AcDbEntity
  8
0
100
AcDbLine
 10
189.0
 20
131.2278999999999
 30
0.0
 11
196.3
 21
140.5278999999999
 31
0.0
  0
LINE
  5
323
330
1E
100
AcDbEntity
  8
0
100
AcDbLine
 10
104.4
 20
135.2279
 30
0.0
 11
108.623076923077
 21
129.8278999999999
 31
0.0
  0
LINE
  5
324
330
1E
100
AcDbEntity
  8
0
100
AcDbLine
 10
104.8
 20
135.6279
 30
0.0
 11
109.278481012658
 21
129.8278999999999
 31
0.0
  0
LINE
  5
325
330
1E
100
AcDbEntity
  8
0
100
AcDbLine
 10
201.6
 20
135.2279
 30
0.0
 11
209.4
 21
141.3278999999999
 31
0.0
  0
LINE
  5
326
330
1E
100
AcDbEntity
  8
0
100
AcDbLine
 10
201.2
 20
135.6279
 30
0.0
 11
209.1
 21
141.7279
 31
0.0
  0
LINE
  5
327
330
1E
100
AcDbEntity
  8
0
100
AcDbLine
 10
209.4
 20
141.3278999999999
 30
0.0
 11
218.4
 21
144.9278999999999
 31
0.0
  0
LINE
  5
328
330
1E
100
AcDbEntity
  8
0
100
AcDbLine
 10
218.4
 20
144.9278999999999
 30
0.0
 11
228.0
 21
146.3278999999999
 31
0.0
  0
LINE
  5
329
330
1E
100
AcDbEntity
  8
0
100
AcDbLine
 10
209.1
 20
141.7279
 30
0.0
 11
218.1999999999999
 21
145.4278999999999
 31
0.0
  0
LINE
  5
32A
330
1E
100
AcDbEntity
  8
0
100
AcDbLine
 10
196.3
 20
140.5278999999999
 30
0.0
 11
205.6
 21
147.8279
 31
0.0
  0
LINE
  5
32B
330
1E
100
AcDbEntity
  8
0
100
AcDbLine
 10
246.6
 20
141.3278999999999
 30
0.0
 11
254.4
 21
135.2279
 31
0.0
  0
LINE
  5
32C
330
1E
100
AcDbEntity
  8
0
100
AcDbLine
 10
218.1999999999999
 20
145.4278999999999
 30
0.0
 11
228.0
 21
146.8279
 31
0.0
  0
LINE
  5
32D
330
1E
100
AcDbEntity
  8
0
100
AcDbLine
 10
237.5999999999999
 20
144.9278999999999
 30
0.0
 11
246.6
 21
141.3278999999999
 31
0.0
  0
LINE
  5
32E
330
1E
100
AcDbEntity
  8
0
100
AcDbLine
 10
246.9
 20
141.7279
 30
0.0
 11
254.8
 21
135.6279
 31
0.0
  0
LINE
  5
32F
330
1E
100
AcDbEntity
  8
0
100
AcDbLine
 10
237.8
 20
145.4278999999999
 30
0.0
 11
246.9
 21
141.7279
 31
0.0
  0
LINE
  5
330
330
1E
100
AcDbEntity
  8
0
100
AcDbLine
 10
109.6999999999999
 20
140.5278999999999
 30
0.0
 11
117.0
 21
131.2278999999999
 31
0.0
  0
LINE
  5
331
330
1E
100
AcDbEntity
  8
0
100
AcDbLine
 10
117.0
 20
131.2278999999999
 30
0.0
 11
117.5703703703699
 21
129.8278999999999
 31
0.0
  0
LINE
  5
332
330
1E
100
AcDbEntity
  8
0
100
AcDbLine
 10
96.90000000000001
 20
141.7279
 30
0.0
 11
104.8
 21
135.6279
 31
0.0
  0
LINE
  5
333
330
1E
100
AcDbEntity
  8
0
100
AcDbLine
 10
87.79999999999999
 20
145.4278999999999
 30
0.0
 11
96.90000000000001
 21
141.7279
 31
0.0
  0
LINE
  5
334
330
1E
100
AcDbEntity
  8
0
100
AcDbLine
 10
68.4
 20
144.9278999999999
 30
0.0
 11
78.0
 21
146.3278999999999
 31
0.0
  0
LINE
  5
335
330
1E
100
AcDbEntity
  8
0
100
AcDbLine
 10
78.0
 20
146.3278999999999
 30
0.0
 11
87.59999999999999
 21
144.9278999999999
 31
0.0
  0
LINE
  5
336
330
1E
100
AcDbEntity
  8
0
100
AcDbLine
 10
78.0
 20
146.8279
 30
0.0
 11
87.79999999999999
 21
145.4278999999999
 31
0.0
  0
LINE
  5
337
330
1E
100
AcDbEntity
  8
0
100
AcDbLine
 10
205.6
 20
147.8279
 30
0.0
 11
216.4
 21
152.2279
 31
0.0
  0
LINE
  5
338
330
1E
100
AcDbEntity
  8
0
100
AcDbLine
 10
216.4
 20
152.2279
 30
0.0
 11
228.0
 21
153.8278999999999
 31
0.0
  0
LINE
  5
339
330
1E
100
AcDbEntity
  8
0
100
AcDbLine
 10
228.0
 20
146.3278999999999
 30
0.0
 11
237.5999999999999
 21
144.9278999999999
 31
0.0
  0
LINE
  5
33A
330
1E
100
AcDbEntity
  8
0
100
AcDbLine
 10
228.0
 20
146.8279
 30
0.0
 11
237.8
 21
145.4278999999999
 31
0.0
  0
LINE
  5
33B
330
1E
100
AcDbEntity
  8
0
100
AcDbLine
 10
239.5999999999999
 20
152.2279
 30
0.0
 11
250.4
 21
147.8279
 31
0.0
  0
LINE
  5
33C
330
1E
100
AcDbEntity
  8
0
100
AcDbLine
 10
100.4
 20
147.8279
 30
0.0
 11
109.6999999999999
 21
140.5278999999999
 31
0.0
  0
LINE
  5
33D
330
1E
100
AcDbEntity
  8
0
100
AcDbLine
 10
228.0
 20
153.8278999999999
 30
0.0
 11
239.5999999999999
 21
152.2279
 31
0.0
  0
LINE
  5
33E
330
1E
100
AcDbEntity
  8
0
100
AcDbLine
 10
89.59999999999999
 20
152.2279
 30
0.0
 11
100.4
 21
147.8279
 31
0.0
  0
LINE
  5
33F
330
1E
100
AcDbEntity
  8
0
100
AcDbLine
 10
78.0
 20
153.8278999999999
 30
0.0
 11
89.59999999999999
 21
152.2279
 31
0.0
  0
LINE
  5
340
330
1E
100
AcDbEntity
  8
0
100
AcDbLine
 10
68.2
 20
145.4278999999999
 30
0.0
 11
78.0
 21
146.8279
 31
0.0
  0
LINE
  5
341
330
1E
100
AcDbEntity
  8
0
100
AcDbLine
 10
66.4
 20
152.2279
 30
0.0
 11
78.0
 21
153.8278999999999
 31
0.0
  0
LINE
  5
342
330
1E
100
AcDbEntity
  8
0
100
AcDbLine
 10
153.0
 20
129.8278999999999
 30
0.0
 11
245.0
 21
129.8278999999999
 31
0.0
  0
LINE
  5
343
330
1E
100
AcDbEntity
  8
0
100
AcDbLine
 10
61.0
 20
129.8278999999999
 30
0.0
 11
153.0
 21
129.8278999999999
 31
0.0
  0
LINE
  5
344
330
1E
100
AcDbEntity
  8
0
100
AcDbLine
 10
61.0
 20
129.8278999999999
 30
0.0
 11
61.0
 21
129.0278999999999
 31
0.0
  0
LINE
  5
345
330
1E
100
AcDbEntity
  8
0
100
AcDbLine
 10
247.0
 20
129.0718999999999
 30
0.0
 11
247.0
 21
129.8278999999999
 31
0.0
  0
LINE
  5
346
330
1E
100
AcDbEntity
  8
0
100
AcDbLine
 10
247.0
 20
129.0718999999999
 30
0.0
 11
247.0
 21
127.0558999999999
 31
0.0
  0
LINE
  5
347
330
1E
100
AcDbEntity
  8
0
100
AcDbLine
 10
247.0
 20
129.8278999999999
 30
0.0
 11
276.798
 21
129.8278999999999
 31
0.0
  0
LINE
  5
348
330
1E
100
AcDbEntity
  8
0
100
AcDbLine
 10
247.0
 20
129.8278999999999
 30
0.0
 11
247.0
 21
129.0718999999999
 31
0.0
  0
LINE
  5
349
330
1E
100
AcDbEntity
  8
0
100
AcDbLine
 10
247.0
 20
88.58389999999999
 30
0.0
 11
247.0
 21
89.3279
 31
0.0
  0
LINE
  5
34A
330
1E
100
AcDbEntity
  8
0
100
AcDbLine
 10
247.0
 20
88.58389999999999
 30
0.0
 11
247.0
 21
87.8279
 31
0.0
  0
LINE
  5
34B
330
1E
100
AcDbEntity
  8
0
100
AcDbLine
 10
254.4
 20
82.42789999999999
 30
0.0
 11
258.623076923077
 21
87.8279
 31
0.0
  0
LINE
  5
34C
330
1E
100
AcDbEntity
  8
0
100
AcDbLine
 10
254.8
 20
82.0279
 30
0.0
 11
259.278481012658
 21
87.8279
 31
0.0
  0
LINE
  5
34D
330
1E
100
AcDbEntity
  8
0
100
AcDbLine
 10
259.6999999999999
 20
77.1279
 30
0.0
 11
267.0
 21
86.42789999999999
 31
0.0
  0
LINE
  5
34E
330
1E
100
AcDbEntity
  8
0
100
AcDbLine
 10
267.0
 20
86.42789999999999
 30
0.0
 11
267.57037037037
 21
87.8279
 31
0.0
  0
LINE
  5
34F
330
1E
100
AcDbEntity
  8
0
100
AcDbLine
 10
250.4
 20
69.8279
 30
0.0
 11
259.6999999999999
 21
77.1279
 31
0.0
  0
LINE
  5
350
330
1E
100
AcDbEntity
  8
0
100
AcDbLine
 10
267.0
 20
131.2278999999999
 30
0.0
 11
267.57037037037
 21
129.8278999999999
 31
0.0
  0
LINE
  5
351
330
1E
100
AcDbEntity
  8
0
100
AcDbLine
 10
268.798
 20
133.4519
 30
0.0
 11
268.894
 21
133.5471
 31
0.0
  0
LINE
  5
352
330
1E
100
AcDbEntity
  8
0
100
AcDbLine
 10
268.798
 20
133.4519
 30
0.0
 11
268.798
 21
129.8278999999999
 31
0.0
  0
LINE
  5
353
330
1E
100
AcDbEntity
  8
0
100
AcDbLine
 10
268.798
 20
133.4519
 30
0.0
 11
268.942
 21
133.4519
 31
0.0
  0
LINE
  5
354
330
1E
100
AcDbEntity
  8
0
100
AcDbLine
 10
272.798
 20
133.4519
 30
0.0
 11
273.822
 21
133.4519
 31
0.0
  0
LINE
  5
355
330
1E
100
AcDbEntity
  8
0
100
AcDbLine
 10
273.822
 20
133.4519
 30
0.0
 11
274.7819999999999
 21
133.4519
 31
0.0
  0
LINE
  5
356
330
1E
100
AcDbEntity
  8
0
100
AcDbLine
 10
274.7819999999999
 20
133.4519
 30
0.0
 11
275.6299999999999
 21
133.4519
 31
0.0
  0
LINE
  5
357
330
1E
100
AcDbEntity
  8
0
100
AcDbLine
 10
275.6299999999999
 20
133.4519
 30
0.0
 11
276.2699999999999
 21
133.4519
 31
0.0
  0
LINE
  5
358
330
1E
100
AcDbEntity
  8
0
100
AcDbLine
 10
276.2699999999999
 20
133.4519
 30
0.0
 11
276.6539999999999
 21
133.4519
 31
0.0
  0
LINE
  5
359
330
1E
100
AcDbEntity
  8
0
100
AcDbLine
 10
276.6539999999999
 20
133.4519
 30
0.0
 11
276.798
 21
133.4519
 31
0.0
  0
LINE
  5
35A
330
1E
100
AcDbEntity
  8
0
100
AcDbLine
 10
271.774
 20
133.4519
 30
0.0
 11
272.798
 21
133.4519
 31
0.0
  0
LINE
  5
35B
330
1E
100
AcDbEntity
  8
0
100
AcDbLine
 10
270.814
 20
133.4519
 30
0.0
 11
271.774
 21
133.4519
 31
0.0
  0
LINE
  5
35C
330
1E
100
AcDbEntity
  8
0
100
AcDbLine
 10
269.966
 20
133.4519
 30
0.0
 11
270.814
 21
133.4519
 31
0.0
  0
LINE
  5
35D
330
1E
100
AcDbEntity
  8
0
100
AcDbLine
 10
269.3259999999999
 20
133.4519
 30
0.0
 11
269.966
 21
133.4519
 31
0.0
  0
LINE
  5
35E
330
1E
100
AcDbEntity
  8
0
100
AcDbLine
 10
268.942
 20
133.4519
 30
0.0
 11
269.3259999999999
 21
133.4519
 31
0.0
  0
LINE
  5
35F
330
1E
100
AcDbEntity
  8
0
100
AcDbLine
 10
268.798
 20
129.8278999999999
 30
0.0
 11
268.798
 21
133.4519
 31
0.0
  0
LINE
  5
360
330
1E
100
AcDbEntity
  8
0
100
AcDbLine
 10
272.798
 20
133.5471
 30
0.0
 11
273.8059999999999
 21
133.5471
 31
0.0
  0
LINE
  5
361
330
1E
100
AcDbEntity
  8
0
100
AcDbLine
 10
273.8059999999999
 20
133.5471
 30
0.0
 11
274.734
 21
133.5471
 31
0.0
  0
LINE
  5
362
330
1E
100
AcDbEntity
  8
0
100
AcDbLine
 10
274.734
 20
133.5471
 30
0.0
 11
275.55
 21
133.5471
 31
0.0
  0
LINE
  5
363
330
1E
100
AcDbEntity
  8
0
100
AcDbLine
 10
275.55
 20
133.5471
 30
0.0
 11
276.174
 21
133.5471
 31
0.0
  0
LINE
  5
364
330
1E
100
AcDbEntity
  8
0
100
AcDbLine
 10
276.174
 20
133.5471
 30
0.0
 11
276.5579999999999
 21
133.5471
 31
0.0
  0
LINE
  5
365
330
1E
100
AcDbEntity
  8
0
100
AcDbLine
 10
276.5579999999999
 20
133.5471
 30
0.0
 11
276.702
 21
133.5471
 31
0.0
  0
LINE
  5
366
330
1E
100
AcDbEntity
  8
0
100
AcDbLine
 10
271.79
 20
133.5471
 30
0.0
 11
272.798
 21
133.5471
 31
0.0
  0
LINE
  5
367
330
1E
100
AcDbEntity
  8
0
100
AcDbLine
 10
270.862
 20
133.5471
 30
0.0
 11
271.79
 21
133.5471
 31
0.0
  0
LINE
  5
368
330
1E
100
AcDbEntity
  8
0
100
AcDbLine
 10
270.046
 20
133.5471
 30
0.0
 11
270.862
 21
133.5471
 31
0.0
  0
LINE
  5
369
330
1E
100
AcDbEntity
  8
0
100
AcDbLine
 10
269.422
 20
133.5471
 30
0.0
 11
270.046
 21
133.5471
 31
0.0
  0
LINE
  5
36A
330
1E
100
AcDbEntity
  8
0
100
AcDbLine
 10
269.038
 20
133.5471
 30
0.0
 11
269.422
 21
133.5471
 31
0.0
  0
LINE
  5
36B
330
1E
100
AcDbEntity
  8
0
100
AcDbLine
 10
254.4
 20
135.2279
 30
0.0
 11
258.623076923077
 21
129.8278999999999
 31
0.0
  0
LINE
  5
36C
330
1E
100
AcDbEntity
  8
0
100
AcDbLine
 10
250.4
 20
147.8279
 30
0.0
 11
259.6999999999999
 21
140.5278999999999
 31
0.0
  0
LINE
  5
36D
330
1E
100
AcDbEntity
  8
0
100
AcDbLine
 10
254.8
 20
135.6279
 30
0.0
 11
259.278481012658
 21
129.8278999999999
 31
0.0
  0
LINE
  5
36E
330
1E
100
AcDbEntity
  8
0
100
AcDbLine
 10
259.6999999999999
 20
140.5278999999999
 30
0.0
 11
267.0
 21
131.2278999999999
 31
0.0
  0
LINE
  5
36F
330
1E
100
AcDbEntity
  8
0
100
AcDbLine
 10
268.894
 20
133.5471
 30
0.0
 11
269.038
 21
133.5471
 31
0.0
  0
LINE
  5
370
330
1E
100
AcDbEntity
  8
0
100
AcDbLine
 10
276.702
 20
133.5471
 30
0.0
 11
276.798
 21
133.4519
 31
0.0
  0
LINE
  5
371
330
1E
100
AcDbEntity
  8
0
100
AcDbLine
 10
276.798
 20
133.4519
 30
0.0
 11
276.798
 21
129.8278999999999
 31
0.0
  0
LINE
  5
372
330
1E
100
AcDbEntity
  8
0
100
AcDbLine
 10
288.3329999999999
 20
103.4518999999999
 30
0.0
 11
288.3329999999999
 21
108.8278999999999
 31
0.0
  0
LINE
  5
373
330
1E
100
AcDbEntity
  8
0
100
AcDbLine
 10
288.3329999999999
 20
103.4518999999999
 30
0.0
 11
288.3329999999999
 21
98.4119
 31
0.0
  0
LINE
  5
374
330
1E
100
AcDbEntity
  8
0
100
AcDbLine
 10
288.3329999999999
 20
98.4119
 30
0.0
 11
288.3329999999999
 21
103.4518999999999
 31
0.0
  0
LINE
  5
375
330
1E
100
AcDbEntity
  8
0
100
AcDbLine
 10
288.3329999999999
 20
98.4119
 30
0.0
 11
288.3329999999999
 21
93.95990000000001
 31
0.0
  0
LINE
  5
376
330
1E
100
AcDbEntity
  8
0
100
AcDbLine
 10
288.3329999999999
 20
93.95990000000001
 30
0.0
 11
288.3329999999999
 21
98.4119
 31
0.0
  0
LINE
  5
377
330
1E
100
AcDbEntity
  8
0
100
AcDbLine
 10
288.3329999999999
 20
93.95990000000001
 30
0.0
 11
288.3329999999999
 21
90.5999
 31
0.0
  0
LINE
  5
378
330
1E
100
AcDbEntity
  8
0
100
AcDbLine
 10
288.3329999999999
 20
90.5999
 30
0.0
 11
288.3329999999999
 21
93.95990000000001
 31
0.0
  0
LINE
  5
379
330
1E
100
AcDbEntity
  8
0
100
AcDbLine
 10
288.3329999999999
 20
90.5999
 30
0.0
 11
288.3329999999999
 21
88.58389999999999
 31
0.0
  0
LINE
  5
37A
330
1E
100
AcDbEntity
  8
0
100
AcDbLine
 10
288.3329999999999
 20
88.58389999999999
 30
0.0
 11
288.3329999999999
 21
90.5999
 31
0.0
  0
LINE
  5
37B
330
1E
100
AcDbEntity
  8
0
100
AcDbLine
 10
288.3329999999999
 20
88.58389999999999
 30
0.0
 11
288.3329999999999
 21
87.8279
 31
0.0
  0
LINE
  5
37C
330
1E
100
AcDbEntity
  8
0
100
AcDbLine
 10
288.3329999999999
 20
108.8278999999999
 30
0.0
 11
288.3329999999999
 21
114.2039
 31
0.0
  0
LINE
  5
37D
330
1E
100
AcDbEntity
  8
0
100
AcDbLine
 10
288.3329999999999
 20
108.8278999999999
 30
0.0
 11
288.3329999999999
 21
103.4518999999999
 31
0.0
  0
LINE
  5
37E
330
1E
100
AcDbEntity
  8
0
100
AcDbLine
 10
288.3329999999999
 20
114.2039
 30
0.0
 11
288.3329999999999
 21
119.2439
 31
0.0
  0
LINE
  5
37F
330
1E
100
AcDbEntity
  8
0
100
AcDbLine
 10
288.3329999999999
 20
114.2039
 30
0.0
 11
288.3329999999999
 21
108.8278999999999
 31
0.0
  0
LINE
  5
380
330
1E
100
AcDbEntity
  8
0
100
AcDbLine
 10
288.3329999999999
 20
119.2439
 30
0.0
 11
288.3329999999999
 21
123.6958999999999
 31
0.0
  0
LINE
  5
381
330
1E
100
AcDbEntity
  8
0
100
AcDbLine
 10
288.3329999999999
 20
119.2439
 30
0.0
 11
288.3329999999999
 21
114.2039
 31
0.0
  0
LINE
  5
382
330
1E
100
AcDbEntity
  8
0
100
AcDbLine
 10
288.3329999999999
 20
123.6958999999999
 30
0.0
 11
288.3329999999999
 21
127.0558999999999
 31
0.0
  0
LINE
  5
383
330
1E
100
AcDbEntity
  8
0
100
AcDbLine
 10
288.3329999999999
 20
123.6958999999999
 30
0.0
 11
288.3329999999999
 21
119.2439
 31
0.0
  0
LINE
  5
384
330
1E
100
AcDbEntity
  8
0
100
AcDbLine
 10
288.3329999999999
 20
127.0558999999999
 30
0.0
 11
288.3329999999999
 21
129.0718999999999
 31
0.0
  0
LINE
  5
385
330
1E
100
AcDbEntity
  8
0
100
AcDbLine
 10
288.3329999999999
 20
127.0558999999999
 30
0.0
 11
288.3329999999999
 21
123.6958999999999
 31
0.0
  0
LINE
  5
386
330
1E
100
AcDbEntity
  8
0
100
AcDbLine
 10
289.0
 20
103.5358999999999
 30
0.0
 11
289.0
 21
108.8278999999999
 31
0.0
  0
LINE
  5
387
330
1E
100
AcDbEntity
  8
0
100
AcDbLine
 10
289.0
 20
103.5358999999999
 30
0.0
 11
289.0
 21
98.6639
 31
0.0
  0
LINE
  5
388
330
1E
100
AcDbEntity
  8
0
100
AcDbLine
 10
289.0
 20
98.6639
 30
0.0
 11
289.0
 21
103.5358999999999
 31
0.0
  0
LINE
  5
389
330
1E
100
AcDbEntity
  8
0
100
AcDbLine
 10
289.0
 20
98.6639
 30
0.0
 11
289.0
 21
94.3799
 31
0.0
  0
LINE
  5
38A
330
1E
100
AcDbEntity
  8
0
100
AcDbLine
 10
289.0
 20
94.3799
 30
0.0
 11
289.0
 21
98.6639
 31
0.0
  0
LINE
  5
38B
330
1E
100
AcDbEntity
  8
0
100
AcDbLine
 10
289.0
 20
94.3799
 30
0.0
 11
289.0
 21
91.1039
 31
0.0
  0
LINE
  5
38C
330
1E
100
AcDbEntity
  8
0
100
AcDbLine
 10
289.0
 20
91.1039
 30
0.0
 11
289.0
 21
94.3799
 31
0.0
  0
LINE
  5
38D
330
1E
100
AcDbEntity
  8
0
100
AcDbLine
 10
289.0
 20
91.1039
 30
0.0
 11
289.0
 21
89.08790000000001
 31
0.0
  0
LINE
  5
38E
330
1E
100
AcDbEntity
  8
0
100
AcDbLine
 10
289.0
 20
89.08790000000001
 30
0.0
 11
289.0
 21
91.1039
 31
0.0
  0
LINE
  5
38F
330
1E
100
AcDbEntity
  8
0
100
AcDbLine
 10
289.0
 20
89.08790000000001
 30
0.0
 11
289.0
 21
88.3319
 31
0.0
  0
LINE
  5
390
330
1E
100
AcDbEntity
  8
0
100
AcDbLine
 10
289.0
 20
88.3319
 30
0.0
 11
289.0
 21
89.08790000000001
 31
0.0
  0
LINE
  5
391
330
1E
100
AcDbEntity
  8
0
100
AcDbLine
 10
289.0
 20
108.8278999999999
 30
0.0
 11
289.0
 21
114.1199
 31
0.0
  0
LINE
  5
392
330
1E
100
AcDbEntity
  8
0
100
AcDbLine
 10
289.0
 20
108.8278999999999
 30
0.0
 11
289.0
 21
103.5358999999999
 31
0.0
  0
LINE
  5
393
330
1E
100
AcDbEntity
  8
0
100
AcDbLine
 10
289.0
 20
114.1199
 30
0.0
 11
289.0
 21
118.9918999999999
 31
0.0
  0
LINE
  5
394
330
1E
100
AcDbEntity
  8
0
100
AcDbLine
 10
289.0
 20
114.1199
 30
0.0
 11
289.0
 21
108.8278999999999
 31
0.0
  0
LINE
  5
395
330
1E
100
AcDbEntity
  8
0
100
AcDbLine
 10
289.0
 20
118.9918999999999
 30
0.0
 11
289.0
 21
123.2758999999999
 31
0.0
  0
LINE
  5
396
330
1E
100
AcDbEntity
  8
0
100
AcDbLine
 10
289.0
 20
118.9918999999999
 30
0.0
 11
289.0
 21
114.1199
 31
0.0
  0
LINE
  5
397
330
1E
100
AcDbEntity
  8
0
100
AcDbLine
 10
289.0
 20
123.2758999999999
 30
0.0
 11
289.0
 21
126.5519
 31
0.0
  0
LINE
  5
398
330
1E
100
AcDbEntity
  8
0
100
AcDbLine
 10
289.0
 20
123.2758999999999
 30
0.0
 11
289.0
 21
118.9918999999999
 31
0.0
  0
LINE
  5
399
330
1E
100
AcDbEntity
  8
0
100
AcDbLine
 10
289.0
 20
126.5519
 30
0.0
 11
289.0
 21
128.5679
 31
0.0
  0
LINE
  5
39A
330
1E
100
AcDbEntity
  8
0
100
AcDbLine
 10
289.0
 20
126.5519
 30
0.0
 11
289.0
 21
123.2758999999999
 31
0.0
  0
LINE
  5
39B
330
1E
100
AcDbEntity
  8
0
100
AcDbLine
 10
289.0
 20
129.3239
 30
0.0
 11
289.0
 21
128.5679
 31
0.0
  0
LINE
  5
39C
330
1E
100
AcDbEntity
  8
0
100
AcDbLine
 10
289.0
 20
128.5679
 30
0.0
 11
289.0
 21
129.3239
 31
0.0
  0
LINE
  5
39D
330
1E
100
AcDbEntity
  8
0
100
AcDbLine
 10
289.0
 20
128.5679
 30
0.0
 11
289.0
 21
126.5519
 31
0.0
  0
LINE
  5
39E
330
1E
100
AcDbEntity
  8
0
100
AcDbLine
 10
288.3329999999999
 20
129.0718999999999
 30
0.0
 11
288.3329999999999
 21
129.8278999999999
 31
0.0
  0
LINE
  5
39F
330
1E
100
AcDbEntity
  8
0
100
AcDbLine
 10
288.3329999999999
 20
129.0718999999999
 30
0.0
 11
288.3329999999999
 21
127.0558999999999
 31
0.0
  0
LINE
  5
3A0
330
1E
100
AcDbEntity
  8
0
100
AcDbLine
 10
288.3329999999999
 20
129.8278999999999
 30
0.0
 11
289.0
 21
129.3239
 31
0.0
  0
LINE
  5
3A1
330
1E
100
AcDbEntity
  8
0
100
AcDbLine
 10
288.3329999999999
 20
129.8278999999999
 30
0.0
 11
288.3329999999999
 21
129.0718999999999
 31
0.0
  0
LINE
  5
3A2
330
1E
100
AcDbEntity
  8
0
100
AcDbLine
 10
276.798
 20
129.8278999999999
 30
0.0
 11
288.3329999999999
 21
129.8278999999999
 31
0.0
  0
LINE
  5
3A3
330
1E
100
AcDbEntity
  8
0
100
AcDbLine
 10
276.798
 20
129.8278999999999
 30
0.0
 11
276.798
 21
133.4519
 31
0.0
  0
LINE
  5
3A4
330
1E
100
AcDbEntity
  8
0
100
AcDbLine
 10
288.3329999999999
 20
87.8279
 30
0.0
 11
289.0
 21
88.3319
 31
0.0
  0
LINE
  5
3A5
330
1E
100
AcDbEntity
  8
0
100
AcDbLine
 10
288.3329999999999
 20
87.8279
 30
0.0
 11
288.3329999999999
 21
88.58389999999999
 31
0.0
  0
LINE
  5
3A6
330
1E
100
AcDbEntity
  8
0
100
AcDbLine
 10
247.0
 20
87.8279
 30
0.0
 11
247.0
 21
88.58389999999999
 31
0.0
  0
LINE
  5
3A7
330
1E
100
AcDbEntity
  8
0
100
AcDbLine
 10
247.0
 20
87.8279
 30
0.0
 11
288.3329999999999
 21
87.8279
 31
0.0
  0
LINE
  5
3AC
330
1E
100
AcDbEntity
  8
0
100
AcDbLine
 10
141.56914
 20
87.8279
 30
0.0
 11
164.381604
 21
87.8279
 31
0.0
  0
LINE
  5
3AD
330
1E
100
AcDbEntity
  8
0
100
AcDbLine
 10
11.908
 20
83.9531
 30
0.0
 11
11.8311866227729
 21
85.16783954969829
 31
0.0
  0
LINE
  5
3AE
330
1E
100
AcDbEntity
  8
0
100
AcDbLine
 10
11.7262802842455
 20
86.36406787049279
 30
0.0
 11
11.31
 21
89.8259
 31
0.0
  0
LINE
  5
3AF
330
1E
100
AcDbEntity
  8
0
100
AcDbLine
 10
0.212
 20
85.85080000000001
 30
0.0
 11
0.69
 21
89.8259
 31
0.0
  0
LINE
  5
3B0
330
1E
100
AcDbEntity
  8
0
100
AcDbLine
 10
11.908
 20
133.7026999999999
 30
0.0
 11
11.8311853926076
 21
132.4879409962619
 31
0.0
  0
LINE
  5
3B1
330
1E
100
AcDbEntity
  8
0
100
AcDbLine
 10
11.7262802842456
 20
131.2917321295079
 30
0.0
 11
10.783
 21
124.2858
 31
0.0
  0
LINE
  5
3B2
330
1E
100
AcDbEntity
  8
0
100
AcDbLine
 10
0.69
 20
127.8299
 30
0.0
 11
0.273719715754402
 21
131.2917321295079
 31
0.0
  0
ENDSEC
  0
SECTION
  2
OBJECTS
  0
DICTIONARY
  5
C
330
0
100
AcDbDictionary
  3
ACAD_GROUP
350
D
  3
ACAD_LAYOUT
350
19
  3
ACAD_MLINESTYLE
350
16
  3
ACAD_PLOTSETTINGS
350
18
  3
ACAD_PLOTSTYLENAME
350
E
  3
ACDBHEADERROUNDTRIPXREC
350
3B7
  3
ACDBVARIABLEDICTIONARY
350
3B4
  0
DICTIONARY
  5
3D9
330
1E
100
AcDbDictionary
280
     1
  3
ACAD_LAYOUTSELFREF
360
3DA
  0
DICTIONARY
  5
3D7
330
1A
100
AcDbDictionary
280
     1
  3
ACAD_LAYOUTSELFREF
360
3D8
  0
DICTIONARY
  5
D
102
{ACAD_REACTORS
330
C
102
}
330
C
100
AcDbDictionary
  0
DICTIONARY
  5
19
102
{ACAD_REACTORS
330
C
102
}
330
C
100
AcDbDictionary
  0
DICTIONARY
  5
16
102
{ACAD_REACTORS
330
C
102
}
330
C
100
AcDbDictionary
  3
STANDARD
350
17
  0
DICTIONARY
  5
18
102
{ACAD_REACTORS
330
C
102
}
330
C
100
AcDbDictionary
  0
ACDBDICTIONARYWDFLT
  5
E
102
{ACAD_REACTORS
330
C
102
}
330
C
100
AcDbDictionary
281
     1
  3
Normal
350
F
100
AcDbDictionaryWithDefault
340
F
  0
DICTIONARY
  5
3B7
102
{ACAD_REACTORS
330
C
102
}
330
C
100
AcDbDictionary
  3
CEPSNTYPE
350
3C1
  3
FINGERPRINTGUID
350
3C2
  3
HYPERLINKBASE
350
3BA
  3
INSUNITS
350
3C0
  3
LAYOUTDICT
350
3BC
  3
LWETCUNION
350
3BF
  3
PLOTSETDICT
350
3BD
  3
PLOTSTYLNAMDICT
350
3BE
  3
PSVPSCALE
350
3C4
  3
PUCSBASE
350
3C7
  3
PUCSORGBACK
350
3CD
  3
PUCSORGBOTTOM
350
3C9
  3
PUCSORGFRONT
350
3CC
  3
PUCSORGLEFT
350
3CA
  3
PUCSORGRIGHT
350
3CB
  3
PUCSORGTOP
350
3C8
  3
PUCSORTHOREF
350
3C5
  3
PUCSORTHOVIEW
350
3C6
  3
STYLESHEET
350
3BB
  3
TSTACKALIGN
350
3B8
  3
TSTACKSIZE
350
3B9
  3
UCSBASE
350
3D0
  3
UCSORGBACK
350
3D6
  3
UCSORGBOTTOM
350
3D2
  3
UCSORGFRONT
350
3D5
  3
UCSORGLEFT
350
3D3
  3
UCSORGRIGHT
350
3D4
  3
UCSORGTOP
350
3D1
  3
UCSORTHOREF
350
3CE
  3
UCSORTHOVIEW
350
3CF
  3
VERSIONGUID
350
3C3
  0
DICTIONARY
  5
3B4
102
{ACAD_REACTORS
330
C
102
}
330
C
100
AcDbDictionary
  3
DIMASSOC
350
3B5
  0
XRECORD
  5
3DA
102
{ACAD_REACTORS
330
3D9
102
}
330
3D9
100
AcDbXrecord
340
1E
  0
XRECORD
  5
3D8
102
{ACAD_REACTORS
330
3D7
102
}
330
3D7
100
AcDbXrecord
340
1A
  0
MLINESTYLE
  5
17
102
{ACAD_REACTORS
330
16
102
}
330
16
100
AcDbMlineStyle
  2
STANDARD
 70
     0
  3

 62
   256
 51
90.0
 52
90.0
 71
     2
 49
0.5
 62
   256
  6
BYLAYER
 49
-0.5
 62
   256
  6
BYLAYER
  0
ACDBPLACEHOLDER
  5
F
102
{ACAD_REACTORS
330
E
102
}
330
E
100
AcDbPlaceHolder
280
     0
  0
XRECORD
  5
3C1
102
{ACAD_REACTORS
330
3B7
102
}
330
3B7
100
AcDbXrecord
 90
        0
  0
XRECORD
  5
3C2
102
{ACAD_REACTORS
330
3B7
102
}
330
3B7
100
AcDbXrecord
  1
{0038D0DA-BDF5-4C35-B635-C6683223435B}
  0
XRECORD
  5
3BA
102
{ACAD_REACTORS
330
3B7
102
}
330
3B7
100
AcDbXrecord
  1

  0
XRECORD
  5
3C0
102
{ACAD_REACTORS
330
3B7
102
}
330
3B7
100
AcDbXrecord
 90
        0
  0
XRECORD
  5
3BC
102
{ACAD_REACTORS
330
3B7
102
}
330
3B7
100
AcDbXrecord
340
19
  0
XRECORD
  5
3BF
102
{ACAD_REACTORS
330
3B7
102
}
330
3B7
100
AcDbXrecord
 90
    10781
  0
XRECORD
  5
3BD
102
{ACAD_REACTORS
330
3B7
102
}
330
3B7
100
AcDbXrecord
340
18
  0
XRECORD
  5
3BE
102
{ACAD_REACTORS
330
3B7
102
}
330
3B7
100
AcDbXrecord
340
E
  0
XRECORD
  5
3C4
102
{ACAD_REACTORS
330
3B7
102
}
330
3B7
100
AcDbXrecord
 40
0.0
  0
XRECORD
  5
3C7
102
{ACAD_REACTORS
330
3B7
102
}
330
3B7
100
AcDbXrecord
340
0
  0
XRECORD
  5
3CD
102
{ACAD_REACTORS
330
3B7
102
}
330
3B7
100
AcDbXrecord
 10
0.0
 20
0.0
 30
0.0
  0
XRECORD
  5
3C9
102
{ACAD_REACTORS
330
3B7
102
}
330
3B7
100
AcDbXrecord
 10
0.0
 20
0.0
 30
0.0
  0
XRECORD
  5
3CC
102
{ACAD_REACTORS
330
3B7
102
}
330
3B7
100
AcDbXrecord
 10
0.0
 20
0.0
 30
0.0
  0
XRECORD
  5
3CA
102
{ACAD_REACTORS
330
3B7
102
}
330
3B7
100
AcDbXrecord
 10
0.0
 20
0.0
 30
0.0
  0
XRECORD
  5
3CB
102
{ACAD_REACTORS
330
3B7
102
}
330
3B7
100
AcDbXrecord
 10
0.0
 20
0.0
 30
0.0
  0
XRECORD
  5
3C8
102
{ACAD_REACTORS
330
3B7
102
}
330
3B7
100
AcDbXrecord
 10
0.0
 20
0.0
 30
0.0
  0
XRECORD
  5
3C5
102
{ACAD_REACTORS
330
3B7
102
}
330
3B7
100
AcDbXrecord
340
0
  0
XRECORD
  5
3C6
102
{ACAD_REACTORS
330
3B7
102
}
330
3B7
100
AcDbXrecord
 70
     0
  0
XRECORD
  5
3BB
102
{ACAD_REACTORS
330
3B7
102
}
330
3B7
100
AcDbXrecord
  1

  0
XRECORD
  5
3B8
102
{ACAD_REACTORS
330
3B7
102
}
330
3B7
100
AcDbXrecord
 90
        1
  0
XRECORD
  5
3B9
102
{ACAD_REACTORS
330
3B7
102
}
330
3B7
100
AcDbXrecord
 90
       70
  0
XRECORD
  5
3D0
102
{ACAD_REACTORS
330
3B7
102
}
330
3B7
100
AcDbXrecord
340
0
  0
XRECORD
  5
3D6
102
{ACAD_REACTORS
330
3B7
102
}
330
3B7
100
AcDbXrecord
 10
0.0
 20
0.0
 30
0.0
  0
XRECORD
  5
3D2
102
{ACAD_REACTORS
330
3B7
102
}
330
3B7
100
AcDbXrecord
 10
0.0
 20
0.0
 30
0.0
  0
XRECORD
  5
3D5
102
{ACAD_REACTORS
330
3B7
102
}
330
3B7
100
AcDbXrecord
 10
0.0
 20
0.0
 30
0.0
  0
XRECORD
  5
3D3
102
{ACAD_REACTORS
330
3B7
102
}
330
3B7
100
AcDbXrecord
 10
0.0
 20
0.0
 30
0.0
  0
XRECORD
  5
3D4
102
{ACAD_REACTORS
330
3B7
102
}
330
3B7
100
AcDbXrecord
 10
0.0
 20
0.0
 30
0.0
  0
XRECORD
  5
3D1
102
{ACAD_REACTORS
330
3B7
102
}
330
3B7
100
AcDbXrecord
 10
0.0
 20
0.0
 30
0.0
  0
XRECORD
  5
3CE
102
{ACAD_REACTORS
330
3B7
102
}
330
3B7
100
AcDbXrecord
340
0
  0
XRECORD
  5
3CF
102
{ACAD_REACTORS
330
3B7
102
}
330
3B7
100
AcDbXrecord
 70
     1
  0
XRECORD
  5
3C3
102
{ACAD_REACTORS
330
3B7
102
}
330
3B7
100
AcDbXrecord
  1
{4ABF6FEB-1262-4DD2-9C75-6E8E3F2A0B35}
  0
DICTIONARYVAR
  5
3B5
102
{ACAD_REACTORS
330
3B4
102
}
330
3B4
100
DictionaryVariables
280
     0
  1
1
  0
ENDSEC
  0
EOF
