  0
SECTION
  2
HEADER
  9
$ACADVER
  1
AC1015
  9
$ACADMAINTVER
 70
    13
  9
$DWGCODEPAGE
  3
ANSI_1252
  9
$INSBASE
 10
0.0
 20
0.0
 30
0.0
  9
$EXTMIN
 10
0.0
 20
0.250000000000004
 30
0.0
  9
$EXTMAX
 10
427.0
 20
253.75
 30
0.0
  9
$LIMMIN
 10
0.0
 20
0.0
  9
$LIMMAX
 10
12.0
 20
9.0
  9
$ORTHOMODE
 70
     0
  9
$REGENMODE
 70
     1
  9
$FILLMODE
 70
     1
  9
$QTEXTMODE
 70
     0
  9
$MIRRTEXT
 70
     1
  9
$LTSCALE
 40
1.0
  9
$ATTMODE
 70
     1
  9
$TEXTSIZE
 40
0.2
  9
$TRACEWID
 40
0.05
  9
$TEXTSTYLE
  7
Standard
  9
$CLAYER
  8
0
  9
$CELTYPE
  6
Continuous
  9
$CECOLOR
 62
   256
  9
$CELTSCALE
 40
1.0
  9
$DISPSILH
 70
     0
  9
$DIMSCALE
 40
1.0
  9
$DIMASZ
 40
0.18
  9
$DIMEXO
 40
0.0625
  9
$DIMDLI
 40
0.38
  9
$DIMRND
 40
0.0
  9
$DIMDLE
 40
0.0
  9
$DIMEXE
 40
0.18
  9
$DIMTP
 40
0.0
  9
$DIMTM
 40
0.0
  9
$DIMTXT
 40
0.18
  9
$DIMCEN
 40
0.09
  9
$DIMTSZ
 40
0.0
  9
$DIMTOL
 70
     0
  9
$DIMLIM
 70
     0
  9
$DIMTIH
 70
     1
  9
$DIMTOH
 70
     1
  9
$DIMSE1
 70
     0
  9
$DIMSE2
 70
     0
  9
$DIMTAD
 70
     0
  9
$DIMZIN
 70
     0
  9
$DIMBLK
  1

  9
$DIMASO
 70
     1
  9
$DIMSHO
 70
     1
  9
$DIMPOST
  1

  9
$DIMAPOST
  1

  9
$DIMALT
 70
     0
  9
$DIMALTD
 70
     2
  9
$DIMALTF
 40
25.4
  9
$DIMLFAC
 40
1.0
  9
$DIMTOFL
 70
     0
  9
$DIMTVP
 40
0.0
  9
$DIMTIX
 70
     0
  9
$DIMSOXD
 70
     0
  9
$DIMSAH
 70
     0
  9
$DIMBLK1
  1

  9
$DIMBLK2
  1

  9
$DIMSTYLE
  2
Standard
  9
$DIMCLRD
 70
     0
  9
$DIMCLRE
 70
     0
  9
$DIMCLRT
 70
     0
  9
$DIMTFAC
 40
1.0
  9
$DIMGAP
 40
0.09
  9
$DIMJUST
 70
     0
  9
$DIMSD1
 70
     0
  9
$DIMSD2
 70
     0
  9
$DIMTOLJ
 70
     1
  9
$DIMTZIN
 70
     0
  9
$DIMALTZ
 70
     0
  9
$DIMALTTZ
 70
     0
  9
$DIMUPT
 70
     0
  9
$DIMDEC
 70
     4
  9
$DIMTDEC
 70
     4
  9
$DIMALTU
 70
     2
  9
$DIMALTTD
 70
     2
  9
$DIMTXSTY
  7
Standard
  9
$DIMAUNIT
 70
     0
  9
$DIMADEC
 70
     0
  9
$DIMALTRND
 40
0.0
  9
$DIMAZIN
 70
     0
  9
$DIMDSEP
 70
    46
  9
$DIMATFIT
 70
     3
  9
$DIMFRAC
 70
     0
  9
$DIMLDRBLK
  1

  9
$DIMLUNIT
 70
     2
  9
$DIMLWD
 70
    -2
  9
$DIMLWE
 70
    -2
  9
$DIMTMOVE
 70
     0
  9
$LUNITS
 70
     2
  9
$LUPREC
 70
     4
  9
$SKETCHINC
 40
0.1
  9
$FILLETRAD
 40
0.0
  9
$AUNITS
 70
     0
  9
$AUPREC
 70
     0
  9
$MENU
  1
.
  9
$ELEVATION
 40
0.0
  9
$PELEVATION
 40
0.0
  9
$THICKNESS
 40
0.0
  9
$LIMCHECK
 70
     0
  9
$CHAMFERA
 40
0.0
  9
$CHAMFERB
 40
0.0
  9
$CHAMFERC
 40
0.0
  9
$CHAMFERD
 40
0.0
  9
$SKPOLY
 70
     0
  9
$TDCREATE
 40
2455321.403350324
  9
$TDUCREATE
 40
2455321.320016991
  9
$TDUPDATE
 40
2455321.423548530
  9
$TDUUPDATE
 40
2455321.340215196
  9
$TDINDWG
 40
0.0201982060
  9
$TDUSRTIMER
 40
0.0201982060
  9
$USRTIMER
 70
     1
  9
$ANGBASE
 50
0.0
  9
$ANGDIR
 70
     0
  9
$PDMODE
 70
     0
  9
$PDSIZE
 40
0.0
  9
$PLINEWID
 40
0.0
  9
$SPLFRAME
 70
     0
  9
$SPLINETYPE
 70
     6
  9
$SPLINESEGS
 70
     8
  9
$HANDSEED
  5
4E8
  9
$SURFTAB1
 70
     6
  9
$SURFTAB2
 70
     6
  9
$SURFTYPE
 70
     6
  9
$SURFU
 70
     6
  9
$SURFV
 70
     6
  9
$UCSBASE
  2

  9
$UCSNAME
  2

  9
$UCSORG
 10
0.0
 20
0.0
 30
0.0
  9
$UCSXDIR
 10
1.0
 20
0.0
 30
0.0
  9
$UCSYDIR
 10
0.0
 20
1.0
 30
0.0
  9
$UCSORTHOREF
  2

  9
$UCSORTHOVIEW
 70
     1
  9
$UCSORGTOP
 10
0.0
 20
0.0
 30
0.0
  9
$UCSORGBOTTOM
 10
0.0
 20
0.0
 30
0.0
  9
$UCSORGLEFT
 10
0.0
 20
0.0
 30
0.0
  9
$UCSORGRIGHT
 10
0.0
 20
0.0
 30
0.0
  9
$UCSORGFRONT
 10
0.0
 20
0.0
 30
0.0
  9
$UCSORGBACK
 10
0.0
 20
0.0
 30
0.0
  9
$PUCSBASE
  2

  9
$PUCSNAME
  2

  9
$PUCSORG
 10
0.0
 20
0.0
 30
0.0
  9
$PUCSXDIR
 10
1.0
 20
0.0
 30
0.0
  9
$PUCSYDIR
 10
0.0
 20
1.0
 30
0.0
  9
$PUCSORTHOREF
  2

  9
$PUCSORTHOVIEW
 70
     0
  9
$PUCSORGTOP
 10
0.0
 20
0.0
 30
0.0
  9
$PUCSORGBOTTOM
 10
0.0
 20
0.0
 30
0.0
  9
$PUCSORGLEFT
 10
0.0
 20
0.0
 30
0.0
  9
$PUCSORGRIGHT
 10
0.0
 20
0.0
 30
0.0
  9
$PUCSORGFRONT
 10
0.0
 20
0.0
 30
0.0
  9
$PUCSORGBACK
 10
0.0
 20
0.0
 30
0.0
  9
$USERI1
 70
     0
  9
$USERI2
 70
     0
  9
$USERI3
 70
     0
  9
$USERI4
 70
     0
  9
$USERI5
 70
     0
  9
$USERR1
 40
0.0
  9
$USERR2
 40
0.0
  9
$USERR3
 40
0.0
  9
$USERR4
 40
0.0
  9
$USERR5
 40
0.0
  9
$WORLDVIEW
 70
     1
  9
$SHADEDGE
 70
     3
  9
$SHADEDIF
 70
    70
  9
$TILEMODE
 70
     1
  9
$MAXACTVP
 70
    64
  9
$PINSBASE
 10
0.0
 20
0.0
 30
0.0
  9
$PLIMCHECK
 70
     0
  9
$PEXTMIN
 10
1.000000000000000E+20
 20
1.000000000000000E+20
 30
1.000000000000000E+20
  9
$PEXTMAX
 10
-1.000000000000000E+20
 20
-1.000000000000000E+20
 30
-1.000000000000000E+20
  9
$PLIMMIN
 10
0.0
 20
0.0
  9
$PLIMMAX
 10
12.0
 20
9.0
  9
$UNITMODE
 70
     0
  9
$VISRETAIN
 70
     1
  9
$PLINEGEN
 70
     0
  9
$PSLTSCALE
 70
     1
  9
$TREEDEPTH
 70
  3020
  9
$CMLSTYLE
  2
Standard
  9
$CMLJUST
 70
     0
  9
$CMLSCALE
 40
1.0
  9
$PROXYGRAPHICS
 70
     1
  9
$MEASUREMENT
 70
     0
  9
$CELWEIGHT
370
    -1
  9
$ENDCAPS
280
     0
  9
$JOINSTYLE
280
     0
  9
$LWDISPLAY
290
     0
  9
$INSUNITS
 70
     0
  9
$HYPERLINKBASE
  1

  9
$STYLESHEET
  1

  9
$XEDIT
290
     1
  9
$CEPSNTYPE
380
     0
  9
$PSTYLEMODE
290
     1
  9
$FINGERPRINTGUID
  2
{8D8B5DB7-D19F-4E2C-A268-CA27D95841ED}
  9
$VERSIONGUID
  2
{F8297EBA-D72C-4A22-8862-C2C647D84BB6}
  9
$EXTNAMES
290
     1
  9
$PSVPSCALE
 40
0.0
  9
$OLESTARTUP
290
     0
  0
ENDSEC
  0
SECTION
  2
CLASSES
  0
CLASS
  1
ACDBDICTIONARYWDFLT
  2
AcDbDictionaryWithDefault
  3
AutoCAD 2000
 90
        0
280
     0
281
     0
  0
CLASS
  1
ACDBPLACEHOLDER
  2
AcDbPlaceHolder
  3
AutoCAD 2000
 90
        0
280
     0
281
     0
  0
CLASS
  1
LAYOUT
  2
AcDbLayout
  3
AutoCAD 2000
 90
        0
280
     0
281
     0
  0
CLASS
  1
DICTIONARYVAR
  2
AcDbDictionaryVar
  3
AutoCAD 2000
 90
        0
280
     0
281
     0
  0
ENDSEC
  0
SECTION
  2
TABLES
  0
TABLE
  2
VPORT
  5
8
330
0
100
AcDbSymbolTable
 70
     4
  0
VPORT
  5
4E7
330
8
100
AcDbSymbolTableRecord
100
AcDbViewportTableRecord
  2
*Active
 70
     0
 10
0.0
 20
0.0
 11
1.0
 21
1.0
 12
213.5
 22
127.0
 13
0.0
 23
0.0
 14
1.0
 24
1.0
 15
0.0
 25
0.0
 16
0.0
 26
0.0
 36
1.0
 17
0.0
 27
0.0
 37
0.0
 40
255.1641137855579
 41
2.041621029572836
 42
50.0
 43
0.0
 44
0.0
 50
0.0
 51
0.0
 71
     0
 72
   100
 73
     1
 74
     3
 75
     0
 76
     0
 77
     0
 78
     0
281
     0
 65
     1
110
0.0
120
0.0
130
0.0
111
1.0
121
0.0
131
0.0
112
0.0
122
1.0
132
0.0
 79
     1
146
0.0
  0
ENDTAB
  0
TABLE
  2
LTYPE
  5
5
330
0
100
AcDbSymbolTable
 70
     1
  0
LTYPE
  5
13
330
5
100
AcDbSymbolTableRecord
100
AcDbLinetypeTableRecord
  2
ByBlock
 70
     0
  3

 72
    65
 73
     0
 40
0.0
  0
LTYPE
  5
14
330
5
100
AcDbSymbolTableRecord
100
AcDbLinetypeTableRecord
  2
ByLayer
 70
     0
  3

 72
    65
 73
     0
 40
0.0
  0
LTYPE
  5
15
330
5
100
AcDbSymbolTableRecord
100
AcDbLinetypeTableRecord
  2
Continuous
 70
     0
  3
Solid line
 72
    65
 73
     0
 40
0.0
  0
ENDTAB
  0
TABLE
  2
LAYER
  5
2
330
0
100
AcDbSymbolTable
 70
     1
  0
LAYER
  5
10
330
2
100
AcDbSymbolTableRecord
100
AcDbLayerTableRecord
  2
0
 70
     0
 62
     7
  6
Continuous
370
    -3
390
F
  0
ENDTAB
  0
TABLE
  2
STYLE
  5
3
330
0
100
AcDbSymbolTable
 70
     1
  0
STYLE
  5
11
330
3
100
AcDbSymbolTableRecord
100
AcDbTextStyleTableRecord
  2
Standard
 70
     0
 40
0.0
 41
1.0
 50
0.0
 71
     0
 42
0.2
  3
txt
  4

  0
ENDTAB
  0
TABLE
  2
VIEW
  5
6
330
0
100
AcDbSymbolTable
 70
     0
  0
ENDTAB
  0
TABLE
  2
UCS
  5
7
330
0
100
AcDbSymbolTable
 70
     0
  0
ENDTAB
  0
TABLE
  2
APPID
  5
9
330
0
100
AcDbSymbolTable
 70
     1
  0
APPID
  5
12
330
9
100
AcDbSymbolTableRecord
100
AcDbRegAppTableRecord
  2
ACAD
 70
     0
  0
ENDTAB
  0
TABLE
  2
DIMSTYLE
  5
A
330
0
100
AcDbSymbolTable
 70
     1
100
AcDbDimStyleTable
 71
     0
  0
DIMSTYLE
105
2D7
330
A
100
AcDbSymbolTableRecord
100
AcDbDimStyleTableRecord
  2
Standard
 70
     0
340
11
  0
ENDTAB
  0
TABLE
  2
BLOCK_RECORD
  5
1
330
0
100
AcDbSymbolTable
 70
     1
  0
BLOCK_RECORD
  5
1E
330
1
100
AcDbSymbolTableRecord
100
AcDbBlockTableRecord
  2
*Model_Space
340
21
  0
BLOCK_RECORD
  5
1A
330
1
100
AcDbSymbolTableRecord
100
AcDbBlockTableRecord
  2
*Paper_Space
340
1D
  0
ENDTAB
  0
ENDSEC
  0
SECTION
  2
BLOCKS
  0
BLOCK
  5
1F
330
1E
100
AcDbEntity
  8
0
100
AcDbBlockBegin
  2
*Model_Space
 70
     0
 10
0.0
 20
0.0
 30
0.0
  3
*Model_Space
  1

  0
ENDBLK
  5
20
330
1E
100
AcDbEntity
  8
0
100
AcDbBlockEnd
  0
BLOCK
  5
1B
330
1A
100
AcDbEntity
 67
     1
  8
0
100
AcDbBlockBegin
  2
*Paper_Space
 70
     0
 10
0.0
 20
0.0
 30
0.0
  3
*Paper_Space
  1

  0
ENDBLK
  5
1C
330
1A
100
AcDbEntity
 67
     1
  8
0
100
AcDbBlockEnd
  0
ENDSEC
  0
SECTION
  2
ENTITIES
  0
LINE
  5
22
330
1E
100
AcDbEntity
  8
0
100
AcDbLine
 10
155.0
 20
1.28
 30
0.0
 11
157.9
 21
0.820000000000004
 31
0.0
  0
LINE
  5
24
330
1E
100
AcDbEntity
  8
0
100
AcDbLine
 10
152.62
 20
1.74
 30
0.0
 11
155.0
 21
1.28
 31
0.0
  0
LINE
  5
27
330
1E
100
AcDbEntity
  8
0
100
AcDbLine
 10
157.9
 20
0.820000000000004
 30
0.0
 11
161.5
 21
0.4700000000000041
 31
0.0
  0
LINE
  5
2A
330
1E
100
AcDbEntity
  8
0
100
AcDbLine
 10
150.6
 20
2.25
 30
0.0
 11
152.62
 21
1.74
 31
0.0
  0
LINE
  5
2B
330
1E
100
AcDbEntity
  8
0
100
AcDbLine
 10
148.6999999999999
 20
3.049999999999999
 30
0.0
 11
150.6
 21
2.25
 31
0.0
  0
LINE
  5
2C
330
1E
100
AcDbEntity
  8
0
100
AcDbLine
 10
145.0
 20
7.849999999999999
 30
0.0
 11
145.8
 21
5.95
 31
0.0
  0
LINE
  5
2E
330
1E
100
AcDbEntity
  8
0
100
AcDbLine
 10
144.5999999999999
 20
9.949999999999999
 30
0.0
 11
145.0
 21
7.849999999999999
 31
0.0
  0
LINE
  5
31
330
1E
100
AcDbEntity
  8
0
100
AcDbLine
 10
145.8
 20
5.95
 30
0.0
 11
147.0
 21
4.25
 31
0.0
  0
LINE
  5
32
330
1E
100
AcDbEntity
  8
0
100
AcDbLine
 10
147.0
 20
4.25
 30
0.0
 11
148.6999999999999
 21
3.049999999999999
 31
0.0
  0
LINE
  5
34
330
1E
100
AcDbEntity
  8
0
100
AcDbLine
 10
161.5
 20
0.4700000000000041
 30
0.0
 11
164.7
 21
0.306000000000004
 31
0.0
  0
LINE
  5
36
330
1E
100
AcDbEntity
  8
0
100
AcDbLine
 10
15.35289999999999
 20
178.8309999999999
 30
0.0
 11
16.1765
 21
178.75
 31
0.0
  0
LINE
  5
38
330
1E
100
AcDbEntity
  8
0
100
AcDbLine
 10
16.1765
 20
178.75
 30
0.0
 11
144.0
 21
178.75
 31
0.0
  0
LINE
  5
39
330
1E
100
AcDbEntity
  8
0
100
AcDbLine
 10
13.0882
 20
179.5629999999999
 30
0.0
 11
13.8294
 21
179.238
 31
0.0
  0
LINE
  5
3C
330
1E
100
AcDbEntity
  8
0
100
AcDbLine
 10
11.2765
 20
181.147
 30
0.0
 11
11.8118
 21
180.5379999999999
 31
0.0
  0
LINE
  5
3F
330
1E
100
AcDbEntity
  8
0
100
AcDbLine
 10
10.82349999999999
 20
181.798
 30
0.0
 11
11.2765
 21
181.147
 31
0.0
  0
LINE
  5
40
330
1E
100
AcDbEntity
  8
0
100
AcDbLine
 10
10.49409999999999
 20
182.529
 30
0.0
 11
10.82349999999999
 21
181.798
 31
0.0
  0
LINE
  5
45
330
1E
100
AcDbEntity
  8
0
100
AcDbLine
 10
10.2059
 20
183.26
 30
0.0
 11
10.49409999999999
 21
182.529
 31
0.0
  0
LINE
  5
46
330
1E
100
AcDbEntity
  8
0
100
AcDbLine
 10
10.0824
 20
184.0329999999999
 30
0.0
 11
10.2059
 21
183.26
 31
0.0
  0
LINE
  5
47
330
1E
100
AcDbEntity
  8
0
100
AcDbLine
 10
10.0
 20
184.8449999999999
 30
0.0
 11
10.0
 21
199.2499999999999
 31
0.0
  0
LINE
  5
48
330
1E
100
AcDbEntity
  8
0
100
AcDbLine
 10
10.0
 20
184.8449999999999
 30
0.0
 11
10.0824
 21
184.0329999999999
 31
0.0
  0
LINE
  5
4B
330
1E
100
AcDbEntity
  8
0
100
AcDbLine
 10
11.8118
 20
180.5379999999999
 30
0.0
 11
12.42939999999999
 21
180.01
 31
0.0
  0
LINE
  5
4C
330
1E
100
AcDbEntity
  8
0
100
AcDbLine
 10
12.42939999999999
 20
180.01
 30
0.0
 11
13.0882
 21
179.5629999999999
 31
0.0
  0
LINE
  5
4E
330
1E
100
AcDbEntity
  8
0
100
AcDbLine
 10
13.8294
 20
179.238
 30
0.0
 11
14.5706
 21
178.953
 31
0.0
  0
LINE
  5
4F
330
1E
100
AcDbEntity
  8
0
100
AcDbLine
 10
14.5706
 20
178.953
 30
0.0
 11
15.35289999999999
 21
178.8309999999999
 31
0.0
  0
LINE
  5
50
330
1E
100
AcDbEntity
  8
0
100
AcDbLine
 10
16.1765
 20
178.75
 30
0.0
 11
144.0
 21
178.75
 31
0.0
  0
LINE
  5
51
330
1E
100
AcDbEntity
  8
0
100
AcDbLine
 10
144.0
 20
24.25
 30
0.0
 11
144.0099999999999
 21
21.94999999999999
 31
0.0
  0
LINE
  5
53
330
1E
100
AcDbEntity
  8
0
100
AcDbLine
 10
144.0
 20
178.2499999999999
 30
0.0
 11
144.0
 21
170.25
 31
0.0
  0
LINE
  5
54
330
1E
100
AcDbEntity
  8
0
100
AcDbLine
 10
144.0
 20
178.2499999999999
 30
0.0
 11
144.0
 21
183.3179999999999
 31
0.0
  0
LINE
  5
55
330
1E
100
AcDbEntity
  8
0
100
AcDbLine
 10
1.199999999999999
 20
199.2499999999999
 30
0.0
 11
1.7
 21
199.2499999999999
 31
0.0
  0
LINE
  5
56
330
1E
100
AcDbEntity
  8
0
100
AcDbLine
 10
1.7
 20
199.2499999999999
 30
0.0
 11
2.5
 21
199.2499999999999
 31
0.0
  0
LINE
  5
57
330
1E
100
AcDbEntity
  8
0
100
AcDbLine
 10
2.5
 20
199.2499999999999
 30
0.0
 11
3.6
 21
199.2499999999999
 31
0.0
  0
LINE
  5
58
330
1E
100
AcDbEntity
  8
0
100
AcDbLine
 10
3.6
 20
199.2499999999999
 30
0.0
 11
4.799999999999999
 21
199.2499999999999
 31
0.0
  0
LINE
  5
59
330
1E
100
AcDbEntity
  8
0
100
AcDbLine
 10
1.0
 20
199.2499999999999
 30
0.0
 11
1.199999999999999
 21
199.2499999999999
 31
0.0
  0
LINE
  5
5A
330
1E
100
AcDbEntity
  8
0
100
AcDbLine
 10
3.816859999999999
 20
199.2499999999999
 30
0.0
 11
4.233109999999999
 21
199.2499999999999
 31
0.0
  0
LINE
  5
5B
330
1E
100
AcDbEntity
  8
0
100
AcDbLine
 10
3.57405
 20
199.2499999999999
 30
0.0
 11
3.816859999999999
 21
199.2499999999999
 31
0.0
  0
LINE
  5
5C
330
1E
100
AcDbEntity
  8
0
100
AcDbLine
 10
4.799999999999999
 20
199.2499999999999
 30
0.0
 11
6.0
 21
199.2499999999999
 31
0.0
  0
LINE
  5
5D
330
1E
100
AcDbEntity
  8
0
100
AcDbLine
 10
5.35177
 20
199.2499999999999
 30
0.0
 11
6.0
 21
199.2499999999999
 31
0.0
  0
LINE
  5
5E
330
1E
100
AcDbEntity
  8
0
100
AcDbLine
 10
4.710049999999999
 20
199.2499999999999
 30
0.0
 11
5.35177
 21
199.2499999999999
 31
0.0
  0
LINE
  5
5F
330
1E
100
AcDbEntity
  8
0
100
AcDbLine
 10
4.233109999999999
 20
199.2499999999999
 30
0.0
 11
4.710049999999999
 21
199.2499999999999
 31
0.0
  0
LINE
  5
60
330
1E
100
AcDbEntity
  8
0
100
AcDbLine
 10
0.3
 20
199.55
 30
0.0
 11
1.0
 21
199.2499999999999
 31
0.0
  0
LINE
  5
67
330
1E
100
AcDbEntity
  8
0
100
AcDbLine
 10
0.3
 20
199.55
 30
0.0
 11
1.0
 21
199.2499999999999
 31
0.0
  0
LINE
  5
68
330
1E
100
AcDbEntity
  8
0
100
AcDbLine
 10
3.5
 20
199.2499999999999
 30
0.0
 11
3.57405
 21
199.2499999999999
 31
0.0
  0
LINE
  5
6A
330
1E
100
AcDbEntity
  8
0
100
AcDbLine
 10
10.0
 20
199.2499999999999
 30
0.0
 11
10.0
 21
184.8449999999999
 31
0.0
  0
LINE
  5
7B
330
1E
100
AcDbEntity
  8
0
100
AcDbLine
 10
0.0
 20
200.2499999999999
 30
0.0
 11
0.0
 21
232.25
 31
0.0
  0
LINE
  5
7C
330
1E
100
AcDbEntity
  8
0
100
AcDbLine
 10
0.0
 20
200.2499999999999
 30
0.0
 11
0.3
 21
199.55
 31
0.0
  0
LINE
  5
89
330
1E
100
AcDbEntity
  8
0
100
AcDbLine
 10
144.0
 20
217.2499999999999
 30
0.0
 11
144.0
 21
183.3179999999999
 31
0.0
  0
LINE
  5
8B
330
1E
100
AcDbEntity
  8
0
100
AcDbLine
 10
144.0
 20
183.3179999999999
 30
0.0
 11
144.0
 21
178.2499999999999
 31
0.0
  0
LINE
  5
8C
330
1E
100
AcDbEntity
  8
0
100
AcDbLine
 10
144.0
 20
183.3179999999999
 30
0.0
 11
144.0
 21
217.2499999999999
 31
0.0
  0
LINE
  5
8F
330
1E
100
AcDbEntity
  8
0
100
AcDbLine
 10
144.0
 20
219.55
 30
0.0
 11
144.0
 21
217.2499999999999
 31
0.0
  0
LINE
  5
92
330
1E
100
AcDbEntity
  8
0
100
AcDbLine
 10
144.0099999999999
 20
21.94999999999999
 30
0.0
 11
144.05
 21
18.85
 31
0.0
  0
LINE
  5
93
330
1E
100
AcDbEntity
  8
0
100
AcDbLine
 10
144.05
 20
18.85
 30
0.0
 11
144.15
 21
15.25
 31
0.0
  0
LINE
  5
94
330
1E
100
AcDbEntity
  8
0
100
AcDbLine
 10
144.15
 20
15.25
 30
0.0
 11
144.35
 21
12.25
 31
0.0
  0
LINE
  5
96
330
1E
100
AcDbEntity
  8
0
100
AcDbLine
 10
143.9999999999999
 20
24.25000000000653
 30
0.0
 11
144.0
 21
178.2499999999999
 31
0.0
  0
LINE
  5
97
330
1E
100
AcDbEntity
  8
0
100
AcDbLine
 10
144.0099999999999
 20
219.55
 30
0.0
 11
144.15
 21
223.927
 31
0.0
  0
LINE
  5
9C
330
1E
100
AcDbEntity
  8
0
100
AcDbLine
 10
144.35
 20
12.25
 30
0.0
 11
144.5999999999999
 21
9.949999999999999
 31
0.0
  0
LINE
  5
B4
330
1E
100
AcDbEntity
  8
0
100
AcDbLine
 10
144.15
 20
223.927
 30
0.0
 11
144.35
 21
226.927
 31
0.0
  0
LINE
  5
B7
330
1E
100
AcDbEntity
  8
0
100
AcDbLine
 10
79.1
 20
230.15
 30
0.0
 11
79.7
 21
228.75
 31
0.0
  0
LINE
  5
BB
330
1E
100
AcDbEntity
  8
0
100
AcDbLine
 10
79.7
 20
228.75
 30
0.0
 11
80.0
 21
227.2499999999999
 31
0.0
  0
LINE
  5
BC
330
1E
100
AcDbEntity
  8
0
100
AcDbLine
 10
144.35
 20
226.927
 30
0.0
 11
144.5999999999999
 21
229.227
 31
0.0
  0
LINE
  5
C1
330
1E
100
AcDbEntity
  8
0
100
AcDbLine
 10
144.5999999999999
 20
229.227
 30
0.0
 11
145.0
 21
231.327
 31
0.0
  0
LINE
  5
C2
330
1E
100
AcDbEntity
  8
0
100
AcDbLine
 10
0.3
 20
232.9499999999999
 30
0.0
 11
1.0
 21
233.25
 31
0.0
  0
LINE
  5
C6
330
1E
100
AcDbEntity
  8
0
100
AcDbLine
 10
0.3
 20
232.9499999999999
 30
0.0
 11
1.0
 21
233.25
 31
0.0
  0
LINE
  5
C8
330
1E
100
AcDbEntity
  8
0
100
AcDbLine
 10
76.90000000000001
 20
232.35
 30
0.0
 11
78.2
 21
231.4499999999999
 31
0.0
  0
LINE
  5
CB
330
1E
100
AcDbEntity
  8
0
100
AcDbLine
 10
78.2
 20
231.4499999999999
 30
0.0
 11
79.1
 21
230.15
 31
0.0
  0
LINE
  5
CE
330
1E
100
AcDbEntity
  8
0
100
AcDbLine
 10
75.5
 20
232.9499999999999
 30
0.0
 11
76.90000000000001
 21
232.35
 31
0.0
  0
LINE
  5
D2
330
1E
100
AcDbEntity
  8
0
100
AcDbLine
 10
10.0
 20
233.25
 30
0.0
 11
10.0
 21
247.655
 31
0.0
  0
LINE
  5
D3
330
1E
100
AcDbEntity
  8
0
100
AcDbLine
 10
6.0
 20
233.25
 30
0.0
 11
74.0
 21
233.25
 31
0.0
  0
LINE
  5
D4
330
1E
100
AcDbEntity
  8
0
100
AcDbLine
 10
6.000000000000009
 20
233.25
 30
0.0
 11
74.0
 21
233.25
 31
0.0
  0
LINE
  5
D5
330
1E
100
AcDbEntity
  8
0
100
AcDbLine
 10
74.0
 20
233.25
 30
0.0
 11
75.5
 21
232.9499999999999
 31
0.0
  0
LINE
  5
D7
330
1E
100
AcDbEntity
  8
0
100
AcDbLine
 10
2.5
 20
233.25
 30
0.0
 11
3.6
 21
233.25
 31
0.0
  0
LINE
  5
D8
330
1E
100
AcDbEntity
  8
0
100
AcDbLine
 10
4.799999999999999
 20
233.25
 30
0.0
 11
6.0
 21
233.25
 31
0.0
  0
LINE
  5
D9
330
1E
100
AcDbEntity
  8
0
100
AcDbLine
 10
1.7
 20
233.25
 30
0.0
 11
2.5
 21
233.25
 31
0.0
  0
LINE
  5
DA
330
1E
100
AcDbEntity
  8
0
100
AcDbLine
 10
3.6
 20
233.25
 30
0.0
 11
4.799999999999999
 21
233.25
 31
0.0
  0
LINE
  5
DB
330
1E
100
AcDbEntity
  8
0
100
AcDbLine
 10
1.199999999999999
 20
233.25
 30
0.0
 11
1.7
 21
233.25
 31
0.0
  0
LINE
  5
DC
330
1E
100
AcDbEntity
  8
0
100
AcDbLine
 10
1.0
 20
233.25
 30
0.0
 11
1.199999999999999
 21
233.25
 31
0.0
  0
LINE
  5
DD
330
1E
100
AcDbEntity
  8
0
100
AcDbLine
 10
0.0
 20
232.25
 30
0.0
 11
0.0
 21
200.2499999999999
 31
0.0
  0
LINE
  5
DE
330
1E
100
AcDbEntity
  8
0
100
AcDbLine
 10
0.0
 20
232.25
 30
0.0
 11
0.3
 21
232.9499999999999
 31
0.0
  0
LINE
  5
DF
330
1E
100
AcDbEntity
  8
0
100
AcDbLine
 10
145.0
 20
231.327
 30
0.0
 11
145.8
 21
233.227
 31
0.0
  0
LINE
  5
E2
330
1E
100
AcDbEntity
  8
0
100
AcDbLine
 10
145.8
 20
233.227
 30
0.0
 11
147.0
 21
234.927
 31
0.0
  0
LINE
  5
E6
330
1E
100
AcDbEntity
  8
0
100
AcDbLine
 10
10.0
 20
247.655
 30
0.0
 11
10.0
 21
233.25
 31
0.0
  0
LINE
  5
E7
330
1E
100
AcDbEntity
  8
0
100
AcDbLine
 10
10.0
 20
247.655
 30
0.0
 11
10.0824
 21
248.467
 31
0.0
  0
LINE
  5
EC
330
1E
100
AcDbEntity
  8
0
100
AcDbLine
 10
11.2765
 20
251.3529999999999
 30
0.0
 11
11.8118
 21
251.962
 31
0.0
  0
LINE
  5
ED
330
1E
100
AcDbEntity
  8
0
100
AcDbLine
 10
10.82349999999999
 20
250.702
 30
0.0
 11
11.2765
 21
251.3529999999999
 31
0.0
  0
LINE
  5
EE
330
1E
100
AcDbEntity
  8
0
100
AcDbLine
 10
10.49409999999999
 20
249.9709999999999
 30
0.0
 11
10.82349999999999
 21
250.702
 31
0.0
  0
LINE
  5
EF
330
1E
100
AcDbEntity
  8
0
100
AcDbLine
 10
10.2059
 20
249.2399999999999
 30
0.0
 11
10.49409999999999
 21
249.9709999999999
 31
0.0
  0
LINE
  5
F0
330
1E
100
AcDbEntity
  8
0
100
AcDbLine
 10
10.0824
 20
248.467
 30
0.0
 11
10.2059
 21
249.2399999999999
 31
0.0
  0
LINE
  5
F4
330
1E
100
AcDbEntity
  8
0
100
AcDbLine
 10
12.42939999999999
 20
252.49
 30
0.0
 11
13.0882
 21
252.937
 31
0.0
  0
LINE
  5
F5
330
1E
100
AcDbEntity
  8
0
100
AcDbLine
 10
11.8118
 20
251.962
 30
0.0
 11
12.42939999999999
 21
252.49
 31
0.0
  0
LINE
  5
F7
330
1E
100
AcDbEntity
  8
0
100
AcDbLine
 10
13.0882
 20
252.937
 30
0.0
 11
13.8294
 21
253.262
 31
0.0
  0
LINE
  5
F9
330
1E
100
AcDbEntity
  8
0
100
AcDbLine
 10
13.8294
 20
253.262
 30
0.0
 11
14.5706
 21
253.547
 31
0.0
  0
LINE
  5
FC
330
1E
100
AcDbEntity
  8
0
100
AcDbLine
 10
15.35289999999999
 20
253.669
 30
0.0
 11
16.1765
 21
253.75
 31
0.0
  0
LINE
  5
FE
330
1E
100
AcDbEntity
  8
0
100
AcDbLine
 10
16.1765
 20
253.75
 30
0.0
 11
167.0
 21
253.75
 31
0.0
  0
LINE
  5
FF
330
1E
100
AcDbEntity
  8
0
100
AcDbLine
 10
16.1765
 20
253.75
 30
0.0
 11
167.0
 21
253.75
 31
0.0
  0
LINE
  5
100
330
1E
100
AcDbEntity
  8
0
100
AcDbLine
 10
14.5706
 20
253.547
 30
0.0
 11
15.35289999999999
 21
253.669
 31
0.0
  0
LINE
  5
106
330
1E
100
AcDbEntity
  8
0
100
AcDbLine
 10
158.0
 20
237.777
 30
0.0
 11
161.5999999999999
 21
237.877
 31
0.0
  0
LINE
  5
107
330
1E
100
AcDbEntity
  8
0
100
AcDbLine
 10
155.0
 20
237.577
 30
0.0
 11
158.0
 21
237.777
 31
0.0
  0
LINE
  5
108
330
1E
100
AcDbEntity
  8
0
100
AcDbLine
 10
152.6999999999999
 20
237.327
 30
0.0
 11
155.0
 21
237.577
 31
0.0
  0
LINE
  5
109
330
1E
100
AcDbEntity
  8
0
100
AcDbLine
 10
150.6
 20
236.927
 30
0.0
 11
152.6999999999999
 21
237.327
 31
0.0
  0
LINE
  5
10A
330
1E
100
AcDbEntity
  8
0
100
AcDbLine
 10
148.6999999999999
 20
236.127
 30
0.0
 11
150.6
 21
236.927
 31
0.0
  0
LINE
  5
10B
330
1E
100
AcDbEntity
  8
0
100
AcDbLine
 10
147.0
 20
234.927
 30
0.0
 11
148.6999999999999
 21
236.127
 31
0.0
  0
LINE
  5
11F
330
1E
100
AcDbEntity
  8
0
100
AcDbLine
 10
164.7
 20
0.306000000000004
 30
0.0
 11
167.0
 21
0.250000000000004
 31
0.0
  0
LINE
  5
122
330
1E
100
AcDbEntity
  8
0
100
AcDbLine
 10
164.7
 20
237.917
 30
0.0
 11
167.0
 21
237.927
 31
0.0
  0
LINE
  5
123
330
1E
100
AcDbEntity
  8
0
100
AcDbLine
 10
161.5999999999999
 20
237.877
 30
0.0
 11
164.7
 21
237.917
 31
0.0
  0
LINE
  5
278
330
1E
100
AcDbEntity
  8
0
100
AcDbLine
 10
419.0
 20
216.25
 30
0.0
 11
419.0
 21
247.655
 31
0.0
  0
LINE
  5
2B9
330
1E
100
AcDbEntity
  8
0
100
AcDbLine
 10
380.0
 20
242.2499999999999
 30
0.0
 11
387.0
 21
243.25
 31
0.0
  0
LINE
  5
2C4
330
1E
100
AcDbEntity
  8
0
100
AcDbLine
 10
418.918
 20
248.467
 30
0.0
 11
419.0
 21
247.655
 31
0.0
  0
LINE
  5
2C5
330
1E
100
AcDbEntity
  8
0
100
AcDbLine
 10
419.0
 20
247.655
 30
0.0
 11
419.0
 21
216.25
 31
0.0
  0
LINE
  5
2CA
330
1E
100
AcDbEntity
  8
0
100
AcDbLine
 10
417.188
 20
251.962
 30
0.0
 11
417.724
 21
251.3529999999999
 31
0.0
  0
LINE
  5
2CB
330
1E
100
AcDbEntity
  8
0
100
AcDbLine
 10
417.724
 20
251.3529999999999
 30
0.0
 11
418.1769999999999
 21
250.702
 31
0.0
  0
LINE
  5
2CC
330
1E
100
AcDbEntity
  8
0
100
AcDbLine
 10
418.1769999999999
 20
250.702
 30
0.0
 11
418.506
 21
249.9709999999999
 31
0.0
  0
LINE
  5
2CD
330
1E
100
AcDbEntity
  8
0
100
AcDbLine
 10
418.506
 20
249.9709999999999
 30
0.0
 11
418.794
 21
249.2399999999999
 31
0.0
  0
LINE
  5
2CE
330
1E
100
AcDbEntity
  8
0
100
AcDbLine
 10
418.794
 20
249.2399999999999
 30
0.0
 11
418.918
 21
248.467
 31
0.0
  0
LINE
  5
2CF
330
1E
100
AcDbEntity
  8
0
100
AcDbLine
 10
416.5709999999999
 20
252.49
 30
0.0
 11
417.188
 21
251.962
 31
0.0
  0
LINE
  5
2D0
330
1E
100
AcDbEntity
  8
0
100
AcDbLine
 10
415.9119999999999
 20
252.937
 30
0.0
 11
416.5709999999999
 21
252.49
 31
0.0
  0
LINE
  5
2D1
330
1E
100
AcDbEntity
  8
0
100
AcDbLine
 10
415.1709999999999
 20
253.262
 30
0.0
 11
415.9119999999999
 21
252.937
 31
0.0
  0
LINE
  5
2D2
330
1E
100
AcDbEntity
  8
0
100
AcDbLine
 10
414.429
 20
253.547
 30
0.0
 11
415.1709999999999
 21
253.262
 31
0.0
  0
LINE
  5
2D3
330
1E
100
AcDbEntity
  8
0
100
AcDbLine
 10
413.647
 20
253.669
 30
0.0
 11
414.429
 21
253.547
 31
0.0
  0
LINE
  5
2D4
330
1E
100
AcDbEntity
  8
0
100
AcDbLine
 10
412.823
 20
253.75
 30
0.0
 11
413.647
 21
253.669
 31
0.0
  0
LINE
  5
2DB
330
1E
100
AcDbEntity
  8
0
100
AcDbLine
 10
6.000000000000009
 20
199.2499999999999
 30
0.0
 11
74.0
 21
199.2499999999999
 31
0.0
  0
LINE
  5
2DC
330
1E
100
AcDbEntity
  8
0
100
AcDbLine
 10
6.0
 20
199.2499999999999
 30
0.0
 11
74.0
 21
199.2499999999999
 31
0.0
  0
LINE
  5
2DD
330
1E
100
AcDbEntity
  8
0
100
AcDbLine
 10
78.2
 20
201.0499999999999
 30
0.0
 11
79.1
 21
202.3499999999999
 31
0.0
  0
LINE
  5
2DE
330
1E
100
AcDbEntity
  8
0
100
AcDbLine
 10
79.7
 20
203.75
 30
0.0
 11
80.0
 21
205.25
 31
0.0
  0
LINE
  5
2DF
330
1E
100
AcDbEntity
  8
0
100
AcDbLine
 10
79.1
 20
202.3499999999999
 30
0.0
 11
79.7
 21
203.75
 31
0.0
  0
LINE
  5
2E0
330
1E
100
AcDbEntity
  8
0
100
AcDbLine
 10
76.90000000000001
 20
200.15
 30
0.0
 11
78.2
 21
201.0499999999999
 31
0.0
  0
LINE
  5
2E1
330
1E
100
AcDbEntity
  8
0
100
AcDbLine
 10
74.0
 20
199.2499999999999
 30
0.0
 11
75.5
 21
199.55
 31
0.0
  0
LINE
  5
2E2
330
1E
100
AcDbEntity
  8
0
100
AcDbLine
 10
75.5
 20
199.55
 30
0.0
 11
76.90000000000001
 21
200.15
 31
0.0
  0
LINE
  5
2E3
330
1E
100
AcDbEntity
  8
0
100
AcDbLine
 10
80.0
 20
227.2499999999999
 30
0.0
 11
80.0
 21
205.25
 31
0.0
  0
LINE
  5
2E4
330
1E
100
AcDbEntity
  8
0
100
AcDbLine
 10
190.0
 20
24.25000000000653
 30
0.0
 11
190.0
 21
178.2499999999999
 31
0.0
  0
LINE
  5
2E5
330
1E
100
AcDbEntity
  8
0
100
AcDbLine
 10
185.3
 20
3.049999999999999
 30
0.0
 11
183.3999999999999
 21
2.25
 31
0.0
  0
LINE
  5
2E6
330
1E
100
AcDbEntity
  8
0
100
AcDbLine
 10
189.4
 20
9.949999999999999
 30
0.0
 11
189.0
 21
7.849999999999999
 31
0.0
  0
LINE
  5
2E7
330
1E
100
AcDbEntity
  8
0
100
AcDbLine
 10
188.1999999999999
 20
5.95
 30
0.0
 11
187.0
 21
4.25
 31
0.0
  0
LINE
  5
2E8
330
1E
100
AcDbEntity
  8
0
100
AcDbLine
 10
189.0
 20
7.849999999999999
 30
0.0
 11
188.1999999999999
 21
5.95
 31
0.0
  0
LINE
  5
2E9
330
1E
100
AcDbEntity
  8
0
100
AcDbLine
 10
187.0
 20
4.25
 30
0.0
 11
185.3
 21
3.049999999999999
 31
0.0
  0
LINE
  5
2EA
330
1E
100
AcDbEntity
  8
0
100
AcDbLine
 10
189.9499999999999
 20
18.85
 30
0.0
 11
189.85
 21
15.25
 31
0.0
  0
LINE
  5
2EB
330
1E
100
AcDbEntity
  8
0
100
AcDbLine
 10
189.85
 20
15.25
 30
0.0
 11
189.6499999999999
 21
12.25
 31
0.0
  0
LINE
  5
2EC
330
1E
100
AcDbEntity
  8
0
100
AcDbLine
 10
189.6499999999999
 20
12.25
 30
0.0
 11
189.4
 21
9.949999999999999
 31
0.0
  0
LINE
  5
2ED
330
1E
100
AcDbEntity
  8
0
100
AcDbLine
 10
190.0
 20
24.25
 30
0.0
 11
189.99
 21
21.94999999999999
 31
0.0
  0
LINE
  5
2EE
330
1E
100
AcDbEntity
  8
0
100
AcDbLine
 10
189.99
 20
21.94999999999999
 30
0.0
 11
189.9499999999999
 21
18.85
 31
0.0
  0
LINE
  5
2EF
330
1E
100
AcDbEntity
  8
0
100
AcDbLine
 10
176.0999999999999
 20
0.820000000000004
 30
0.0
 11
172.5
 21
0.4700000000000041
 31
0.0
  0
LINE
  5
2F0
330
1E
100
AcDbEntity
  8
0
100
AcDbLine
 10
181.38
 20
1.74
 30
0.0
 11
179.0
 21
1.28
 31
0.0
  0
LINE
  5
2F1
330
1E
100
AcDbEntity
  8
0
100
AcDbLine
 10
183.3999999999999
 20
2.25
 30
0.0
 11
181.38
 21
1.74
 31
0.0
  0
LINE
  5
2F2
330
1E
100
AcDbEntity
  8
0
100
AcDbLine
 10
179.0
 20
1.28
 30
0.0
 11
176.0999999999999
 21
0.820000000000004
 31
0.0
  0
LINE
  5
2F3
330
1E
100
AcDbEntity
  8
0
100
AcDbLine
 10
172.5
 20
0.4700000000000041
 30
0.0
 11
169.3
 21
0.306000000000004
 31
0.0
  0
LINE
  5
2F4
330
1E
100
AcDbEntity
  8
0
100
AcDbLine
 10
169.3
 20
0.306000000000004
 30
0.0
 11
167.0
 21
0.250000000000004
 31
0.0
  0
LINE
  5
2F5
330
1E
100
AcDbEntity
  8
0
100
AcDbLine
 10
317.8235
 20
253.75
 30
0.0
 11
167.0
 21
253.75
 31
0.0
  0
LINE
  5
2F6
330
1E
100
AcDbEntity
  8
0
100
AcDbLine
 10
412.823
 20
253.75
 30
0.0
 11
167.0
 21
253.75
 31
0.0
  0
LINE
  5
2F7
330
1E
100
AcDbEntity
  8
0
100
AcDbLine
 10
374.0
 20
178.75
 30
0.0
 11
190.0
 21
178.75
 31
0.0
  0
LINE
  5
2F8
330
1E
100
AcDbEntity
  8
0
100
AcDbLine
 10
374.0
 20
178.75
 30
0.0
 11
190.0
 21
178.75
 31
0.0
  0
LINE
  5
2F9
330
1E
100
AcDbEntity
  8
0
100
AcDbLine
 10
254.0
 20
227.2499999999999
 30
0.0
 11
254.0
 21
205.25
 31
0.0
  0
LINE
  5
2FA
330
1E
100
AcDbEntity
  8
0
100
AcDbLine
 10
334.0
 20
232.25
 30
0.0
 11
334.0
 21
200.2499999999999
 31
0.0
  0
LINE
  5
2FB
330
1E
100
AcDbEntity
  8
0
100
AcDbLine
 10
334.0
 20
200.2499999999999
 30
0.0
 11
334.0
 21
232.25
 31
0.0
  0
LINE
  5
2FC
330
1E
100
AcDbEntity
  8
0
100
AcDbLine
 10
328.0
 20
199.2499999999999
 30
0.0
 11
260.0
 21
199.2499999999999
 31
0.0
  0
LINE
  5
2FD
330
1E
100
AcDbEntity
  8
0
100
AcDbLine
 10
328.0
 20
199.2499999999999
 30
0.0
 11
260.0
 21
199.2499999999999
 31
0.0
  0
LINE
  5
309
330
1E
100
AcDbEntity
  8
0
100
AcDbLine
 10
329.2899499999999
 20
199.2499999999999
 30
0.0
 11
328.64823
 21
199.2499999999999
 31
0.0
  0
LINE
  5
30A
330
1E
100
AcDbEntity
  8
0
100
AcDbLine
 10
329.1999999999999
 20
199.2499999999999
 30
0.0
 11
328.0
 21
199.2499999999999
 31
0.0
  0
LINE
  5
30B
330
1E
100
AcDbEntity
  8
0
100
AcDbLine
 10
333.6999999999999
 20
199.55
 30
0.0
 11
333.0
 21
199.2499999999999
 31
0.0
  0
LINE
  5
30C
330
1E
100
AcDbEntity
  8
0
100
AcDbLine
 10
333.6999999999999
 20
199.55
 30
0.0
 11
333.0
 21
199.2499999999999
 31
0.0
  0
LINE
  5
30D
330
1E
100
AcDbEntity
  8
0
100
AcDbLine
 10
334.0
 20
200.2499999999999
 30
0.0
 11
333.6999999999999
 21
199.55
 31
0.0
  0
LINE
  5
30E
330
1E
100
AcDbEntity
  8
0
100
AcDbLine
 10
330.5
 20
199.2499999999999
 30
0.0
 11
330.42595
 21
199.2499999999999
 31
0.0
  0
LINE
  5
30F
330
1E
100
AcDbEntity
  8
0
100
AcDbLine
 10
329.76689
 20
199.2499999999999
 30
0.0
 11
329.2899499999999
 21
199.2499999999999
 31
0.0
  0
LINE
  5
310
330
1E
100
AcDbEntity
  8
0
100
AcDbLine
 10
330.42595
 20
199.2499999999999
 30
0.0
 11
330.1831399999999
 21
199.2499999999999
 31
0.0
  0
LINE
  5
311
330
1E
100
AcDbEntity
  8
0
100
AcDbLine
 10
330.1831399999999
 20
199.2499999999999
 30
0.0
 11
329.76689
 21
199.2499999999999
 31
0.0
  0
LINE
  5
312
330
1E
100
AcDbEntity
  8
0
100
AcDbLine
 10
333.0
 20
199.2499999999999
 30
0.0
 11
332.8
 21
199.2499999999999
 31
0.0
  0
LINE
  5
313
330
1E
100
AcDbEntity
  8
0
100
AcDbLine
 10
330.3999999999999
 20
199.2499999999999
 30
0.0
 11
329.1999999999999
 21
199.2499999999999
 31
0.0
  0
LINE
  5
314
330
1E
100
AcDbEntity
  8
0
100
AcDbLine
 10
331.4999999999999
 20
199.2499999999999
 30
0.0
 11
330.3999999999999
 21
199.2499999999999
 31
0.0
  0
LINE
  5
315
330
1E
100
AcDbEntity
  8
0
100
AcDbLine
 10
332.3
 20
199.2499999999999
 30
0.0
 11
331.4999999999999
 21
199.2499999999999
 31
0.0
  0
LINE
  5
316
330
1E
100
AcDbEntity
  8
0
100
AcDbLine
 10
332.8
 20
199.2499999999999
 30
0.0
 11
332.3
 21
199.2499999999999
 31
0.0
  0
LINE
  5
317
330
1E
100
AcDbEntity
  8
0
100
AcDbLine
 10
328.64823
 20
199.2499999999999
 30
0.0
 11
328.0
 21
199.2499999999999
 31
0.0
  0
LINE
  5
31B
330
1E
100
AcDbEntity
  8
0
100
AcDbLine
 10
255.8
 20
201.0499999999999
 30
0.0
 11
254.8999999999999
 21
202.3499999999999
 31
0.0
  0
LINE
  5
31C
330
1E
100
AcDbEntity
  8
0
100
AcDbLine
 10
257.1
 20
200.15
 30
0.0
 11
255.8
 21
201.0499999999999
 31
0.0
  0
LINE
  5
31D
330
1E
100
AcDbEntity
  8
0
100
AcDbLine
 10
258.4999999999999
 20
199.55
 30
0.0
 11
257.1
 21
200.15
 31
0.0
  0
LINE
  5
31E
330
1E
100
AcDbEntity
  8
0
100
AcDbLine
 10
260.0
 20
199.2499999999999
 30
0.0
 11
258.4999999999999
 21
199.55
 31
0.0
  0
LINE
  5
31F
330
1E
100
AcDbEntity
  8
0
100
AcDbLine
 10
254.8999999999999
 20
202.3499999999999
 30
0.0
 11
254.3
 21
203.75
 31
0.0
  0
LINE
  5
320
330
1E
100
AcDbEntity
  8
0
100
AcDbLine
 10
254.3
 20
203.75
 30
0.0
 11
254.0
 21
205.25
 31
0.0
  0
LINE
  5
322
330
1E
100
AcDbEntity
  8
0
100
AcDbLine
 10
328.0
 20
233.25
 30
0.0
 11
260.0
 21
233.25
 31
0.0
  0
LINE
  5
323
330
1E
100
AcDbEntity
  8
0
100
AcDbLine
 10
328.0
 20
233.25
 30
0.0
 11
260.0
 21
233.25
 31
0.0
  0
LINE
  5
326
330
1E
100
AcDbEntity
  8
0
100
AcDbLine
 10
329.1999999999999
 20
233.25
 30
0.0
 11
328.0
 21
233.25
 31
0.0
  0
LINE
  5
327
330
1E
100
AcDbEntity
  8
0
100
AcDbLine
 10
333.6999999999999
 20
232.9499999999999
 30
0.0
 11
333.0
 21
233.25
 31
0.0
  0
LINE
  5
328
330
1E
100
AcDbEntity
  8
0
100
AcDbLine
 10
333.6999999999999
 20
232.9499999999999
 30
0.0
 11
333.0
 21
233.25
 31
0.0
  0
LINE
  5
329
330
1E
100
AcDbEntity
  8
0
100
AcDbLine
 10
334.0
 20
232.25
 30
0.0
 11
333.6999999999999
 21
232.9499999999999
 31
0.0
  0
LINE
  5
32A
330
1E
100
AcDbEntity
  8
0
100
AcDbLine
 10
333.0
 20
233.25
 30
0.0
 11
332.8
 21
233.25
 31
0.0
  0
LINE
  5
32B
330
1E
100
AcDbEntity
  8
0
100
AcDbLine
 10
332.8
 20
233.25
 30
0.0
 11
332.3
 21
233.25
 31
0.0
  0
LINE
  5
32C
330
1E
100
AcDbEntity
  8
0
100
AcDbLine
 10
330.3999999999999
 20
233.25
 30
0.0
 11
329.1999999999999
 21
233.25
 31
0.0
  0
LINE
  5
32D
330
1E
100
AcDbEntity
  8
0
100
AcDbLine
 10
332.3
 20
233.25
 30
0.0
 11
331.4999999999999
 21
233.25
 31
0.0
  0
LINE
  5
32E
330
1E
100
AcDbEntity
  8
0
100
AcDbLine
 10
331.4999999999999
 20
233.25
 30
0.0
 11
330.3999999999999
 21
233.25
 31
0.0
  0
LINE
  5
337
330
1E
100
AcDbEntity
  8
0
100
AcDbLine
 10
255.8
 20
231.4499999999999
 30
0.0
 11
254.8999999999999
 21
230.15
 31
0.0
  0
LINE
  5
338
330
1E
100
AcDbEntity
  8
0
100
AcDbLine
 10
254.3
 20
228.75
 30
0.0
 11
254.0
 21
227.2499999999999
 31
0.0
  0
LINE
  5
339
330
1E
100
AcDbEntity
  8
0
100
AcDbLine
 10
254.8999999999999
 20
230.15
 30
0.0
 11
254.3
 21
228.75
 31
0.0
  0
LINE
  5
33A
330
1E
100
AcDbEntity
  8
0
100
AcDbLine
 10
257.1
 20
232.35
 30
0.0
 11
255.8
 21
231.4499999999999
 31
0.0
  0
LINE
  5
33B
330
1E
100
AcDbEntity
  8
0
100
AcDbLine
 10
260.0
 20
233.25
 30
0.0
 11
258.4999999999999
 21
232.9499999999999
 31
0.0
  0
LINE
  5
33C
330
1E
100
AcDbEntity
  8
0
100
AcDbLine
 10
258.4999999999999
 20
232.9499999999999
 30
0.0
 11
257.1
 21
232.35
 31
0.0
  0
LINE
  5
340
330
1E
100
AcDbEntity
  8
0
100
AcDbLine
 10
190.0
 20
183.3179999999999
 30
0.0
 11
190.0
 21
217.2499999999999
 31
0.0
  0
LINE
  5
341
330
1E
100
AcDbEntity
  8
0
100
AcDbLine
 10
190.0
 20
217.2499999999999
 30
0.0
 11
190.0
 21
183.3179999999999
 31
0.0
  0
LINE
  5
342
330
1E
100
AcDbEntity
  8
0
100
AcDbLine
 10
190.0
 20
178.2499999999999
 30
0.0
 11
190.0
 21
170.25
 31
0.0
  0
LINE
  5
343
330
1E
100
AcDbEntity
  8
0
100
AcDbLine
 10
190.0
 20
183.3179999999999
 30
0.0
 11
190.0
 21
178.2499999999999
 31
0.0
  0
LINE
  5
344
330
1E
100
AcDbEntity
  8
0
100
AcDbLine
 10
190.0
 20
178.2499999999999
 30
0.0
 11
190.0
 21
183.3179999999999
 31
0.0
  0
LINE
  5
345
330
1E
100
AcDbEntity
  8
0
100
AcDbLine
 10
185.3
 20
236.127
 30
0.0
 11
183.3999999999999
 21
236.927
 31
0.0
  0
LINE
  5
346
330
1E
100
AcDbEntity
  8
0
100
AcDbLine
 10
189.85
 20
223.927
 30
0.0
 11
189.6499999999999
 21
226.927
 31
0.0
  0
LINE
  5
347
330
1E
100
AcDbEntity
  8
0
100
AcDbLine
 10
189.99
 20
219.55
 30
0.0
 11
189.85
 21
223.927
 31
0.0
  0
LINE
  5
348
330
1E
100
AcDbEntity
  8
0
100
AcDbLine
 10
190.0
 20
219.55
 30
0.0
 11
190.0
 21
217.2499999999999
 31
0.0
  0
LINE
  5
349
330
1E
100
AcDbEntity
  8
0
100
AcDbLine
 10
187.0
 20
234.927
 30
0.0
 11
185.3
 21
236.127
 31
0.0
  0
LINE
  5
34A
330
1E
100
AcDbEntity
  8
0
100
AcDbLine
 10
189.4
 20
229.227
 30
0.0
 11
189.0
 21
231.327
 31
0.0
  0
LINE
  5
34B
330
1E
100
AcDbEntity
  8
0
100
AcDbLine
 10
189.6499999999999
 20
226.927
 30
0.0
 11
189.4
 21
229.227
 31
0.0
  0
LINE
  5
34C
330
1E
100
AcDbEntity
  8
0
100
AcDbLine
 10
188.1999999999999
 20
233.227
 30
0.0
 11
187.0
 21
234.927
 31
0.0
  0
LINE
  5
34D
330
1E
100
AcDbEntity
  8
0
100
AcDbLine
 10
189.0
 20
231.327
 30
0.0
 11
188.1999999999999
 21
233.227
 31
0.0
  0
LINE
  5
34E
330
1E
100
AcDbEntity
  8
0
100
AcDbLine
 10
176.0
 20
237.777
 30
0.0
 11
172.4
 21
237.877
 31
0.0
  0
LINE
  5
34F
330
1E
100
AcDbEntity
  8
0
100
AcDbLine
 10
181.3
 20
237.327
 30
0.0
 11
179.0
 21
237.577
 31
0.0
  0
LINE
  5
350
330
1E
100
AcDbEntity
  8
0
100
AcDbLine
 10
183.3999999999999
 20
236.927
 30
0.0
 11
181.3
 21
237.327
 31
0.0
  0
LINE
  5
351
330
1E
100
AcDbEntity
  8
0
100
AcDbLine
 10
179.0
 20
237.577
 30
0.0
 11
176.0
 21
237.777
 31
0.0
  0
LINE
  5
352
330
1E
100
AcDbEntity
  8
0
100
AcDbLine
 10
172.4
 20
237.877
 30
0.0
 11
169.3
 21
237.917
 31
0.0
  0
LINE
  5
353
330
1E
100
AcDbEntity
  8
0
100
AcDbLine
 10
169.3
 20
237.917
 30
0.0
 11
167.0
 21
237.927
 31
0.0
  0
LINE
  5
354
330
1E
100
AcDbEntity
  8
0
100
AcDbLine
 10
412.823
 20
178.75
 30
0.0
 11
400.0
 21
178.75
 31
0.0
  0
LINE
  5
355
330
1E
100
AcDbEntity
  8
0
100
AcDbLine
 10
419.0
 20
184.8449999999999
 30
0.0
 11
419.0
 21
216.25
 31
0.0
  0
LINE
  5
356
330
1E
100
AcDbEntity
  8
0
100
AcDbLine
 10
419.0
 20
216.25
 30
0.0
 11
419.0
 21
184.8449999999999
 31
0.0
  0
LINE
  5
357
330
1E
100
AcDbEntity
  8
0
100
AcDbLine
 10
414.429
 20
178.953
 30
0.0
 11
415.1709999999999
 21
179.238
 31
0.0
  0
LINE
  5
358
330
1E
100
AcDbEntity
  8
0
100
AcDbLine
 10
412.823
 20
178.75
 30
0.0
 11
413.647
 21
178.8309999999999
 31
0.0
  0
LINE
  5
359
330
1E
100
AcDbEntity
  8
0
100
AcDbLine
 10
413.647
 20
178.8309999999999
 30
0.0
 11
414.429
 21
178.953
 31
0.0
  0
LINE
  5
35A
330
1E
100
AcDbEntity
  8
0
100
AcDbLine
 10
417.724
 20
181.147
 30
0.0
 11
418.1769999999999
 21
181.798
 31
0.0
  0
LINE
  5
35B
330
1E
100
AcDbEntity
  8
0
100
AcDbLine
 10
418.794
 20
183.26
 30
0.0
 11
418.918
 21
184.0329999999999
 31
0.0
  0
LINE
  5
35C
330
1E
100
AcDbEntity
  8
0
100
AcDbLine
 10
418.506
 20
182.529
 30
0.0
 11
418.794
 21
183.26
 31
0.0
  0
LINE
  5
35D
330
1E
100
AcDbEntity
  8
0
100
AcDbLine
 10
418.1769999999999
 20
181.798
 30
0.0
 11
418.506
 21
182.529
 31
0.0
  0
LINE
  5
35E
330
1E
100
AcDbEntity
  8
0
100
AcDbLine
 10
418.918
 20
184.0329999999999
 30
0.0
 11
419.0
 21
184.8449999999999
 31
0.0
  0
LINE
  5
35F
330
1E
100
AcDbEntity
  8
0
100
AcDbLine
 10
415.1709999999999
 20
179.238
 30
0.0
 11
415.9119999999999
 21
179.5629999999999
 31
0.0
  0
LINE
  5
360
330
1E
100
AcDbEntity
  8
0
100
AcDbLine
 10
415.9119999999999
 20
179.5629999999999
 30
0.0
 11
416.5709999999999
 21
180.01
 31
0.0
  0
LINE
  5
361
330
1E
100
AcDbEntity
  8
0
100
AcDbLine
 10
416.5709999999999
 20
180.01
 30
0.0
 11
417.188
 21
180.5379999999999
 31
0.0
  0
LINE
  5
362
330
1E
100
AcDbEntity
  8
0
100
AcDbLine
 10
417.188
 20
180.5379999999999
 30
0.0
 11
417.724
 21
181.147
 31
0.0
  0
LINE
  5
429
330
1E
100
AcDbEntity
  8
0
100
AcDbLine
 10
400.0
 20
188.359
 30
0.0
 11
400.0
 21
108.9389999999999
 31
0.0
  0
LINE
  5
42A
330
1E
100
AcDbEntity
  8
0
100
AcDbLine
 10
400.0
 20
108.9389999999999
 30
0.0
 11
400.0
 21
188.359
 31
0.0
  0
LINE
  5
42B
330
1E
100
AcDbEntity
  8
0
100
AcDbLine
 10
374.0
 20
188.359
 30
0.0
 11
374.0
 21
108.9389999999999
 31
0.0
  0
LINE
  5
42C
330
1E
100
AcDbEntity
  8
0
100
AcDbLine
 10
374.0
 20
108.9389999999999
 30
0.0
 11
374.0
 21
188.359
 31
0.0
  0
LINE
  5
42D
330
1E
100
AcDbEntity
  8
0
100
AcDbLine
 10
425.6
 20
39.17009999999999
 30
0.0
 11
427.0
 21
48.34809999999999
 31
0.0
  0
LINE
  5
42E
330
1E
100
AcDbEntity
  8
0
100
AcDbLine
 10
427.0
 20
41.76509999999999
 30
0.0
 11
427.0
 21
47.6671
 31
0.0
  0
LINE
  5
42F
330
1E
100
AcDbEntity
  8
0
100
AcDbLine
 10
427.0
 20
47.6671
 30
0.0
 11
427.0
 21
41.76509999999999
 31
0.0
  0
LINE
  5
430
330
1E
100
AcDbEntity
  8
0
100
AcDbLine
 10
421.6
 20
43.32810000000001
 30
0.0
 11
425.6
 21
51.88210000000001
 31
0.0
  0
LINE
  5
431
330
1E
100
AcDbEntity
  8
0
100
AcDbLine
 10
425.6
 20
38.4891
 30
0.0
 11
427.0
 21
47.6671
 31
0.0
  0
LINE
  5
432
330
1E
100
AcDbEntity
  8
0
100
AcDbLine
 10
347.0
 20
41.76509999999999
 30
0.0
 11
347.0
 21
47.6671
 31
0.0
  0
LINE
  5
433
330
1E
100
AcDbEntity
  8
0
100
AcDbLine
 10
347.0
 20
47.6671
 30
0.0
 11
348.3999999999999
 21
38.4891
 31
0.0
  0
LINE
  5
434
330
1E
100
AcDbEntity
  8
0
100
AcDbLine
 10
347.0
 20
47.6671
 30
0.0
 11
347.0
 21
41.76509999999999
 31
0.0
  0
LINE
  5
435
330
1E
100
AcDbEntity
  8
0
100
AcDbLine
 10
348.3999999999999
 20
51.88210000000001
 30
0.0
 11
352.4
 21
43.32810000000001
 31
0.0
  0
LINE
  5
436
330
1E
100
AcDbEntity
  8
0
100
AcDbLine
 10
347.0
 20
48.34809999999999
 30
0.0
 11
348.3999999999999
 21
39.17009999999999
 31
0.0
  0
LINE
  5
437
330
1E
100
AcDbEntity
  8
0
100
AcDbLine
 10
406.8999999999999
 20
30.23009999999999
 30
0.0
 11
415.2
 21
35.93309999999999
 31
0.0
  0
LINE
  5
438
330
1E
100
AcDbEntity
  8
0
100
AcDbLine
 10
406.8999999999999
 20
17.5191
 30
0.0
 11
415.2
 21
23.2211
 31
0.0
  0
LINE
  5
439
330
1E
100
AcDbEntity
  8
0
100
AcDbLine
 10
406.8999999999999
 20
16.83809999999999
 30
0.0
 11
415.2
 21
22.54009999999999
 31
0.0
  0
LINE
  5
43A
330
1E
100
AcDbEntity
  8
0
100
AcDbLine
 10
406.8999999999999
 20
10.93610000000001
 30
0.0
 11
415.2
 21
16.6381
 31
0.0
  0
LINE
  5
43B
330
1E
100
AcDbEntity
  8
0
100
AcDbLine
 10
367.1
 20
10.93610000000001
 30
0.0
 11
376.7
 21
7.372100000000017
 31
0.0
  0
LINE
  5
43C
330
1E
100
AcDbEntity
  8
0
100
AcDbLine
 10
388.0
 20
10.6901
 30
0.0
 11
388.0
 21
4.788100000000014
 31
0.0
  0
LINE
  5
43D
330
1E
100
AcDbEntity
  8
0
100
AcDbLine
 10
386.0
 20
10.6901
 30
0.0
 11
386.0
 21
4.788100000000014
 31
0.0
  0
LINE
  5
43E
330
1E
100
AcDbEntity
  8
0
100
AcDbLine
 10
397.2999999999999
 20
7.372100000000017
 30
0.0
 11
406.8999999999999
 21
10.93610000000001
 31
0.0
  0
LINE
  5
43F
330
1E
100
AcDbEntity
  8
0
100
AcDbLine
 10
386.0
 20
4.788100000000014
 30
0.0
 11
386.0
 21
10.6901
 31
0.0
  0
LINE
  5
440
330
1E
100
AcDbEntity
  8
0
100
AcDbLine
 10
388.0
 20
4.788100000000014
 30
0.0
 11
388.0
 21
10.6901
 31
0.0
  0
LINE
  5
441
330
1E
100
AcDbEntity
  8
0
100
AcDbLine
 10
376.7
 20
7.372100000000017
 30
0.0
 11
386.0
 21
6.2452650485437
 31
0.0
  0
LINE
  5
442
330
1E
100
AcDbEntity
  8
0
100
AcDbLine
 10
388.0
 20
6.2452650485437
 30
0.0
 11
397.2999999999999
 21
7.372100000000017
 31
0.0
  0
LINE
  5
443
330
1E
100
AcDbEntity
  8
0
100
AcDbLine
 10
386.0
 20
4.788100000000014
 30
0.0
 11
386.0
 21
6.2452650485437
 31
0.0
  0
LINE
  5
444
330
1E
100
AcDbEntity
  8
0
100
AcDbLine
 10
386.0
 20
4.788100000000014
 30
0.0
 11
388.0
 21
4.788100000000014
 31
0.0
  0
LINE
  5
445
330
1E
100
AcDbEntity
  8
0
100
AcDbLine
 10
386.0
 20
6.2452650485437
 30
0.0
 11
386.0
 21
4.788100000000014
 31
0.0
  0
LINE
  5
446
330
1E
100
AcDbEntity
  8
0
100
AcDbLine
 10
376.7
 20
26.6661
 30
0.0
 11
387.0
 21
25.41910000000001
 31
0.0
  0
LINE
  5
447
330
1E
100
AcDbEntity
  8
0
100
AcDbLine
 10
376.7
 20
13.2741
 30
0.0
 11
387.0
 21
12.02609999999998
 31
0.0
  0
LINE
  5
448
330
1E
100
AcDbEntity
  8
0
100
AcDbLine
 10
376.7
 20
13.95510000000001
 30
0.0
 11
387.0
 21
12.70709999999999
 31
0.0
  0
LINE
  5
449
330
1E
100
AcDbEntity
  8
0
100
AcDbLine
 10
348.3999999999999
 20
32.58709999999999
 30
0.0
 11
352.4
 21
24.03409999999999
 31
0.0
  0
LINE
  5
44A
330
1E
100
AcDbEntity
  8
0
100
AcDbLine
 10
352.4
 20
29.93610000000001
 30
0.0
 11
358.8
 21
22.54009999999999
 31
0.0
  0
LINE
  5
44B
330
1E
100
AcDbEntity
  8
0
100
AcDbLine
 10
367.1
 20
30.23009999999999
 30
0.0
 11
376.7
 21
26.6661
 31
0.0
  0
LINE
  5
44C
330
1E
100
AcDbEntity
  8
0
100
AcDbLine
 10
352.4
 20
30.61709999999999
 30
0.0
 11
358.8
 21
23.2211
 31
0.0
  0
LINE
  5
44D
330
1E
100
AcDbEntity
  8
0
100
AcDbLine
 10
358.8
 20
16.6381
 30
0.0
 11
367.1
 21
10.93610000000001
 31
0.0
  0
LINE
  5
44E
330
1E
100
AcDbEntity
  8
0
100
AcDbLine
 10
358.8
 20
22.54009999999999
 30
0.0
 11
367.1
 21
16.83809999999999
 31
0.0
  0
LINE
  5
44F
330
1E
100
AcDbEntity
  8
0
100
AcDbLine
 10
358.8
 20
23.2211
 30
0.0
 11
367.1
 21
17.5191
 31
0.0
  0
LINE
  5
450
330
1E
100
AcDbEntity
  8
0
100
AcDbLine
 10
352.4
 20
24.03409999999999
 30
0.0
 11
358.8
 21
16.6381
 31
0.0
  0
LINE
  5
451
330
1E
100
AcDbEntity
  8
0
100
AcDbLine
 10
367.1
 20
16.83809999999999
 30
0.0
 11
376.7
 21
13.2741
 31
0.0
  0
LINE
  5
452
330
1E
100
AcDbEntity
  8
0
100
AcDbLine
 10
367.1
 20
17.5191
 30
0.0
 11
376.7
 21
13.95510000000001
 31
0.0
  0
LINE
  5
453
330
1E
100
AcDbEntity
  8
0
100
AcDbLine
 10
358.8
 20
35.93309999999999
 30
0.0
 11
367.1
 21
30.23009999999999
 31
0.0
  0
LINE
  5
454
330
1E
100
AcDbEntity
  8
0
100
AcDbLine
 10
347.0
 20
41.76509999999999
 30
0.0
 11
348.3999999999999
 21
32.58709999999999
 31
0.0
  0
LINE
  5
455
330
1E
100
AcDbEntity
  8
0
100
AcDbLine
 10
352.4
 20
43.32810000000001
 30
0.0
 11
358.8
 21
35.93309999999999
 31
0.0
  0
LINE
  5
456
330
1E
100
AcDbEntity
  8
0
100
AcDbLine
 10
348.3999999999999
 20
38.4891
 30
0.0
 11
352.4
 21
29.93610000000001
 31
0.0
  0
LINE
  5
457
330
1E
100
AcDbEntity
  8
0
100
AcDbLine
 10
348.3999999999999
 20
39.17009999999999
 30
0.0
 11
352.4
 21
30.61709999999999
 31
0.0
  0
LINE
  5
458
330
1E
100
AcDbEntity
  8
0
100
AcDbLine
 10
397.2999999999999
 20
26.6661
 30
0.0
 11
406.8999999999999
 21
30.23009999999999
 31
0.0
  0
LINE
  5
459
330
1E
100
AcDbEntity
  8
0
100
AcDbLine
 10
387.0
 20
25.41910000000001
 30
0.0
 11
397.2999999999999
 21
26.6661
 31
0.0
  0
LINE
  5
45A
330
1E
100
AcDbEntity
  8
0
100
AcDbLine
 10
387.0
 20
12.70709999999999
 30
0.0
 11
397.2999999999999
 21
13.95510000000001
 31
0.0
  0
LINE
  5
45B
330
1E
100
AcDbEntity
  8
0
100
AcDbLine
 10
387.0
 20
12.02609999999998
 30
0.0
 11
397.2999999999999
 21
13.2741
 31
0.0
  0
LINE
  5
45C
330
1E
100
AcDbEntity
  8
0
100
AcDbLine
 10
388.0
 20
12.14726504854371
 30
0.0
 11
388.0
 21
10.6901
 31
0.0
  0
LINE
  5
45D
330
1E
100
AcDbEntity
  8
0
100
AcDbLine
 10
386.0
 20
12.14726504854371
 30
0.0
 11
386.0
 21
10.6901
 31
0.0
  0
LINE
  5
45E
330
1E
100
AcDbEntity
  8
0
100
AcDbLine
 10
388.0
 20
10.6901
 30
0.0
 11
388.0
 21
12.14726504854371
 31
0.0
  0
LINE
  5
45F
330
1E
100
AcDbEntity
  8
0
100
AcDbLine
 10
386.0
 20
10.6901
 30
0.0
 11
386.0
 21
12.14726504854371
 31
0.0
  0
LINE
  5
460
330
1E
100
AcDbEntity
  8
0
100
AcDbLine
 10
386.0
 20
10.6901
 30
0.0
 11
388.0
 21
10.6901
 31
0.0
  0
LINE
  5
461
330
1E
100
AcDbEntity
  8
0
100
AcDbLine
 10
397.2999999999999
 20
13.95510000000001
 30
0.0
 11
406.8999999999999
 21
17.5191
 31
0.0
  0
LINE
  5
462
330
1E
100
AcDbEntity
  8
0
100
AcDbLine
 10
397.2999999999999
 20
13.2741
 30
0.0
 11
406.8999999999999
 21
16.83809999999999
 31
0.0
  0
LINE
  5
463
330
1E
100
AcDbEntity
  8
0
100
AcDbLine
 10
415.2
 20
23.2211
 30
0.0
 11
421.6
 21
30.61709999999999
 31
0.0
  0
LINE
  5
464
330
1E
100
AcDbEntity
  8
0
100
AcDbLine
 10
421.6
 20
24.03409999999999
 30
0.0
 11
425.6
 21
32.58709999999999
 31
0.0
  0
LINE
  5
465
330
1E
100
AcDbEntity
  8
0
100
AcDbLine
 10
415.2
 20
22.54009999999999
 30
0.0
 11
421.6
 21
29.93610000000001
 31
0.0
  0
LINE
  5
466
330
1E
100
AcDbEntity
  8
0
100
AcDbLine
 10
415.2
 20
16.6381
 30
0.0
 11
421.6
 21
24.03409999999999
 31
0.0
  0
LINE
  5
467
330
1E
100
AcDbEntity
  8
0
100
AcDbLine
 10
421.6
 20
30.61709999999999
 30
0.0
 11
425.6
 21
39.17009999999999
 31
0.0
  0
LINE
  5
468
330
1E
100
AcDbEntity
  8
0
100
AcDbLine
 10
425.6
 20
32.58709999999999
 30
0.0
 11
427.0
 21
41.76509999999999
 31
0.0
  0
LINE
  5
469
330
1E
100
AcDbEntity
  8
0
100
AcDbLine
 10
415.2
 20
35.93309999999999
 30
0.0
 11
421.6
 21
43.32810000000001
 31
0.0
  0
LINE
  5
46A
330
1E
100
AcDbEntity
  8
0
100
AcDbLine
 10
421.6
 20
29.93610000000001
 30
0.0
 11
425.6
 21
38.4891
 31
0.0
  0
LINE
  5
46B
330
1E
100
AcDbEntity
  8
0
100
AcDbLine
 10
406.8999999999999
 20
91.88810000000001
 30
0.0
 11
415.2
 21
86.18610000000002
 31
0.0
  0
LINE
  5
46C
330
1E
100
AcDbEntity
  8
0
100
AcDbLine
 10
358.8
 20
86.18610000000002
 30
0.0
 11
367.1
 21
91.88810000000001
 31
0.0
  0
LINE
  5
46D
330
1E
100
AcDbEntity
  8
0
100
AcDbLine
 10
347.0
 20
61.0591
 30
0.0
 11
348.3999999999999
 21
70.2371
 31
0.0
  0
LINE
  5
46E
330
1E
100
AcDbEntity
  8
0
100
AcDbLine
 10
347.0
 20
48.34809999999999
 30
0.0
 11
347.0
 21
61.0591
 31
0.0
  0
LINE
  5
46F
330
1E
100
AcDbEntity
  8
0
100
AcDbLine
 10
347.0
 20
61.0591
 30
0.0
 11
348.3999999999999
 21
51.88210000000001
 31
0.0
  0
LINE
  5
470
330
1E
100
AcDbEntity
  8
0
100
AcDbLine
 10
347.0
 20
61.0591
 30
0.0
 11
347.0
 21
48.34809999999999
 31
0.0
  0
LINE
  5
471
330
1E
100
AcDbEntity
  8
0
100
AcDbLine
 10
347.0
 20
47.6671
 30
0.0
 11
347.0519422500679
 21
48.00758144919638
 31
0.0
  0
LINE
  5
472
330
1E
100
AcDbEntity
  8
0
100
AcDbLine
 10
348.3999999999999
 20
70.2371
 30
0.0
 11
352.4
 21
78.7901
 31
0.0
  0
LINE
  5
473
330
1E
100
AcDbEntity
  8
0
100
AcDbLine
 10
352.4
 20
78.7901
 30
0.0
 11
358.8
 21
86.18610000000002
 31
0.0
  0
LINE
  5
474
330
1E
100
AcDbEntity
  8
0
100
AcDbLine
 10
377.8999999999999
 20
116.11
 30
0.0
 11
380.5
 21
117.765
 31
0.0
  0
LINE
  5
475
330
1E
100
AcDbEntity
  8
0
100
AcDbLine
 10
378.2
 20
115.565
 30
0.0
 11
380.7999999999999
 21
117.141
 31
0.0
  0
LINE
  5
476
330
1E
100
AcDbEntity
  8
0
100
AcDbLine
 10
379.2
 20
114.7769999999999
 30
0.0
 11
381.4999999999999
 21
116.117
 31
0.0
  0
LINE
  5
477
330
1E
100
AcDbEntity
  8
0
100
AcDbLine
 10
376.7
 20
95.4521
 30
0.0
 11
387.0
 21
96.70010000000003
 31
0.0
  0
LINE
  5
478
330
1E
100
AcDbEntity
  8
0
100
AcDbLine
 10
376.0
 20
108.631
 30
0.0
 11
376.0
 21
95.19222500000001
 31
0.0
  0
LINE
  5
479
330
1E
100
AcDbEntity
  8
0
100
AcDbLine
 10
376.0
 20
95.19222500000001
 30
0.0
 11
376.0
 21
108.631
 31
0.0
  0
LINE
  5
47A
330
1E
100
AcDbEntity
  8
0
100
AcDbLine
 10
374.0
 20
108.9389999999999
 30
0.0
 11
374.5
 21
106.3379999999999
 31
0.0
  0
LINE
  5
47B
330
1E
100
AcDbEntity
  8
0
100
AcDbLine
 10
374.5
 20
108.631
 30
0.0
 11
375.0
 21
106.1089999999999
 31
0.0
  0
LINE
  5
47C
330
1E
100
AcDbEntity
  8
0
100
AcDbLine
 10
367.1
 20
91.88810000000001
 30
0.0
 11
376.7
 21
95.4521
 31
0.0
  0
LINE
  5
47D
330
1E
100
AcDbEntity
  8
0
100
AcDbLine
 10
375.7999999999999
 20
103.817
 30
0.0
 11
376.0
 21
103.6218571428569
 31
0.0
  0
LINE
  5
47E
330
1E
100
AcDbEntity
  8
0
100
AcDbLine
 10
375.0
 20
106.1089999999999
 30
0.0
 11
376.0
 21
104.139
 31
0.0
  0
LINE
  5
47F
330
1E
100
AcDbEntity
  8
0
100
AcDbLine
 10
374.5
 20
106.3379999999999
 30
0.0
 11
375.7999999999999
 21
103.817
 31
0.0
  0
LINE
  5
480
330
1E
100
AcDbEntity
  8
0
100
AcDbLine
 10
376.3999999999999
 20
110.8369999999999
 30
0.0
 11
377.4999999999999
 21
112.965
 31
0.0
  0
LINE
  5
481
330
1E
100
AcDbEntity
  8
0
100
AcDbLine
 10
375.0
 20
111.1529999999999
 30
0.0
 11
376.2
 21
113.517
 31
0.0
  0
LINE
  5
482
330
1E
100
AcDbEntity
  8
0
100
AcDbLine
 10
374.5
 20
111.5389999999999
 30
0.0
 11
375.7999999999999
 21
114.061
 31
0.0
  0
LINE
  5
483
330
1E
100
AcDbEntity
  8
0
100
AcDbLine
 10
376.0
 20
108.631
 30
0.0
 11
376.3999999999999
 21
110.8369999999999
 31
0.0
  0
LINE
  5
484
330
1E
100
AcDbEntity
  8
0
100
AcDbLine
 10
374.0
 20
108.9389999999999
 30
0.0
 11
374.5
 21
111.5389999999999
 31
0.0
  0
LINE
  5
485
330
1E
100
AcDbEntity
  8
0
100
AcDbLine
 10
374.5
 20
108.631
 30
0.0
 11
375.0
 21
111.1529999999999
 31
0.0
  0
LINE
  5
486
330
1E
100
AcDbEntity
  8
0
100
AcDbLine
 10
375.7999999999999
 20
114.061
 30
0.0
 11
377.8999999999999
 21
116.11
 31
0.0
  0
LINE
  5
487
330
1E
100
AcDbEntity
  8
0
100
AcDbLine
 10
377.4999999999999
 20
112.965
 30
0.0
 11
379.2
 21
114.7769999999999
 31
0.0
  0
LINE
  5
488
330
1E
100
AcDbEntity
  8
0
100
AcDbLine
 10
376.2
 20
113.517
 30
0.0
 11
378.2
 21
115.565
 31
0.0
  0
LINE
  5
489
330
1E
100
AcDbEntity
  8
0
100
AcDbLine
 10
399.5
 20
106.3379999999999
 30
0.0
 11
400.0
 21
108.9389999999999
 31
0.0
  0
LINE
  5
48A
330
1E
100
AcDbEntity
  8
0
100
AcDbLine
 10
399.0
 20
106.1089999999999
 30
0.0
 11
399.5
 21
108.631
 31
0.0
  0
LINE
  5
48B
330
1E
100
AcDbEntity
  8
0
100
AcDbLine
 10
398.0
 20
108.631
 30
0.0
 11
398.0
 21
95.19222500000001
 31
0.0
  0
LINE
  5
48C
330
1E
100
AcDbEntity
  8
0
100
AcDbLine
 10
398.0
 20
95.19222500000001
 30
0.0
 11
398.0
 21
108.631
 31
0.0
  0
LINE
  5
48D
330
1E
100
AcDbEntity
  8
0
100
AcDbLine
 10
387.0
 20
96.70010000000003
 30
0.0
 11
397.2999999999999
 21
95.4521
 31
0.0
  0
LINE
  5
48E
330
1E
100
AcDbEntity
  8
0
100
AcDbLine
 10
397.2999999999999
 20
95.4521
 30
0.0
 11
406.8999999999999
 21
91.88810000000001
 31
0.0
  0
LINE
  5
48F
330
1E
100
AcDbEntity
  8
0
100
AcDbLine
 10
398.0
 20
103.6218571428569
 30
0.0
 11
398.2
 21
103.817
 31
0.0
  0
LINE
  5
490
330
1E
100
AcDbEntity
  8
0
100
AcDbLine
 10
398.2
 20
103.817
 30
0.0
 11
399.5
 21
106.3379999999999
 31
0.0
  0
LINE
  5
491
330
1E
100
AcDbEntity
  8
0
100
AcDbLine
 10
398.0
 20
104.139
 30
0.0
 11
399.0
 21
106.1089999999999
 31
0.0
  0
LINE
  5
492
330
1E
100
AcDbEntity
  8
0
100
AcDbLine
 10
396.1
 20
116.11
 30
0.0
 11
398.2
 21
114.061
 31
0.0
  0
LINE
  5
493
330
1E
100
AcDbEntity
  8
0
100
AcDbLine
 10
396.5
 20
112.965
 30
0.0
 11
397.6
 21
110.8369999999999
 31
0.0
  0
LINE
  5
494
330
1E
100
AcDbEntity
  8
0
100
AcDbLine
 10
395.7999999999999
 20
115.565
 30
0.0
 11
397.7999999999999
 21
113.517
 31
0.0
  0
LINE
  5
495
330
1E
100
AcDbEntity
  8
0
100
AcDbLine
 10
393.5
 20
117.765
 30
0.0
 11
396.1
 21
116.11
 31
0.0
  0
LINE
  5
496
330
1E
100
AcDbEntity
  8
0
100
AcDbLine
 10
393.2
 20
117.141
 30
0.0
 11
395.7999999999999
 21
115.565
 31
0.0
  0
LINE
  5
497
330
1E
100
AcDbEntity
  8
0
100
AcDbLine
 10
389.7999999999999
 20
116.9839999999999
 30
0.0
 11
392.5
 21
116.117
 31
0.0
  0
LINE
  5
498
330
1E
100
AcDbEntity
  8
0
100
AcDbLine
 10
381.4999999999999
 20
116.117
 30
0.0
 11
384.2
 21
116.9839999999999
 31
0.0
  0
LINE
  5
499
330
1E
100
AcDbEntity
  8
0
100
AcDbLine
 10
392.5
 20
116.117
 30
0.0
 11
394.7999999999999
 21
114.7769999999999
 31
0.0
  0
LINE
  5
49A
330
1E
100
AcDbEntity
  8
0
100
AcDbLine
 10
394.7999999999999
 20
114.7769999999999
 30
0.0
 11
396.5
 21
112.965
 31
0.0
  0
LINE
  5
49B
330
1E
100
AcDbEntity
  8
0
100
AcDbLine
 10
387.0
 20
119.1829999999999
 30
0.0
 11
390.2999999999999
 21
118.789
 31
0.0
  0
LINE
  5
49C
330
1E
100
AcDbEntity
  8
0
100
AcDbLine
 10
387.0
 20
118.481
 30
0.0
 11
390.2
 21
118.087
 31
0.0
  0
LINE
  5
49D
330
1E
100
AcDbEntity
  8
0
100
AcDbLine
 10
387.0
 20
117.2989999999999
 30
0.0
 11
389.7999999999999
 21
116.9839999999999
 31
0.0
  0
LINE
  5
49E
330
1E
100
AcDbEntity
  8
0
100
AcDbLine
 10
383.7
 20
118.789
 30
0.0
 11
387.0
 21
119.1829999999999
 31
0.0
  0
LINE
  5
49F
330
1E
100
AcDbEntity
  8
0
100
AcDbLine
 10
383.7999999999999
 20
118.087
 30
0.0
 11
387.0
 21
118.481
 31
0.0
  0
LINE
  5
4A0
330
1E
100
AcDbEntity
  8
0
100
AcDbLine
 10
384.2
 20
116.9839999999999
 30
0.0
 11
387.0
 21
117.2989999999999
 31
0.0
  0
LINE
  5
4A1
330
1E
100
AcDbEntity
  8
0
100
AcDbLine
 10
380.5
 20
117.765
 30
0.0
 11
383.7
 21
118.789
 31
0.0
  0
LINE
  5
4A2
330
1E
100
AcDbEntity
  8
0
100
AcDbLine
 10
380.7999999999999
 20
117.141
 30
0.0
 11
383.7999999999999
 21
118.087
 31
0.0
  0
LINE
  5
4A3
330
1E
100
AcDbEntity
  8
0
100
AcDbLine
 10
390.2999999999999
 20
118.789
 30
0.0
 11
393.5
 21
117.765
 31
0.0
  0
LINE
  5
4A4
330
1E
100
AcDbEntity
  8
0
100
AcDbLine
 10
390.2
 20
118.087
 30
0.0
 11
393.2
 21
117.141
 31
0.0
  0
LINE
  5
4A5
330
1E
100
AcDbEntity
  8
0
100
AcDbLine
 10
398.2
 20
114.061
 30
0.0
 11
399.5
 21
111.5389999999999
 31
0.0
  0
LINE
  5
4A6
330
1E
100
AcDbEntity
  8
0
100
AcDbLine
 10
397.7999999999999
 20
113.517
 30
0.0
 11
399.0
 21
111.1529999999999
 31
0.0
  0
LINE
  5
4A7
330
1E
100
AcDbEntity
  8
0
100
AcDbLine
 10
399.5
 20
111.5389999999999
 30
0.0
 11
400.0
 21
108.9389999999999
 31
0.0
  0
LINE
  5
4A8
330
1E
100
AcDbEntity
  8
0
100
AcDbLine
 10
399.0
 20
111.1529999999999
 30
0.0
 11
399.5
 21
108.631
 31
0.0
  0
LINE
  5
4A9
330
1E
100
AcDbEntity
  8
0
100
AcDbLine
 10
397.6
 20
110.8369999999999
 30
0.0
 11
398.0
 21
108.631
 31
0.0
  0
LINE
  5
4AA
330
1E
100
AcDbEntity
  8
0
100
AcDbLine
 10
425.6
 20
70.2371
 30
0.0
 11
427.0
 21
61.0591
 31
0.0
  0
LINE
  5
4AB
330
1E
100
AcDbEntity
  8
0
100
AcDbLine
 10
425.6
 20
51.88210000000001
 30
0.0
 11
427.0
 21
61.0591
 31
0.0
  0
LINE
  5
4AC
330
1E
100
AcDbEntity
  8
0
100
AcDbLine
 10
427.0
 20
48.34809999999999
 30
0.0
 11
427.0
 21
61.0591
 31
0.0
  0
LINE
  5
4AD
330
1E
100
AcDbEntity
  8
0
100
AcDbLine
 10
427.0
 20
61.0591
 30
0.0
 11
427.0
 21
48.34809999999999
 31
0.0
  0
LINE
  5
4AE
330
1E
100
AcDbEntity
  8
0
100
AcDbLine
 10
426.948057749932
 20
48.00758144919638
 30
0.0
 11
427.0
 21
47.6671
 31
0.0
  0
LINE
  5
4AF
330
1E
100
AcDbEntity
  8
0
100
AcDbLine
 10
421.6
 20
78.7901
 30
0.0
 11
425.6
 21
70.2371
 31
0.0
  0
LINE
  5
4B0
330
1E
100
AcDbEntity
  8
0
100
AcDbLine
 10
415.2
 20
86.18610000000002
 30
0.0
 11
421.6
 21
78.7901
 31
0.0
  0
LINE
  5
4B1
330
1E
100
AcDbEntity
  8
0
100
AcDbLine
 10
375.4
 20
205.1499999999999
 30
0.0
 11
376.6
 21
207.65
 31
0.0
  0
LINE
  5
4B2
330
1E
100
AcDbEntity
  8
0
100
AcDbLine
 10
397.3999999999999
 20
207.65
 30
0.0
 11
398.6
 21
205.1499999999999
 31
0.0
  0
LINE
  5
4B3
330
1E
100
AcDbEntity
  8
0
100
AcDbLine
 10
410.4
 20
202.7499999999999
 30
0.0
 11
413.0
 21
209.25
 31
0.0
  0
LINE
  5
4B4
330
1E
100
AcDbEntity
  8
0
100
AcDbLine
 10
361.0
 20
209.25
 30
0.0
 11
363.6
 21
202.7499999999999
 31
0.0
  0
LINE
  5
4B5
330
1E
100
AcDbEntity
  8
0
100
AcDbLine
 10
377.8999999999999
 20
195.53
 30
0.0
 11
380.5
 21
197.185
 31
0.0
  0
LINE
  5
4B6
330
1E
100
AcDbEntity
  8
0
100
AcDbLine
 10
363.6
 20
202.7499999999999
 30
0.0
 11
367.8999999999999
 21
197.1499999999999
 31
0.0
  0
LINE
  5
4B7
330
1E
100
AcDbEntity
  8
0
100
AcDbLine
 10
375.0
 20
202.3499999999999
 30
0.0
 11
375.0
 21
195.097
 31
0.0
  0
LINE
  5
4B8
330
1E
100
AcDbEntity
  8
0
100
AcDbLine
 10
375.0
 20
195.097
 30
0.0
 11
375.0
 21
202.3499999999999
 31
0.0
  0
LINE
  5
4B9
330
1E
100
AcDbEntity
  8
0
100
AcDbLine
 10
367.8999999999999
 20
197.1499999999999
 30
0.0
 11
373.4999999999999
 21
192.8499999999999
 31
0.0
  0
LINE
  5
4BA
330
1E
100
AcDbEntity
  8
0
100
AcDbLine
 10
374.5
 20
190.96
 30
0.0
 11
375.7999999999999
 21
193.4809999999999
 31
0.0
  0
LINE
  5
4BB
330
1E
100
AcDbEntity
  8
0
100
AcDbLine
 10
374.0
 20
188.359
 30
0.0
 11
374.5
 21
190.96
 31
0.0
  0
LINE
  5
4BC
330
1E
100
AcDbEntity
  8
0
100
AcDbLine
 10
375.7999999999999
 20
193.4809999999999
 30
0.0
 11
377.8999999999999
 21
195.53
 31
0.0
  0
LINE
  5
4BD
330
1E
100
AcDbEntity
  8
0
100
AcDbLine
 10
375.0
 20
195.097
 30
0.0
 11
375.0
 21
191.9296153846149
 31
0.0
  0
LINE
  5
4BE
330
1E
100
AcDbEntity
  8
0
100
AcDbLine
 10
373.4999999999999
 20
192.8499999999999
 30
0.0
 11
375.0
 21
192.25
 31
0.0
  0
LINE
  5
4BF
330
1E
100
AcDbEntity
  8
0
100
AcDbLine
 10
375.0
 20
191.9296153846149
 30
0.0
 11
375.0
 21
195.097
 31
0.0
  0
LINE
  5
4C0
330
1E
100
AcDbEntity
  8
0
100
AcDbLine
 10
375.0
 20
202.3499999999999
 30
0.0
 11
375.4
 21
205.1499999999999
 31
0.0
  0
LINE
  5
4C1
330
1E
100
AcDbEntity
  8
0
100
AcDbLine
 10
396.1
 20
195.53
 30
0.0
 11
398.2
 21
193.4809999999999
 31
0.0
  0
LINE
  5
4C2
330
1E
100
AcDbEntity
  8
0
100
AcDbLine
 10
393.5
 20
197.185
 30
0.0
 11
396.1
 21
195.53
 31
0.0
  0
LINE
  5
4C3
330
1E
100
AcDbEntity
  8
0
100
AcDbLine
 10
387.0
 20
198.6029999999999
 30
0.0
 11
390.2999999999999
 21
198.209
 31
0.0
  0
LINE
  5
4C4
330
1E
100
AcDbEntity
  8
0
100
AcDbLine
 10
383.7
 20
198.209
 30
0.0
 11
387.0
 21
198.6029999999999
 31
0.0
  0
LINE
  5
4C5
330
1E
100
AcDbEntity
  8
0
100
AcDbLine
 10
380.5
 20
197.185
 30
0.0
 11
383.7
 21
198.209
 31
0.0
  0
LINE
  5
4C6
330
1E
100
AcDbEntity
  8
0
100
AcDbLine
 10
390.2999999999999
 20
198.209
 30
0.0
 11
393.5
 21
197.185
 31
0.0
  0
LINE
  5
4C7
330
1E
100
AcDbEntity
  8
0
100
AcDbLine
 10
399.0
 20
202.3499999999999
 30
0.0
 11
399.0
 21
195.097
 31
0.0
  0
LINE
  5
4C8
330
1E
100
AcDbEntity
  8
0
100
AcDbLine
 10
399.0
 20
195.097
 30
0.0
 11
399.0
 21
202.3499999999999
 31
0.0
  0
LINE
  5
4C9
330
1E
100
AcDbEntity
  8
0
100
AcDbLine
 10
400.4999999999999
 20
192.8499999999999
 30
0.0
 11
406.0999999999999
 21
197.1499999999999
 31
0.0
  0
LINE
  5
4CA
330
1E
100
AcDbEntity
  8
0
100
AcDbLine
 10
398.2
 20
193.4809999999999
 30
0.0
 11
399.5
 21
190.96
 31
0.0
  0
LINE
  5
4CB
330
1E
100
AcDbEntity
  8
0
100
AcDbLine
 10
399.5
 20
190.96
 30
0.0
 11
400.0
 21
188.359
 31
0.0
  0
LINE
  5
4CC
330
1E
100
AcDbEntity
  8
0
100
AcDbLine
 10
399.0
 20
195.097
 30
0.0
 11
399.0
 21
191.9296153846149
 31
0.0
  0
LINE
  5
4CD
330
1E
100
AcDbEntity
  8
0
100
AcDbLine
 10
399.0
 20
192.25
 30
0.0
 11
400.4999999999999
 21
192.8499999999999
 31
0.0
  0
LINE
  5
4CE
330
1E
100
AcDbEntity
  8
0
100
AcDbLine
 10
399.0
 20
191.9296153846149
 30
0.0
 11
399.0
 21
195.097
 31
0.0
  0
LINE
  5
4CF
330
1E
100
AcDbEntity
  8
0
100
AcDbLine
 10
398.6
 20
205.1499999999999
 30
0.0
 11
399.0
 21
202.3499999999999
 31
0.0
  0
LINE
  5
4D0
330
1E
100
AcDbEntity
  8
0
100
AcDbLine
 10
406.0999999999999
 20
197.1499999999999
 30
0.0
 11
410.4
 21
202.7499999999999
 31
0.0
  0
LINE
  5
4D1
330
1E
100
AcDbEntity
  8
0
100
AcDbLine
 10
413.0
 20
223.2499999999999
 30
0.0
 11
414.0
 21
216.25
 31
0.0
  0
LINE
  5
4D2
330
1E
100
AcDbEntity
  8
0
100
AcDbLine
 10
413.0
 20
209.25
 30
0.0
 11
414.0
 21
216.25
 31
0.0
  0
LINE
  5
4D3
330
1E
100
AcDbEntity
  8
0
100
AcDbLine
 10
380.0
 20
242.2499999999999
 30
0.0
 11
387.0
 21
243.25
 31
0.0
  0
LINE
  5
4D4
330
1E
100
AcDbEntity
  8
0
100
AcDbLine
 10
378.5
 20
209.9499999999999
 30
0.0
 11
381.0
 21
211.65
 31
0.0
  0
LINE
  5
4D5
330
1E
100
AcDbEntity
  8
0
100
AcDbLine
 10
361.0
 20
223.2499999999999
 30
0.0
 11
363.6
 21
229.7499999999999
 31
0.0
  0
LINE
  5
4D6
330
1E
100
AcDbEntity
  8
0
100
AcDbLine
 10
360.0
 20
216.25
 30
0.0
 11
361.0
 21
209.25
 31
0.0
  0
LINE
  5
4D7
330
1E
100
AcDbEntity
  8
0
100
AcDbLine
 10
360.0
 20
216.25
 30
0.0
 11
361.0
 21
223.2499999999999
 31
0.0
  0
LINE
  5
4D8
330
1E
100
AcDbEntity
  8
0
100
AcDbLine
 10
376.6
 20
207.65
 30
0.0
 11
378.5
 21
209.9499999999999
 31
0.0
  0
LINE
  5
4D9
330
1E
100
AcDbEntity
  8
0
100
AcDbLine
 10
363.6
 20
229.7499999999999
 30
0.0
 11
367.8999999999999
 21
235.3499999999999
 31
0.0
  0
LINE
  5
4DA
330
1E
100
AcDbEntity
  8
0
100
AcDbLine
 10
367.8999999999999
 20
235.3499999999999
 30
0.0
 11
373.4999999999999
 21
239.65
 31
0.0
  0
LINE
  5
4DB
330
1E
100
AcDbEntity
  8
0
100
AcDbLine
 10
373.4999999999999
 20
239.65
 30
0.0
 11
380.0
 21
242.2499999999999
 31
0.0
  0
LINE
  5
4DC
330
1E
100
AcDbEntity
  8
0
100
AcDbLine
 10
410.4
 20
229.7499999999999
 30
0.0
 11
413.0
 21
223.2499999999999
 31
0.0
  0
LINE
  5
4DD
330
1E
100
AcDbEntity
  8
0
100
AcDbLine
 10
395.5
 20
209.9499999999999
 30
0.0
 11
397.3999999999999
 21
207.65
 31
0.0
  0
LINE
  5
4DE
330
1E
100
AcDbEntity
  8
0
100
AcDbLine
 10
387.0
 20
213.1499999999999
 30
0.0
 11
390.1
 21
212.7499999999999
 31
0.0
  0
LINE
  5
4DF
330
1E
100
AcDbEntity
  8
0
100
AcDbLine
 10
383.9
 20
212.7499999999999
 30
0.0
 11
387.0
 21
213.1499999999999
 31
0.0
  0
LINE
  5
4E0
330
1E
100
AcDbEntity
  8
0
100
AcDbLine
 10
381.0
 20
211.65
 30
0.0
 11
383.9
 21
212.7499999999999
 31
0.0
  0
LINE
  5
4E1
330
1E
100
AcDbEntity
  8
0
100
AcDbLine
 10
393.0
 20
211.65
 30
0.0
 11
395.5
 21
209.9499999999999
 31
0.0
  0
LINE
  5
4E2
330
1E
100
AcDbEntity
  8
0
100
AcDbLine
 10
390.1
 20
212.7499999999999
 30
0.0
 11
393.0
 21
211.65
 31
0.0
  0
LINE
  5
4E3
330
1E
100
AcDbEntity
  8
0
100
AcDbLine
 10
394.0
 20
242.2499999999999
 30
0.0
 11
400.4999999999999
 21
239.65
 31
0.0
  0
LINE
  5
4E4
330
1E
100
AcDbEntity
  8
0
100
AcDbLine
 10
387.0
 20
243.25
 30
0.0
 11
394.0
 21
242.2499999999999
 31
0.0
  0
LINE
  5
4E5
330
1E
100
AcDbEntity
  8
0
100
AcDbLine
 10
400.4999999999999
 20
239.65
 30
0.0
 11
406.0999999999999
 21
235.3499999999999
 31
0.0
  0
LINE
  5
4E6
330
1E
100
AcDbEntity
  8
0
100
AcDbLine
 10
406.0999999999999
 20
235.3499999999999
 30
0.0
 11
410.4
 21
229.7499999999999
 31
0.0
  0
ENDSEC
  0
SECTION
  2
OBJECTS
  0
DICTIONARY
  5
C
330
0
100
AcDbDictionary
281
     1
  3
ACAD_GROUP
350
D
  3
ACAD_LAYOUT
350
19
  3
ACAD_MLINESTYLE
350
16
  3
ACAD_PLOTSETTINGS
350
18
  3
ACAD_PLOTSTYLENAME
350
E
  3
AcDbVariableDictionary
350
364
  0
DICTIONARY
  5
D
102
{ACAD_REACTORS
330
C
102
}
330
C
100
AcDbDictionary
281
     1
  0
DICTIONARY
  5
19
102
{ACAD_REACTORS
330
C
102
}
330
C
100
AcDbDictionary
281
     1
  3
Layout1
350
1D
  3
Model
350
21
  0
DICTIONARY
  5
16
102
{ACAD_REACTORS
330
C
102
}
330
C
100
AcDbDictionary
281
     1
  3
Standard
350
17
  0
DICTIONARY
  5
18
102
{ACAD_REACTORS
330
C
102
}
330
C
100
AcDbDictionary
281
     1
  0
ACDBDICTIONARYWDFLT
  5
E
102
{ACAD_REACTORS
330
C
102
}
330
C
100
AcDbDictionary
281
     1
  3
Normal
350
F
100
AcDbDictionaryWithDefault
340
F
  0
DICTIONARY
  5
364
102
{ACAD_REACTORS
330
C
102
}
330
C
100
AcDbDictionary
281
     1
  3
DIMASSOC
350
365
  0
LAYOUT
  5
1D
102
{ACAD_REACTORS
330
19
102
}
330
19
100
AcDbPlotSettings
  1

  2
hp deskjet 980c series
  4

  6

 40
0.0
 41
0.0
 42
0.0
 43
0.0
 44
0.0
 45
0.0
 46
0.0
 47
0.0
 48
0.0
 49
0.0
140
0.0
141
0.0
142
1.0
143
1.0
 70
   688
 72
     0
 73
     0
 74
     5
  7

 75
    16
147
1.0
148
0.0
149
0.0
100
AcDbLayout
  1
Layout1
 70
     1
 71
     1
 10
0.0
 20
0.0
 11
12.0
 21
9.0
 12
0.0
 22
0.0
 32
0.0
 14
1.000000000000000E+20
 24
1.000000000000000E+20
 34
1.000000000000000E+20
 15
-1.000000000000000E+20
 25
-1.000000000000000E+20
 35
-1.000000000000000E+20
146
0.0
 13
0.0
 23
0.0
 33
0.0
 16
1.0
 26
0.0
 36
0.0
 17
0.0
 27
1.0
 37
0.0
 76
     0
330
1A
  0
LAYOUT
  5
21
102
{ACAD_REACTORS
330
19
102
}
330
19
100
AcDbPlotSettings
  1

  2
hp deskjet 980c series
  4

  6

 40
0.0
 41
0.0
 42
0.0
 43
0.0
 44
0.0
 45
0.0
 46
0.0
 47
0.0
 48
0.0
 49
0.0
140
0.0
141
0.0
142
1.0
143
1.0
 70
  1712
 72
     0
 73
     0
 74
     0
  7

 75
     0
147
1.0
148
0.0
149
0.0
100
AcDbLayout
  1
Model
 70
     1
 71
     0
 10
0.0
 20
0.0
 11
12.0
 21
9.0
 12
0.0
 22
0.0
 32
0.0
 14
0.0
 24
0.0
 34
0.0
 15
0.0
 25
0.0
 35
0.0
146
0.0
 13
0.0
 23
0.0
 33
0.0
 16
1.0
 26
0.0
 36
0.0
 17
0.0
 27
1.0
 37
0.0
 76
     0
330
1E
  0
MLINESTYLE
  5
17
102
{ACAD_REACTORS
330
16
102
}
330
16
100
AcDbMlineStyle
  2
STANDARD
 70
     0
  3

 62
   256
 51
90.0
 52
90.0
 71
     2
 49
0.5
 62
   256
  6
BYLAYER
 49
-0.5
 62
   256
  6
BYLAYER
  0
ACDBPLACEHOLDER
  5
F
102
{ACAD_REACTORS
330
E
102
}
330
E
  0
DICTIONARYVAR
  5
365
102
{ACAD_REACTORS
330
364
102
}
330
364
100
DictionaryVariables
280
     0
  1
1
  0
ENDSEC
  0
EOF
