  0
SECTION
  2
HEADER
  9
$ACADVER
  1
AC1009
  9
$INSBASE
 10
0.0
 20
0.0
 30
0.0
  9
$EXTMIN
 10
0.000000000000012
 20
0.0000000000000037
 30
0.0
  9
$EXTMAX
 10
249.0
 20
83.0
 30
0.0
  9
$LIMMIN
 10
0.0
 20
0.0
  9
$LIMMAX
 10
12.0
 20
9.0
  9
$ORTHOMODE
 70
     0
  9
$REGENMODE
 70
     1
  9
$FILLMODE
 70
     1
  9
$QTEXTMODE
 70
     0
  9
$MIRRTEXT
 70
     1
  9
$DRAGMODE
 70
     2
  9
$LTSCALE
 40
1.0
  9
$OSMODE
 70
    37
  9
$ATTMODE
 70
     1
  9
$TEXTSIZE
 40
0.2
  9
$TRACEWID
 40
0.05
  9
$TEXTSTYLE
  7
STANDARD
  9
$CLAYER
  8
0
  9
$CELTYPE
  6
CONTINUOUS
  9
$CECOLOR
 62
   256
  9
$DIMSCALE
 40
1.0
  9
$DIMASZ
 40
0.18
  9
$DIMEXO
 40
0.0625
  9
$DIMDLI
 40
0.38
  9
$DIMRND
 40
0.0
  9
$DIMDLE
 40
0.0
  9
$DIMEXE
 40
0.18
  9
$DIMTP
 40
0.0
  9
$DIMTM
 40
0.0
  9
$DIMTXT
 40
0.18
  9
$DIMCEN
 40
0.09
  9
$DIMTSZ
 40
0.0
  9
$DIMTOL
 70
     0
  9
$DIMLIM
 70
     0
  9
$DIMTIH
 70
     1
  9
$DIMTOH
 70
     1
  9
$DIMSE1
 70
     0
  9
$DIMSE2
 70
     0
  9
$DIMTAD
 70
     0
  9
$DIMZIN
 70
     0
  9
$DIMBLK
  1

  9
$DIMASO
 70
     1
  9
$DIMSHO
 70
     1
  9
$DIMPOST
  1

  9
$DIMAPOST
  1

  9
$DIMALT
 70
     0
  9
$DIMALTD
 70
     2
  9
$DIMALTF
 40
25.399999999999999
  9
$DIMLFAC
 40
1.0
  9
$DIMTOFL
 70
     0
  9
$DIMTVP
 40
0.0
  9
$DIMTIX
 70
     0
  9
$DIMSOXD
 70
     0
  9
$DIMSAH
 70
     0
  9
$DIMBLK1
  1

  9
$DIMBLK2
  1

  9
$DIMSTYLE
  2
STANDARD
  9
$DIMCLRD
 70
     0
  9
$DIMCLRE
 70
     0
  9
$DIMCLRT
 70
     0
  9
$DIMTFAC
 40
1.0
  9
$DIMGAP
 40
0.09
  9
$LUNITS
 70
     2
  9
$LUPREC
 70
     4
  9
$SKETCHINC
 40
0.1
  9
$FILLETRAD
 40
0.0
  9
$AUNITS
 70
     0
  9
$AUPREC
 70
     0
  9
$MENU
  1
.
  9
$ELEVATION
 40
0.0
  9
$PELEVATION
 40
0.0
  9
$THICKNESS
 40
0.0
  9
$LIMCHECK
 70
     0
  9
$BLIPMODE
 70
     0
  9
$CHAMFERA
 40
0.0
  9
$CHAMFERB
 40
0.0
  9
$SKPOLY
 70
     0
  9
$TDCREATE
 40
2454687.4670191319
  9
$TDUPDATE
 40
2454687.4676340041
  9
$TDINDWG
 40
0.0006148727
  9
$TDUSRTIMER
 40
0.0006148727
  9
$USRTIMER
 70
     1
  9
$ANGBASE
 50
0.0
  9
$ANGDIR
 70
     0
  9
$PDMODE
 70
     0
  9
$PDSIZE
 40
0.0
  9
$PLINEWID
 40
0.0
  9
$COORDS
 70
     1
  9
$SPLFRAME
 70
     0
  9
$SPLINETYPE
 70
     6
  9
$SPLINESEGS
 70
     8
  9
$ATTDIA
 70
     0
  9
$ATTREQ
 70
     1
  9
$HANDLING
 70
 22529
  9
$HANDSEED
  5
1FE
  9
$SURFTAB1
 70
     6
  9
$SURFTAB2
 70
     6
  9
$SURFTYPE
 70
     6
  9
$SURFU
 70
     6
  9
$SURFV
 70
     6
  9
$UCSNAME
  2

  9
$UCSORG
 10
0.0
 20
0.0
 30
0.0
  9
$UCSXDIR
 10
1.0
 20
0.0
 30
0.0
  9
$UCSYDIR
 10
0.0
 20
1.0
 30
0.0
  9
$PUCSNAME
  2

  9
$PUCSORG
 10
0.0
 20
0.0
 30
0.0
  9
$PUCSXDIR
 10
1.0
 20
0.0
 30
0.0
  9
$PUCSYDIR
 10
0.0
 20
1.0
 30
0.0
  9
$USERI1
 70
     0
  9
$USERI2
 70
     0
  9
$USERI3
 70
     0
  9
$USERI4
 70
     0
  9
$USERI5
 70
     0
  9
$USERR1
 40
0.0
  9
$USERR2
 40
0.0
  9
$USERR3
 40
0.0
  9
$USERR4
 40
0.0
  9
$USERR5
 40
0.0
  9
$WORLDVIEW
 70
     1
  9
$SHADEDGE
 70
     3
  9
$SHADEDIF
 70
    70
  9
$TILEMODE
 70
     1
  9
$MAXACTVP
 70
    64
  9
$PLIMCHECK
 70
     0
  9
$PEXTMIN
 10
1.0000000000000000E+020
 20
1.0000000000000000E+020
 30
1.0000000000000000E+020
  9
$PEXTMAX
 10
-1.0000000000000000E+020
 20
-1.0000000000000000E+020
 30
-1.0000000000000000E+020
  9
$PLIMMIN
 10
0.0
 20
0.0
  9
$PLIMMAX
 10
12.0
 20
9.0
  9
$UNITMODE
 70
     0
  9
$VISRETAIN
 70
     1
  9
$PLINEGEN
 70
     0
  9
$PSLTSCALE
 70
     1
  0
ENDSEC
  0
SECTION
  2
TABLES
  0
TABLE
  2
VPORT
 70
     2
  0
VPORT
  2
*ACTIVE
 70
     0
 10
0.0
 20
0.0
 11
1.0
 21
1.0
 12
124.5
 22
41.500000000000007
 13
0.0
 23
0.0
 14
1.0
 24
1.0
 15
0.0
 25
0.0
 16
0.0
 26
0.0
 36
1.0
 17
0.0
 27
0.0
 37
0.0
 40
122.305531753617
 41
2.0435339308578739
 42
50.0
 43
0.0
 44
0.0
 50
0.0
 51
0.0
 71
     0
 72
   100
 73
     1
 74
     3
 75
     0
 76
     0
 77
     0
 78
     0
  0
ENDTAB
  0
TABLE
  2
LTYPE
 70
     1
  0
LTYPE
  2
CONTINUOUS
 70
     0
  3
Solid line
 72
    65
 73
     0
 40
0.0
  0
ENDTAB
  0
TABLE
  2
LAYER
 70
     1
  0
LAYER
  2
0
 70
     0
 62
     7
  6
CONTINUOUS
  0
ENDTAB
  0
TABLE
  2
STYLE
 70
     1
  0
STYLE
  2
STANDARD
 70
     0
 40
0.0
 41
1.0
 50
0.0
 71
     0
 42
0.2
  3
txt
  4

  0
ENDTAB
  0
TABLE
  2
VIEW
 70
     0
  0
ENDTAB
  0
TABLE
  2
UCS
 70
     0
  0
ENDTAB
  0
TABLE
  2
APPID
 70
     1
  0
APPID
  2
ACAD
 70
     0
  0
ENDTAB
  0
TABLE
  2
DIMSTYLE
 70
     1
  0
DIMSTYLE
  2
STANDARD
 70
     0
  3

  4

  5

  6

  7

 40
1.0
 41
0.18
 42
0.0625
 43
0.38
 44
0.18
 45
0.0
 46
0.0
 47
0.0
 48
0.0
140
0.18
141
0.09
142
0.0
143
25.399999999999999
144
1.0
145
0.0
146
1.0
147
0.09
 71
     0
 72
     0
 73
     1
 74
     1
 75
     0
 76
     0
 77
     0
 78
     0
170
     0
171
     2
172
     0
173
     0
174
     0
175
     0
176
     0
177
     0
178
     0
  0
ENDTAB
  0
ENDSEC
  0
SECTION
  2
BLOCKS
  0
BLOCK
  8
0
  2
$MODEL_SPACE
 70
     0
 10
0.0
 20
0.0
 30
0.0
  3
$MODEL_SPACE
  1

  0
ENDBLK
  5
20
  8
0
  0
BLOCK
 67
     1
  8
0
  2
$PAPER_SPACE
 70
     0
 10
0.0
 20
0.0
 30
0.0
  3
$PAPER_SPACE
  1

  0
ENDBLK
  5
1C
 67
     1
  8
0
  0
ENDSEC
  0
SECTION
  2
ENTITIES
  0
LINE
  5
22
  8
0
 10
0.000000000000012
 20
9.9482499999999998
 30
0.0
 11
0.387548000000012
 21
9.7780699999999996
 31
0.0
  0
LINE
  5
23
  8
0
 10
16.109300000000001
 20
1.4330000000000001
 30
0.0
 11
17.537299999999998
 21
0.7058340000000041
 31
0.0
  0
LINE
  5
24
  8
0
 10
15.573399999999991
 20
1.694229999999999
 30
0.0
 11
16.8627
 21
1.04681
 31
0.0
  0
LINE
  5
25
  8
0
 10
18.449200000000001
 20
0.246700000000004
 30
0.0
 11
18.749500000000001
 21
0.0887110000000038
 31
0.0
  0
LINE
  5
26
  8
0
 10
17.537299999999998
 20
0.7058340000000041
 30
0.0
 11
18.449200000000001
 21
0.246700000000004
 31
0.0
  0
LINE
  5
27
  8
0
 10
18.749500000000001
 20
0.088711000000004
 30
0.0
 11
19.33499754385419
 21
1.34747097746805
 31
0.0
  0
LINE
  5
28
  8
0
 10
16.8627
 20
1.04681
 30
0.0
 11
17.537299999999998
 21
0.7058340000000041
 31
0.0
  0
LINE
  5
29
  8
0
 10
16.8627
 20
1.04681
 30
0.0
 11
17.4776062322005
 21
0.736231253750483
 31
0.0
  0
LINE
  5
2A
  8
0
 10
16.8627
 20
1.04681
 30
0.0
 11
17.4776062322005
 21
0.736231253750483
 31
0.0
  0
LINE
  5
2B
  8
0
 10
14.650845656331899
 20
2.1564619224915691
 30
0.0
 11
15.573399999999991
 21
1.694229999999999
 31
0.0
  0
LINE
  5
2C
  8
0
 10
14.211999999999991
 20
2.3741500000000002
 30
0.0
 11
16.109300000000001
 21
1.4330000000000001
 31
0.0
  0
LINE
  5
2D
  8
0
 10
18.087299999999988
 20
1.8759399999999999
 30
0.0
 11
19.02
 21
1.472829999999999
 31
0.0
  0
LINE
  5
2E
  8
0
 10
18.834599999999991
 20
1.877009999999999
 30
0.0
 11
19.839600000000001
 21
1.429049999999999
 31
0.0
  0
LINE
  5
2F
  8
0
 10
18.749500000000001
 20
0.0887110000000038
 30
0.0
 11
19.6417
 21
0.0000000000000037
 31
0.0
  0
LINE
  5
30
  8
0
 10
18.749500000000001
 20
0.0887110000000038
 30
0.0
 11
19.33499754385419
 21
1.34747097746805
 31
0.0
  0
LINE
  5
31
  8
0
 10
3.8122300000000089
 20
7.7069300000000087
 30
0.0
 11
5.5521800000000088
 21
6.8350500000000087
 31
0.0
  0
LINE
  5
32
  8
0
 10
5.1770400000000087
 20
7.0305099999999996
 30
0.0
 11
5.5521800000000088
 21
6.8350500000000087
 31
0.0
  0
LINE
  5
33
  8
0
 10
5.1770400000000087
 20
7.0305099999999996
 30
0.0
 11
7.3579800000000093
 21
5.9003500000000093
 31
0.0
  0
LINE
  5
34
  8
0
 10
5.5521800000000088
 20
6.8350500000000087
 30
0.0
 11
6.2578248080789889
 21
6.4704488526513693
 31
0.0
  0
LINE
  5
35
  8
0
 10
7.3579800000000093
 20
5.9003500000000093
 30
0.0
 11
9.6904400000000095
 21
4.7036700000000087
 31
0.0
  0
LINE
  5
36
  8
0
 10
5.3042500000000086
 20
7.3044999999999991
 30
0.0
 11
7.5694700000000088
 21
6.354989999999999
 31
0.0
  0
LINE
  5
37
  8
0
 10
3.2803300000000091
 20
7.9725699999999993
 30
0.0
 11
3.8122300000000089
 21
7.7069300000000087
 31
0.0
  0
LINE
  5
38
  8
0
 10
3.2803300000000091
 20
7.9725699999999993
 30
0.0
 11
5.1770400000000087
 21
7.0305099999999996
 31
0.0
  0
LINE
  5
39
  8
0
 10
3.4319962141929898
 20
7.8972402586359403
 30
0.0
 11
3.8122300000000089
 21
7.7069300000000087
 31
0.0
  0
LINE
  5
3A
  8
0
 10
3.3664500000000088
 20
8.1556900000000088
 30
0.0
 11
5.3042500000000086
 21
7.3044999999999991
 31
0.0
  0
LINE
  5
3B
  8
0
 10
1.839460000000009
 20
8.6941299999999995
 30
0.0
 11
3.2803300000000091
 21
7.9725699999999993
 31
0.0
  0
LINE
  5
3C
  8
0
 10
0.9378640000000119
 20
9.1560700000000104
 30
0.0
 11
1.839460000000009
 21
8.6941299999999995
 31
0.0
  0
LINE
  5
3D
  8
0
 10
0.6412010000000122
 20
9.3202000000000087
 30
0.0
 11
0.9562850000000119
 21
9.1947700000000001
 31
0.0
  0
LINE
  5
3E
  8
0
 10
0.6412010000000122
 20
9.3202000000000087
 30
0.0
 11
0.9378640000000119
 21
9.1560700000000104
 31
0.0
  0
LINE
  5
3F
  8
0
 10
0.9562850000000119
 20
9.1947700000000001
 30
0.0
 11
1.8888800000000101
 21
8.7916899999999991
 31
0.0
  0
LINE
  5
40
  8
0
 10
1.8888800000000101
 20
8.7916899999999991
 30
0.0
 11
3.3664500000000088
 21
8.1556900000000088
 31
0.0
  0
LINE
  5
41
  8
0
 10
1.207180000000009
 20
9.7342499999999994
 30
0.0
 11
2.139800000000009
 21
9.3310700000000004
 31
0.0
  0
LINE
  5
42
  8
0
 10
0.8921245507667789
 20
9.8596546552547295
 30
0.0
 11
1.22671471153487
 21
10.5789821925752
 31
0.0
  0
LINE
  5
43
  8
0
 10
0.8921245507667789
 20
9.8596546552547295
 30
0.0
 11
1.22671471153487
 21
10.5789821925752
 31
0.0
  0
LINE
  5
44
  8
0
 10
0.892086000000012
 20
9.8596700000000101
 30
0.0
 11
1.207180000000009
 21
9.7342499999999994
 31
0.0
  0
LINE
  5
45
  8
0
 10
0.387548000000012
 20
9.7780699999999996
 30
0.0
 11
1.39266000000001
 21
9.3300500000000088
 31
0.0
  0
LINE
  5
46
  8
0
 10
3.532420000000009
 20
9.9170300000000093
 30
0.0
 11
5.6276600000000094
 21
9.0033100000000008
 31
0.0
  0
LINE
  5
47
  8
0
 10
2.139800000000009
 20
9.3310700000000004
 30
0.0
 11
3.6173700000000091
 21
8.6950699999999994
 31
0.0
  0
LINE
  5
48
  8
0
 10
1.39266000000001
 20
9.3300500000000088
 30
0.0
 11
2.9469300000000089
 21
8.6583000000000006
 31
0.0
  0
LINE
  5
49
  8
0
 10
3.951950000000009
 20
9.4144200000000087
 30
0.0
 11
5.8897400000000086
 21
8.5632300000000097
 31
0.0
  0
LINE
  5
4A
  8
0
 10
3.6173700000000091
 20
8.6950699999999994
 30
0.0
 11
5.5551500000000091
 21
7.8439800000000002
 31
0.0
  0
LINE
  5
4B
  8
0
 10
2.9469300000000089
 20
8.6583000000000006
 30
0.0
 11
5.0421300000000091
 21
7.7444700000000086
 31
0.0
  0
LINE
  5
4C
  8
0
 10
5.8897400000000086
 20
8.5632300000000097
 30
0.0
 11
8.1549400000000087
 21
7.6138500000000002
 31
0.0
  0
LINE
  5
4D
  8
0
 10
6.475270000000009
 20
9.8220700000000072
 30
0.0
 11
8.7405100000000093
 21
8.8726000000000091
 31
0.0
  0
LINE
  5
4E
  8
0
 10
6.140670000000009
 20
9.1028199999999995
 30
0.0
 11
8.4058900000000101
 21
8.1533400000000071
 31
0.0
  0
LINE
  5
4F
  8
0
 10
5.6276600000000094
 20
9.0033100000000008
 30
0.0
 11
8.0504800000000092
 21
7.9911300000000001
 31
0.0
  0
LINE
  5
50
  8
0
 10
5.5551500000000091
 20
7.8439800000000002
 30
0.0
 11
7.8204300000000089
 21
6.894499999999999
 31
0.0
  0
LINE
  5
51
  8
0
 10
5.0421300000000091
 20
7.7444700000000086
 30
0.0
 11
7.4649500000000089
 21
6.7322500000000094
 31
0.0
  0
LINE
  5
52
  8
0
 10
10.718563588387591
 20
4.1740032764076496
 30
0.0
 11
11.801600000000001
 21
3.6157400000000002
 31
0.0
  0
LINE
  5
53
  8
0
 10
11.801600000000001
 20
3.6157400000000002
 30
0.0
 11
13.834099999999999
 21
2.5656799999999991
 31
0.0
  0
LINE
  5
54
  8
0
 10
12.029999999999999
 20
3.49838
 30
0.0
 11
14.211999999999991
 21
2.3741500000000002
 31
0.0
  0
LINE
  5
55
  8
0
 10
10.718563588387591
 20
4.1740032764076496
 30
0.0
 11
11.801600000000001
 21
3.6157400000000002
 31
0.0
  0
LINE
  5
56
  8
0
 10
9.6904400000000095
 20
4.7036700000000087
 30
0.0
 11
10.718563588387591
 21
4.1740032764076496
 31
0.0
  0
LINE
  5
57
  8
0
 10
9.6904400000000095
 20
4.7036700000000087
 30
0.0
 11
10.718563588387591
 21
4.1740032764076496
 31
0.0
  0
LINE
  5
58
  8
0
 10
9.6904400000000095
 20
4.7036700000000087
 30
0.0
 11
12.029999999999999
 21
3.49838
 31
0.0
  0
LINE
  5
59
  8
0
 10
12.6577
 20
4.8521499999999991
 30
0.0
 11
14.9229
 21
3.9026199999999989
 31
0.0
  0
LINE
  5
5A
  8
0
 10
12.4068
 20
4.31264
 30
0.0
 11
14.6721
 21
3.36313
 31
0.0
  0
LINE
  5
5B
  8
0
 10
13.834099999999999
 20
2.5656799999999991
 30
0.0
 11
14.057788832344899
 21
2.4536040884568902
 31
0.0
  0
LINE
  5
5C
  8
0
 10
18.3383
 20
2.4154800000000001
 30
0.0
 11
19.270800000000001
 21
2.012319999999999
 31
0.0
  0
LINE
  5
5D
  8
0
 10
16.6098
 20
2.5120299999999989
 30
0.0
 11
18.087299999999988
 21
1.8759399999999999
 31
0.0
  0
LINE
  5
5E
  8
0
 10
18.672899999999991
 20
3.1347999999999989
 30
0.0
 11
19.605499999999989
 21
2.7316699999999998
 31
0.0
  0
LINE
  5
5F
  8
0
 10
16.860600000000002
 20
3.0515300000000001
 30
0.0
 11
18.3383
 21
2.4154800000000001
 31
0.0
  0
LINE
  5
60
  8
0
 10
17.280200000000001
 20
2.5488900000000001
 30
0.0
 11
18.834599999999991
 21
1.877009999999999
 31
0.0
  0
LINE
  5
61
  8
0
 10
14.6721
 20
3.36313
 30
0.0
 11
16.6098
 21
2.5120299999999989
 31
0.0
  0
LINE
  5
62
  8
0
 10
17.195299999999989
 20
3.770859999999999
 30
0.0
 11
18.672899999999991
 21
3.1347999999999989
 31
0.0
  0
LINE
  5
63
  8
0
 10
17.446200000000001
 20
4.31027
 30
0.0
 11
18.9237
 21
3.6742099999999991
 31
0.0
  0
LINE
  5
64
  8
0
 10
17.8657
 20
3.8076400000000001
 30
0.0
 11
19.420100000000001
 21
3.1357699999999991
 31
0.0
  0
LINE
  5
65
  8
0
 10
15.2576
 20
4.6219599999999987
 30
0.0
 11
17.195299999999989
 21
3.770859999999999
 31
0.0
  0
LINE
  5
66
  8
0
 10
17.7807
 20
5.0295800000000002
 30
0.0
 11
19.258299999999991
 21
4.3935199999999988
 31
0.0
  0
LINE
  5
67
  8
0
 10
18.4512
 20
5.06637
 30
0.0
 11
20.005500000000001
 21
4.394499999999999
 31
0.0
  0
LINE
  5
68
  8
0
 10
15.5085
 20
5.1613699999999989
 30
0.0
 11
17.446200000000001
 21
4.31027
 31
0.0
  0
LINE
  5
69
  8
0
 10
15.7705
 20
4.7214299999999998
 30
0.0
 11
17.8657
 21
3.8076400000000001
 31
0.0
  0
LINE
  5
6A
  8
0
 10
14.9229
 20
3.9026199999999989
 30
0.0
 11
16.860600000000002
 21
3.0515300000000001
 31
0.0
  0
LINE
  5
6B
  8
0
 10
15.1851
 20
3.462699999999999
 30
0.0
 11
17.280200000000001
 21
2.5488900000000001
 31
0.0
  0
LINE
  5
6C
  8
0
 10
12.7622
 20
4.4748099999999988
 30
0.0
 11
15.1851
 21
3.462699999999999
 31
0.0
  0
LINE
  5
6D
  8
0
 10
12.9922
 20
5.5713100000000093
 30
0.0
 11
15.2576
 21
4.6219599999999987
 31
0.0
  0
LINE
  5
6E
  8
0
 10
18.031600000000001
 20
5.5690699999999991
 30
0.0
 11
19.509299999999989
 21
4.933040000000009
 31
0.0
  0
LINE
  5
6F
  8
0
 10
13.347799999999999
 20
5.7336800000000094
 30
0.0
 11
15.7705
 21
4.7214299999999998
 31
0.0
  0
LINE
  5
70
  8
0
 10
16.093900000000001
 20
6.4201800000000002
 30
0.0
 11
18.031600000000001
 21
5.5690699999999991
 31
0.0
  0
LINE
  5
71
  8
0
 10
15.842999999999989
 20
5.880679999999999
 30
0.0
 11
17.7807
 21
5.0295800000000002
 31
0.0
  0
LINE
  5
72
  8
0
 10
18.617100000000001
 20
6.8278399999999992
 30
0.0
 11
20.094799999999989
 21
6.1917999999999989
 31
0.0
  0
LINE
  5
73
  8
0
 10
18.366199999999989
 20
6.2883699999999987
 30
0.0
 11
19.843800000000002
 21
5.6523000000000003
 31
0.0
  0
LINE
  5
74
  8
0
 10
16.355999999999991
 20
5.9801500000000001
 30
0.0
 11
18.4512
 21
5.06637
 31
0.0
  0
LINE
  5
75
  8
0
 10
13.577799999999989
 20
6.8301700000000087
 30
0.0
 11
15.842999999999989
 21
5.880679999999999
 31
0.0
  0
LINE
  5
76
  8
0
 10
13.2432
 20
6.1109099999999987
 30
0.0
 11
15.5085
 21
5.1613699999999989
 31
0.0
  0
LINE
  5
77
  8
0
 10
10.699099999999991
 20
6.8623699999999994
 30
0.0
 11
13.347799999999999
 21
5.7336800000000094
 31
0.0
  0
LINE
  5
78
  8
0
 10
10.573600000000001
 20
6.5925699999999994
 30
0.0
 11
12.9922
 21
5.5713100000000093
 31
0.0
  0
LINE
  5
79
  8
0
 10
10.239000000000001
 20
5.8733300000000002
 30
0.0
 11
12.6577
 21
4.8521499999999991
 31
0.0
  0
LINE
  5
7A
  8
0
 10
10.113499999999989
 20
5.6035300000000001
 30
0.0
 11
12.7622
 21
4.4748099999999988
 31
0.0
  0
LINE
  5
7B
  8
0
 10
9.9880600000000097
 20
5.333829999999999
 30
0.0
 11
12.4068
 21
4.31264
 31
0.0
  0
LINE
  5
7C
  8
0
 10
7.5694700000000088
 20
6.354989999999999
 30
0.0
 11
9.9880600000000097
 21
5.333829999999999
 31
0.0
  0
LINE
  5
7D
  8
0
 10
13.933199999999999
 20
6.9923799999999998
 30
0.0
 11
16.355999999999991
 21
5.9801500000000001
 31
0.0
  0
LINE
  5
7E
  8
0
 10
16.679400000000001
 20
7.678910000000001
 30
0.0
 11
18.617100000000001
 21
6.8278399999999992
 31
0.0
  0
LINE
  5
7F
  8
0
 10
16.428599999999989
 20
7.1394299999999991
 30
0.0
 11
18.366199999999989
 21
6.2883699999999987
 31
0.0
  0
LINE
  5
80
  8
0
 10
16.941500000000001
 20
7.2389599999999996
 30
0.0
 11
19.036699999999989
 21
6.3251799999999996
 31
0.0
  0
LINE
  5
81
  8
0
 10
14.163199999999989
 20
8.0889800000000012
 30
0.0
 11
16.428599999999989
 21
7.1394299999999991
 31
0.0
  0
LINE
  5
82
  8
0
 10
13.8287
 20
7.3696500000000089
 30
0.0
 11
16.093900000000001
 21
6.4201800000000002
 31
0.0
  0
LINE
  5
83
  8
0
 10
11.284599999999999
 20
8.1211099999999998
 30
0.0
 11
13.933199999999999
 21
6.9923799999999998
 31
0.0
  0
LINE
  5
84
  8
0
 10
11.1591
 20
7.8513899999999994
 30
0.0
 11
13.577799999999989
 21
6.8301700000000087
 31
0.0
  0
LINE
  5
85
  8
0
 10
10.82459999999999
 20
7.1320700000000086
 30
0.0
 11
13.2432
 21
6.1109099999999987
 31
0.0
  0
LINE
  5
86
  8
0
 10
8.1549400000000087
 20
7.6138500000000002
 30
0.0
 11
10.573600000000001
 21
6.5925699999999994
 31
0.0
  0
LINE
  5
87
  8
0
 10
14.518700000000001
 20
8.2510999999999992
 30
0.0
 11
16.941500000000001
 21
7.2389599999999996
 31
0.0
  0
LINE
  5
88
  8
0
 10
17.265000000000001
 20
8.9376499999999997
 30
0.0
 11
19.2026
 21
8.0865800000000103
 31
0.0
  0
LINE
  5
89
  8
0
 10
17.013999999999999
 20
8.3982399999999995
 30
0.0
 11
18.951699999999999
 21
7.5470800000000002
 31
0.0
  0
LINE
  5
8A
  8
0
 10
17.527000000000001
 20
8.4976900000000093
 30
0.0
 11
19.622199999999999
 21
7.5839299999999996
 31
0.0
  0
LINE
  5
8B
  8
0
 10
14.74879999999999
 20
9.3477199999999971
 30
0.0
 11
17.013999999999999
 21
8.3982399999999995
 31
0.0
  0
LINE
  5
8C
  8
0
 10
14.414099999999999
 20
8.6284600000000005
 30
0.0
 11
16.679400000000001
 21
7.678910000000001
 31
0.0
  0
LINE
  5
8D
  8
0
 10
11.870100000000001
 20
9.3799500000000098
 30
0.0
 11
14.518700000000001
 21
8.2510999999999992
 31
0.0
  0
LINE
  5
8E
  8
0
 10
11.7446
 20
9.1101500000000009
 30
0.0
 11
14.163199999999989
 21
8.0889800000000012
 31
0.0
  0
LINE
  5
8F
  8
0
 10
11.4101
 20
8.3908100000000072
 30
0.0
 11
13.8287
 21
7.3696500000000089
 31
0.0
  0
LINE
  5
90
  8
0
 10
8.7405100000000093
 20
8.8726000000000091
 30
0.0
 11
11.1591
 21
7.8513899999999994
 31
0.0
  0
LINE
  5
91
  8
0
 10
17.599499999999988
 20
9.6569899999999986
 30
0.0
 11
19.537199999999991
 21
8.8058999999999994
 31
0.0
  0
LINE
  5
92
  8
0
 10
18.112500000000001
 20
9.7565300000000104
 30
0.0
 11
20.207699999999999
 21
8.8427699999999998
 31
0.0
  0
LINE
  5
93
  8
0
 10
14.999700000000001
 20
9.8871900000000092
 30
0.0
 11
17.265000000000001
 21
8.9376499999999997
 31
0.0
  0
LINE
  5
94
  8
0
 10
15.104200000000001
 20
9.5099199999999993
 30
0.0
 11
17.527000000000001
 21
8.4976900000000093
 31
0.0
  0
LINE
  5
95
  8
0
 10
11.995599999999991
 20
9.6496499999999994
 30
0.0
 11
14.414099999999999
 21
8.6284600000000005
 31
0.0
  0
LINE
  5
96
  8
0
 10
8.9913700000000087
 20
9.4120699999999982
 30
0.0
 11
11.4101
 21
8.3908100000000072
 31
0.0
  0
LINE
  5
97
  8
0
 10
8.6359800000000089
 20
9.2498599999999982
 30
0.0
 11
11.284599999999999
 21
8.1211099999999998
 31
0.0
  0
LINE
  5
98
  8
0
 10
8.4058900000000101
 20
8.1533400000000071
 30
0.0
 11
10.82459999999999
 21
7.1320700000000086
 31
0.0
  0
LINE
  5
99
  8
0
 10
8.0504800000000092
 20
7.9911300000000001
 30
0.0
 11
10.699099999999991
 21
6.8623699999999994
 31
0.0
  0
LINE
  5
9A
  8
0
 10
7.8204300000000089
 20
6.894499999999999
 30
0.0
 11
10.239000000000001
 21
5.8733300000000002
 31
0.0
  0
LINE
  5
9B
  8
0
 10
7.4649500000000089
 20
6.7322500000000094
 30
0.0
 11
10.113499999999989
 21
5.6035300000000001
 31
0.0
  0
LINE
  5
9C
  8
0
 10
19.262499999999989
 20
0.188212000000004
 30
0.0
 11
19.6417
 21
0.0000000000000037
 31
0.0
  0
LINE
  5
9D
  8
0
 10
19.262499999999989
 20
0.188212000000004
 30
0.0
 11
19.6417
 21
0.0000000000000037
 31
0.0
  0
LINE
  5
9E
  8
0
 10
18.951699999999999
 20
7.5470800000000002
 30
0.0
 11
20.429400000000001
 21
6.9110900000000086
 31
0.0
  0
LINE
  5
9F
  8
0
 10
18.9237
 20
3.6742099999999991
 30
0.0
 11
19.856400000000001
 21
3.2710799999999991
 31
0.0
  0
LINE
  5
A0
  8
0
 10
19.335000000000001
 20
1.3474699999999999
 30
0.0
 11
20.2272
 21
1.258829999999999
 31
0.0
  0
LINE
  5
A1
  8
0
 10
19.585918798024391
 20
1.8869260709366991
 30
0.0
 11
19.920538571552189
 21
2.6063244407632591
 31
0.0
  0
LINE
  5
A2
  8
0
 10
19.585918798024391
 20
1.8869260709366991
 30
0.0
 11
19.920538571552189
 21
2.6063244407632591
 31
0.0
  0
LINE
  5
A3
  8
0
 10
19.2026
 20
8.0865800000000103
 30
0.0
 11
20.680299999999988
 21
7.4505299999999997
 31
0.0
  0
LINE
  5
A4
  8
0
 10
19.036699999999989
 20
6.3251799999999996
 30
0.0
 11
20.59109999999999
 21
5.6532999999999989
 31
0.0
  0
LINE
  5
A5
  8
0
 10
19.258299999999991
 20
4.3935199999999988
 30
0.0
 11
20.190999999999988
 21
3.9904099999999989
 31
0.0
  0
LINE
  5
A6
  8
0
 10
19.9206
 20
2.6063000000000001
 30
0.0
 11
20.812699999999989
 21
2.5175799999999988
 31
0.0
  0
LINE
  5
A7
  8
0
 10
19.605499999999989
 20
2.7316699999999998
 30
0.0
 11
19.9206
 21
2.6063000000000001
 31
0.0
  0
LINE
  5
A8
  8
0
 10
20.4251
 20
2.687759999999999
 30
0.0
 11
20.812699999999989
 21
2.5175799999999988
 31
0.0
  0
LINE
  5
A9
  8
0
 10
19.788199999999989
 20
9.3454199999999972
 30
0.0
 11
21.265799999999999
 21
8.7093699999999998
 31
0.0
  0
LINE
  5
AA
  8
0
 10
19.537199999999991
 20
8.8058999999999994
 30
0.0
 11
21.014900000000001
 21
8.1698599999999981
 31
0.0
  0
LINE
  5
AB
  8
0
 10
19.622199999999999
 20
7.5839299999999996
 30
0.0
 11
21.176500000000001
 21
6.9120600000000003
 31
0.0
  0
LINE
  5
AC
  8
0
 10
19.843800000000002
 20
5.6523000000000003
 30
0.0
 11
20.776499999999992
 21
5.2492000000000001
 31
0.0
  0
LINE
  5
AD
  8
0
 10
19.509299999999989
 20
4.933040000000009
 30
0.0
 11
20.44189999999999
 21
4.5299100000000001
 31
0.0
  0
LINE
  5
AE
  8
0
 10
20.094799999999989
 20
6.1917999999999989
 30
0.0
 11
21.0274
 21
5.7886600000000001
 31
0.0
  0
LINE
  5
AF
  8
0
 10
20.005500000000001
 20
4.394499999999999
 30
0.0
 11
21.01059999999999
 21
3.9465300000000001
 31
0.0
  0
LINE
  5
B0
  8
0
 10
19.856400000000001
 20
3.2710799999999991
 30
0.0
 11
20.171399999999991
 21
3.1457099999999989
 31
0.0
  0
LINE
  5
B1
  8
0
 10
20.171414939374301
 20
3.14568303316344
 30
0.0
 11
20.506001434320801
 21
3.8650098574360401
 31
0.0
  0
LINE
  5
B2
  8
0
 10
20.171414939374301
 20
3.14568303316344
 30
0.0
 11
20.506001434320801
 21
3.8650098574360401
 31
0.0
  0
LINE
  5
B3
  8
0
 10
20.506
 20
3.8650099999999989
 30
0.0
 11
21.398199999999989
 21
3.7763300000000002
 31
0.0
  0
LINE
  5
B4
  8
0
 10
20.756923723044501
 20
4.4044671750890503
 30
0.0
 11
21.0915168799276
 21
5.1238083218453596
 31
0.0
  0
LINE
  5
B5
  8
0
 10
20.756923723044501
 20
4.4044671750890503
 30
0.0
 11
21.0915168799276
 21
5.1238083218453596
 31
0.0
  0
LINE
  5
B6
  8
0
 10
20.207699999999999
 20
8.8427699999999998
 30
0.0
 11
21.76199999999999
 21
8.1708300000000005
 31
0.0
  0
LINE
  5
B7
  8
0
 10
20.429400000000001
 20
6.9110900000000086
 30
0.0
 11
21.361999999999998
 21
6.5079599999999989
 31
0.0
  0
LINE
  5
B8
  8
0
 10
21.0915
 20
5.1238099999999989
 30
0.0
 11
21.983699999999999
 21
5.0351099999999986
 31
0.0
  0
LINE
  5
B9
  8
0
 10
20.776499999999992
 20
5.2492000000000001
 30
0.0
 11
21.0915
 21
5.1238099999999989
 31
0.0
  0
LINE
  5
BA
  8
0
 10
21.5961
 20
5.20533
 30
0.0
 11
21.983699999999999
 21
5.0351099999999986
 31
0.0
  0
LINE
  5
BB
  8
0
 10
21.014900000000001
 20
8.1698599999999981
 30
0.0
 11
21.947500000000002
 21
7.76675
 31
0.0
  0
LINE
  5
BC
  8
0
 10
20.680299999999988
 20
7.4505299999999997
 30
0.0
 11
21.6129
 21
7.047439999999999
 31
0.0
  0
LINE
  5
BD
  8
0
 10
21.265799999999999
 20
8.7093699999999998
 30
0.0
 11
22.198399999999999
 21
8.3062399999999972
 31
0.0
  0
LINE
  5
BE
  8
0
 10
21.176500000000001
 20
6.9120600000000003
 30
0.0
 11
22.181699999999999
 21
6.4641099999999989
 31
0.0
  0
LINE
  5
BF
  8
0
 10
21.0274
 20
5.7886600000000001
 30
0.0
 11
21.342400000000001
 21
5.6632600000000002
 31
0.0
  0
LINE
  5
C0
  8
0
 10
21.342419866248999
 20
5.6632241413031297
 30
0.0
 11
21.67701898825019
 21
6.3825781124547101
 31
0.0
  0
LINE
  5
C1
  8
0
 10
21.676999999999989
 20
6.382579999999999
 30
0.0
 11
22.569199999999999
 21
6.2938900000000002
 31
0.0
  0
LINE
  5
C2
  8
0
 10
21.927926126735102
 20
6.9220028586403801
 30
0.0
 11
22.262538168141301
 21
7.641384605194439
 31
0.0
  0
LINE
  5
C3
  8
0
 10
21.927926126735102
 20
6.9220028586403703
 30
0.0
 11
22.262538168141301
 21
7.641384605194439
 31
0.0
  0
LINE
  5
C4
  8
0
 10
21.60039999999999
 20
9.4286899999999996
 30
0.0
 11
22.532900000000001
 21
9.0254700000000003
 31
0.0
  0
LINE
  5
C5
  8
0
 10
22.262599999999988
 20
7.6413600000000086
 30
0.0
 11
23.154699999999991
 21
7.5526799999999996
 31
0.0
  0
LINE
  5
C6
  8
0
 10
21.947500000000002
 20
7.76675
 30
0.0
 11
22.262599999999988
 21
7.6413600000000086
 31
0.0
  0
LINE
  5
C7
  8
0
 10
22.767199999999999
 20
7.7228899999999987
 30
0.0
 11
23.154699999999991
 21
7.5526799999999996
 31
0.0
  0
LINE
  5
C8
  8
0
 10
22.294399999999989
 20
9.4872899999999998
 30
0.0
 11
23.332999999999998
 21
9.0017499999999995
 31
0.0
  0
LINE
  5
C9
  8
0
 10
22.424499999999991
 20
9.4264899999999994
 30
0.0
 11
23.381399999999999
 21
8.9791600000000003
 31
0.0
  0
LINE
  5
CA
  8
0
 10
22.3475
 20
9.42957
 30
0.0
 11
23.352699999999992
 21
8.9816199999999995
 31
0.0
  0
LINE
  5
CB
  8
0
 10
22.198399999999999
 20
8.3062399999999972
 30
0.0
 11
22.513400000000001
 21
8.1808499999999995
 31
0.0
  0
LINE
  5
CC
  8
0
 10
22.513434912086389
 20
8.1807870041801092
 30
0.0
 11
22.848005421663991
 21
8.9000794615404182
 31
0.0
  0
LINE
  5
CD
  8
0
 10
23.740200000000002
 20
8.8114699999999981
 30
0.0
 11
29.658000000000001
 21
22.3248
 31
0.0
  0
LINE
  5
CE
  8
0
 10
23.740200000000002
 20
8.8114700000000088
 30
0.0
 11
29.658000000000001
 21
22.3248
 31
0.0
  0
LINE
  5
CF
  8
0
 10
23.381399999999999
 20
8.9791600000000003
 30
0.0
 11
23.740200000000002
 21
8.8114699999999981
 31
0.0
  0
LINE
  5
D0
  8
0
 10
23.332999999999998
 20
9.0017499999999995
 30
0.0
 11
23.740200000000002
 21
8.8114699999999981
 31
0.0
  0
LINE
  5
D1
  8
0
 10
23.352699999999992
 20
8.9816199999999995
 30
0.0
 11
23.740200000000002
 21
8.8114699999999981
 31
0.0
  0
LINE
  5
D2
  8
0
 10
22.847999999999999
 20
8.9000800000000009
 30
0.0
 11
23.740200000000002
 21
8.8114699999999981
 31
0.0
  0
LINE
  5
D3
  8
0
 10
22.532900000000001
 20
9.0254700000000003
 30
0.0
 11
23.352699999999992
 21
8.9816199999999995
 31
0.0
  0
LINE
  5
D4
  8
0
 10
22.532900000000001
 20
9.0254700000000003
 30
0.0
 11
22.847999999999999
 21
8.9000800000000009
 31
0.0
  0
LINE
  5
D5
  8
0
 10
22.532900000000001
 20
9.0254700000000003
 30
0.0
 11
23.740200000000002
 21
8.8114699999999981
 31
0.0
  0
LINE
  5
D6
  8
0
 10
22.513400000000001
 20
8.1808499999999995
 30
0.0
 11
23.154699999999991
 21
7.5526799999999996
 31
0.0
  0
LINE
  5
D7
  8
0
 10
21.76199999999999
 20
8.1708300000000005
 30
0.0
 11
22.767199999999999
 21
7.7228899999999987
 31
0.0
  0
LINE
  5
D8
  8
0
 10
21.6129
 20
7.047439999999999
 30
0.0
 11
21.927900000000001
 21
6.9220499999999987
 31
0.0
  0
LINE
  5
D9
  8
0
 10
21.927900000000001
 20
6.9220499999999987
 30
0.0
 11
22.569199999999999
 21
6.2938900000000002
 31
0.0
  0
LINE
  5
DA
  8
0
 10
21.361999999999998
 20
6.5079599999999989
 30
0.0
 11
21.676999999999989
 21
6.382579999999999
 31
0.0
  0
LINE
  5
DB
  8
0
 10
22.181699999999999
 20
6.4641099999999989
 30
0.0
 11
22.569199999999999
 21
6.2938900000000002
 31
0.0
  0
LINE
  5
DC
  8
0
 10
21.342400000000001
 20
5.6632600000000002
 30
0.0
 11
21.983699999999999
 21
5.0351099999999986
 31
0.0
  0
LINE
  5
DD
  8
0
 10
20.59109999999999
 20
5.6532999999999989
 30
0.0
 11
21.5961
 21
5.20533
 31
0.0
  0
LINE
  5
DE
  8
0
 10
20.44189999999999
 20
4.5299100000000001
 30
0.0
 11
20.756900000000002
 21
4.4045100000000001
 31
0.0
  0
LINE
  5
DF
  8
0
 10
20.756900000000002
 20
4.4045100000000001
 30
0.0
 11
21.398199999999989
 21
3.7763300000000002
 31
0.0
  0
LINE
  5
E0
  8
0
 10
20.190999999999988
 20
3.9904099999999989
 30
0.0
 11
20.506
 21
3.8650099999999989
 31
0.0
  0
LINE
  5
E1
  8
0
 10
21.01059999999999
 20
3.9465300000000001
 30
0.0
 11
21.398199999999989
 21
3.7763300000000002
 31
0.0
  0
LINE
  5
E2
  8
0
 10
20.171399999999991
 20
3.1457099999999989
 30
0.0
 11
20.812699999999989
 21
2.5175799999999988
 31
0.0
  0
LINE
  5
E3
  8
0
 10
19.420100000000001
 20
3.1357699999999991
 30
0.0
 11
20.4251
 21
2.687759999999999
 31
0.0
  0
LINE
  5
E4
  8
0
 10
19.270800000000001
 20
2.012319999999999
 30
0.0
 11
19.585899999999999
 21
1.8869599999999991
 31
0.0
  0
LINE
  5
E5
  8
0
 10
19.585899999999999
 20
1.8869599999999991
 30
0.0
 11
20.2272
 21
1.258829999999999
 31
0.0
  0
LINE
  5
E6
  8
0
 10
19.02
 20
1.472829999999999
 30
0.0
 11
19.335000000000001
 21
1.3474699999999999
 31
0.0
  0
LINE
  5
E7
  8
0
 10
19.839600000000001
 20
1.429049999999999
 30
0.0
 11
20.2272
 21
1.258829999999999
 31
0.0
  0
LINE
  5
E8
  8
0
 10
19.000499999999999
 20
0.628228000000004
 30
0.0
 11
19.6417
 21
0.0000000000000037
 31
0.0
  0
LINE
  5
E9
  8
0
 10
18.882352105349291
 20
0.3743294708054771
 30
0.0
 11
19.262499999999989
 21
0.188212000000004
 31
0.0
  0
LINE
  5
EA
  8
0
 10
0.973020000000012
 20
11.036899999999999
 30
0.0
 11
1.9781200000000101
 21
10.588900000000001
 31
0.0
  0
LINE
  5
EB
  8
0
 10
1.17103000000001
 20
12.4658
 30
0.0
 11
1.8121500000000099
 21
11.8378
 31
0.0
  0
LINE
  5
EC
  8
0
 10
1.17103000000001
 20
12.4658
 30
0.0
 11
2.0631100000000102
 21
12.3772
 31
0.0
  0
LINE
  5
ED
  8
0
 10
1.17103000000001
 20
12.4658
 30
0.0
 11
1.55857000000001
 21
12.2956
 31
0.0
  0
LINE
  5
EE
  8
0
 10
0.5854940000000121
 20
11.207000000000001
 30
0.0
 11
1.226670000000009
 21
10.579000000000001
 31
0.0
  0
LINE
  5
EF
  8
0
 10
0.5854940000000121
 20
11.207000000000001
 30
0.0
 11
1.4776200000000099
 21
11.118499999999999
 31
0.0
  0
LINE
  5
F0
  8
0
 10
0.5854940000000121
 20
11.207000000000001
 30
0.0
 11
0.973020000000012
 21
11.036899999999999
 31
0.0
  0
LINE
  5
F1
  8
0
 10
1.5417800000000099
 20
10.4535
 30
0.0
 11
2.4743800000000089
 21
10.050399999999989
 31
0.0
  0
LINE
  5
F2
  8
0
 10
1.4776601958638991
 20
11.1184840022809
 30
0.0
 11
1.8122301419624689
 21
11.83776808055759
 31
0.0
  0
LINE
  5
F3
  8
0
 10
1.4776601958638991
 20
11.1184840022809
 30
0.0
 11
1.8122301419624689
 21
11.83776808055759
 31
0.0
  0
LINE
  5
F4
  8
0
 10
1.75651000000001
 20
13.7247
 30
0.0
 11
2.1440500000000098
 21
13.554500000000001
 31
0.0
  0
LINE
  5
F5
  8
0
 10
1.75651000000001
 20
13.7247
 30
0.0
 11
2.64863000000001
 21
13.63599999999999
 31
0.0
  0
LINE
  5
F6
  8
0
 10
1.75651000000001
 20
13.7247
 30
0.0
 11
2.3977000000000088
 21
13.0966
 31
0.0
  0
LINE
  5
F7
  8
0
 10
1.55857000000001
 20
12.2956
 30
0.0
 11
2.5636500000000089
 21
11.8477
 31
0.0
  0
LINE
  5
F8
  8
0
 10
1.8121500000000099
 20
11.8378
 30
0.0
 11
2.1272500000000099
 21
11.712300000000001
 31
0.0
  0
LINE
  5
F9
  8
0
 10
1.4776200000000099
 20
11.118499999999999
 30
0.0
 11
1.79270000000001
 21
10.9931
 31
0.0
  0
LINE
  5
FA
  8
0
 10
1.79270000000001
 20
10.9931
 30
0.0
 11
2.7253200000000088
 21
10.5899
 31
0.0
  0
LINE
  5
FB
  8
0
 10
20.122699999999998
 20
10.0646
 30
0.0
 11
21.60039999999999
 21
9.4286899999999996
 31
0.0
  0
LINE
  5
FC
  8
0
 10
20.829699999999988
 20
10.172000000000001
 30
0.0
 11
22.424499999999991
 21
9.4264899999999994
 31
0.0
  0
LINE
  5
FD
  8
0
 10
20.793299999999999
 20
10.1015
 30
0.0
 11
22.3475
 21
9.42957
 31
0.0
  0
LINE
  5
FE
  8
0
 10
20.673300000000001
 20
10.245100000000001
 30
0.0
 11
22.294399999999989
 21
9.4872899999999998
 31
0.0
  0
LINE
  5
FF
  8
0
 10
17.8505
 20
10.1965
 30
0.0
 11
19.788199999999989
 21
9.3454199999999972
 31
0.0
  0
LINE
  5
100
  8
0
 10
9.3260000000000094
 20
10.13139999999999
 30
0.0
 11
11.7446
 21
9.1101500000000009
 31
0.0
  0
LINE
  5
101
  8
0
 10
20.447703581392599
 20
10.35057225623239
 30
0.0
 11
20.507074572957102
 21
10.3228231882788
 31
0.0
  0
LINE
  5
102
  8
0
 10
20.292552011005888
 20
10.4231096940504
 30
0.0
 11
20.673300000000001
 21
10.245100000000001
 31
0.0
  0
LINE
  5
103
  8
0
 10
12.3301
 20
10.369
 30
0.0
 11
14.74879999999999
 21
9.3477199999999971
 31
0.0
  0
LINE
  5
104
  8
0
 10
9.2215100000000092
 20
10.508599999999991
 30
0.0
 11
11.870100000000001
 21
9.3799500000000098
 31
0.0
  0
LINE
  5
105
  8
0
 10
6.726160000000009
 20
10.361499999999991
 30
0.0
 11
8.9913700000000087
 21
9.4120699999999982
 31
0.0
  0
LINE
  5
106
  8
0
 10
6.2131500000000086
 20
10.262
 30
0.0
 11
8.6359800000000089
 21
9.2498599999999982
 31
0.0
  0
LINE
  5
107
  8
0
 10
2.4743800000000089
 20
10.050399999999989
 30
0.0
 11
3.951950000000009
 21
9.4144200000000087
 31
0.0
  0
LINE
  5
108
  8
0
 10
2.1272500000000099
 20
11.712300000000001
 30
0.0
 11
3.0599000000000092
 21
11.30929999999999
 31
0.0
  0
LINE
  5
109
  8
0
 10
3.0599000000000092
 20
11.30929999999999
 30
0.0
 11
4.5374700000000088
 21
10.67329999999999
 31
0.0
  0
LINE
  5
10A
  8
0
 10
2.0631379443200091
 20
12.377188878676799
 30
0.0
 11
2.3977565141232899
 21
13.096577491915591
 31
0.0
  0
LINE
  5
10B
  8
0
 10
2.0631379443200091
 20
12.377188878676799
 30
0.0
 11
2.3977565141232899
 21
13.096577491915591
 31
0.0
  0
LINE
  5
10C
  8
0
 10
2.3977000000000088
 20
13.0966
 30
0.0
 11
2.712810000000009
 21
12.971099999999989
 31
0.0
  0
LINE
  5
10D
  8
0
 10
2.712810000000009
 20
12.971099999999989
 30
0.0
 11
3.6454000000000089
 21
12.568
 31
0.0
  0
LINE
  5
10E
  8
0
 10
2.342010000000009
 20
14.983399999999991
 30
0.0
 11
2.9831900000000089
 21
14.355299999999991
 31
0.0
  0
LINE
  5
10F
  8
0
 10
2.342010000000009
 20
14.983399999999991
 30
0.0
 11
3.2341200000000092
 21
14.8948
 31
0.0
  0
LINE
  5
110
  8
0
 10
2.342010000000009
 20
14.983399999999991
 30
0.0
 11
2.7295700000000092
 21
14.8132
 31
0.0
  0
LINE
  5
111
  8
0
 10
2.6486596273027199
 20
13.6359882088808
 30
0.0
 11
2.9832342690784301
 21
14.355282382283599
 31
0.0
  0
LINE
  5
112
  8
0
 10
2.6486596273027199
 20
13.6359882088808
 30
0.0
 11
2.9832342690784301
 21
14.355282382283599
 31
0.0
  0
LINE
  5
113
  8
0
 10
3.298290000000009
 20
14.229900000000001
 30
0.0
 11
4.2308800000000089
 21
13.8268
 31
0.0
  0
LINE
  5
114
  8
0
 10
3.2341766239329091
 20
14.894777464005401
 30
0.0
 11
3.5687559461184901
 21
15.614081699711591
 31
0.0
  0
LINE
  5
115
  8
0
 10
3.2341766239329091
 20
14.894777464005401
 30
0.0
 11
3.5687559461184901
 21
15.614081699711591
 31
0.0
  0
LINE
  5
116
  8
0
 10
2.9275400000000089
 20
16.242100000000001
 30
0.0
 11
3.3150500000000092
 21
16.071999999999989
 31
0.0
  0
LINE
  5
117
  8
0
 10
2.9275400000000089
 20
16.242100000000001
 30
0.0
 11
3.819640000000009
 21
16.153500000000001
 31
0.0
  0
LINE
  5
118
  8
0
 10
2.9275400000000089
 20
16.242100000000001
 30
0.0
 11
3.5687100000000092
 21
15.614100000000001
 31
0.0
  0
LINE
  5
119
  8
0
 10
3.2341200000000092
 20
14.8948
 30
0.0
 11
3.5492000000000088
 21
14.76939999999999
 31
0.0
  0
LINE
  5
11A
  8
0
 10
2.7295700000000092
 20
14.8132
 30
0.0
 11
3.7346700000000088
 21
14.365199999999991
 31
0.0
  0
LINE
  5
11B
  8
0
 10
2.9831900000000089
 20
14.355299999999991
 30
0.0
 11
3.298290000000009
 21
14.229900000000001
 31
0.0
  0
LINE
  5
11C
  8
0
 10
2.64863000000001
 20
13.63599999999999
 30
0.0
 11
2.9637200000000088
 21
13.5106
 31
0.0
  0
LINE
  5
11D
  8
0
 10
2.9637200000000088
 20
13.5106
 30
0.0
 11
3.896310000000009
 21
13.1075
 31
0.0
  0
LINE
  5
11E
  8
0
 10
2.1440500000000098
 20
13.554500000000001
 30
0.0
 11
3.1491400000000089
 21
13.106400000000001
 31
0.0
  0
LINE
  5
11F
  8
0
 10
3.1491400000000089
 20
13.106400000000001
 30
0.0
 11
4.703450000000009
 21
12.4346
 31
0.0
  0
LINE
  5
120
  8
0
 10
2.0631100000000102
 20
12.3772
 30
0.0
 11
2.378200000000009
 21
12.25179999999999
 31
0.0
  0
LINE
  5
121
  8
0
 10
2.378200000000009
 20
12.25179999999999
 30
0.0
 11
3.310820000000009
 21
11.848599999999999
 31
0.0
  0
LINE
  5
122
  8
0
 10
3.6454000000000089
 20
12.568
 30
0.0
 11
5.1229700000000093
 21
11.932
 31
0.0
  0
LINE
  5
123
  8
0
 10
3.5130200000000089
 20
17.500999999999991
 30
0.0
 11
4.154230000000009
 21
16.872800000000002
 31
0.0
  0
LINE
  5
124
  8
0
 10
3.5130200000000089
 20
17.500999999999991
 30
0.0
 11
4.4051300000000086
 21
17.412400000000002
 31
0.0
  0
LINE
  5
125
  8
0
 10
3.5130200000000089
 20
17.500999999999991
 30
0.0
 11
3.900570000000009
 21
17.3308
 31
0.0
  0
LINE
  5
126
  8
0
 10
3.5687100000000092
 20
15.614100000000001
 30
0.0
 11
3.8838000000000088
 21
15.4886
 31
0.0
  0
LINE
  5
127
  8
0
 10
3.3150500000000092
 20
16.071999999999989
 30
0.0
 11
4.3201500000000088
 21
15.624000000000001
 31
0.0
  0
LINE
  5
128
  8
0
 10
3.5492000000000088
 20
14.76939999999999
 30
0.0
 11
4.4818300000000093
 21
14.366199999999999
 31
0.0
  0
LINE
  5
129
  8
0
 10
3.8196590584477792
 20
16.153492414849101
 30
0.0
 11
4.1542383870904089
 21
16.872796664437189
 31
0.0
  0
LINE
  5
12A
  8
0
 10
3.8196590584477792
 20
16.153492414849101
 30
0.0
 11
4.1542383870904089
 21
16.872796664437189
 31
0.0
  0
LINE
  5
12B
  8
0
 10
3.8838000000000088
 20
15.4886
 30
0.0
 11
4.8164000000000087
 21
15.085599999999999
 31
0.0
  0
LINE
  5
12C
  8
0
 10
3.8057700000000092
 20
18.130400000000002
 30
0.0
 11
10.531700000000001
 21
33.213500000000003
 31
0.0
  0
LINE
  5
12D
  8
0
 10
3.8057700000000092
 20
18.130400000000002
 30
0.0
 11
4.1645900000000093
 21
17.962599999999998
 31
0.0
  0
LINE
  5
12E
  8
0
 10
3.8057700000000092
 20
18.130400000000002
 30
0.0
 11
10.531700000000001
 21
33.213500000000003
 31
0.0
  0
LINE
  5
12F
  8
0
 10
3.900570000000009
 20
17.3308
 30
0.0
 11
4.9056800000000091
 21
16.8827
 31
0.0
  0
LINE
  5
130
  8
0
 10
3.819640000000009
 20
16.153500000000001
 30
0.0
 11
4.1347200000000086
 21
16.028099999999991
 31
0.0
  0
LINE
  5
131
  8
0
 10
3.7346700000000088
 20
14.365199999999991
 30
0.0
 11
5.2889600000000092
 21
13.6934
 31
0.0
  0
LINE
  5
132
  8
0
 10
3.896310000000009
 20
13.1075
 30
0.0
 11
5.3739000000000088
 21
12.471500000000001
 31
0.0
  0
LINE
  5
133
  8
0
 10
3.310820000000009
 20
11.848599999999999
 30
0.0
 11
4.7883900000000086
 21
11.2126
 31
0.0
  0
LINE
  5
134
  8
0
 10
2.5636500000000089
 20
11.8477
 30
0.0
 11
4.1179600000000089
 21
11.1759
 31
0.0
  0
LINE
  5
135
  8
0
 10
15.334199999999999
 20
10.6065
 30
0.0
 11
17.599499999999988
 21
9.6569899999999986
 31
0.0
  0
LINE
  5
136
  8
0
 10
12.455500000000001
 20
10.6387
 30
0.0
 11
15.104200000000001
 21
9.5099199999999993
 31
0.0
  0
LINE
  5
137
  8
0
 10
15.6897
 20
10.768700000000001
 30
0.0
 11
18.112500000000001
 21
9.7565300000000104
 31
0.0
  0
LINE
  5
138
  8
0
 10
18.184999999999999
 20
10.915800000000001
 30
0.0
 11
20.122699999999998
 21
10.0646
 31
0.0
  0
LINE
  5
139
  8
0
 10
18.716699999999989
 20
11.159800000000001
 30
0.0
 11
20.829699999999988
 21
10.172000000000001
 31
0.0
  0
LINE
  5
13A
  8
0
 10
18.6981
 20
11.0152
 30
0.0
 11
20.793299999999999
 21
10.1015
 31
0.0
  0
LINE
  5
13B
  8
0
 10
15.5852
 20
11.14589999999999
 30
0.0
 11
17.8505
 21
10.1965
 31
0.0
  0
LINE
  5
13C
  8
0
 10
12.581099999999999
 20
10.9084
 30
0.0
 11
14.999700000000001
 21
9.8871900000000092
 31
0.0
  0
LINE
  5
13D
  8
0
 10
7.0607700000000087
 20
11.080799999999989
 30
0.0
 11
9.3260000000000094
 21
10.13139999999999
 31
0.0
  0
LINE
  5
13E
  8
0
 10
9.5769000000000091
 20
10.6708
 30
0.0
 11
11.995599999999991
 21
9.6496499999999994
 31
0.0
  0
LINE
  5
13F
  8
0
 10
4.5374700000000088
 20
10.67329999999999
 30
0.0
 11
6.475270000000009
 21
9.8220700000000072
 31
0.0
  0
LINE
  5
140
  8
0
 10
5.1229700000000093
 20
11.932
 30
0.0
 11
7.0607700000000087
 21
11.080799999999989
 31
0.0
  0
LINE
  5
141
  8
0
 10
4.1645900000000093
 20
17.962599999999998
 30
0.0
 11
5.1214400000000087
 21
17.515299999999989
 31
0.0
  0
LINE
  5
142
  8
0
 10
4.1645900000000093
 20
17.962599999999998
 30
0.0
 11
4.6998152351444
 21
17.712397515096299
 31
0.0
  0
LINE
  5
143
  8
0
 10
4.154230000000009
 20
16.872800000000002
 30
0.0
 11
4.4692900000000089
 21
16.747499999999992
 31
0.0
  0
LINE
  5
144
  8
0
 10
4.1347200000000086
 20
16.028099999999991
 30
0.0
 11
5.0673200000000094
 21
15.625
 31
0.0
  0
LINE
  5
145
  8
0
 10
4.4052152943290004
 20
17.412366029518889
 30
0.0
 11
4.5724500000000088
 21
17.771899999999999
 31
0.0
  0
LINE
  5
146
  8
0
 10
4.4052152943290004
 20
17.412366029518889
 30
0.0
 11
4.5724500000000088
 21
17.771899999999999
 31
0.0
  0
LINE
  5
147
  8
0
 10
4.4692900000000089
 20
16.747499999999992
 30
0.0
 11
5.4019100000000089
 21
16.3443
 31
0.0
  0
LINE
  5
148
  8
0
 10
4.4051300000000086
 20
17.412400000000002
 30
0.0
 11
4.7202400000000093
 21
17.286899999999999
 31
0.0
  0
LINE
  5
149
  8
0
 10
4.3201500000000088
 20
15.624000000000001
 30
0.0
 11
5.8744900000000086
 21
14.9521
 31
0.0
  0
LINE
  5
14A
  8
0
 10
4.2308800000000089
 20
13.8268
 30
0.0
 11
5.7084800000000087
 21
13.190699999999991
 31
0.0
  0
LINE
  5
14B
  8
0
 10
4.8164000000000087
 20
15.085599999999999
 30
0.0
 11
6.2939700000000087
 21
14.4496
 31
0.0
  0
LINE
  5
14C
  8
0
 10
4.5724500000000088
 20
17.771899999999999
 30
0.0
 11
4.6998152351444
 21
17.712397515096299
 31
0.0
  0
LINE
  5
14D
  8
0
 10
4.7202400000000093
 20
17.286899999999999
 30
0.0
 11
5.6528400000000092
 21
16.883800000000001
 31
0.0
  0
LINE
  5
14E
  8
0
 10
5.1214400000000087
 20
17.515299999999989
 30
0.0
 11
6.7161700000000089
 21
16.7698
 31
0.0
  0
LINE
  5
14F
  8
0
 10
5.3299686019995089
 20
17.417817621923088
 30
0.0
 11
5.7975100000000088
 21
17.199200000000001
 31
0.0
  0
LINE
  5
150
  8
0
 10
5.3299686019995089
 20
17.417817621923088
 30
0.0
 11
5.4321223735899098
 21
17.370063057375688
 31
0.0
  0
LINE
  5
151
  8
0
 10
5.3299686019995089
 20
17.417817621923088
 30
0.0
 11
5.4321223735899187
 21
17.370063057375688
 31
0.0
  0
LINE
  5
152
  8
0
 10
5.34740173618244
 20
17.409666064961389
 30
0.0
 11
5.4321223735899187
 21
17.370063057375688
 31
0.0
  0
LINE
  5
153
  8
0
 10
5.34740173618244
 20
17.409666064961389
 30
0.0
 11
5.4321223735899098
 21
17.370063057375688
 31
0.0
  0
LINE
  5
154
  8
0
 10
4.9056800000000091
 20
16.8827
 30
0.0
 11
6.4599700000000091
 21
16.210799999999999
 31
0.0
  0
LINE
  5
155
  8
0
 10
5.0673200000000094
 20
15.625
 30
0.0
 11
6.5449300000000088
 21
14.988899999999999
 31
0.0
  0
LINE
  5
156
  8
0
 10
4.4818300000000093
 20
14.366199999999999
 30
0.0
 11
5.9594000000000094
 21
13.7302
 31
0.0
  0
LINE
  5
157
  8
0
 10
5.2889600000000092
 20
13.6934
 30
0.0
 11
7.3842100000000093
 21
12.7796
 31
0.0
  0
LINE
  5
158
  8
0
 10
5.7084800000000087
 20
13.190699999999991
 30
0.0
 11
7.6462800000000088
 21
12.339499999999999
 31
0.0
  0
LINE
  5
159
  8
0
 10
5.4019100000000089
 20
16.3443
 30
0.0
 11
6.8794900000000094
 21
15.708299999999991
 31
0.0
  0
LINE
  5
15A
  8
0
 10
5.7975100000000088
 20
17.199200000000001
 30
0.0
 11
6.3467568554066602
 21
16.9424922421315
 31
0.0
  0
LINE
  5
15B
  8
0
 10
5.6528400000000092
 20
16.883800000000001
 30
0.0
 11
7.1304600000000091
 21
16.247800000000002
 31
0.0
  0
LINE
  5
15C
  8
0
 10
6.2939700000000087
 20
14.4496
 30
0.0
 11
8.2317800000000094
 21
13.5984
 31
0.0
  0
LINE
  5
15D
  8
0
 10
6.0770788483892311
 20
17.068560576101191
 30
0.0
 11
6.3467568554066602
 21
16.9424922421315
 31
0.0
  0
LINE
  5
15E
  8
0
 10
6.0770788483892311
 20
17.068560576101191
 30
0.0
 11
6.281302869050009
 21
16.973084217152898
 31
0.0
  0
LINE
  5
15F
  8
0
 10
6.0770788483892311
 20
17.068560576101191
 30
0.0
 11
6.3467568554066602
 21
16.9424922421315
 31
0.0
  0
LINE
  5
160
  8
0
 10
6.281302869050009
 20
16.973084217152898
 30
0.0
 11
6.3467568554066602
 21
16.9424922421315
 31
0.0
  0
LINE
  5
161
  8
0
 10
6.7161700000000089
 20
16.7698
 30
0.0
 11
8.8291900000000094
 21
15.782
 31
0.0
  0
LINE
  5
162
  8
0
 10
6.4599700000000091
 20
16.210799999999999
 30
0.0
 11
8.5551600000000096
 21
15.2971
 31
0.0
  0
LINE
  5
163
  8
0
 10
6.5449300000000088
 20
14.988899999999999
 30
0.0
 11
8.4826700000000095
 21
14.137700000000001
 31
0.0
  0
LINE
  5
164
  8
0
 10
5.8744900000000086
 20
14.9521
 30
0.0
 11
7.9696300000000093
 21
14.0383
 31
0.0
  0
LINE
  5
165
  8
0
 10
5.9594000000000094
 20
13.7302
 30
0.0
 11
7.8972500000000094
 21
12.879
 31
0.0
  0
LINE
  5
166
  8
0
 10
5.3739000000000088
 20
12.471500000000001
 30
0.0
 11
7.3116800000000088
 21
11.6203
 31
0.0
  0
LINE
  5
167
  8
0
 10
4.703450000000009
 20
12.4346
 30
0.0
 11
6.7986700000000093
 21
11.520799999999991
 31
0.0
  0
LINE
  5
168
  8
0
 10
9.9115500000000072
 20
11.3901
 30
0.0
 11
12.3301
 21
10.369
 31
0.0
  0
LINE
  5
169
  8
0
 10
7.6462800000000088
 20
12.339499999999999
 30
0.0
 11
9.9115500000000072
 21
11.3901
 31
0.0
  0
LINE
  5
16A
  8
0
 10
6.8794900000000094
 20
15.708299999999991
 30
0.0
 11
8.8173000000000101
 21
14.857100000000001
 31
0.0
  0
LINE
  5
16B
  8
0
 10
7.1304600000000091
 20
16.247800000000002
 30
0.0
 11
9.0681800000000088
 21
15.396599999999999
 31
0.0
  0
LINE
  5
16C
  8
0
 10
8.2317800000000094
 20
13.5984
 30
0.0
 11
10.497
 21
12.6488
 31
0.0
  0
LINE
  5
16D
  8
0
 10
8.4136828896476104
 20
15.9762423278559
 30
0.0
 11
8.7044705938654001
 21
15.8403041473246
 31
0.0
  0
LINE
  5
16E
  8
0
 10
8.4136828896476104
 20
15.9762423278559
 30
0.0
 11
8.4917024057414405
 21
15.9397635043563
 31
0.0
  0
LINE
  5
16F
  8
0
 10
8.4136828896476104
 20
15.9762423278559
 30
0.0
 11
9.1728200000000104
 21
15.621299999999991
 31
0.0
  0
LINE
  5
170
  8
0
 10
8.4136828896476104
 20
15.9762423278559
 30
0.0
 11
8.7044705938654001
 21
15.8403041473246
 31
0.0
  0
LINE
  5
171
  8
0
 10
8.8173000000000101
 20
14.857100000000001
 30
0.0
 11
11.082499999999991
 21
13.9076
 31
0.0
  0
LINE
  5
172
  8
0
 10
8.8291900000000094
 20
15.782
 30
0.0
 11
11.22139999999999
 21
14.6637
 31
0.0
  0
LINE
  5
173
  8
0
 10
8.4917024057414405
 20
15.9397635043563
 30
0.0
 11
8.7044705938654001
 21
15.8403041473246
 31
0.0
  0
LINE
  5
174
  8
0
 10
9.1728200000000104
 20
15.621299999999991
 30
0.0
 11
10.965172057639499
 21
14.7834803319699
 31
0.0
  0
LINE
  5
175
  8
0
 10
9.0681800000000088
 20
15.396599999999999
 30
0.0
 11
11.333399999999999
 21
14.4472
 31
0.0
  0
LINE
  5
176
  8
0
 10
8.5551600000000096
 20
15.2971
 30
0.0
 11
10.978
 21
14.2849
 31
0.0
  0
LINE
  5
177
  8
0
 10
8.4826700000000095
 20
14.137700000000001
 30
0.0
 11
10.747899999999991
 21
13.1884
 31
0.0
  0
LINE
  5
178
  8
0
 10
7.9696300000000093
 20
14.0383
 30
0.0
 11
10.3926
 21
13.0261
 31
0.0
  0
LINE
  5
179
  8
0
 10
7.8972500000000094
 20
12.879
 30
0.0
 11
10.1624
 21
11.929600000000001
 31
0.0
  0
LINE
  5
17A
  8
0
 10
7.3842100000000093
 20
12.7796
 30
0.0
 11
9.8070300000000081
 21
11.767300000000001
 31
0.0
  0
LINE
  5
17B
  8
0
 10
15.919700000000001
 20
11.8653
 30
0.0
 11
18.184999999999999
 21
10.915800000000001
 31
0.0
  0
LINE
  5
17C
  8
0
 10
13.0411
 20
11.897399999999999
 30
0.0
 11
15.6897
 21
10.768700000000001
 31
0.0
  0
LINE
  5
17D
  8
0
 10
12.915699999999999
 20
11.627700000000001
 30
0.0
 11
15.334199999999999
 21
10.6065
 31
0.0
  0
LINE
  5
17E
  8
0
 10
16.275200000000002
 20
12.027499999999989
 30
0.0
 11
18.6981
 21
11.0152
 31
0.0
  0
LINE
  5
17F
  8
0
 10
13.50109999999999
 20
12.8864
 30
0.0
 11
15.919700000000001
 21
11.8653
 31
0.0
  0
LINE
  5
180
  8
0
 10
16.150700000000001
 20
12.359400000000001
 30
0.0
 11
16.4766294053995
 21
12.2070229437818
 31
0.0
  0
LINE
  5
181
  8
0
 10
15.752344577964999
 20
12.5456373537628
 30
0.0
 11
16.150700000000001
 21
12.359400000000001
 31
0.0
  0
LINE
  5
182
  8
0
 10
16.3247
 20
12.2781
 30
0.0
 11
18.716699999999989
 21
11.159800000000001
 31
0.0
  0
LINE
  5
183
  8
0
 10
16.4766294053995
 20
12.2070229437818
 30
0.0
 11
17.374753505730499
 21
11.787182426647901
 31
0.0
  0
LINE
  5
184
  8
0
 10
16.188099999999991
 20
12.341900000000001
 30
0.0
 11
17.374753505730499
 21
11.787182426647799
 31
0.0
  0
LINE
  5
185
  8
0
 10
14.961399999999999
 20
12.9153
 30
0.0
 11
16.188099999999991
 21
12.341900000000001
 31
0.0
  0
LINE
  5
187
  8
0
 10
13.626599999999989
 20
13.1562
 30
0.0
 11
16.275200000000002
 21
12.027499999999989
 31
0.0
  0
LINE
  5
189
  8
0
 10
13.166600000000001
 20
12.167199999999999
 30
0.0
 11
15.5852
 21
11.14589999999999
 31
0.0
  0
LINE
  5
18A
  8
0
 10
10.497
 20
12.6488
 30
0.0
 11
12.915699999999999
 21
11.627700000000001
 31
0.0
  0
LINE
  5
18B
  8
0
 10
13.773099999999999
 20
13.470800000000001
 30
0.0
 11
16.3247
 21
12.2781
 31
0.0
  0
LINE
  5
18C
  8
0
 10
11.082499999999991
 20
13.9076
 30
0.0
 11
13.50109999999999
 21
12.8864
 31
0.0
  0
LINE
  5
18D
  8
0
 10
29.658000000000001
 20
22.3248
 30
0.0
 11
32.358899999999991
 21
26.401199999999999
 31
0.0
  0
LINE
  5
18E
  8
0
 10
11.22139999999999
 20
14.6637
 30
0.0
 11
13.773099999999999
 21
13.470800000000001
 31
0.0
  0
LINE
  5
18F
  8
0
 10
11.333399999999999
 20
14.4472
 30
0.0
 11
13.7521
 21
13.4259
 31
0.0
  0
LINE
  5
190
  8
0
 10
10.978
 20
14.2849
 30
0.0
 11
13.626599999999989
 21
13.1562
 31
0.0
  0
LINE
  5
191
  8
0
 10
10.747899999999991
 20
13.1884
 30
0.0
 11
13.166600000000001
 21
12.167199999999999
 31
0.0
  0
LINE
  5
192
  8
0
 10
10.3926
 20
13.0261
 30
0.0
 11
13.0411
 21
11.897399999999999
 31
0.0
  0
LINE
  5
193
  8
0
 10
10.1624
 20
11.929600000000001
 30
0.0
 11
12.581099999999999
 21
10.9084
 31
0.0
  0
LINE
  5
194
  8
0
 10
9.8070300000000081
 20
11.767300000000001
 30
0.0
 11
12.455500000000001
 21
10.6387
 31
0.0
  0
LINE
  5
195
  8
0
 10
7.3116800000000088
 20
11.6203
 30
0.0
 11
9.5769000000000091
 21
10.6708
 31
0.0
  0
LINE
  5
196
  8
0
 10
6.7986700000000093
 20
11.520799999999991
 30
0.0
 11
9.2215100000000092
 21
10.508599999999991
 31
0.0
  0
LINE
  5
197
  8
0
 10
4.7883900000000086
 20
11.2126
 30
0.0
 11
6.726160000000009
 21
10.361499999999991
 31
0.0
  0
LINE
  5
198
  8
0
 10
4.1179600000000089
 20
11.1759
 30
0.0
 11
6.2131500000000086
 21
10.262
 31
0.0
  0
LINE
  5
199
  8
0
 10
2.7253200000000088
 20
10.5899
 30
0.0
 11
4.2028900000000089
 21
9.9539100000000094
 31
0.0
  0
LINE
  5
19A
  8
0
 10
1.9781200000000101
 20
10.588900000000001
 30
0.0
 11
3.532420000000009
 21
9.9170300000000093
 31
0.0
  0
LINE
  5
19B
  8
0
 10
4.2028900000000089
 20
9.9539100000000094
 30
0.0
 11
6.140670000000009
 21
9.1028199999999995
 31
0.0
  0
LINE
  5
19C
  8
0
 10
1.226670000000009
 20
10.579000000000001
 30
0.0
 11
1.5417800000000099
 21
10.4535
 31
0.0
  0
LINE
  5
19D
  8
0
 10
0.0000000000000121
 20
9.9482499999999998
 30
0.0
 11
0.892086000000012
 21
9.8596700000000101
 31
0.0
  0
LINE
  5
19E
  8
0
 10
0.0000000000000121
 20
9.9482499999999998
 30
0.0
 11
0.6412010000000122
 21
9.3202000000000087
 31
0.0
  0
LINE
  5
19F
  8
0
 10
0.0000000000000121
 20
9.9482499999999998
 30
0.0
 11
0.6412010000000122
 21
9.3202000000000087
 31
0.0
  0
LINE
  5
1A0
  8
0
 10
0.0000000000000121
 20
9.9482499999999998
 30
0.0
 11
0.892086000000012
 21
9.8596700000000101
 31
0.0
  0
LINE
  5
1A1
  8
0
 10
0.0000000000000121
 20
9.9482499999999998
 30
0.0
 11
0.387548000000012
 21
9.7780699999999996
 31
0.0
  0
LINE
  5
1A2
  8
0
 10
32.358899999999991
 20
26.401199999999999
 30
0.0
 11
35.536200000000001
 21
30.0532
 31
0.0
  0
LINE
  5
1A3
  8
0
 10
35.536200000000001
 20
30.0532
 30
0.0
 11
39.173799999999993
 21
33.250999999999991
 31
0.0
  0
LINE
  5
1A4
  8
0
 10
10.531700000000001
 20
33.213500000000003
 30
0.0
 11
14.832800000000001
 21
39.724099999999993
 31
0.0
  0
LINE
  5
1A5
  8
0
 10
14.832800000000001
 20
39.724099999999993
 30
0.0
 11
19.9846
 21
45.641800000000003
 31
0.0
  0
LINE
  5
1A8
  8
0
 10
39.173799999999993
 20
33.250999999999991
 30
0.0
 11
43.196899999999999
 21
35.945399999999999
 31
0.0
  0
LINE
  5
1A9
  8
0
 10
56.863300000000002
 20
40.595500000000001
 30
0.0
 11
61.691299999999998
 21
40.912700000000001
 31
0.0
  0
LINE
  5
1AA
  8
0
 10
52.117800000000003
 20
39.6494
 30
0.0
 11
56.863300000000002
 21
40.595500000000001
 31
0.0
  0
LINE
  5
1AB
  8
0
 10
47.536200000000001
 20
38.090400000000002
 30
0.0
 11
52.117800000000003
 21
39.6494
 31
0.0
  0
LINE
  5
1AC
  8
0
 10
43.196899999999999
 20
35.945399999999999
 30
0.0
 11
47.536200000000001
 21
38.090400000000002
 31
0.0
  0
LINE
  5
1AF
  8
0
 10
241.00200000000001
 20
32.4953
 30
0.0
 11
241.00200000000001
 21
28.086099999999991
 31
0.0
  0
LINE
  5
1B0
  8
0
 10
241.00200000000001
 20
28.086099999999991
 30
0.0
 11
241.00200000000001
 21
32.4953
 31
0.0
  0
LINE
  5
1B1
  8
0
 10
241.00200000000001
 20
28.086099999999991
 30
0.0
 11
241.00200000000001
 21
25.380500000000001
 31
0.0
  0
LINE
  5
1B2
  8
0
 10
241.00200000000001
 20
25.380500000000001
 30
0.0
 11
241.00200000000001
 21
28.086099999999991
 31
0.0
  0
LINE
  5
1B3
  8
0
 10
241.00200000000001
 20
25.380500000000001
 30
0.0
 11
241.00200000000001
 21
24.378399999999999
 31
0.0
  0
LINE
  5
1B4
  8
0
 10
241.00200000000001
 20
24.378399999999999
 30
0.0
 11
241.50200000000001
 21
22.875399999999988
 31
0.0
  0
LINE
  5
1B5
  8
0
 10
241.00200000000001
 20
24.378399999999999
 30
0.0
 11
241.00200000000001
 21
25.380500000000001
 31
0.0
  0
LINE
  5
1B6
  8
0
 10
61.691299999999998
 20
40.912700000000001
 30
0.0
 11
241.00200000000001
 21
40.912700000000001
 31
0.0
  0
LINE
  5
1B7
  8
0
 10
25.7852
 20
50.740900000000003
 30
0.0
 11
32.200099999999999
 21
55.037500000000001
 31
0.0
  0
LINE
  5
1B8
  8
0
 10
61.691299999999998
 20
62.958500000000001
 30
0.0
 11
241.00200000000001
 21
62.958500000000001
 31
0.0
  0
LINE
  5
1B9
  8
0
 10
53.992600000000003
 20
62.452599999999997
 30
0.0
 11
61.691299999999998
 21
62.958500000000001
 31
0.0
  0
LINE
  5
1BA
  8
0
 10
46.425600000000003
 20
60.943899999999999
 30
0.0
 11
53.992600000000003
 21
62.452599999999997
 31
0.0
  0
LINE
  5
1BB
  8
0
 10
39.119700000000002
 20
58.457999999999998
 30
0.0
 11
46.425600000000003
 21
60.943899999999999
 31
0.0
  0
LINE
  5
1BC
  8
0
 10
32.200099999999999
 20
55.037500000000001
 30
0.0
 11
39.119700000000002
 21
58.457999999999998
 31
0.0
  0
LINE
  5
1BD
  8
0
 10
19.9846
 20
45.641800000000003
 30
0.0
 11
25.7852
 21
50.740900000000003
 31
0.0
  0
LINE
  5
1BE
  8
0
 10
61.691299999999998
 20
62.958500000000001
 30
0.0
 11
241.00200000000001
 21
62.958500000000001
 31
0.0
  0
LINE
  5
1BF
  8
0
 10
241.00200000000001
 20
49.113700000000001
 30
0.0
 11
241.00200000000001
 21
51.935499999999998
 31
0.0
  0
LINE
  5
1C0
  8
0
 10
241.00200000000001
 20
51.935499999999998
 30
0.0
 11
241.00200000000001
 21
54.7575
 31
0.0
  0
LINE
  5
1C1
  8
0
 10
241.00200000000001
 20
44.131399999999999
 30
0.0
 11
241.00200000000001
 21
46.468200000000003
 31
0.0
  0
LINE
  5
1C2
  8
0
 10
241.00200000000001
 20
42.367699999999992
 30
0.0
 11
241.00200000000001
 21
44.131399999999999
 31
0.0
  0
LINE
  5
1C3
  8
0
 10
241.00200000000001
 20
57.402900000000002
 30
0.0
 11
241.00200000000001
 21
59.739800000000002
 31
0.0
  0
LINE
  5
1C4
  8
0
 10
241.00200000000001
 20
59.739800000000002
 30
0.0
 11
241.00200000000001
 21
61.503399999999992
 31
0.0
  0
LINE
  5
1C5
  8
0
 10
241.00200000000001
 20
61.503399999999992
 30
0.0
 11
241.00200000000001
 21
62.561599999999999
 31
0.0
  0
LINE
  5
1C6
  8
0
 10
241.00200000000001
 20
62.561599999999999
 30
0.0
 11
241.00200000000001
 21
62.958500000000001
 31
0.0
  0
LINE
  5
1C7
  8
0
 10
241.00200000000001
 20
54.7575
 30
0.0
 11
241.00200000000001
 21
57.402900000000002
 31
0.0
  0
LINE
  5
1C8
  8
0
 10
241.00200000000001
 20
46.468200000000003
 30
0.0
 11
241.00200000000001
 21
49.113700000000001
 31
0.0
  0
LINE
  5
1C9
  8
0
 10
241.00200000000001
 20
41.3095
 30
0.0
 11
241.00200000000001
 21
42.367699999999992
 31
0.0
  0
LINE
  5
1CA
  8
0
 10
61.691299999999998
 20
40.912700000000001
 30
0.0
 11
241.00200000000001
 21
40.912700000000001
 31
0.0
  0
LINE
  5
1CB
  8
0
 10
241.00200000000001
 20
65.664000000000001
 30
0.0
 11
241.00200000000001
 21
62.958500000000001
 31
0.0
  0
LINE
  5
1CC
  8
0
 10
241.00200000000001
 20
62.958500000000001
 30
0.0
 11
241.00200000000001
 21
75.784999999999997
 31
0.0
  0
LINE
  5
1CD
  8
0
 10
241.00200000000001
 20
40.912700000000001
 30
0.0
 11
241.00200000000001
 21
32.4953
 31
0.0
  0
LINE
  5
1CE
  8
0
 10
241.00200000000001
 20
40.912700000000001
 30
0.0
 11
241.00200000000001
 21
41.3095
 31
0.0
  0
LINE
  5
1CF
  8
0
 10
249.0
 20
20.871200000000002
 30
0.0
 11
249.0
 21
21.973500000000001
 31
0.0
  0
LINE
  5
1D0
  8
0
 10
241.00200000000001
 20
75.784999999999997
 30
0.0
 11
241.00200000000001
 21
78.490700000000004
 31
0.0
  0
LINE
  5
1D1
  8
0
 10
241.00200000000001
 20
79.492800000000003
 30
0.0
 11
241.50200000000001
 21
80.995800000000017
 31
0.0
  0
LINE
  5
1D2
  8
0
 10
241.00200000000001
 20
79.492800000000003
 30
0.0
 11
241.00200000000001
 21
78.490700000000004
 31
0.0
  0
LINE
  5
1D3
  8
0
 10
241.00200000000001
 20
78.490700000000004
 30
0.0
 11
241.00200000000001
 21
79.492800000000003
 31
0.0
  0
LINE
  5
1D4
  8
0
 10
241.00200000000001
 20
78.490700000000004
 30
0.0
 11
241.00200000000001
 21
75.784999999999997
 31
0.0
  0
LINE
  5
1D5
  8
0
 10
241.50200000000001
 20
80.995800000000017
 30
0.0
 11
242.00200000000001
 21
81.496899999999997
 31
0.0
  0
LINE
  5
1D6
  8
0
 10
242.00200000000001
 20
81.496899999999997
 30
0.0
 11
243.50200000000001
 21
81.997900000000001
 31
0.0
  0
LINE
  5
1D7
  8
0
 10
241.50200000000001
 20
22.875399999999988
 30
0.0
 11
242.00200000000001
 21
22.374300000000002
 31
0.0
  0
LINE
  5
1D8
  8
0
 10
249.0
 20
21.973500000000001
 30
0.0
 11
249.0
 21
20.871200000000002
 31
0.0
  0
LINE
  5
1D9
  8
0
 10
249.0
 20
21.973500000000001
 30
0.0
 11
249.0
 21
25.079899999999991
 31
0.0
  0
LINE
  5
1DA
  8
0
 10
249.0
 20
29.989999999999998
 30
0.0
 11
249.0
 21
25.079899999999991
 31
0.0
  0
LINE
  5
1DB
  8
0
 10
249.0
 20
29.989999999999998
 30
0.0
 11
249.0
 21
36.503599999999999
 31
0.0
  0
LINE
  5
1DC
  8
0
 10
249.0
 20
67.367500000000007
 30
0.0
 11
249.0
 21
59.952199999999991
 31
0.0
  0
LINE
  5
1DD
  8
0
 10
249.0
 20
67.367500000000007
 30
0.0
 11
249.0
 21
73.881100000000004
 31
0.0
  0
LINE
  5
1DE
  8
0
 10
249.0
 20
59.952199999999991
 30
0.0
 11
249.0
 21
51.935499999999998
 31
0.0
  0
LINE
  5
1DF
  8
0
 10
249.0
 20
59.952199999999991
 30
0.0
 11
249.0
 21
67.367500000000007
 31
0.0
  0
LINE
  5
1E0
  8
0
 10
249.0
 20
73.881100000000004
 30
0.0
 11
249.0
 21
67.367500000000007
 31
0.0
  0
LINE
  5
1E1
  8
0
 10
249.0
 20
73.881100000000004
 30
0.0
 11
249.0
 21
78.791300000000007
 31
0.0
  0
LINE
  5
1E2
  8
0
 10
249.0
 20
51.935499999999998
 30
0.0
 11
249.0
 21
43.91899999999999
 31
0.0
  0
LINE
  5
1E3
  8
0
 10
249.0
 20
51.935499999999998
 30
0.0
 11
249.0
 21
59.952199999999991
 31
0.0
  0
LINE
  5
1E4
  8
0
 10
249.0
 20
81.897700000000015
 30
0.0
 11
249.0
 21
78.791300000000007
 31
0.0
  0
LINE
  5
1E5
  8
0
 10
249.0
 20
81.897700000000015
 30
0.0
 11
249.0
 21
83.0
 31
0.0
  0
LINE
  5
1E6
  8
0
 10
249.0
 20
78.791300000000007
 30
0.0
 11
249.0
 21
73.881100000000004
 31
0.0
  0
LINE
  5
1E7
  8
0
 10
249.0
 20
78.791300000000007
 30
0.0
 11
249.0
 21
81.897700000000015
 31
0.0
  0
LINE
  5
1E8
  8
0
 10
249.0
 20
43.91899999999999
 30
0.0
 11
249.0
 21
36.503599999999999
 31
0.0
  0
LINE
  5
1E9
  8
0
 10
249.0
 20
43.91899999999999
 30
0.0
 11
249.0
 21
51.935499999999998
 31
0.0
  0
LINE
  5
1EA
  8
0
 10
249.0
 20
36.503599999999999
 30
0.0
 11
249.0
 21
29.989999999999998
 31
0.0
  0
LINE
  5
1EB
  8
0
 10
249.0
 20
36.503599999999999
 30
0.0
 11
249.0
 21
43.91899999999999
 31
0.0
  0
LINE
  5
1EC
  8
0
 10
249.0
 20
25.079899999999991
 30
0.0
 11
249.0
 21
21.973500000000001
 31
0.0
  0
LINE
  5
1ED
  8
0
 10
249.0
 20
25.079899999999991
 30
0.0
 11
249.0
 21
29.989999999999998
 31
0.0
  0
LINE
  5
1EE
  8
0
 10
249.0
 20
83.0
 30
0.0
 11
249.0
 21
81.897700000000015
 31
0.0
  0
LINE
  5
1EF
  8
0
 10
243.50200000000001
 20
81.997900000000001
 30
0.0
 11
249.0
 21
83.0
 31
0.0
  0
LINE
  5
1F0
  8
0
 10
242.00200000000001
 20
22.374300000000002
 30
0.0
 11
243.50200000000001
 21
21.8733
 31
0.0
  0
LINE
  5
1F1
  8
0
 10
243.50200000000001
 20
21.8733
 30
0.0
 11
249.0
 21
20.871200000000002
 31
0.0
  0
LINE
  5
1F2
  8
0
 10
241.00200000000001
 20
32.4953
 30
0.0
 11
241.00200000000001
 21
40.912700000000001
 31
0.0
  0
ENDSEC
  0
EOF
