  0
SECTION
  2
HEADER
  9
$ACADVER
  1
AC1015
  9
$ACADMAINTVER
 70
    13
  9
$DWGCODEPAGE
  3
ANSI_1252
  9
$INSBASE
 10
0.0
 20
0.0
 30
0.0
  9
$EXTMIN
 10
0.0000000000000023
 20
-0.149810000000013
 30
0.0
  9
$EXTMAX
 10
137.0
 20
174.14981
 30
0.0
  9
$LIMMIN
 10
0.0
 20
0.0
  9
$LIMMAX
 10
12.0
 20
9.0
  9
$ORTHOMODE
 70
     0
  9
$REGENMODE
 70
     1
  9
$FILLMODE
 70
     1
  9
$QTEXTMODE
 70
     0
  9
$MIRRTEXT
 70
     1
  9
$LTSCALE
 40
1.0
  9
$ATTMODE
 70
     1
  9
$TEXTSIZE
 40
0.2
  9
$TRACEWID
 40
0.05
  9
$TEXTSTYLE
  7
Standard
  9
$CLAYER
  8
0
  9
$CELTYPE
  6
Continuous
  9
$CECOLOR
 62
   256
  9
$CELTSCALE
 40
1.0
  9
$DISPSILH
 70
     0
  9
$DIMSCALE
 40
1.0
  9
$DIMASZ
 40
0.18
  9
$DIMEXO
 40
0.0625
  9
$DIMDLI
 40
0.38
  9
$DIMRND
 40
0.0
  9
$DIMDLE
 40
0.0
  9
$DIMEXE
 40
0.18
  9
$DIMTP
 40
0.0
  9
$DIMTM
 40
0.0
  9
$DIMTXT
 40
0.18
  9
$DIMCEN
 40
0.09
  9
$DIMTSZ
 40
0.0
  9
$DIMTOL
 70
     0
  9
$DIMLIM
 70
     0
  9
$DIMTIH
 70
     1
  9
$DIMTOH
 70
     1
  9
$DIMSE1
 70
     0
  9
$DIMSE2
 70
     0
  9
$DIMTAD
 70
     0
  9
$DIMZIN
 70
     0
  9
$DIMBLK
  1

  9
$DIMASO
 70
     1
  9
$DIMSHO
 70
     1
  9
$DIMPOST
  1

  9
$DIMAPOST
  1

  9
$DIMALT
 70
     0
  9
$DIMALTD
 70
     2
  9
$DIMALTF
 40
25.4
  9
$DIMLFAC
 40
1.0
  9
$DIMTOFL
 70
     0
  9
$DIMTVP
 40
0.0
  9
$DIMTIX
 70
     0
  9
$DIMSOXD
 70
     0
  9
$DIMSAH
 70
     0
  9
$DIMBLK1
  1

  9
$DIMBLK2
  1

  9
$DIMSTYLE
  2
Standard
  9
$DIMCLRD
 70
     0
  9
$DIMCLRE
 70
     0
  9
$DIMCLRT
 70
     0
  9
$DIMTFAC
 40
1.0
  9
$DIMGAP
 40
0.09
  9
$DIMJUST
 70
     0
  9
$DIMSD1
 70
     0
  9
$DIMSD2
 70
     0
  9
$DIMTOLJ
 70
     1
  9
$DIMTZIN
 70
     0
  9
$DIMALTZ
 70
     0
  9
$DIMALTTZ
 70
     0
  9
$DIMUPT
 70
     0
  9
$DIMDEC
 70
     4
  9
$DIMTDEC
 70
     4
  9
$DIMALTU
 70
     2
  9
$DIMALTTD
 70
     2
  9
$DIMTXSTY
  7
Standard
  9
$DIMAUNIT
 70
     0
  9
$DIMADEC
 70
     0
  9
$DIMALTRND
 40
0.0
  9
$DIMAZIN
 70
     0
  9
$DIMDSEP
 70
    46
  9
$DIMATFIT
 70
     3
  9
$DIMFRAC
 70
     0
  9
$DIMLDRBLK
  1

  9
$DIMLUNIT
 70
     2
  9
$DIMLWD
 70
    -2
  9
$DIMLWE
 70
    -2
  9
$DIMTMOVE
 70
     0
  9
$LUNITS
 70
     2
  9
$LUPREC
 70
     4
  9
$SKETCHINC
 40
0.1
  9
$FILLETRAD
 40
0.0
  9
$AUNITS
 70
     0
  9
$AUPREC
 70
     0
  9
$MENU
  1
.
  9
$ELEVATION
 40
0.0
  9
$PELEVATION
 40
0.0
  9
$THICKNESS
 40
0.0
  9
$LIMCHECK
 70
     0
  9
$CHAMFERA
 40
0.0
  9
$CHAMFERB
 40
0.0
  9
$CHAMFERC
 40
0.0
  9
$CHAMFERD
 40
0.0
  9
$SKPOLY
 70
     0
  9
$TDCREATE
 40
2454737.958888344
  9
$TDUCREATE
 40
2454737.875555011
  9
$TDUPDATE
 40
2454737.959199572
  9
$TDUUPDATE
 40
2454737.875866238
  9
$TDINDWG
 40
0.0003112269
  9
$TDUSRTIMER
 40
0.0003112269
  9
$USRTIMER
 70
     1
  9
$ANGBASE
 50
0.0
  9
$ANGDIR
 70
     0
  9
$PDMODE
 70
     0
  9
$PDSIZE
 40
0.0
  9
$PLINEWID
 40
0.0
  9
$SPLFRAME
 70
     0
  9
$SPLINETYPE
 70
     6
  9
$SPLINESEGS
 70
     8
  9
$HANDSEED
  5
420
  9
$SURFTAB1
 70
     6
  9
$SURFTAB2
 70
     6
  9
$SURFTYPE
 70
     6
  9
$SURFU
 70
     6
  9
$SURFV
 70
     6
  9
$UCSBASE
  2

  9
$UCSNAME
  2

  9
$UCSORG
 10
0.0
 20
0.0
 30
0.0
  9
$UCSXDIR
 10
1.0
 20
0.0
 30
0.0
  9
$UCSYDIR
 10
0.0
 20
1.0
 30
0.0
  9
$UCSORTHOREF
  2

  9
$UCSORTHOVIEW
 70
     1
  9
$UCSORGTOP
 10
0.0
 20
0.0
 30
0.0
  9
$UCSORGBOTTOM
 10
0.0
 20
0.0
 30
0.0
  9
$UCSORGLEFT
 10
0.0
 20
0.0
 30
0.0
  9
$UCSORGRIGHT
 10
0.0
 20
0.0
 30
0.0
  9
$UCSORGFRONT
 10
0.0
 20
0.0
 30
0.0
  9
$UCSORGBACK
 10
0.0
 20
0.0
 30
0.0
  9
$PUCSBASE
  2

  9
$PUCSNAME
  2

  9
$PUCSORG
 10
0.0
 20
0.0
 30
0.0
  9
$PUCSXDIR
 10
1.0
 20
0.0
 30
0.0
  9
$PUCSYDIR
 10
0.0
 20
1.0
 30
0.0
  9
$PUCSORTHOREF
  2

  9
$PUCSORTHOVIEW
 70
     0
  9
$PUCSORGTOP
 10
0.0
 20
0.0
 30
0.0
  9
$PUCSORGBOTTOM
 10
0.0
 20
0.0
 30
0.0
  9
$PUCSORGLEFT
 10
0.0
 20
0.0
 30
0.0
  9
$PUCSORGRIGHT
 10
0.0
 20
0.0
 30
0.0
  9
$PUCSORGFRONT
 10
0.0
 20
0.0
 30
0.0
  9
$PUCSORGBACK
 10
0.0
 20
0.0
 30
0.0
  9
$USERI1
 70
     0
  9
$USERI2
 70
     0
  9
$USERI3
 70
     0
  9
$USERI4
 70
     0
  9
$USERI5
 70
     0
  9
$USERR1
 40
0.0
  9
$USERR2
 40
0.0
  9
$USERR3
 40
0.0
  9
$USERR4
 40
0.0
  9
$USERR5
 40
0.0
  9
$WORLDVIEW
 70
     1
  9
$SHADEDGE
 70
     3
  9
$SHADEDIF
 70
    70
  9
$TILEMODE
 70
     1
  9
$MAXACTVP
 70
    64
  9
$PINSBASE
 10
0.0
 20
0.0
 30
0.0
  9
$PLIMCHECK
 70
     0
  9
$PEXTMIN
 10
1.000000000000000E+20
 20
1.000000000000000E+20
 30
1.000000000000000E+20
  9
$PEXTMAX
 10
-1.000000000000000E+20
 20
-1.000000000000000E+20
 30
-1.000000000000000E+20
  9
$PLIMMIN
 10
0.0
 20
0.0
  9
$PLIMMAX
 10
12.0
 20
9.0
  9
$UNITMODE
 70
     0
  9
$VISRETAIN
 70
     1
  9
$PLINEGEN
 70
     0
  9
$PSLTSCALE
 70
     1
  9
$TREEDEPTH
 70
  3020
  9
$CMLSTYLE
  2
Standard
  9
$CMLJUST
 70
     0
  9
$CMLSCALE
 40
1.0
  9
$PROXYGRAPHICS
 70
     1
  9
$MEASUREMENT
 70
     0
  9
$CELWEIGHT
370
    -1
  9
$ENDCAPS
280
     0
  9
$JOINSTYLE
280
     0
  9
$LWDISPLAY
290
     0
  9
$INSUNITS
 70
     0
  9
$HYPERLINKBASE
  1

  9
$STYLESHEET
  1

  9
$XEDIT
290
     1
  9
$CEPSNTYPE
380
     0
  9
$PSTYLEMODE
290
     1
  9
$FINGERPRINTGUID
  2
{345D03E0-C25F-4E6F-80AF-2AA773912DDF}
  9
$VERSIONGUID
  2
{3B617406-835E-424B-B427-395130CA97A7}
  9
$EXTNAMES
290
     1
  9
$PSVPSCALE
 40
0.0
  9
$OLESTARTUP
290
     0
  0
ENDSEC
  0
SECTION
  2
CLASSES
  0
CLASS
  1
ACDBDICTIONARYWDFLT
  2
AcDbDictionaryWithDefault
  3
AutoCAD 2000
 90
        0
280
     0
281
     0
  0
CLASS
  1
ACDBPLACEHOLDER
  2
AcDbPlaceHolder
  3
AutoCAD 2000
 90
        0
280
     0
281
     0
  0
CLASS
  1
LAYOUT
  2
AcDbLayout
  3
AutoCAD 2000
 90
        0
280
     0
281
     0
  0
CLASS
  1
DICTIONARYVAR
  2
AcDbDictionaryVar
  3
AutoCAD 2000
 90
        0
280
     0
281
     0
  0
ENDSEC
  0
SECTION
  2
TABLES
  0
TABLE
  2
VPORT
  5
8
330
0
100
AcDbSymbolTable
 70
     2
  0
VPORT
  5
41F
330
8
100
AcDbSymbolTableRecord
100
AcDbViewportTableRecord
  2
*Active
 70
     0
 10
0.0
 20
0.0
 11
1.0
 21
1.0
 12
68.5
 22
86.99999999999999
 13
0.0
 23
0.0
 14
1.0
 24
1.0
 15
0.0
 25
0.0
 16
0.0
 26
0.0
 36
1.0
 17
0.0
 27
0.0
 37
0.0
 40
175.6369572378516
 41
2.078104993597951
 42
50.0
 43
0.0
 44
0.0
 50
0.0
 51
0.0
 71
     0
 72
   100
 73
     1
 74
     3
 75
     0
 76
     0
 77
     0
 78
     0
281
     0
 65
     1
110
0.0
120
0.0
130
0.0
111
1.0
121
0.0
131
0.0
112
0.0
122
1.0
132
0.0
 79
     1
146
0.0
  0
ENDTAB
  0
TABLE
  2
LTYPE
  5
5
330
0
100
AcDbSymbolTable
 70
     1
  0
LTYPE
  5
13
330
5
100
AcDbSymbolTableRecord
100
AcDbLinetypeTableRecord
  2
ByBlock
 70
     0
  3

 72
    65
 73
     0
 40
0.0
  0
LTYPE
  5
14
330
5
100
AcDbSymbolTableRecord
100
AcDbLinetypeTableRecord
  2
ByLayer
 70
     0
  3

 72
    65
 73
     0
 40
0.0
  0
LTYPE
  5
15
330
5
100
AcDbSymbolTableRecord
100
AcDbLinetypeTableRecord
  2
Continuous
 70
     0
  3
Solid line
 72
    65
 73
     0
 40
0.0
  0
ENDTAB
  0
TABLE
  2
LAYER
  5
2
330
0
100
AcDbSymbolTable
 70
     1
  0
LAYER
  5
10
330
2
100
AcDbSymbolTableRecord
100
AcDbLayerTableRecord
  2
0
 70
     0
 62
     7
  6
Continuous
370
    -3
390
F
  0
ENDTAB
  0
TABLE
  2
STYLE
  5
3
330
0
100
AcDbSymbolTable
 70
     1
  0
STYLE
  5
11
330
3
100
AcDbSymbolTableRecord
100
AcDbTextStyleTableRecord
  2
Standard
 70
     0
 40
0.0
 41
1.0
 50
0.0
 71
     0
 42
0.2
  3
txt
  4

  0
ENDTAB
  0
TABLE
  2
VIEW
  5
6
330
0
100
AcDbSymbolTable
 70
     0
  0
ENDTAB
  0
TABLE
  2
UCS
  5
7
330
0
100
AcDbSymbolTable
 70
     0
  0
ENDTAB
  0
TABLE
  2
APPID
  5
9
330
0
100
AcDbSymbolTable
 70
     1
  0
APPID
  5
12
330
9
100
AcDbSymbolTableRecord
100
AcDbRegAppTableRecord
  2
ACAD
 70
     0
  0
ENDTAB
  0
TABLE
  2
DIMSTYLE
  5
A
330
0
100
AcDbSymbolTable
 70
     1
100
AcDbDimStyleTable
 71
     0
  0
DIMSTYLE
105
419
330
A
100
AcDbSymbolTableRecord
100
AcDbDimStyleTableRecord
  2
Standard
 70
     0
340
11
  0
ENDTAB
  0
TABLE
  2
BLOCK_RECORD
  5
1
330
0
100
AcDbSymbolTable
 70
     0
  0
BLOCK_RECORD
  5
1E
330
1
100
AcDbSymbolTableRecord
100
AcDbBlockTableRecord
  2
*Model_Space
340
21
  0
BLOCK_RECORD
  5
1A
330
1
100
AcDbSymbolTableRecord
100
AcDbBlockTableRecord
  2
*Paper_Space
340
1D
  0
ENDTAB
  0
ENDSEC
  0
SECTION
  2
BLOCKS
  0
BLOCK
  5
1F
330
1E
100
AcDbEntity
  8
0
100
AcDbBlockBegin
  2
*Model_Space
 70
     0
 10
0.0
 20
0.0
 30
0.0
  3
*Model_Space
  1

  0
ENDBLK
  5
20
330
1E
100
AcDbEntity
  8
0
100
AcDbBlockEnd
  0
BLOCK
  5
1B
330
1A
100
AcDbEntity
 67
     1
  8
0
100
AcDbBlockBegin
  2
*Paper_Space
 70
     0
 10
0.0
 20
0.0
 30
0.0
  3
*Paper_Space
  1

  0
ENDBLK
  5
1C
330
1A
100
AcDbEntity
 67
     1
  8
0
100
AcDbBlockEnd
  0
ENDSEC
  0
SECTION
  2
ENTITIES
  0
LINE
  5
22
330
1E
100
AcDbEntity
  8
0
100
AcDbLine
 10
0.0000000000000023
 20
121.34681
 30
0.0
 11
0.7000000000000051
 21
125.74681
 31
0.0
  0
LINE
  5
23
330
1E
100
AcDbEntity
  8
0
100
AcDbLine
 10
0.0000000000000023
 20
121.34681
 30
0.0
 11
0.7000000000000051
 21
116.94681
 31
0.0
  0
LINE
  5
24
330
1E
100
AcDbEntity
  8
0
100
AcDbLine
 10
0.0000000000000023
 20
121.34681
 30
0.0
 11
0.0000000000000023
 21
139.53381
 31
0.0
  0
LINE
  5
25
330
1E
100
AcDbEntity
  8
0
100
AcDbLine
 10
0.7000000000000051
 20
116.94681
 30
0.0
 11
2.5
 21
112.49681
 31
0.0
  0
LINE
  5
26
330
1E
100
AcDbEntity
  8
0
100
AcDbLine
 10
1.70000000000001
 20
116.13081
 30
0.0
 11
3.400000000000009
 21
111.9808099999999
 31
0.0
  0
LINE
  5
27
330
1E
100
AcDbEntity
  8
0
100
AcDbLine
 10
2.5
 20
112.49681
 30
0.0
 11
5.299999999999999
 21
108.24681
 31
0.0
  0
LINE
  5
28
330
1E
100
AcDbEntity
  8
0
100
AcDbLine
 10
0.7000000000000051
 20
116.94681
 30
0.0
 11
2.5
 21
112.49681
 31
0.0
  0
LINE
  5
29
330
1E
100
AcDbEntity
  8
0
100
AcDbLine
 10
1.70000000000001
 20
124.83081
 30
0.0
 11
3.400000000000009
 21
128.98081
 31
0.0
  0
LINE
  5
2A
330
1E
100
AcDbEntity
  8
0
100
AcDbLine
 10
0.7000000000000051
 20
125.74681
 30
0.0
 11
2.5
 21
130.19681
 31
0.0
  0
LINE
  5
2B
330
1E
100
AcDbEntity
  8
0
100
AcDbLine
 10
1.0
 20
120.48081
 30
0.0
 11
1.70000000000001
 21
124.83081
 31
0.0
  0
LINE
  5
2C
330
1E
100
AcDbEntity
  8
0
100
AcDbLine
 10
1.0
 20
120.48081
 30
0.0
 11
1.70000000000001
 21
116.13081
 31
0.0
  0
LINE
  5
2D
330
1E
100
AcDbEntity
  8
0
100
AcDbLine
 10
3.400000000000009
 20
111.9808099999999
 30
0.0
 11
6.299999999999999
 21
107.58081
 31
0.0
  0
LINE
  5
2E
330
1E
100
AcDbEntity
  8
0
100
AcDbLine
 10
4.599999999999999
 20
116.23081
 30
0.0
 11
6.299999999999999
 21
112.68081
 31
0.0
  0
LINE
  5
2F
330
1E
100
AcDbEntity
  8
0
100
AcDbLine
 10
19.00199999999999
 20
101.3989668211919
 30
0.0
 11
19.00199999999999
 21
101.2078099999999
 31
0.0
  0
LINE
  5
30
330
1E
100
AcDbEntity
  8
0
100
AcDbLine
 10
19.00199999999999
 20
101.2078099999999
 30
0.0
 11
19.00199999999999
 21
101.3989668211919
 31
0.0
  0
LINE
  5
31
330
1E
100
AcDbEntity
  8
0
100
AcDbLine
 10
19.00199999999999
 20
101.2078099999999
 30
0.0
 11
21.002
 21
101.2078099999999
 31
0.0
  0
LINE
  5
32
330
1E
100
AcDbEntity
  8
0
100
AcDbLine
 10
19.00199999999999
 20
101.2078099999999
 30
0.0
 11
19.00199999999999
 21
100.2078099999999
 31
0.0
  0
LINE
  5
33
330
1E
100
AcDbEntity
  8
0
100
AcDbLine
 10
19.00199999999999
 20
101.1071135789469
 30
0.0
 11
19.00199999999999
 21
100.2078099999999
 31
0.0
  0
LINE
  5
34
330
1E
100
AcDbEntity
  8
0
100
AcDbLine
 10
19.00199999999999
 20
100.2078099999999
 30
0.0
 11
19.00199999999999
 21
101.2078099999999
 31
0.0
  0
LINE
  5
35
330
1E
100
AcDbEntity
  8
0
100
AcDbLine
 10
19.00199999999999
 20
100.2078099999999
 30
0.0
 11
21.002
 21
100.2078099999999
 31
0.0
  0
LINE
  5
36
330
1E
100
AcDbEntity
  8
0
100
AcDbLine
 10
19.00199999999999
 20
100.2078099999999
 30
0.0
 11
19.00199999999999
 21
101.1071135789469
 31
0.0
  0
LINE
  5
37
330
1E
100
AcDbEntity
  8
0
100
AcDbLine
 10
17.4
 20
100.8808099999999
 30
0.0
 11
23.0
 21
97.73111
 31
0.0
  0
LINE
  5
38
330
1E
100
AcDbEntity
  8
0
100
AcDbLine
 10
15.0
 20
99.98080999999999
 30
0.0
 11
20.8
 21
96.63111
 31
0.0
  0
LINE
  5
39
330
1E
100
AcDbEntity
  8
0
100
AcDbLine
 10
14.19999999999999
 20
100.5468099999999
 30
0.0
 11
14.3587334437088
 21
100.4553472516559
 31
0.0
  0
LINE
  5
3A
330
1E
100
AcDbEntity
  8
0
100
AcDbLine
 10
14.19999999999999
 20
100.5468099999999
 30
0.0
 11
15.0
 21
99.98080999999999
 31
0.0
  0
LINE
  5
3B
330
1E
100
AcDbEntity
  8
0
100
AcDbLine
 10
6.0
 20
120.6945535897439
 30
0.0
 11
6.0
 21
120.11481
 31
0.0
  0
LINE
  5
3C
330
1E
100
AcDbEntity
  8
0
100
AcDbLine
 10
6.0
 20
120.11481
 30
0.0
 11
6.0
 21
120.6945535897439
 31
0.0
  0
LINE
  5
3D
330
1E
100
AcDbEntity
  8
0
100
AcDbLine
 10
6.0
 20
120.11481
 30
0.0
 11
8.0
 21
120.11481
 31
0.0
  0
LINE
  5
3E
330
1E
100
AcDbEntity
  8
0
100
AcDbLine
 10
6.0
 20
120.11481
 30
0.0
 11
6.0
 21
119.11481
 31
0.0
  0
LINE
  5
3F
330
1E
100
AcDbEntity
  8
0
100
AcDbLine
 10
6.0
 20
120.089425384615
 30
0.0
 11
6.0
 21
119.11481
 31
0.0
  0
LINE
  5
40
330
1E
100
AcDbEntity
  8
0
100
AcDbLine
 10
6.0
 20
119.11481
 30
0.0
 11
6.0
 21
120.11481
 31
0.0
  0
LINE
  5
41
330
1E
100
AcDbEntity
  8
0
100
AcDbLine
 10
6.0
 20
119.11481
 30
0.0
 11
8.0
 21
119.11481
 31
0.0
  0
LINE
  5
42
330
1E
100
AcDbEntity
  8
0
100
AcDbLine
 10
6.0
 20
119.11481
 30
0.0
 11
6.0
 21
120.089425384615
 31
0.0
  0
LINE
  5
43
330
1E
100
AcDbEntity
  8
0
100
AcDbLine
 10
6.299999999999999
 20
112.68081
 30
0.0
 11
9.0
 21
108.18081
 31
0.0
  0
LINE
  5
44
330
1E
100
AcDbEntity
  8
0
100
AcDbLine
 10
7.889199999999999
 20
113.38581
 30
0.0
 11
9.8892
 21
113.38581
 31
0.0
  0
LINE
  5
45
330
1E
100
AcDbEntity
  8
0
100
AcDbLine
 10
7.889199999999999
 20
113.38581
 30
0.0
 11
7.889199999999999
 21
112.38581
 31
0.0
  0
LINE
  5
46
330
1E
100
AcDbEntity
  8
0
100
AcDbLine
 10
7.889199999999999
 20
112.7749462185789
 30
0.0
 11
7.889199999999999
 21
112.38581
 31
0.0
  0
LINE
  5
47
330
1E
100
AcDbEntity
  8
0
100
AcDbLine
 10
7.889199999999999
 20
112.38581
 30
0.0
 11
7.889199999999999
 21
113.38581
 31
0.0
  0
LINE
  5
48
330
1E
100
AcDbEntity
  8
0
100
AcDbLine
 10
7.889199999999999
 20
112.38581
 30
0.0
 11
9.8892
 21
112.38581
 31
0.0
  0
LINE
  5
49
330
1E
100
AcDbEntity
  8
0
100
AcDbLine
 10
7.889199999999999
 20
112.38581
 30
0.0
 11
7.889199999999999
 21
112.7749462185789
 31
0.0
  0
LINE
  5
4A
330
1E
100
AcDbEntity
  8
0
100
AcDbLine
 10
8.0
 20
119.11481
 30
0.0
 11
8.0
 21
120.11481
 31
0.0
  0
LINE
  5
4B
330
1E
100
AcDbEntity
  8
0
100
AcDbLine
 10
8.0
 20
120.9082971794869
 30
0.0
 11
8.0
 21
120.11481
 31
0.0
  0
LINE
  5
4C
330
1E
100
AcDbEntity
  8
0
100
AcDbLine
 10
8.0
 20
120.11481
 30
0.0
 11
8.0
 21
120.9082971794869
 31
0.0
  0
LINE
  5
4D
330
1E
100
AcDbEntity
  8
0
100
AcDbLine
 10
8.0
 20
120.11481
 30
0.0
 11
8.0
 21
119.11481
 31
0.0
  0
LINE
  5
4E
330
1E
100
AcDbEntity
  8
0
100
AcDbLine
 10
14.44539999999999
 20
105.76881
 30
0.0
 11
14.44539999999999
 21
106.76881
 31
0.0
  0
LINE
  5
4F
330
1E
100
AcDbEntity
  8
0
100
AcDbLine
 10
9.8892
 20
112.38581
 30
0.0
 11
9.8892
 21
113.38581
 31
0.0
  0
LINE
  5
50
330
1E
100
AcDbEntity
  8
0
100
AcDbLine
 10
9.8892
 20
113.38581
 30
0.0
 11
9.8892
 21
112.38581
 31
0.0
  0
LINE
  5
51
330
1E
100
AcDbEntity
  8
0
100
AcDbLine
 10
12.44539999999999
 20
108.195208686567
 30
0.0
 11
12.44539999999999
 21
106.76881
 31
0.0
  0
LINE
  5
52
330
1E
100
AcDbEntity
  8
0
100
AcDbLine
 10
14.44539999999999
 20
106.76881
 30
0.0
 11
14.44539999999999
 21
105.76881
 31
0.0
  0
LINE
  5
53
330
1E
100
AcDbEntity
  8
0
100
AcDbLine
 10
12.44539999999999
 20
106.76881
 30
0.0
 11
12.44539999999999
 21
108.195208686567
 31
0.0
  0
LINE
  5
54
330
1E
100
AcDbEntity
  8
0
100
AcDbLine
 10
12.44539999999999
 20
106.76881
 30
0.0
 11
14.44539999999999
 21
106.76881
 31
0.0
  0
LINE
  5
55
330
1E
100
AcDbEntity
  8
0
100
AcDbLine
 10
12.44539999999999
 20
106.76881
 30
0.0
 11
12.44539999999999
 21
105.76881
 31
0.0
  0
LINE
  5
56
330
1E
100
AcDbEntity
  8
0
100
AcDbLine
 10
12.44539999999999
 20
105.76881
 30
0.0
 11
12.44539999999999
 21
106.76881
 31
0.0
  0
LINE
  5
57
330
1E
100
AcDbEntity
  8
0
100
AcDbLine
 10
12.44539999999999
 20
105.76881
 30
0.0
 11
14.44539999999999
 21
105.76881
 31
0.0
  0
LINE
  5
58
330
1E
100
AcDbEntity
  8
0
100
AcDbLine
 10
18.0
 20
119.68181
 30
0.0
 11
18.0
 21
119.842704736842
 31
0.0
  0
LINE
  5
59
330
1E
100
AcDbEntity
  8
0
100
AcDbLine
 10
18.0
 20
119.68181
 30
0.0
 11
20.0
 21
119.68181
 31
0.0
  0
LINE
  5
5A
330
1E
100
AcDbEntity
  8
0
100
AcDbLine
 10
18.0
 20
119.68181
 30
0.0
 11
18.0
 21
118.68181
 31
0.0
  0
LINE
  5
5B
330
1E
100
AcDbEntity
  8
0
100
AcDbLine
 10
18.0
 20
119.842704736842
 30
0.0
 11
18.0
 21
118.68181
 31
0.0
  0
LINE
  5
5C
330
1E
100
AcDbEntity
  8
0
100
AcDbLine
 10
18.0
 20
119.842704736842
 30
0.0
 11
18.0
 21
119.68181
 31
0.0
  0
LINE
  5
5D
330
1E
100
AcDbEntity
  8
0
100
AcDbLine
 10
20.0
 20
118.68181
 30
0.0
 11
20.0
 21
119.68181
 31
0.0
  0
LINE
  5
5E
330
1E
100
AcDbEntity
  8
0
100
AcDbLine
 10
20.0
 20
119.751546842105
 30
0.0
 11
20.0
 21
119.68181
 31
0.0
  0
LINE
  5
5F
330
1E
100
AcDbEntity
  8
0
100
AcDbLine
 10
20.0
 20
119.68181
 30
0.0
 11
20.0
 21
119.751546842105
 31
0.0
  0
LINE
  5
60
330
1E
100
AcDbEntity
  8
0
100
AcDbLine
 10
20.0
 20
119.68181
 30
0.0
 11
20.0
 21
118.68181
 31
0.0
  0
LINE
  5
61
330
1E
100
AcDbEntity
  8
0
100
AcDbLine
 10
18.0
 20
118.68181
 30
0.0
 11
18.0
 21
119.68181
 31
0.0
  0
LINE
  5
62
330
1E
100
AcDbEntity
  8
0
100
AcDbLine
 10
18.0
 20
118.68181
 30
0.0
 11
20.0
 21
118.68181
 31
0.0
  0
LINE
  5
63
330
1E
100
AcDbEntity
  8
0
100
AcDbLine
 10
18.0
 20
118.68181
 30
0.0
 11
18.0
 21
119.842704736842
 31
0.0
  0
LINE
  5
64
330
1E
100
AcDbEntity
  8
0
100
AcDbLine
 10
12.6
 20
104.4308099999999
 30
0.0
 11
17.4
 21
100.8808099999999
 31
0.0
  0
LINE
  5
65
330
1E
100
AcDbEntity
  8
0
100
AcDbLine
 10
9.0
 20
108.18081
 30
0.0
 11
12.6
 21
104.4308099999999
 31
0.0
  0
LINE
  5
66
330
1E
100
AcDbEntity
  8
0
100
AcDbLine
 10
10.0
 20
103.68081
 30
0.0
 11
15.0
 21
99.98080999999999
 31
0.0
  0
LINE
  5
67
330
1E
100
AcDbEntity
  8
0
100
AcDbLine
 10
6.299999999999999
 20
107.58081
 30
0.0
 11
10.0
 21
103.68081
 31
0.0
  0
LINE
  5
68
330
1E
100
AcDbEntity
  8
0
100
AcDbLine
 10
11.5999999999974
 20
102.4968100000019
 30
0.0
 11
14.19999999999999
 21
100.5468099999999
 31
0.0
  0
LINE
  5
69
330
1E
100
AcDbEntity
  8
0
100
AcDbLine
 10
5.299999999999999
 20
108.24681
 30
0.0
 11
9.199999999999999
 21
104.2968099999999
 31
0.0
  0
LINE
  5
6A
330
1E
100
AcDbEntity
  8
0
100
AcDbLine
 10
7.889199999999999
 20
125.84381
 30
0.0
 11
9.8892
 21
125.84381
 31
0.0
  0
LINE
  5
6B
330
1E
100
AcDbEntity
  8
0
100
AcDbLine
 10
7.889199999999999
 20
125.84381
 30
0.0
 11
7.889199999999999
 21
126.84381
 31
0.0
  0
LINE
  5
6C
330
1E
100
AcDbEntity
  8
0
100
AcDbLine
 10
7.889199999999999
 20
128.036264251366
 30
0.0
 11
7.889199999999999
 21
126.84381
 31
0.0
  0
LINE
  5
6D
330
1E
100
AcDbEntity
  8
0
100
AcDbLine
 10
9.8892
 20
127.728504688525
 30
0.0
 11
9.8892
 21
126.84381
 31
0.0
  0
LINE
  5
6E
330
1E
100
AcDbEntity
  8
0
100
AcDbLine
 10
14.44539999999999
 20
132.46181
 30
0.0
 11
14.44539999999999
 21
133.46181
 31
0.0
  0
LINE
  5
6F
330
1E
100
AcDbEntity
  8
0
100
AcDbLine
 10
12.44539999999999
 20
132.46181
 30
0.0
 11
14.44539999999999
 21
132.46181
 31
0.0
  0
LINE
  5
70
330
1E
100
AcDbEntity
  8
0
100
AcDbLine
 10
12.44539999999999
 20
132.46181
 30
0.0
 11
12.44539999999999
 21
133.46181
 31
0.0
  0
LINE
  5
71
330
1E
100
AcDbEntity
  8
0
100
AcDbLine
 10
9.8892
 20
126.84381
 30
0.0
 11
9.8892
 21
127.728504688525
 31
0.0
  0
LINE
  5
72
330
1E
100
AcDbEntity
  8
0
100
AcDbLine
 10
9.8892
 20
126.84381
 30
0.0
 11
9.8892
 21
125.84381
 31
0.0
  0
LINE
  5
73
330
1E
100
AcDbEntity
  8
0
100
AcDbLine
 10
9.8892
 20
125.84381
 30
0.0
 11
9.8892
 21
126.84381
 31
0.0
  0
LINE
  5
74
330
1E
100
AcDbEntity
  8
0
100
AcDbLine
 10
7.889199999999999
 20
126.84381
 30
0.0
 11
7.889199999999999
 21
125.84381
 31
0.0
  0
LINE
  5
75
330
1E
100
AcDbEntity
  8
0
100
AcDbLine
 10
7.889199999999999
 20
126.84381
 30
0.0
 11
9.8892
 21
126.84381
 31
0.0
  0
LINE
  5
76
330
1E
100
AcDbEntity
  8
0
100
AcDbLine
 10
7.889199999999999
 20
126.84381
 30
0.0
 11
7.889199999999999
 21
128.036264251366
 31
0.0
  0
LINE
  5
77
330
1E
100
AcDbEntity
  8
0
100
AcDbLine
 10
9.0
 20
132.78081
 30
0.0
 11
12.6
 21
136.53081
 31
0.0
  0
LINE
  5
78
330
1E
100
AcDbEntity
  8
0
100
AcDbLine
 10
6.299999999999999
 20
128.28081
 30
0.0
 11
9.0
 21
132.78081
 31
0.0
  0
LINE
  5
79
330
1E
100
AcDbEntity
  8
0
100
AcDbLine
 10
4.599999999999999
 20
124.73081
 30
0.0
 11
6.299999999999999
 21
128.28081
 31
0.0
  0
LINE
  5
7A
330
1E
100
AcDbEntity
  8
0
100
AcDbLine
 10
4.0
 20
120.48081
 30
0.0
 11
4.599999999999999
 21
124.73081
 31
0.0
  0
LINE
  5
7B
330
1E
100
AcDbEntity
  8
0
100
AcDbLine
 10
4.0
 20
120.48081
 30
0.0
 11
4.599999999999999
 21
116.23081
 31
0.0
  0
LINE
  5
7C
330
1E
100
AcDbEntity
  8
0
100
AcDbLine
 10
14.44539999999999
 20
133.46181
 30
0.0
 11
14.44539999999999
 21
132.46181
 31
0.0
  0
LINE
  5
7D
330
1E
100
AcDbEntity
  8
0
100
AcDbLine
 10
12.44539999999999
 20
133.46181
 30
0.0
 11
12.44539999999999
 21
132.46181
 31
0.0
  0
LINE
  5
7E
330
1E
100
AcDbEntity
  8
0
100
AcDbLine
 10
12.44539999999999
 20
133.46181
 30
0.0
 11
14.44539999999999
 21
133.46181
 31
0.0
  0
LINE
  5
7F
330
1E
100
AcDbEntity
  8
0
100
AcDbLine
 10
6.299999999999999
 20
133.3808099999999
 30
0.0
 11
10.0
 21
137.28081
 31
0.0
  0
LINE
  5
80
330
1E
100
AcDbEntity
  8
0
100
AcDbLine
 10
3.400000000000009
 20
128.98081
 30
0.0
 11
6.299999999999999
 21
133.3808099999999
 31
0.0
  0
LINE
  5
81
330
1E
100
AcDbEntity
  8
0
100
AcDbLine
 10
19.00199999999999
 20
139.3789005960259
 30
0.0
 11
19.00199999999999
 21
138.02281
 31
0.0
  0
LINE
  5
82
330
1E
100
AcDbEntity
  8
0
100
AcDbLine
 10
19.00199999999999
 20
139.7084714736839
 30
0.0
 11
19.00199999999999
 21
139.02281
 31
0.0
  0
LINE
  5
83
330
1E
100
AcDbEntity
  8
0
100
AcDbLine
 10
19.00199999999999
 20
139.02281
 30
0.0
 11
19.00199999999999
 21
138.02281
 31
0.0
  0
LINE
  5
84
330
1E
100
AcDbEntity
  8
0
100
AcDbLine
 10
19.00199999999999
 20
139.02281
 30
0.0
 11
21.002
 21
139.02281
 31
0.0
  0
LINE
  5
85
330
1E
100
AcDbEntity
  8
0
100
AcDbLine
 10
19.00199999999999
 20
139.02281
 30
0.0
 11
19.00199999999999
 21
139.7084714736839
 31
0.0
  0
LINE
  5
86
330
1E
100
AcDbEntity
  8
0
100
AcDbLine
 10
19.00199999999999
 20
138.02281
 30
0.0
 11
19.00199999999999
 21
139.3789005960259
 31
0.0
  0
LINE
  5
87
330
1E
100
AcDbEntity
  8
0
100
AcDbLine
 10
19.00199999999999
 20
138.02281
 30
0.0
 11
21.002
 21
138.02281
 31
0.0
  0
LINE
  5
88
330
1E
100
AcDbEntity
  8
0
100
AcDbLine
 10
19.00199999999999
 20
138.02281
 30
0.0
 11
19.00199999999999
 21
139.02281
 31
0.0
  0
LINE
  5
89
330
1E
100
AcDbEntity
  8
0
100
AcDbLine
 10
17.4
 20
140.08081
 30
0.0
 11
23.0
 21
143.23081
 31
0.0
  0
LINE
  5
8A
330
1E
100
AcDbEntity
  8
0
100
AcDbLine
 10
12.6
 20
136.53081
 30
0.0
 11
17.4
 21
140.08081
 31
0.0
  0
LINE
  5
8B
330
1E
100
AcDbEntity
  8
0
100
AcDbLine
 10
15.0
 20
140.98081
 30
0.0
 11
20.8
 21
144.33081
 31
0.0
  0
LINE
  5
8C
330
1E
100
AcDbEntity
  8
0
100
AcDbLine
 10
10.0
 20
137.28081
 30
0.0
 11
15.0
 21
140.98081
 31
0.0
  0
LINE
  5
8D
330
1E
100
AcDbEntity
  8
0
100
AcDbLine
 10
14.19999999999999
 20
142.14681
 30
0.0
 11
20.1
 21
145.54681
 31
0.0
  0
LINE
  5
8E
330
1E
100
AcDbEntity
  8
0
100
AcDbLine
 10
9.199999999999999
 20
138.39681
 30
0.0
 11
14.19999999999999
 21
142.14681
 31
0.0
  0
LINE
  5
8F
330
1E
100
AcDbEntity
  8
0
100
AcDbLine
 10
5.299999999999999
 20
134.44681
 30
0.0
 11
9.199999999999999
 21
138.39681
 31
0.0
  0
LINE
  5
90
330
1E
100
AcDbEntity
  8
0
100
AcDbLine
 10
2.5
 20
130.19681
 30
0.0
 11
5.299999999999999
 21
134.44681
 31
0.0
  0
LINE
  5
91
330
1E
100
AcDbEntity
  8
0
100
AcDbLine
 10
0.7000000000000051
 20
143.93381
 30
0.0
 11
2.5
 21
148.38381
 31
0.0
  0
LINE
  5
92
330
1E
100
AcDbEntity
  8
0
100
AcDbLine
 10
0.7000000000000051
 20
125.74681
 30
0.0
 11
2.5
 21
130.19681
 31
0.0
  0
LINE
  5
93
330
1E
100
AcDbEntity
  8
0
100
AcDbLine
 10
0.7000000000000051
 20
143.93381
 30
0.0
 11
2.5
 21
148.38381
 31
0.0
  0
LINE
  5
94
330
1E
100
AcDbEntity
  8
0
100
AcDbLine
 10
0.0000000000000023
 20
139.53381
 30
0.0
 11
0.7000000000000051
 21
143.93381
 31
0.0
  0
LINE
  5
95
330
1E
100
AcDbEntity
  8
0
100
AcDbLine
 10
0.0000000000000023
 20
139.53381
 30
0.0
 11
0.0000000000000023
 21
121.34681
 31
0.0
  0
LINE
  5
96
330
1E
100
AcDbEntity
  8
0
100
AcDbLine
 10
9.199999999999999
 20
156.58381
 30
0.0
 11
14.19999999999999
 21
160.33381
 31
0.0
  0
LINE
  5
97
330
1E
100
AcDbEntity
  8
0
100
AcDbLine
 10
5.299999999999999
 20
152.63381
 30
0.0
 11
9.199999999999999
 21
156.58381
 31
0.0
  0
LINE
  5
98
330
1E
100
AcDbEntity
  8
0
100
AcDbLine
 10
2.5
 20
148.38381
 30
0.0
 11
5.299999999999999
 21
152.63381
 31
0.0
  0
LINE
  5
99
330
1E
100
AcDbEntity
  8
0
100
AcDbLine
 10
14.19999999999999
 20
160.33381
 30
0.0
 11
15.0
 21
160.8998099999999
 31
0.0
  0
LINE
  5
9A
330
1E
100
AcDbEntity
  8
0
100
AcDbLine
 10
14.19999999999999
 20
160.33381
 30
0.0
 11
20.1
 21
163.73381
 31
0.0
  0
LINE
  5
9B
330
1E
100
AcDbEntity
  8
0
100
AcDbLine
 10
15.0
 20
160.8998099999999
 30
0.0
 11
20.8
 21
164.24981
 31
0.0
  0
LINE
  5
9C
330
1E
100
AcDbEntity
  8
0
100
AcDbLine
 10
10.0
 20
157.19981
 30
0.0
 11
11.600000000001
 21
158.383810000001
 31
0.0
  0
LINE
  5
9D
330
1E
100
AcDbEntity
  8
0
100
AcDbLine
 10
9.947377777777751
 20
157.1443433333329
 30
0.0
 11
10.0
 21
157.19981
 31
0.0
  0
LINE
  5
9E
330
1E
100
AcDbEntity
  8
0
100
AcDbLine
 10
20.1
 20
145.54681
 30
0.0
 11
26.89999999999999
 21
148.49681
 31
0.0
  0
LINE
  5
9F
330
1E
100
AcDbEntity
  8
0
100
AcDbLine
 10
21.002
 20
100.2078099999999
 30
0.0
 11
21.002
 21
101.2078099999999
 31
0.0
  0
LINE
  5
A0
330
1E
100
AcDbEntity
  8
0
100
AcDbLine
 10
20.1114
 20
113.498927901639
 30
0.0
 11
20.1114
 21
113.06481
 31
0.0
  0
LINE
  5
A1
330
1E
100
AcDbEntity
  8
0
100
AcDbLine
 10
20.1114
 20
113.06481
 30
0.0
 11
20.1114
 21
113.498927901639
 31
0.0
  0
LINE
  5
A2
330
1E
100
AcDbEntity
  8
0
100
AcDbLine
 10
20.1114
 20
113.06481
 30
0.0
 11
22.11139999999999
 21
113.06481
 31
0.0
  0
LINE
  5
A3
330
1E
100
AcDbEntity
  8
0
100
AcDbLine
 10
20.1114
 20
113.06481
 30
0.0
 11
20.1114
 21
112.06481
 31
0.0
  0
LINE
  5
A4
330
1E
100
AcDbEntity
  8
0
100
AcDbLine
 10
20.1114
 20
112.06481
 30
0.0
 11
20.1114
 21
113.06481
 31
0.0
  0
LINE
  5
A5
330
1E
100
AcDbEntity
  8
0
100
AcDbLine
 10
20.1114
 20
112.06481
 30
0.0
 11
22.11139999999999
 21
112.06481
 31
0.0
  0
LINE
  5
A6
330
1E
100
AcDbEntity
  8
0
100
AcDbLine
 10
22.11139999999999
 20
112.06481
 30
0.0
 11
22.11139999999999
 21
113.06481
 31
0.0
  0
LINE
  5
A7
330
1E
100
AcDbEntity
  8
0
100
AcDbLine
 10
22.11139999999999
 20
113.6173978469949
 30
0.0
 11
22.11139999999999
 21
113.06481
 31
0.0
  0
LINE
  5
A8
330
1E
100
AcDbEntity
  8
0
100
AcDbLine
 10
22.11139999999999
 20
113.06481
 30
0.0
 11
22.11139999999999
 21
113.6173978469949
 31
0.0
  0
LINE
  5
A9
330
1E
100
AcDbEntity
  8
0
100
AcDbLine
 10
22.11139999999999
 20
113.06481
 30
0.0
 11
22.11139999999999
 21
112.06481
 31
0.0
  0
LINE
  5
AA
330
1E
100
AcDbEntity
  8
0
100
AcDbLine
 10
21.002
 20
102.045854238411
 30
0.0
 11
21.002
 21
101.2078099999999
 31
0.0
  0
LINE
  5
AB
330
1E
100
AcDbEntity
  8
0
100
AcDbLine
 10
21.002
 20
101.2078099999999
 30
0.0
 11
21.002
 21
102.045854238411
 31
0.0
  0
LINE
  5
AC
330
1E
100
AcDbEntity
  8
0
100
AcDbLine
 10
21.002
 20
101.2078099999999
 30
0.0
 11
21.002
 21
100.2078099999999
 31
0.0
  0
LINE
  5
AD
330
1E
100
AcDbEntity
  8
0
100
AcDbLine
 10
22.11139999999999
 20
125.29981
 30
0.0
 11
22.11139999999999
 21
126.29981
 31
0.0
  0
LINE
  5
AE
330
1E
100
AcDbEntity
  8
0
100
AcDbLine
 10
20.1114
 20
126.155514786885
 30
0.0
 11
20.1114
 21
125.29981
 31
0.0
  0
LINE
  5
AF
330
1E
100
AcDbEntity
  8
0
100
AcDbLine
 10
21.002
 20
139.243629368421
 30
0.0
 11
21.002
 21
139.02281
 31
0.0
  0
LINE
  5
B0
330
1E
100
AcDbEntity
  8
0
100
AcDbLine
 10
21.002
 20
139.02281
 30
0.0
 11
21.002
 21
139.243629368421
 31
0.0
  0
LINE
  5
B1
330
1E
100
AcDbEntity
  8
0
100
AcDbLine
 10
21.002
 20
139.02281
 30
0.0
 11
21.002
 21
138.02281
 31
0.0
  0
LINE
  5
B2
330
1E
100
AcDbEntity
  8
0
100
AcDbLine
 10
21.002
 20
138.02281
 30
0.0
 11
21.002
 21
139.02281
 31
0.0
  0
LINE
  5
B3
330
1E
100
AcDbEntity
  8
0
100
AcDbLine
 10
22.11139999999999
 20
126.29981
 30
0.0
 11
22.11139999999999
 21
125.29981
 31
0.0
  0
LINE
  5
B4
330
1E
100
AcDbEntity
  8
0
100
AcDbLine
 10
20.1114
 20
126.29981
 30
0.0
 11
20.1114
 21
125.29981
 31
0.0
  0
LINE
  5
B5
330
1E
100
AcDbEntity
  8
0
100
AcDbLine
 10
20.1114
 20
126.29981
 30
0.0
 11
22.11139999999999
 21
126.29981
 31
0.0
  0
LINE
  5
B6
330
1E
100
AcDbEntity
  8
0
100
AcDbLine
 10
20.1114
 20
125.29981
 30
0.0
 11
20.1114
 21
126.155514786885
 31
0.0
  0
LINE
  5
B7
330
1E
100
AcDbEntity
  8
0
100
AcDbLine
 10
20.1114
 20
125.29981
 30
0.0
 11
22.11139999999999
 21
125.29981
 31
0.0
  0
LINE
  5
B8
330
1E
100
AcDbEntity
  8
0
100
AcDbLine
 10
20.1114
 20
125.29981
 30
0.0
 11
20.1114
 21
126.29981
 31
0.0
  0
LINE
  5
B9
330
1E
100
AcDbEntity
  8
0
100
AcDbLine
 10
23.0
 20
97.73111
 30
0.0
 11
27.78109999999999
 21
95.6061766666667
 31
0.0
  0
LINE
  5
BA
330
1E
100
AcDbEntity
  8
0
100
AcDbLine
 10
20.8
 20
96.63111
 30
0.0
 11
27.5
 21
93.73110999999999
 31
0.0
  0
LINE
  5
BB
330
1E
100
AcDbEntity
  8
0
100
AcDbLine
 10
26.2235
 20
107.5964159999999
 30
0.0
 11
26.2235
 21
106.44681
 31
0.0
  0
LINE
  5
BC
330
1E
100
AcDbEntity
  8
0
100
AcDbLine
 10
26.2235
 20
106.44681
 30
0.0
 11
26.2235
 21
107.5964159999999
 31
0.0
  0
LINE
  5
BD
330
1E
100
AcDbEntity
  8
0
100
AcDbLine
 10
26.2235
 20
106.44681
 30
0.0
 11
28.2235
 21
106.44681
 31
0.0
  0
LINE
  5
BE
330
1E
100
AcDbEntity
  8
0
100
AcDbLine
 10
26.2235
 20
106.44681
 30
0.0
 11
26.2235
 21
105.44681
 31
0.0
  0
LINE
  5
BF
330
1E
100
AcDbEntity
  8
0
100
AcDbLine
 10
26.2235
 20
105.44681
 30
0.0
 11
26.2235
 21
106.44681
 31
0.0
  0
LINE
  5
C0
330
1E
100
AcDbEntity
  8
0
100
AcDbLine
 10
26.2235
 20
105.44681
 30
0.0
 11
28.2235
 21
105.44681
 31
0.0
  0
LINE
  5
C1
330
1E
100
AcDbEntity
  8
0
100
AcDbLine
 10
26.2235
 20
132.91781
 30
0.0
 11
26.2235
 21
131.91781
 31
0.0
  0
LINE
  5
C2
330
1E
100
AcDbEntity
  8
0
100
AcDbLine
 10
26.2235
 20
132.91781
 30
0.0
 11
28.2235
 21
132.91781
 31
0.0
  0
LINE
  5
C3
330
1E
100
AcDbEntity
  8
0
100
AcDbLine
 10
26.2235
 20
131.91781
 30
0.0
 11
28.2235
 21
131.91781
 31
0.0
  0
LINE
  5
C4
330
1E
100
AcDbEntity
  8
0
100
AcDbLine
 10
26.2235
 20
131.91781
 30
0.0
 11
26.2235
 21
132.91781
 31
0.0
  0
LINE
  5
C5
330
1E
100
AcDbEntity
  8
0
100
AcDbLine
 10
27.5
 20
93.73110999999999
 30
0.0
 11
34.9
 21
91.23110999999999
 31
0.0
  0
LINE
  5
C6
330
1E
100
AcDbEntity
  8
0
100
AcDbLine
 10
23.0
 20
143.23081
 30
0.0
 11
29.3
 21
146.0308099999999
 31
0.0
  0
LINE
  5
C7
330
1E
100
AcDbEntity
  8
0
100
AcDbLine
 10
20.8
 20
144.33081
 30
0.0
 11
27.5
 21
147.23081
 31
0.0
  0
LINE
  5
C8
330
1E
100
AcDbEntity
  8
0
100
AcDbLine
 10
27.5
 20
147.23081
 30
0.0
 11
34.9
 21
149.73081
 31
0.0
  0
LINE
  5
C9
330
1E
100
AcDbEntity
  8
0
100
AcDbLine
 10
26.89999999999999
 20
148.49681
 30
0.0
 11
34.39999999999999
 21
150.99681
 31
0.0
  0
LINE
  5
CA
330
1E
100
AcDbEntity
  8
0
100
AcDbLine
 10
20.1
 20
163.73381
 30
0.0
 11
26.89999999999999
 21
166.68381
 31
0.0
  0
LINE
  5
CB
330
1E
100
AcDbEntity
  8
0
100
AcDbLine
 10
26.89999999999999
 20
166.68381
 30
0.0
 11
34.39999999999999
 21
169.18381
 31
0.0
  0
LINE
  5
CC
330
1E
100
AcDbEntity
  8
0
100
AcDbLine
 10
20.8
 20
164.24981
 30
0.0
 11
27.5
 21
167.1498099999999
 31
0.0
  0
LINE
  5
CD
330
1E
100
AcDbEntity
  8
0
100
AcDbLine
 10
27.78109999999999
 20
96.59161
 30
0.0
 11
29.7811
 21
96.59161
 31
0.0
  0
LINE
  5
CE
330
1E
100
AcDbEntity
  8
0
100
AcDbLine
 10
27.78109999999999
 20
96.59161
 30
0.0
 11
27.78109999999999
 21
95.59161000000001
 31
0.0
  0
LINE
  5
CF
330
1E
100
AcDbEntity
  8
0
100
AcDbLine
 10
27.78109999999999
 20
95.59161000000001
 30
0.0
 11
27.78109999999999
 21
96.59161
 31
0.0
  0
LINE
  5
D0
330
1E
100
AcDbEntity
  8
0
100
AcDbLine
 10
27.78109999999999
 20
95.59161000000001
 30
0.0
 11
29.7811
 21
95.59161000000001
 31
0.0
  0
LINE
  5
D1
330
1E
100
AcDbEntity
  8
0
100
AcDbLine
 10
27.78109999999999
 20
142.63881
 30
0.0
 11
29.7811
 21
142.63881
 31
0.0
  0
LINE
  5
D2
330
1E
100
AcDbEntity
  8
0
100
AcDbLine
 10
27.78109999999999
 20
142.63881
 30
0.0
 11
27.78109999999999
 21
143.63881
 31
0.0
  0
LINE
  5
D3
330
1E
100
AcDbEntity
  8
0
100
AcDbLine
 10
27.78109999999999
 20
143.63881
 30
0.0
 11
27.78109999999999
 21
142.63881
 31
0.0
  0
LINE
  5
D4
330
1E
100
AcDbEntity
  8
0
100
AcDbLine
 10
27.78109999999999
 20
143.63881
 30
0.0
 11
29.7811
 21
143.63881
 31
0.0
  0
LINE
  5
D5
330
1E
100
AcDbEntity
  8
0
100
AcDbLine
 10
29.7811
 20
95.59161000000001
 30
0.0
 11
29.7811
 21
96.59161
 31
0.0
  0
LINE
  5
D6
330
1E
100
AcDbEntity
  8
0
100
AcDbLine
 10
28.2235
 20
105.44681
 30
0.0
 11
28.2235
 21
106.44681
 31
0.0
  0
LINE
  5
D7
330
1E
100
AcDbEntity
  8
0
100
AcDbLine
 10
28.2235
 20
106.44681
 30
0.0
 11
28.2235
 21
105.44681
 31
0.0
  0
LINE
  5
D8
330
1E
100
AcDbEntity
  8
0
100
AcDbLine
 10
29.7811
 20
96.59161
 30
0.0
 11
29.7811
 21
95.59161000000001
 31
0.0
  0
LINE
  5
D9
330
1E
100
AcDbEntity
  8
0
100
AcDbLine
 10
33.0005
 20
114.258566007194
 30
0.0
 11
33.0005
 21
113.13181
 31
0.0
  0
LINE
  5
DA
330
1E
100
AcDbEntity
  8
0
100
AcDbLine
 10
33.0005
 20
113.13181
 30
0.0
 11
33.0005
 21
114.258566007194
 31
0.0
  0
LINE
  5
DB
330
1E
100
AcDbEntity
  8
0
100
AcDbLine
 10
33.0005
 20
113.13181
 30
0.0
 11
35.0005
 21
113.13181
 31
0.0
  0
LINE
  5
DC
330
1E
100
AcDbEntity
  8
0
100
AcDbLine
 10
33.0005
 20
113.13181
 30
0.0
 11
33.0005
 21
112.13181
 31
0.0
  0
LINE
  5
DD
330
1E
100
AcDbEntity
  8
0
100
AcDbLine
 10
33.0005
 20
112.13181
 30
0.0
 11
33.0005
 21
113.13181
 31
0.0
  0
LINE
  5
DE
330
1E
100
AcDbEntity
  8
0
100
AcDbLine
 10
33.0005
 20
112.13181
 30
0.0
 11
35.0005
 21
112.13181
 31
0.0
  0
LINE
  5
DF
330
1E
100
AcDbEntity
  8
0
100
AcDbLine
 10
33.55789999999999
 20
102.32749964403
 30
0.0
 11
33.55789999999999
 21
101.8868099999999
 31
0.0
  0
LINE
  5
E0
330
1E
100
AcDbEntity
  8
0
100
AcDbLine
 10
33.55789999999999
 20
101.8868099999999
 30
0.0
 11
33.55789999999999
 21
102.32749964403
 31
0.0
  0
LINE
  5
E1
330
1E
100
AcDbEntity
  8
0
100
AcDbLine
 10
33.55789999999999
 20
101.8868099999999
 30
0.0
 11
35.5579
 21
101.8868099999999
 31
0.0
  0
LINE
  5
E2
330
1E
100
AcDbEntity
  8
0
100
AcDbLine
 10
33.55789999999999
 20
101.8868099999999
 30
0.0
 11
33.55789999999999
 21
100.8868099999999
 31
0.0
  0
LINE
  5
E3
330
1E
100
AcDbEntity
  8
0
100
AcDbLine
 10
33.55789999999999
 20
100.8868099999999
 30
0.0
 11
33.55789999999999
 21
101.8868099999999
 31
0.0
  0
LINE
  5
E4
330
1E
100
AcDbEntity
  8
0
100
AcDbLine
 10
33.55789999999999
 20
100.8868099999999
 30
0.0
 11
35.5579
 21
100.8868099999999
 31
0.0
  0
LINE
  5
E5
330
1E
100
AcDbEntity
  8
0
100
AcDbLine
 10
32.0
 20
118.24881
 30
0.0
 11
32.0
 21
119.24881
 31
0.0
  0
LINE
  5
E6
330
1E
100
AcDbEntity
  8
0
100
AcDbLine
 10
28.2235
 20
134.123691859296
 30
0.0
 11
28.2235
 21
132.91781
 31
0.0
  0
LINE
  5
E7
330
1E
100
AcDbEntity
  8
0
100
AcDbLine
 10
29.7811
 20
143.63881
 30
0.0
 11
29.7811
 21
142.63881
 31
0.0
  0
LINE
  5
E8
330
1E
100
AcDbEntity
  8
0
100
AcDbLine
 10
29.7811
 20
142.63881
 30
0.0
 11
29.7811
 21
143.63881
 31
0.0
  0
LINE
  5
E9
330
1E
100
AcDbEntity
  8
0
100
AcDbLine
 10
28.2235
 20
132.91781
 30
0.0
 11
28.2235
 21
134.123691859296
 31
0.0
  0
LINE
  5
EA
330
1E
100
AcDbEntity
  8
0
100
AcDbLine
 10
28.2235
 20
132.91781
 30
0.0
 11
28.2235
 21
131.91781
 31
0.0
  0
LINE
  5
EB
330
1E
100
AcDbEntity
  8
0
100
AcDbLine
 10
28.2235
 20
131.91781
 30
0.0
 11
28.2235
 21
132.91781
 31
0.0
  0
LINE
  5
EC
330
1E
100
AcDbEntity
  8
0
100
AcDbLine
 10
30.0
 20
119.685306453901
 30
0.0
 11
30.0
 21
119.24881
 31
0.0
  0
LINE
  5
ED
330
1E
100
AcDbEntity
  8
0
100
AcDbLine
 10
30.0
 20
119.24881
 30
0.0
 11
30.0
 21
119.685306453901
 31
0.0
  0
LINE
  5
EE
330
1E
100
AcDbEntity
  8
0
100
AcDbLine
 10
30.0
 20
119.24881
 30
0.0
 11
32.0
 21
119.24881
 31
0.0
  0
LINE
  5
EF
330
1E
100
AcDbEntity
  8
0
100
AcDbLine
 10
30.0
 20
119.24881
 30
0.0
 11
30.0
 21
118.24881
 31
0.0
  0
LINE
  5
F0
330
1E
100
AcDbEntity
  8
0
100
AcDbLine
 10
33.0005
 20
124.44768471223
 30
0.0
 11
33.0005
 21
124.36581
 31
0.0
  0
LINE
  5
F1
330
1E
100
AcDbEntity
  8
0
100
AcDbLine
 10
33.55789999999999
 20
137.2695360149249
 30
0.0
 11
33.55789999999999
 21
136.47781
 31
0.0
  0
LINE
  5
F2
330
1E
100
AcDbEntity
  8
0
100
AcDbLine
 10
33.55789999999999
 20
137.47781
 30
0.0
 11
33.55789999999999
 21
136.47781
 31
0.0
  0
LINE
  5
F3
330
1E
100
AcDbEntity
  8
0
100
AcDbLine
 10
33.55789999999999
 20
137.47781
 30
0.0
 11
35.5579
 21
137.47781
 31
0.0
  0
LINE
  5
F4
330
1E
100
AcDbEntity
  8
0
100
AcDbLine
 10
33.55789999999999
 20
136.47781
 30
0.0
 11
33.55789999999999
 21
137.2695360149249
 31
0.0
  0
LINE
  5
F5
330
1E
100
AcDbEntity
  8
0
100
AcDbLine
 10
33.55789999999999
 20
136.47781
 30
0.0
 11
35.5579
 21
136.47781
 31
0.0
  0
LINE
  5
F6
330
1E
100
AcDbEntity
  8
0
100
AcDbLine
 10
33.55789999999999
 20
136.47781
 30
0.0
 11
33.55789999999999
 21
137.47781
 31
0.0
  0
LINE
  5
F7
330
1E
100
AcDbEntity
  8
0
100
AcDbLine
 10
33.0005
 20
125.36581
 30
0.0
 11
33.0005
 21
124.36581
 31
0.0
  0
LINE
  5
F8
330
1E
100
AcDbEntity
  8
0
100
AcDbLine
 10
33.0005
 20
125.36581
 30
0.0
 11
35.0005
 21
125.36581
 31
0.0
  0
LINE
  5
F9
330
1E
100
AcDbEntity
  8
0
100
AcDbLine
 10
33.0005
 20
124.36581
 30
0.0
 11
33.0005
 21
124.44768471223
 31
0.0
  0
LINE
  5
FA
330
1E
100
AcDbEntity
  8
0
100
AcDbLine
 10
33.0005
 20
124.36581
 30
0.0
 11
35.0005
 21
124.36581
 31
0.0
  0
LINE
  5
FB
330
1E
100
AcDbEntity
  8
0
100
AcDbLine
 10
33.0005
 20
124.36581
 30
0.0
 11
33.0005
 21
125.36581
 31
0.0
  0
LINE
  5
FC
330
1E
100
AcDbEntity
  8
0
100
AcDbLine
 10
32.0
 20
119.705448297872
 30
0.0
 11
32.0
 21
119.24881
 31
0.0
  0
LINE
  5
FD
330
1E
100
AcDbEntity
  8
0
100
AcDbLine
 10
32.0
 20
119.24881
 30
0.0
 11
32.0
 21
119.705448297872
 31
0.0
  0
LINE
  5
FE
330
1E
100
AcDbEntity
  8
0
100
AcDbLine
 10
32.0
 20
119.24881
 30
0.0
 11
32.0
 21
118.24881
 31
0.0
  0
LINE
  5
FF
330
1E
100
AcDbEntity
  8
0
100
AcDbLine
 10
30.0
 20
119.1143844680849
 30
0.0
 11
30.0
 21
118.24881
 31
0.0
  0
LINE
  5
100
330
1E
100
AcDbEntity
  8
0
100
AcDbLine
 10
30.0
 20
118.24881
 30
0.0
 11
30.0
 21
119.24881
 31
0.0
  0
LINE
  5
101
330
1E
100
AcDbEntity
  8
0
100
AcDbLine
 10
30.0
 20
118.24881
 30
0.0
 11
32.0
 21
118.24881
 31
0.0
  0
LINE
  5
102
330
1E
100
AcDbEntity
  8
0
100
AcDbLine
 10
30.0
 20
118.24881
 30
0.0
 11
30.0
 21
119.1143844680849
 31
0.0
  0
LINE
  5
103
330
1E
100
AcDbEntity
  8
0
100
AcDbLine
 10
27.813875
 20
95.59161000000001
 30
0.0
 11
29.3
 21
94.93111
 31
0.0
  0
LINE
  5
104
330
1E
100
AcDbEntity
  8
0
100
AcDbLine
 10
29.3
 20
94.93111
 30
0.0
 11
36.4
 21
92.53111
 31
0.0
  0
LINE
  5
105
330
1E
100
AcDbEntity
  8
0
100
AcDbLine
 10
34.9
 20
91.23110999999999
 30
0.0
 11
42.7
 21
89.38110999999999
 31
0.0
  0
LINE
  5
106
330
1E
100
AcDbEntity
  8
0
100
AcDbLine
 10
29.3
 20
146.0308099999999
 30
0.0
 11
36.4
 21
148.4308099999999
 31
0.0
  0
LINE
  5
107
330
1E
100
AcDbEntity
  8
0
100
AcDbLine
 10
35.0005
 20
112.13181
 30
0.0
 11
35.0005
 21
113.13181
 31
0.0
  0
LINE
  5
108
330
1E
100
AcDbEntity
  8
0
100
AcDbLine
 10
35.0005
 20
113.13181
 30
0.0
 11
35.0005
 21
112.13181
 31
0.0
  0
LINE
  5
109
330
1E
100
AcDbEntity
  8
0
100
AcDbLine
 10
35.5579
 20
100.8868099999999
 30
0.0
 11
35.5579
 21
101.8868099999999
 31
0.0
  0
LINE
  5
10A
330
1E
100
AcDbEntity
  8
0
100
AcDbLine
 10
35.5579
 20
101.8868099999999
 30
0.0
 11
35.5579
 21
100.8868099999999
 31
0.0
  0
LINE
  5
10B
330
1E
100
AcDbEntity
  8
0
100
AcDbLine
 10
35.0005
 20
126.27469
 30
0.0
 11
35.0005
 21
125.36581
 31
0.0
  0
LINE
  5
10C
330
1E
100
AcDbEntity
  8
0
100
AcDbLine
 10
35.5579
 20
137.47781
 30
0.0
 11
35.5579
 21
136.47781
 31
0.0
  0
LINE
  5
10D
330
1E
100
AcDbEntity
  8
0
100
AcDbLine
 10
35.5579
 20
136.47781
 30
0.0
 11
35.5579
 21
137.47781
 31
0.0
  0
LINE
  5
10E
330
1E
100
AcDbEntity
  8
0
100
AcDbLine
 10
35.0005
 20
125.36581
 30
0.0
 11
35.0005
 21
126.27469
 31
0.0
  0
LINE
  5
10F
330
1E
100
AcDbEntity
  8
0
100
AcDbLine
 10
35.0005
 20
125.36581
 30
0.0
 11
35.0005
 21
124.36581
 31
0.0
  0
LINE
  5
110
330
1E
100
AcDbEntity
  8
0
100
AcDbLine
 10
35.0005
 20
124.36581
 30
0.0
 11
35.0005
 21
125.36581
 31
0.0
  0
LINE
  5
111
330
1E
100
AcDbEntity
  8
0
100
AcDbLine
 10
36.384
 20
146.42881
 30
0.0
 11
38.116
 21
146.9288099999999
 31
0.0
  0
LINE
  5
112
330
1E
100
AcDbEntity
  8
0
100
AcDbLine
 10
36.384
 20
146.42881
 30
0.0
 11
37.384
 21
145.56281
 31
0.0
  0
LINE
  5
113
330
1E
100
AcDbEntity
  8
0
100
AcDbLine
 10
36.384
 20
92.80160999999999
 30
0.0
 11
38.116
 21
92.30161
 31
0.0
  0
LINE
  5
114
330
1E
100
AcDbEntity
  8
0
100
AcDbLine
 10
36.384
 20
92.80160999999999
 30
0.0
 11
37.384
 21
93.66761
 31
0.0
  0
LINE
  5
115
330
1E
100
AcDbEntity
  8
0
100
AcDbLine
 10
39.11599999999999
 20
93.65520142857141
 30
0.0
 11
39.11599999999999
 21
93.16760999999999
 31
0.0
  0
LINE
  5
116
330
1E
100
AcDbEntity
  8
0
100
AcDbLine
 10
38.116
 20
92.30161
 30
0.0
 11
39.11599999999999
 21
93.16760999999999
 31
0.0
  0
LINE
  5
117
330
1E
100
AcDbEntity
  8
0
100
AcDbLine
 10
39.11599999999999
 20
93.16760999999999
 30
0.0
 11
39.11599999999999
 21
93.65520142857141
 31
0.0
  0
LINE
  5
118
330
1E
100
AcDbEntity
  8
0
100
AcDbLine
 10
40.2238
 20
107.9850752203389
 30
0.0
 11
40.2238
 21
106.95881
 31
0.0
  0
LINE
  5
119
330
1E
100
AcDbEntity
  8
0
100
AcDbLine
 10
40.2238
 20
106.95881
 30
0.0
 11
40.2238
 21
107.9850752203389
 31
0.0
  0
LINE
  5
11A
330
1E
100
AcDbEntity
  8
0
100
AcDbLine
 10
40.2238
 20
106.95881
 30
0.0
 11
42.2238
 21
106.95881
 31
0.0
  0
LINE
  5
11B
330
1E
100
AcDbEntity
  8
0
100
AcDbLine
 10
40.2238
 20
106.95881
 30
0.0
 11
40.2238
 21
105.95881
 31
0.0
  0
LINE
  5
11C
330
1E
100
AcDbEntity
  8
0
100
AcDbLine
 10
40.2238
 20
105.95881
 30
0.0
 11
40.2238
 21
106.95881
 31
0.0
  0
LINE
  5
11D
330
1E
100
AcDbEntity
  8
0
100
AcDbLine
 10
40.2238
 20
105.95881
 30
0.0
 11
42.2238
 21
105.95881
 31
0.0
  0
LINE
  5
11E
330
1E
100
AcDbEntity
  8
0
100
AcDbLine
 10
38.116
 20
146.9288099999999
 30
0.0
 11
39.11599999999999
 21
146.06281
 31
0.0
  0
LINE
  5
11F
330
1E
100
AcDbEntity
  8
0
100
AcDbLine
 10
38.116
 20
146.9288099999999
 30
0.0
 11
38.116
 21
147.518411632653
 31
0.0
  0
LINE
  5
120
330
1E
100
AcDbEntity
  8
0
100
AcDbLine
 10
37.384
 20
145.56281
 30
0.0
 11
39.11599999999999
 21
146.06281
 31
0.0
  0
LINE
  5
121
330
1E
100
AcDbEntity
  8
0
100
AcDbLine
 10
40.2238
 20
130.6776964067799
 30
0.0
 11
40.2238
 21
130.53881
 31
0.0
  0
LINE
  5
122
330
1E
100
AcDbEntity
  8
0
100
AcDbLine
 10
40.2238
 20
131.53881
 30
0.0
 11
40.2238
 21
130.53881
 31
0.0
  0
LINE
  5
123
330
1E
100
AcDbEntity
  8
0
100
AcDbLine
 10
40.2238
 20
131.53881
 30
0.0
 11
42.2238
 21
131.53881
 31
0.0
  0
LINE
  5
124
330
1E
100
AcDbEntity
  8
0
100
AcDbLine
 10
40.2238
 20
130.53881
 30
0.0
 11
40.2238
 21
130.6776964067799
 31
0.0
  0
LINE
  5
125
330
1E
100
AcDbEntity
  8
0
100
AcDbLine
 10
40.2238
 20
130.53881
 30
0.0
 11
42.2238
 21
130.53881
 31
0.0
  0
LINE
  5
126
330
1E
100
AcDbEntity
  8
0
100
AcDbLine
 10
40.2238
 20
130.53881
 30
0.0
 11
40.2238
 21
131.53881
 31
0.0
  0
LINE
  5
127
330
1E
100
AcDbEntity
  8
0
100
AcDbLine
 10
39.11599999999999
 20
146.986710952381
 30
0.0
 11
39.11599999999999
 21
146.06281
 31
0.0
  0
LINE
  5
128
330
1E
100
AcDbEntity
  8
0
100
AcDbLine
 10
39.11599999999999
 20
146.06281
 30
0.0
 11
39.11599999999999
 21
146.986710952381
 31
0.0
  0
LINE
  5
129
330
1E
100
AcDbEntity
  8
0
100
AcDbLine
 10
38.116
 20
147.518411632653
 30
0.0
 11
38.116
 21
146.9288099999999
 31
0.0
  0
LINE
  5
12A
330
1E
100
AcDbEntity
  8
0
100
AcDbLine
 10
42.0
 20
119.806157517731
 30
0.0
 11
42.0
 21
118.81581
 31
0.0
  0
LINE
  5
12B
330
1E
100
AcDbEntity
  8
0
100
AcDbLine
 10
42.0
 20
118.81581
 30
0.0
 11
42.0
 21
119.806157517731
 31
0.0
  0
LINE
  5
12C
330
1E
100
AcDbEntity
  8
0
100
AcDbLine
 10
42.0
 20
118.81581
 30
0.0
 11
44.0
 21
118.81581
 31
0.0
  0
LINE
  5
12D
330
1E
100
AcDbEntity
  8
0
100
AcDbLine
 10
42.0
 20
118.81581
 30
0.0
 11
42.0
 21
117.81581
 31
0.0
  0
LINE
  5
12E
330
1E
100
AcDbEntity
  8
0
100
AcDbLine
 10
42.0
 20
118.2565121276599
 30
0.0
 11
42.0
 21
117.81581
 31
0.0
  0
LINE
  5
12F
330
1E
100
AcDbEntity
  8
0
100
AcDbLine
 10
42.2238
 20
105.95881
 30
0.0
 11
42.2238
 21
106.95881
 31
0.0
  0
LINE
  5
130
330
1E
100
AcDbEntity
  8
0
100
AcDbLine
 10
42.2238
 20
106.95881
 30
0.0
 11
42.2238
 21
105.95881
 31
0.0
  0
LINE
  5
131
330
1E
100
AcDbEntity
  8
0
100
AcDbLine
 10
42.2238
 20
132.4968992994919
 30
0.0
 11
42.2238
 21
131.53881
 31
0.0
  0
LINE
  5
132
330
1E
100
AcDbEntity
  8
0
100
AcDbLine
 10
42.2238
 20
131.53881
 30
0.0
 11
42.2238
 21
132.4968992994919
 31
0.0
  0
LINE
  5
133
330
1E
100
AcDbEntity
  8
0
100
AcDbLine
 10
42.2238
 20
131.53881
 30
0.0
 11
42.2238
 21
130.53881
 31
0.0
  0
LINE
  5
134
330
1E
100
AcDbEntity
  8
0
100
AcDbLine
 10
42.2238
 20
130.53881
 30
0.0
 11
42.2238
 21
131.53881
 31
0.0
  0
LINE
  5
135
330
1E
100
AcDbEntity
  8
0
100
AcDbLine
 10
42.0
 20
117.81581
 30
0.0
 11
42.0
 21
118.81581
 31
0.0
  0
LINE
  5
136
330
1E
100
AcDbEntity
  8
0
100
AcDbLine
 10
42.0
 20
117.81581
 30
0.0
 11
44.0
 21
117.81581
 31
0.0
  0
LINE
  5
137
330
1E
100
AcDbEntity
  8
0
100
AcDbLine
 10
42.0
 20
117.81581
 30
0.0
 11
42.0
 21
118.2565121276599
 31
0.0
  0
LINE
  5
138
330
1E
100
AcDbEntity
  8
0
100
AcDbLine
 10
37.384
 20
93.66761
 30
0.0
 11
39.11599999999999
 21
93.16760999999999
 31
0.0
  0
LINE
  5
139
330
1E
100
AcDbEntity
  8
0
100
AcDbLine
 10
36.4
 20
92.53111
 30
0.0
 11
43.89999999999999
 21
90.73111
 31
0.0
  0
LINE
  5
13A
330
1E
100
AcDbEntity
  8
0
100
AcDbLine
 10
36.4
 20
148.4308099999999
 30
0.0
 11
43.89999999999999
 21
150.23081
 31
0.0
  0
LINE
  5
13B
330
1E
100
AcDbEntity
  8
0
100
AcDbLine
 10
34.9
 20
149.73081
 30
0.0
 11
42.7
 21
151.58081
 31
0.0
  0
LINE
  5
13C
330
1E
100
AcDbEntity
  8
0
100
AcDbLine
 10
34.39999999999999
 20
150.99681
 30
0.0
 11
42.29999999999999
 21
152.94681
 31
0.0
  0
LINE
  5
13D
330
1E
100
AcDbEntity
  8
0
100
AcDbLine
 10
42.38399999999999
 20
140.79881
 30
0.0
 11
44.116
 21
141.2988099999999
 31
0.0
  0
LINE
  5
13E
330
1E
100
AcDbEntity
  8
0
100
AcDbLine
 10
42.38399999999999
 20
140.79881
 30
0.0
 11
43.38399999999999
 21
139.93281
 31
0.0
  0
LINE
  5
13F
330
1E
100
AcDbEntity
  8
0
100
AcDbLine
 10
42.38399999999999
 20
98.88303307878791
 30
0.0
 11
42.38399999999999
 21
97.56511000000001
 31
0.0
  0
LINE
  5
140
330
1E
100
AcDbEntity
  8
0
100
AcDbLine
 10
42.38399999999999
 20
97.56511000000001
 30
0.0
 11
42.38399999999999
 21
98.88303307878791
 31
0.0
  0
LINE
  5
141
330
1E
100
AcDbEntity
  8
0
100
AcDbLine
 10
42.38399999999999
 20
97.56511000000001
 30
0.0
 11
44.116
 21
97.06511
 31
0.0
  0
LINE
  5
142
330
1E
100
AcDbEntity
  8
0
100
AcDbLine
 10
42.38399999999999
 20
97.56511000000001
 30
0.0
 11
43.38399999999999
 21
98.43111
 31
0.0
  0
LINE
  5
143
330
1E
100
AcDbEntity
  8
0
100
AcDbLine
 10
42.7
 20
89.38110999999999
 30
0.0
 11
51.5
 21
87.93111000000001
 31
0.0
  0
LINE
  5
144
330
1E
100
AcDbEntity
  8
0
100
AcDbLine
 10
42.7
 20
151.58081
 30
0.0
 11
51.5
 21
153.03081
 31
0.0
  0
LINE
  5
145
330
1E
100
AcDbEntity
  8
0
100
AcDbLine
 10
42.29999999999999
 20
152.94681
 30
0.0
 11
50.8
 21
154.34681
 31
0.0
  0
LINE
  5
146
330
1E
100
AcDbEntity
  8
0
100
AcDbLine
 10
34.39999999999999
 20
169.18381
 30
0.0
 11
42.29999999999999
 21
171.13381
 31
0.0
  0
LINE
  5
147
330
1E
100
AcDbEntity
  8
0
100
AcDbLine
 10
27.5
 20
167.1498099999999
 30
0.0
 11
34.9
 21
169.64981
 31
0.0
  0
LINE
  5
148
330
1E
100
AcDbEntity
  8
0
100
AcDbLine
 10
42.29999999999999
 20
171.13381
 30
0.0
 11
50.8
 21
172.53381
 31
0.0
  0
LINE
  5
149
330
1E
100
AcDbEntity
  8
0
100
AcDbLine
 10
34.9
 20
169.64981
 30
0.0
 11
42.7
 21
171.49981
 31
0.0
  0
LINE
  5
14A
330
1E
100
AcDbEntity
  8
0
100
AcDbLine
 10
50.7154
 20
89.75561
 30
0.0
 11
51.7154
 21
90.62161000000001
 31
0.0
  0
LINE
  5
14B
330
1E
100
AcDbEntity
  8
0
100
AcDbLine
 10
48.9833
 20
90.25561000000001
 30
0.0
 11
50.7154
 21
89.75561
 31
0.0
  0
LINE
  5
14C
330
1E
100
AcDbEntity
  8
0
100
AcDbLine
 10
48.9833
 20
90.25561000000001
 30
0.0
 11
49.9833
 21
91.12161
 31
0.0
  0
LINE
  5
14D
330
1E
100
AcDbEntity
  8
0
100
AcDbLine
 10
43.38399999999999
 20
139.93281
 30
0.0
 11
45.116
 21
140.43281
 31
0.0
  0
LINE
  5
14E
330
1E
100
AcDbEntity
  8
0
100
AcDbLine
 10
43.38399999999999
 20
99.18507550303031
 30
0.0
 11
43.38399999999999
 21
98.43111
 31
0.0
  0
LINE
  5
14F
330
1E
100
AcDbEntity
  8
0
100
AcDbLine
 10
49.9833
 20
91.12161
 30
0.0
 11
51.7154
 21
90.62161000000001
 31
0.0
  0
LINE
  5
150
330
1E
100
AcDbEntity
  8
0
100
AcDbLine
 10
48.334
 20
111.30981
 30
0.0
 11
48.334
 21
112.30981
 31
0.0
  0
LINE
  5
151
330
1E
100
AcDbEntity
  8
0
100
AcDbLine
 10
46.33399999999999
 20
112.633130495868
 30
0.0
 11
46.33399999999999
 21
112.30981
 31
0.0
  0
LINE
  5
152
330
1E
100
AcDbEntity
  8
0
100
AcDbLine
 10
46.33399999999999
 20
112.30981
 30
0.0
 11
46.33399999999999
 21
112.633130495868
 31
0.0
  0
LINE
  5
153
330
1E
100
AcDbEntity
  8
0
100
AcDbLine
 10
46.33399999999999
 20
112.30981
 30
0.0
 11
48.334
 21
112.30981
 31
0.0
  0
LINE
  5
154
330
1E
100
AcDbEntity
  8
0
100
AcDbLine
 10
46.33399999999999
 20
112.30981
 30
0.0
 11
46.33399999999999
 21
111.30981
 31
0.0
  0
LINE
  5
155
330
1E
100
AcDbEntity
  8
0
100
AcDbLine
 10
48.334
 20
113.1400726446279
 30
0.0
 11
48.334
 21
112.30981
 31
0.0
  0
LINE
  5
156
330
1E
100
AcDbEntity
  8
0
100
AcDbLine
 10
48.334
 20
112.30981
 30
0.0
 11
48.334
 21
113.1400726446279
 31
0.0
  0
LINE
  5
157
330
1E
100
AcDbEntity
  8
0
100
AcDbLine
 10
48.334
 20
112.30981
 30
0.0
 11
48.334
 21
111.30981
 31
0.0
  0
LINE
  5
158
330
1E
100
AcDbEntity
  8
0
100
AcDbLine
 10
46.33399999999999
 20
111.768380823529
 30
0.0
 11
46.33399999999999
 21
111.30981
 31
0.0
  0
LINE
  5
159
330
1E
100
AcDbEntity
  8
0
100
AcDbLine
 10
46.33399999999999
 20
111.30981
 30
0.0
 11
46.33399999999999
 21
112.30981
 31
0.0
  0
LINE
  5
15A
330
1E
100
AcDbEntity
  8
0
100
AcDbLine
 10
46.33399999999999
 20
111.30981
 30
0.0
 11
48.334
 21
111.30981
 31
0.0
  0
LINE
  5
15B
330
1E
100
AcDbEntity
  8
0
100
AcDbLine
 10
46.33399999999999
 20
111.30981
 30
0.0
 11
46.33399999999999
 21
111.768380823529
 31
0.0
  0
LINE
  5
15C
330
1E
100
AcDbEntity
  8
0
100
AcDbLine
 10
44.0
 20
117.81581
 30
0.0
 11
44.0
 21
118.81581
 31
0.0
  0
LINE
  5
15D
330
1E
100
AcDbEntity
  8
0
100
AcDbLine
 10
46.33399999999999
 20
125.3630478512399
 30
0.0
 11
46.33399999999999
 21
124.32281
 31
0.0
  0
LINE
  5
15E
330
1E
100
AcDbEntity
  8
0
100
AcDbLine
 10
46.33399999999999
 20
126.290678862745
 30
0.0
 11
46.33399999999999
 21
125.32281
 31
0.0
  0
LINE
  5
15F
330
1E
100
AcDbEntity
  8
0
100
AcDbLine
 10
46.33399999999999
 20
125.32281
 30
0.0
 11
46.33399999999999
 21
124.32281
 31
0.0
  0
LINE
  5
160
330
1E
100
AcDbEntity
  8
0
100
AcDbLine
 10
46.33399999999999
 20
125.32281
 30
0.0
 11
48.334
 21
125.32281
 31
0.0
  0
LINE
  5
161
330
1E
100
AcDbEntity
  8
0
100
AcDbLine
 10
46.33399999999999
 20
125.32281
 30
0.0
 11
46.33399999999999
 21
126.290678862745
 31
0.0
  0
LINE
  5
162
330
1E
100
AcDbEntity
  8
0
100
AcDbLine
 10
48.334
 20
125.7482474901959
 30
0.0
 11
48.334
 21
125.32281
 31
0.0
  0
LINE
  5
163
330
1E
100
AcDbEntity
  8
0
100
AcDbLine
 10
48.334
 20
125.32281
 30
0.0
 11
48.334
 21
125.7482474901959
 31
0.0
  0
LINE
  5
164
330
1E
100
AcDbEntity
  8
0
100
AcDbLine
 10
48.334
 20
125.32281
 30
0.0
 11
48.334
 21
124.32281
 31
0.0
  0
LINE
  5
165
330
1E
100
AcDbEntity
  8
0
100
AcDbLine
 10
48.334
 20
124.32281
 30
0.0
 11
48.334
 21
125.32281
 31
0.0
  0
LINE
  5
166
330
1E
100
AcDbEntity
  8
0
100
AcDbLine
 10
46.33399999999999
 20
124.32281
 30
0.0
 11
46.33399999999999
 21
125.3630478512399
 31
0.0
  0
LINE
  5
167
330
1E
100
AcDbEntity
  8
0
100
AcDbLine
 10
46.33399999999999
 20
124.32281
 30
0.0
 11
48.334
 21
124.32281
 31
0.0
  0
LINE
  5
168
330
1E
100
AcDbEntity
  8
0
100
AcDbLine
 10
46.33399999999999
 20
124.32281
 30
0.0
 11
46.33399999999999
 21
125.32281
 31
0.0
  0
LINE
  5
169
330
1E
100
AcDbEntity
  8
0
100
AcDbLine
 10
44.116
 20
141.2988099999999
 30
0.0
 11
45.116
 21
140.43281
 31
0.0
  0
LINE
  5
16A
330
1E
100
AcDbEntity
  8
0
100
AcDbLine
 10
48.384
 20
135.16981
 30
0.0
 11
50.11600000000001
 21
135.66981
 31
0.0
  0
LINE
  5
16B
330
1E
100
AcDbEntity
  8
0
100
AcDbLine
 10
48.384
 20
135.16981
 30
0.0
 11
49.38399999999999
 21
134.30381
 31
0.0
  0
LINE
  5
16C
330
1E
100
AcDbEntity
  8
0
100
AcDbLine
 10
44.0
 20
119.8262993617019
 30
0.0
 11
44.0
 21
118.81581
 31
0.0
  0
LINE
  5
16D
330
1E
100
AcDbEntity
  8
0
100
AcDbLine
 10
44.0
 20
118.81581
 30
0.0
 11
44.0
 21
119.8262993617019
 31
0.0
  0
LINE
  5
16E
330
1E
100
AcDbEntity
  8
0
100
AcDbLine
 10
44.0
 20
118.81581
 30
0.0
 11
44.0
 21
117.81581
 31
0.0
  0
LINE
  5
16F
330
1E
100
AcDbEntity
  8
0
100
AcDbLine
 10
50.11600000000001
 20
101.82781
 30
0.0
 11
51.11600000000001
 21
102.6938099999999
 31
0.0
  0
LINE
  5
170
330
1E
100
AcDbEntity
  8
0
100
AcDbLine
 10
51.11600000000001
 20
102.6938099999999
 30
0.0
 11
51.11600000000001
 21
103.497794
 31
0.0
  0
LINE
  5
171
330
1E
100
AcDbEntity
  8
0
100
AcDbLine
 10
51.11600000000001
 20
135.1563689999999
 30
0.0
 11
51.11600000000001
 21
134.8038099999999
 31
0.0
  0
LINE
  5
172
330
1E
100
AcDbEntity
  8
0
100
AcDbLine
 10
50.11600000000001
 20
135.66981
 30
0.0
 11
51.11600000000001
 21
134.8038099999999
 31
0.0
  0
LINE
  5
173
330
1E
100
AcDbEntity
  8
0
100
AcDbLine
 10
50.11600000000001
 20
135.66981
 30
0.0
 11
50.11600000000001
 21
135.9386189999999
 31
0.0
  0
LINE
  5
174
330
1E
100
AcDbEntity
  8
0
100
AcDbLine
 10
51.11600000000001
 20
134.8038099999999
 30
0.0
 11
51.11600000000001
 21
135.1563689999999
 31
0.0
  0
LINE
  5
175
330
1E
100
AcDbEntity
  8
0
100
AcDbLine
 10
49.38399999999999
 20
134.30381
 30
0.0
 11
51.11600000000001
 21
134.8038099999999
 31
0.0
  0
LINE
  5
176
330
1E
100
AcDbEntity
  8
0
100
AcDbLine
 10
50.7154
 20
149.47481
 30
0.0
 11
51.7154
 21
148.60881
 31
0.0
  0
LINE
  5
177
330
1E
100
AcDbEntity
  8
0
100
AcDbLine
 10
49.9833
 20
148.10881
 30
0.0
 11
51.7154
 21
148.60881
 31
0.0
  0
LINE
  5
178
330
1E
100
AcDbEntity
  8
0
100
AcDbLine
 10
48.9833
 20
148.97481
 30
0.0
 11
50.7154
 21
149.47481
 31
0.0
  0
LINE
  5
179
330
1E
100
AcDbEntity
  8
0
100
AcDbLine
 10
48.9833
 20
148.97481
 30
0.0
 11
49.9833
 21
148.10881
 31
0.0
  0
LINE
  5
17A
330
1E
100
AcDbEntity
  8
0
100
AcDbLine
 10
50.11600000000001
 20
135.9386189999999
 30
0.0
 11
50.11600000000001
 21
135.66981
 31
0.0
  0
LINE
  5
17B
330
1E
100
AcDbEntity
  8
0
100
AcDbLine
 10
51.11600000000001
 20
103.497794
 30
0.0
 11
51.11600000000001
 21
102.6938099999999
 31
0.0
  0
LINE
  5
17C
330
1E
100
AcDbEntity
  8
0
100
AcDbLine
 10
49.38399999999999
 20
103.19381
 30
0.0
 11
51.11600000000001
 21
102.6938099999999
 31
0.0
  0
LINE
  5
17D
330
1E
100
AcDbEntity
  8
0
100
AcDbLine
 10
48.384
 20
102.3278099999999
 30
0.0
 11
50.11600000000001
 21
101.82781
 31
0.0
  0
LINE
  5
17E
330
1E
100
AcDbEntity
  8
0
100
AcDbLine
 10
48.384
 20
102.3278099999999
 30
0.0
 11
49.38399999999999
 21
103.19381
 31
0.0
  0
LINE
  5
17F
330
1E
100
AcDbEntity
  8
0
100
AcDbLine
 10
44.116
 20
97.06511
 30
0.0
 11
45.116
 21
97.93111000000001
 31
0.0
  0
LINE
  5
180
330
1E
100
AcDbEntity
  8
0
100
AcDbLine
 10
43.38399999999999
 20
98.43111
 30
0.0
 11
43.38399999999999
 21
99.18507550303031
 31
0.0
  0
LINE
  5
181
330
1E
100
AcDbEntity
  8
0
100
AcDbLine
 10
43.38399999999999
 20
98.43111
 30
0.0
 11
45.116
 21
97.93111000000001
 31
0.0
  0
LINE
  5
182
330
1E
100
AcDbEntity
  8
0
100
AcDbLine
 10
43.89999999999999
 20
90.73111
 30
0.0
 11
52.9
 21
89.38110999999999
 31
0.0
  0
LINE
  5
183
330
1E
100
AcDbEntity
  8
0
100
AcDbLine
 10
51.5
 20
87.93111000000001
 30
0.0
 11
59.8
 21
87.08111
 31
0.0
  0
LINE
  5
184
330
1E
100
AcDbEntity
  8
0
100
AcDbLine
 10
43.89999999999999
 20
150.23081
 30
0.0
 11
52.9
 21
151.58081
 31
0.0
  0
LINE
  5
185
330
1E
100
AcDbEntity
  8
0
100
AcDbLine
 10
56.4
 20
5.47839999999999
 30
0.0
 11
57.7
 21
3.70352999999999
 31
0.0
  0
LINE
  5
186
330
1E
100
AcDbEntity
  8
0
100
AcDbLine
 10
56.0
 20
7.33986999999999
 30
0.0
 11
56.4
 21
5.47839999999999
 31
0.0
  0
LINE
  5
187
330
1E
100
AcDbEntity
  8
0
100
AcDbLine
 10
56.0
 20
7.33986999999999
 30
0.0
 11
56.0
 21
76.18380999999999
 31
0.0
  0
LINE
  5
188
330
1E
100
AcDbEntity
  8
0
100
AcDbLine
 10
56.4
 20
73.15271
 30
0.0
 11
57.7
 21
70.29481
 31
0.0
  0
LINE
  5
189
330
1E
100
AcDbEntity
  8
0
100
AcDbLine
 10
56.0
 20
76.18380999999999
 30
0.0
 11
56.4
 21
79.30150999999999
 31
0.0
  0
LINE
  5
18A
330
1E
100
AcDbEntity
  8
0
100
AcDbLine
 10
56.0
 20
76.18380999999999
 30
0.0
 11
56.4
 21
73.15271
 31
0.0
  0
LINE
  5
18B
330
1E
100
AcDbEntity
  8
0
100
AcDbLine
 10
56.0
 20
76.18380999999999
 30
0.0
 11
56.0
 21
7.33986999999999
 31
0.0
  0
LINE
  5
18C
330
1E
100
AcDbEntity
  8
0
100
AcDbLine
 10
57.7
 20
3.70352999999999
 30
0.0
 11
59.7
 21
2.26166999999999
 31
0.0
  0
LINE
  5
18D
330
1E
100
AcDbEntity
  8
0
100
AcDbLine
 10
57.7
 20
70.29481
 30
0.0
 11
59.7
 21
67.78331
 31
0.0
  0
LINE
  5
18E
330
1E
100
AcDbEntity
  8
0
100
AcDbLine
 10
56.4
 20
79.30150999999999
 30
0.0
 11
57.7
 21
82.15930999999999
 31
0.0
  0
LINE
  5
18F
330
1E
100
AcDbEntity
  8
0
100
AcDbLine
 10
57.7
 20
82.15930999999999
 30
0.0
 11
59.5
 21
84.41965999999998
 31
0.0
  0
LINE
  5
190
330
1E
100
AcDbEntity
  8
0
100
AcDbLine
 10
59.7
 20
2.26166999999999
 30
0.0
 11
62.3
 21
1.102819999999989
 31
0.0
  0
LINE
  5
191
330
1E
100
AcDbEntity
  8
0
100
AcDbLine
 10
59.7
 20
2.26166999999999
 30
0.0
 11
60.4
 21
1.834869999999989
 31
0.0
  0
LINE
  5
192
330
1E
100
AcDbEntity
  8
0
100
AcDbLine
 10
59.7
 20
67.78331
 30
0.0
 11
62.3
 21
65.87810999999999
 31
0.0
  0
LINE
  5
193
330
1E
100
AcDbEntity
  8
0
100
AcDbLine
 10
59.5
 20
76.18380999999999
 30
0.0
 11
59.8
 21
74.01870999999999
 31
0.0
  0
LINE
  5
194
330
1E
100
AcDbEntity
  8
0
100
AcDbLine
 10
59.5
 20
76.18380999999999
 30
0.0
 11
59.5
 21
87.1118328915662
 31
0.0
  0
LINE
  5
195
330
1E
100
AcDbEntity
  8
0
100
AcDbLine
 10
54.0
 20
119.7126828323699
 30
0.0
 11
54.0
 21
118.38281
 31
0.0
  0
LINE
  5
196
330
1E
100
AcDbEntity
  8
0
100
AcDbLine
 10
54.0
 20
118.38281
 30
0.0
 11
54.0
 21
119.7126828323699
 31
0.0
  0
LINE
  5
197
330
1E
100
AcDbEntity
  8
0
100
AcDbLine
 10
54.0
 20
118.38281
 30
0.0
 11
56.0
 21
118.38281
 31
0.0
  0
LINE
  5
198
330
1E
100
AcDbEntity
  8
0
100
AcDbLine
 10
54.0
 20
118.38281
 30
0.0
 11
54.0
 21
117.38281
 31
0.0
  0
LINE
  5
199
330
1E
100
AcDbEntity
  8
0
100
AcDbLine
 10
54.0
 20
117.78493716763
 30
0.0
 11
54.0
 21
117.38281
 31
0.0
  0
LINE
  5
19A
330
1E
100
AcDbEntity
  8
0
100
AcDbLine
 10
54.38399999999999
 20
129.54081
 30
0.0
 11
56.11600000000001
 21
130.04081
 31
0.0
  0
LINE
  5
19B
330
1E
100
AcDbEntity
  8
0
100
AcDbLine
 10
54.38399999999999
 20
129.54081
 30
0.0
 11
55.38399999999999
 21
128.67481
 31
0.0
  0
LINE
  5
19C
330
1E
100
AcDbEntity
  8
0
100
AcDbLine
 10
54.0
 20
117.38281
 30
0.0
 11
54.0
 21
118.38281
 31
0.0
  0
LINE
  5
19D
330
1E
100
AcDbEntity
  8
0
100
AcDbLine
 10
54.0
 20
117.38281
 30
0.0
 11
56.0
 21
117.38281
 31
0.0
  0
LINE
  5
19E
330
1E
100
AcDbEntity
  8
0
100
AcDbLine
 10
54.0
 20
117.38281
 30
0.0
 11
54.0
 21
117.78493716763
 31
0.0
  0
LINE
  5
19F
330
1E
100
AcDbEntity
  8
0
100
AcDbLine
 10
54.38399999999999
 20
108.431118210526
 30
0.0
 11
54.38399999999999
 21
107.09081
 31
0.0
  0
LINE
  5
1A0
330
1E
100
AcDbEntity
  8
0
100
AcDbLine
 10
56.63389999999999
 20
94.67060999999999
 30
0.0
 11
57.6339
 21
95.53660999999999
 31
0.0
  0
LINE
  5
1A1
330
1E
100
AcDbEntity
  8
0
100
AcDbLine
 10
55.9018
 20
96.03661
 30
0.0
 11
57.6339
 21
95.53660999999999
 31
0.0
  0
LINE
  5
1A2
330
1E
100
AcDbEntity
  8
0
100
AcDbLine
 10
54.9018
 20
95.17060999999999
 30
0.0
 11
56.63389999999999
 21
94.67060999999999
 31
0.0
  0
LINE
  5
1A3
330
1E
100
AcDbEntity
  8
0
100
AcDbLine
 10
54.9018
 20
95.17060999999999
 30
0.0
 11
55.9018
 21
96.03661
 31
0.0
  0
LINE
  5
1A4
330
1E
100
AcDbEntity
  8
0
100
AcDbLine
 10
57.116
 20
107.5417939999999
 30
0.0
 11
57.116
 21
107.45681
 31
0.0
  0
LINE
  5
1A5
330
1E
100
AcDbEntity
  8
0
100
AcDbLine
 10
56.11600000000001
 20
106.59081
 30
0.0
 11
57.116
 21
107.45681
 31
0.0
  0
LINE
  5
1A6
330
1E
100
AcDbEntity
  8
0
100
AcDbLine
 10
57.116
 20
107.45681
 30
0.0
 11
57.116
 21
107.5417939999999
 31
0.0
  0
LINE
  5
1A7
330
1E
100
AcDbEntity
  8
0
100
AcDbLine
 10
54.9018
 20
143.19381
 30
0.0
 11
56.63389999999999
 21
143.69381
 31
0.0
  0
LINE
  5
1A8
330
1E
100
AcDbEntity
  8
0
100
AcDbLine
 10
54.9018
 20
143.19381
 30
0.0
 11
55.9018
 21
142.32781
 31
0.0
  0
LINE
  5
1A9
330
1E
100
AcDbEntity
  8
0
100
AcDbLine
 10
55.38399999999999
 20
128.67481
 30
0.0
 11
57.116
 21
129.17481
 31
0.0
  0
LINE
  5
1AA
330
1E
100
AcDbEntity
  8
0
100
AcDbLine
 10
56.0
 20
117.38281
 30
0.0
 11
56.0
 21
118.38281
 31
0.0
  0
LINE
  5
1AB
330
1E
100
AcDbEntity
  8
0
100
AcDbLine
 10
55.9018
 20
142.32781
 30
0.0
 11
57.6339
 21
142.8278099999999
 31
0.0
  0
LINE
  5
1AC
330
1E
100
AcDbEntity
  8
0
100
AcDbLine
 10
57.116
 20
130.4628689999999
 30
0.0
 11
57.116
 21
129.17481
 31
0.0
  0
LINE
  5
1AD
330
1E
100
AcDbEntity
  8
0
100
AcDbLine
 10
56.11600000000001
 20
130.04081
 30
0.0
 11
57.116
 21
129.17481
 31
0.0
  0
LINE
  5
1AE
330
1E
100
AcDbEntity
  8
0
100
AcDbLine
 10
56.11600000000001
 20
130.04081
 30
0.0
 11
56.11600000000001
 21
131.2451189999999
 31
0.0
  0
LINE
  5
1AF
330
1E
100
AcDbEntity
  8
0
100
AcDbLine
 10
57.116
 20
129.17481
 30
0.0
 11
57.116
 21
130.4628689999999
 31
0.0
  0
LINE
  5
1B0
330
1E
100
AcDbEntity
  8
0
100
AcDbLine
 10
56.63389999999999
 20
143.69381
 30
0.0
 11
57.6339
 21
142.8278099999999
 31
0.0
  0
LINE
  5
1B1
330
1E
100
AcDbEntity
  8
0
100
AcDbLine
 10
56.11600000000001
 20
131.2451189999999
 30
0.0
 11
56.11600000000001
 21
130.04081
 31
0.0
  0
LINE
  5
1B2
330
1E
100
AcDbEntity
  8
0
100
AcDbLine
 10
56.0
 20
119.579734855491
 30
0.0
 11
56.0
 21
118.38281
 31
0.0
  0
LINE
  5
1B3
330
1E
100
AcDbEntity
  8
0
100
AcDbLine
 10
56.0
 20
118.38281
 30
0.0
 11
56.0
 21
119.579734855491
 31
0.0
  0
LINE
  5
1B4
330
1E
100
AcDbEntity
  8
0
100
AcDbLine
 10
56.0
 20
118.38281
 30
0.0
 11
56.0
 21
117.38281
 31
0.0
  0
LINE
  5
1B5
330
1E
100
AcDbEntity
  8
0
100
AcDbLine
 10
55.38399999999999
 20
108.9329076842109
 30
0.0
 11
55.38399999999999
 21
107.95681
 31
0.0
  0
LINE
  5
1B6
330
1E
100
AcDbEntity
  8
0
100
AcDbLine
 10
55.38399999999999
 20
107.95681
 30
0.0
 11
55.38399999999999
 21
108.9329076842109
 31
0.0
  0
LINE
  5
1B7
330
1E
100
AcDbEntity
  8
0
100
AcDbLine
 10
55.38399999999999
 20
107.95681
 30
0.0
 11
57.116
 21
107.45681
 31
0.0
  0
LINE
  5
1B8
330
1E
100
AcDbEntity
  8
0
100
AcDbLine
 10
54.38399999999999
 20
107.09081
 30
0.0
 11
54.38399999999999
 21
108.431118210526
 31
0.0
  0
LINE
  5
1B9
330
1E
100
AcDbEntity
  8
0
100
AcDbLine
 10
54.38399999999999
 20
107.09081
 30
0.0
 11
56.11600000000001
 21
106.59081
 31
0.0
  0
LINE
  5
1BA
330
1E
100
AcDbEntity
  8
0
100
AcDbLine
 10
54.38399999999999
 20
107.09081
 30
0.0
 11
55.38399999999999
 21
107.95681
 31
0.0
  0
LINE
  5
1BB
330
1E
100
AcDbEntity
  8
0
100
AcDbLine
 10
59.5
 20
87.1118328915662
 30
0.0
 11
59.5
 21
76.18380999999999
 31
0.0
  0
LINE
  5
1BC
330
1E
100
AcDbEntity
  8
0
100
AcDbLine
 10
52.9
 20
89.38110999999999
 30
0.0
 11
60.0
 21
88.53111
 31
0.0
  0
LINE
  5
1BD
330
1E
100
AcDbEntity
  8
0
100
AcDbLine
 10
52.9
 20
151.58081
 30
0.0
 11
60.0
 21
152.43081
 31
0.0
  0
LINE
  5
1BE
330
1E
100
AcDbEntity
  8
0
100
AcDbLine
 10
51.5
 20
153.03081
 30
0.0
 11
59.8
 21
153.8808099999999
 31
0.0
  0
LINE
  5
1BF
330
1E
100
AcDbEntity
  8
0
100
AcDbLine
 10
50.8
 20
154.34681
 30
0.0
 11
59.7
 21
155.24681
 31
0.0
  0
LINE
  5
1C0
330
1E
100
AcDbEntity
  8
0
100
AcDbLine
 10
59.8
 20
74.01870999999999
 30
0.0
 11
60.7
 21
71.94020999999999
 31
0.0
  0
LINE
  5
1C1
330
1E
100
AcDbEntity
  8
0
100
AcDbLine
 10
59.8
 20
87.08111
 30
0.0
 11
68.5
 21
86.73111
 31
0.0
  0
LINE
  5
1C2
330
1E
100
AcDbEntity
  8
0
100
AcDbLine
 10
59.8
 20
153.8808099999999
 30
0.0
 11
68.5
 21
154.23081
 31
0.0
  0
LINE
  5
1C3
330
1E
100
AcDbEntity
  8
0
100
AcDbLine
 10
59.7
 20
155.24681
 30
0.0
 11
68.5
 21
155.59681
 31
0.0
  0
LINE
  5
1C4
330
1E
100
AcDbEntity
  8
0
100
AcDbLine
 10
50.8
 20
172.53381
 30
0.0
 11
59.7
 21
173.43381
 31
0.0
  0
LINE
  5
1C5
330
1E
100
AcDbEntity
  8
0
100
AcDbLine
 10
42.7
 20
171.49981
 30
0.0
 11
51.5
 21
172.94981
 31
0.0
  0
LINE
  5
1C6
330
1E
100
AcDbEntity
  8
0
100
AcDbLine
 10
59.7
 20
173.43381
 30
0.0
 11
68.5
 21
173.78381
 31
0.0
  0
LINE
  5
1C7
330
1E
100
AcDbEntity
  8
0
100
AcDbLine
 10
51.5
 20
172.94981
 30
0.0
 11
59.8
 21
173.79981
 31
0.0
  0
LINE
  5
1C8
330
1E
100
AcDbEntity
  8
0
100
AcDbLine
 10
60.4
 20
1.834869999999989
 30
0.0
 11
62.8
 21
0.7126299999999879
 31
0.0
  0
LINE
  5
1C9
330
1E
100
AcDbEntity
  8
0
100
AcDbLine
 10
62.8
 20
0.7126299999999879
 30
0.0
 11
65.5
 21
0.0966099999999862
 31
0.0
  0
LINE
  5
1CA
330
1E
100
AcDbEntity
  8
0
100
AcDbLine
 10
62.8
 20
0.7126299999999879
 30
0.0
 11
65.5
 21
0.0966099999999862
 31
0.0
  0
LINE
  5
1CB
330
1E
100
AcDbEntity
  8
0
100
AcDbLine
 10
62.3
 20
1.102819999999989
 30
0.0
 11
65.3
 21
0.400199999999988
 31
0.0
  0
LINE
  5
1CC
330
1E
100
AcDbEntity
  8
0
100
AcDbLine
 10
62.3
 20
1.102819999999989
 30
0.0
 11
65.3
 21
0.400199999999988
 31
0.0
  0
LINE
  5
1CD
330
1E
100
AcDbEntity
  8
0
100
AcDbLine
 10
62.3
 20
65.87810999999999
 30
0.0
 11
65.3
 21
64.66561
 31
0.0
  0
LINE
  5
1CE
330
1E
100
AcDbEntity
  8
0
100
AcDbLine
 10
65.3
 20
0.400199999999988
 30
0.0
 11
68.5
 21
0.0671799999999867
 31
0.0
  0
LINE
  5
1CF
330
1E
100
AcDbEntity
  8
0
100
AcDbLine
 10
65.3
 20
0.400199999999988
 30
0.0
 11
68.5
 21
0.0671799999999867
 31
0.0
  0
LINE
  5
1D0
330
1E
100
AcDbEntity
  8
0
100
AcDbLine
 10
68.5
 20
-0.149810000000013
 30
0.0
 11
71.5
 21
0.0966099999999862
 31
0.0
  0
LINE
  5
1D1
330
1E
100
AcDbEntity
  8
0
100
AcDbLine
 10
68.5
 20
-0.149810000000012
 30
0.0
 11
71.5
 21
0.0966099999999862
 31
0.0
  0
LINE
  5
1D2
330
1E
100
AcDbEntity
  8
0
100
AcDbLine
 10
68.5
 20
0.0671799999999867
 30
0.0
 11
71.7
 21
0.400199999999988
 31
0.0
  0
LINE
  5
1D3
330
1E
100
AcDbEntity
  8
0
100
AcDbLine
 10
71.5
 20
0.0966099999999862
 30
0.0
 11
74.2
 21
0.7126299999999879
 31
0.0
  0
LINE
  5
1D4
330
1E
100
AcDbEntity
  8
0
100
AcDbLine
 10
68.5
 20
0.0671799999999867
 30
0.0
 11
71.7
 21
0.400199999999988
 31
0.0
  0
LINE
  5
1D5
330
1E
100
AcDbEntity
  8
0
100
AcDbLine
 10
68.5
 20
64.23261
 30
0.0
 11
71.7
 21
64.66561
 31
0.0
  0
LINE
  5
1D6
330
1E
100
AcDbEntity
  8
0
100
AcDbLine
 10
71.5
 20
0.0966099999999862
 30
0.0
 11
74.2
 21
0.7126299999999879
 31
0.0
  0
LINE
  5
1D7
330
1E
100
AcDbEntity
  8
0
100
AcDbLine
 10
71.7
 20
0.400199999999988
 30
0.0
 11
74.7
 21
1.102819999999989
 31
0.0
  0
LINE
  5
1D8
330
1E
100
AcDbEntity
  8
0
100
AcDbLine
 10
74.2
 20
0.7126299999999879
 30
0.0
 11
76.6
 21
1.834869999999989
 31
0.0
  0
LINE
  5
1D9
330
1E
100
AcDbEntity
  8
0
100
AcDbLine
 10
71.7
 20
0.400199999999988
 30
0.0
 11
74.7
 21
1.102819999999989
 31
0.0
  0
LINE
  5
1DA
330
1E
100
AcDbEntity
  8
0
100
AcDbLine
 10
74.7
 20
1.102819999999989
 30
0.0
 11
77.3
 21
2.26166999999999
 31
0.0
  0
LINE
  5
1DB
330
1E
100
AcDbEntity
  8
0
100
AcDbLine
 10
71.7
 20
64.66561
 30
0.0
 11
74.7
 21
65.87810999999999
 31
0.0
  0
LINE
  5
1DC
330
1E
100
AcDbEntity
  8
0
100
AcDbLine
 10
76.6
 20
1.834869999999989
 30
0.0
 11
77.3
 21
2.26166999999999
 31
0.0
  0
LINE
  5
1DD
330
1E
100
AcDbEntity
  8
0
100
AcDbLine
 10
77.3
 20
2.26166999999999
 30
0.0
 11
79.29999999999999
 21
3.70352999999999
 31
0.0
  0
LINE
  5
1DE
330
1E
100
AcDbEntity
  8
0
100
AcDbLine
 10
79.29999999999999
 20
3.70352999999999
 30
0.0
 11
80.6
 21
5.47839999999999
 31
0.0
  0
LINE
  5
1DF
330
1E
100
AcDbEntity
  8
0
100
AcDbLine
 10
80.6
 20
5.47839999999999
 30
0.0
 11
81.0
 21
7.33986999999999
 31
0.0
  0
LINE
  5
1E0
330
1E
100
AcDbEntity
  8
0
100
AcDbLine
 10
81.0
 20
7.33986999999999
 30
0.0
 11
81.0
 21
76.18380999999999
 31
0.0
  0
LINE
  5
1E1
330
1E
100
AcDbEntity
  8
0
100
AcDbLine
 10
74.7
 20
65.87810999999999
 30
0.0
 11
77.3
 21
67.78331
 31
0.0
  0
LINE
  5
1E2
330
1E
100
AcDbEntity
  8
0
100
AcDbLine
 10
77.3
 20
67.78331
 30
0.0
 11
79.29999999999999
 21
70.29481
 31
0.0
  0
LINE
  5
1E3
330
1E
100
AcDbEntity
  8
0
100
AcDbLine
 10
68.5
 20
67.61010999999999
 30
0.0
 11
70.8
 21
67.95650999999999
 31
0.0
  0
LINE
  5
1E4
330
1E
100
AcDbEntity
  8
0
100
AcDbLine
 10
70.8
 20
67.95650999999999
 30
0.0
 11
73.0
 21
68.73591000000001
 31
0.0
  0
LINE
  5
1E5
330
1E
100
AcDbEntity
  8
0
100
AcDbLine
 10
65.5
 20
0.0966099999999862
 30
0.0
 11
68.5
 21
-0.149810000000012
 31
0.0
  0
LINE
  5
1E6
330
1E
100
AcDbEntity
  8
0
100
AcDbLine
 10
65.5
 20
0.0966099999999862
 30
0.0
 11
68.5
 21
-0.149810000000013
 31
0.0
  0
LINE
  5
1E7
330
1E
100
AcDbEntity
  8
0
100
AcDbLine
 10
65.3
 20
64.66561
 30
0.0
 11
68.5
 21
64.23261
 31
0.0
  0
LINE
  5
1E8
330
1E
100
AcDbEntity
  8
0
100
AcDbLine
 10
73.0
 20
68.73591000000001
 30
0.0
 11
74.90000000000001
 21
70.12161
 31
0.0
  0
LINE
  5
1E9
330
1E
100
AcDbEntity
  8
0
100
AcDbLine
 10
74.90000000000001
 20
70.12161
 30
0.0
 11
76.29999999999999
 21
71.94020999999999
 31
0.0
  0
LINE
  5
1EA
330
1E
100
AcDbEntity
  8
0
100
AcDbLine
 10
66.2
 20
67.95650999999999
 30
0.0
 11
68.5
 21
67.61010999999999
 31
0.0
  0
LINE
  5
1EB
330
1E
100
AcDbEntity
  8
0
100
AcDbLine
 10
64.0
 20
68.73591000000001
 30
0.0
 11
66.2
 21
67.95650999999999
 31
0.0
  0
LINE
  5
1EC
330
1E
100
AcDbEntity
  8
0
100
AcDbLine
 10
76.29999999999999
 20
71.94020999999999
 30
0.0
 11
77.2
 21
74.01870999999999
 31
0.0
  0
LINE
  5
1ED
330
1E
100
AcDbEntity
  8
0
100
AcDbLine
 10
77.5
 20
84.41965999999998
 30
0.0
 11
79.29999999999999
 21
82.15930999999999
 31
0.0
  0
LINE
  5
1EE
330
1E
100
AcDbEntity
  8
0
100
AcDbLine
 10
77.2
 20
74.01870999999999
 30
0.0
 11
77.5
 21
76.18380999999999
 31
0.0
  0
LINE
  5
1EF
330
1E
100
AcDbEntity
  8
0
100
AcDbLine
 10
79.29999999999999
 20
70.29481
 30
0.0
 11
80.6
 21
73.15271
 31
0.0
  0
LINE
  5
1F0
330
1E
100
AcDbEntity
  8
0
100
AcDbLine
 10
80.6
 20
73.15271
 30
0.0
 11
81.0
 21
76.18380999999999
 31
0.0
  0
LINE
  5
1F1
330
1E
100
AcDbEntity
  8
0
100
AcDbLine
 10
81.0
 20
76.18380999999999
 30
0.0
 11
81.0
 21
7.33986999999999
 31
0.0
  0
LINE
  5
1F2
330
1E
100
AcDbEntity
  8
0
100
AcDbLine
 10
80.6
 20
79.30150999999999
 30
0.0
 11
81.0
 21
76.18380999999999
 31
0.0
  0
LINE
  5
1F3
330
1E
100
AcDbEntity
  8
0
100
AcDbLine
 10
79.29999999999999
 20
82.15930999999999
 30
0.0
 11
80.6
 21
79.30150999999999
 31
0.0
  0
LINE
  5
1F4
330
1E
100
AcDbEntity
  8
0
100
AcDbLine
 10
77.5
 20
76.18380999999999
 30
0.0
 11
77.5
 21
87.1118328915662
 31
0.0
  0
LINE
  5
1F5
330
1E
100
AcDbEntity
  8
0
100
AcDbLine
 10
62.1
 20
70.12161
 30
0.0
 11
64.0
 21
68.73591000000001
 31
0.0
  0
LINE
  5
1F6
330
1E
100
AcDbEntity
  8
0
100
AcDbLine
 10
60.7
 20
71.94020999999999
 30
0.0
 11
62.1
 21
70.12161
 31
0.0
  0
LINE
  5
1F7
330
1E
100
AcDbEntity
  8
0
100
AcDbLine
 10
60.38399999999999
 20
124.070149622641
 30
0.0
 11
60.38399999999999
 21
123.91181
 31
0.0
  0
LINE
  5
1F8
330
1E
100
AcDbEntity
  8
0
100
AcDbLine
 10
60.38399999999999
 20
123.91181
 30
0.0
 11
60.38399999999999
 21
124.070149622641
 31
0.0
  0
LINE
  5
1F9
330
1E
100
AcDbEntity
  8
0
100
AcDbLine
 10
60.38399999999999
 20
123.91181
 30
0.0
 11
62.116
 21
124.41181
 31
0.0
  0
LINE
  5
1FA
330
1E
100
AcDbEntity
  8
0
100
AcDbLine
 10
60.38399999999999
 20
123.91181
 30
0.0
 11
61.38399999999999
 21
123.04581
 31
0.0
  0
LINE
  5
1FB
330
1E
100
AcDbEntity
  8
0
100
AcDbLine
 10
60.38399999999999
 20
113.4274703773579
 30
0.0
 11
60.38399999999999
 21
111.85481
 31
0.0
  0
LINE
  5
1FC
330
1E
100
AcDbEntity
  8
0
100
AcDbLine
 10
62.2115
 20
100.06881
 30
0.0
 11
63.2115
 21
100.9348099999999
 31
0.0
  0
LINE
  5
1FD
330
1E
100
AcDbEntity
  8
0
100
AcDbLine
 10
61.4794
 20
101.43481
 30
0.0
 11
63.2115
 21
100.9348099999999
 31
0.0
  0
LINE
  5
1FE
330
1E
100
AcDbEntity
  8
0
100
AcDbLine
 10
60.4794
 20
100.5688099999999
 30
0.0
 11
62.2115
 21
100.06881
 31
0.0
  0
LINE
  5
1FF
330
1E
100
AcDbEntity
  8
0
100
AcDbLine
 10
60.4794
 20
100.5688099999999
 30
0.0
 11
61.4794
 21
101.43481
 31
0.0
  0
LINE
  5
200
330
1E
100
AcDbEntity
  8
0
100
AcDbLine
 10
62.72359999999999
 20
88.91961
 30
0.0
 11
64.4556
 21
88.41960999999999
 31
0.0
  0
LINE
  5
201
330
1E
100
AcDbEntity
  8
0
100
AcDbLine
 10
62.72359999999999
 20
88.91961
 30
0.0
 11
63.7236
 21
89.78560999999999
 31
0.0
  0
LINE
  5
202
330
1E
100
AcDbEntity
  8
0
100
AcDbLine
 10
63.11600000000001
 20
112.279974179104
 30
0.0
 11
63.11600000000001
 21
112.22081
 31
0.0
  0
LINE
  5
203
330
1E
100
AcDbEntity
  8
0
100
AcDbLine
 10
62.116
 20
111.35481
 30
0.0
 11
63.11600000000001
 21
112.22081
 31
0.0
  0
LINE
  5
204
330
1E
100
AcDbEntity
  8
0
100
AcDbLine
 10
75.6339
 20
88.97811
 30
0.0
 11
75.6339
 21
89.87053087058821
 31
0.0
  0
LINE
  5
205
330
1E
100
AcDbEntity
  8
0
100
AcDbLine
 10
75.6339
 20
88.97811
 30
0.0
 11
77.36589999999999
 21
88.47811
 31
0.0
  0
LINE
  5
206
330
1E
100
AcDbEntity
  8
0
100
AcDbLine
 10
75.6339
 20
88.97811
 30
0.0
 11
76.63389999999999
 21
89.84410999999999
 31
0.0
  0
LINE
  5
207
330
1E
100
AcDbEntity
  8
0
100
AcDbLine
 10
64.4556
 20
88.41960999999999
 30
0.0
 11
65.4556
 21
89.28561
 31
0.0
  0
LINE
  5
208
330
1E
100
AcDbEntity
  8
0
100
AcDbLine
 10
71.152
 20
94.00811
 30
0.0
 11
72.152
 21
94.87410999999999
 31
0.0
  0
LINE
  5
209
330
1E
100
AcDbEntity
  8
0
100
AcDbLine
 10
69.55249999999999
 20
105.21481
 30
0.0
 11
70.5525
 21
106.08081
 31
0.0
  0
LINE
  5
20A
330
1E
100
AcDbEntity
  8
0
100
AcDbLine
 10
68.82049999999999
 20
106.58081
 30
0.0
 11
70.5525
 21
106.08081
 31
0.0
  0
LINE
  5
20B
330
1E
100
AcDbEntity
  8
0
100
AcDbLine
 10
67.82049999999999
 20
105.71481
 30
0.0
 11
69.55249999999999
 21
105.21481
 31
0.0
  0
LINE
  5
20C
330
1E
100
AcDbEntity
  8
0
100
AcDbLine
 10
67.82049999999999
 20
105.71481
 30
0.0
 11
68.82049999999999
 21
106.58081
 31
0.0
  0
LINE
  5
20D
330
1E
100
AcDbEntity
  8
0
100
AcDbLine
 10
73.884
 20
112.279974179104
 30
0.0
 11
73.884
 21
112.22081
 31
0.0
  0
LINE
  5
20E
330
1E
100
AcDbEntity
  8
0
100
AcDbLine
 10
73.884
 20
112.22081
 30
0.0
 11
73.884
 21
112.279974179104
 31
0.0
  0
LINE
  5
20F
330
1E
100
AcDbEntity
  8
0
100
AcDbLine
 10
73.884
 20
112.22081
 30
0.0
 11
75.616
 21
112.72081
 31
0.0
  0
LINE
  5
210
330
1E
100
AcDbEntity
  8
0
100
AcDbLine
 10
73.884
 20
112.22081
 30
0.0
 11
74.884
 21
111.35481
 31
0.0
  0
LINE
  5
211
330
1E
100
AcDbEntity
  8
0
100
AcDbLine
 10
75.616
 20
112.72081
 30
0.0
 11
76.61599999999999
 21
111.85481
 31
0.0
  0
LINE
  5
212
330
1E
100
AcDbEntity
  8
0
100
AcDbLine
 10
75.616
 20
112.72081
 30
0.0
 11
75.616
 21
114.083130754717
 31
0.0
  0
LINE
  5
213
330
1E
100
AcDbEntity
  8
0
100
AcDbLine
 10
74.884
 20
111.35481
 30
0.0
 11
76.61599999999999
 21
111.85481
 31
0.0
  0
LINE
  5
214
330
1E
100
AcDbEntity
  8
0
100
AcDbLine
 10
74.78270000000001
 20
100.6098099999999
 30
0.0
 11
76.5147
 21
100.1098099999999
 31
0.0
  0
LINE
  5
215
330
1E
100
AcDbEntity
  8
0
100
AcDbLine
 10
74.78270000000001
 20
100.6098099999999
 30
0.0
 11
75.7827
 21
101.4758099999999
 31
0.0
  0
LINE
  5
216
330
1E
100
AcDbEntity
  8
0
100
AcDbLine
 10
70.42
 20
95.37411
 30
0.0
 11
72.152
 21
94.87410999999999
 31
0.0
  0
LINE
  5
217
330
1E
100
AcDbEntity
  8
0
100
AcDbLine
 10
69.42
 20
94.50810999999999
 30
0.0
 11
71.152
 21
94.00811
 31
0.0
  0
LINE
  5
218
330
1E
100
AcDbEntity
  8
0
100
AcDbLine
 10
69.42
 20
94.50810999999999
 30
0.0
 11
70.42
 21
95.37411
 31
0.0
  0
LINE
  5
219
330
1E
100
AcDbEntity
  8
0
100
AcDbLine
 10
76.61599999999999
 20
111.85481
 30
0.0
 11
76.61599999999999
 21
113.4274703773579
 31
0.0
  0
LINE
  5
21A
330
1E
100
AcDbEntity
  8
0
100
AcDbLine
 10
76.5147
 20
100.1098099999999
 30
0.0
 11
77.51470000000001
 21
100.9758099999999
 31
0.0
  0
LINE
  5
21B
330
1E
100
AcDbEntity
  8
0
100
AcDbLine
 10
75.7827
 20
101.4758099999999
 30
0.0
 11
77.51470000000001
 21
100.9758099999999
 31
0.0
  0
LINE
  5
21C
330
1E
100
AcDbEntity
  8
0
100
AcDbLine
 10
76.63389999999999
 20
89.84410999999999
 30
0.0
 11
78.3659
 21
89.34411
 31
0.0
  0
LINE
  5
21D
330
1E
100
AcDbEntity
  8
0
100
AcDbLine
 10
75.6339
 20
89.87053087058821
 30
0.0
 11
75.6339
 21
88.97811
 31
0.0
  0
LINE
  5
21E
330
1E
100
AcDbEntity
  8
0
100
AcDbLine
 10
63.7236
 20
89.78560999999999
 30
0.0
 11
65.4556
 21
89.28561
 31
0.0
  0
LINE
  5
21F
330
1E
100
AcDbEntity
  8
0
100
AcDbLine
 10
63.11600000000001
 20
112.22081
 30
0.0
 11
63.11600000000001
 21
112.279974179104
 31
0.0
  0
LINE
  5
220
330
1E
100
AcDbEntity
  8
0
100
AcDbLine
 10
60.4794
 20
136.9298099999999
 30
0.0
 11
62.2115
 21
137.42981
 31
0.0
  0
LINE
  5
221
330
1E
100
AcDbEntity
  8
0
100
AcDbLine
 10
60.4794
 20
136.9298099999999
 30
0.0
 11
61.4794
 21
136.06381
 31
0.0
  0
LINE
  5
222
330
1E
100
AcDbEntity
  8
0
100
AcDbLine
 10
61.38399999999999
 20
123.04581
 30
0.0
 11
63.11600000000001
 21
123.54581
 31
0.0
  0
LINE
  5
223
330
1E
100
AcDbEntity
  8
0
100
AcDbLine
 10
62.5
 20
118.74881
 30
0.0
 11
62.5
 21
118.32681
 31
0.0
  0
LINE
  5
224
330
1E
100
AcDbEntity
  8
0
100
AcDbLine
 10
62.716
 20
117.55881
 30
0.0
 11
63.292
 21
116.83881
 31
0.0
  0
LINE
  5
225
330
1E
100
AcDbEntity
  8
0
100
AcDbLine
 10
62.716
 20
119.09481
 30
0.0
 11
63.292
 21
119.81481
 31
0.0
  0
LINE
  5
226
330
1E
100
AcDbEntity
  8
0
100
AcDbLine
 10
62.5
 20
118.32681
 30
0.0
 11
62.716
 21
119.09481
 31
0.0
  0
LINE
  5
227
330
1E
100
AcDbEntity
  8
0
100
AcDbLine
 10
62.5
 20
118.32681
 30
0.0
 11
62.716
 21
117.55881
 31
0.0
  0
LINE
  5
228
330
1E
100
AcDbEntity
  8
0
100
AcDbLine
 10
62.5
 20
118.32681
 30
0.0
 11
62.5
 21
118.74881
 31
0.0
  0
LINE
  5
229
330
1E
100
AcDbEntity
  8
0
100
AcDbLine
 10
63.11600000000001
 20
125.217645820896
 30
0.0
 11
63.11600000000001
 21
123.54581
 31
0.0
  0
LINE
  5
22A
330
1E
100
AcDbEntity
  8
0
100
AcDbLine
 10
62.116
 20
124.41181
 30
0.0
 11
63.11600000000001
 21
123.54581
 31
0.0
  0
LINE
  5
22B
330
1E
100
AcDbEntity
  8
0
100
AcDbLine
 10
62.116
 20
124.41181
 30
0.0
 11
62.116
 21
126.14381
 31
0.0
  0
LINE
  5
22C
330
1E
100
AcDbEntity
  8
0
100
AcDbLine
 10
63.292
 20
116.83881
 30
0.0
 11
64.252
 21
116.20281
 31
0.0
  0
LINE
  5
22D
330
1E
100
AcDbEntity
  8
0
100
AcDbLine
 10
66.964
 20
115.43481
 30
0.0
 11
68.5
 21
115.32681
 31
0.0
  0
LINE
  5
22E
330
1E
100
AcDbEntity
  8
0
100
AcDbLine
 10
65.524
 20
115.72281
 30
0.0
 11
66.964
 21
115.43481
 31
0.0
  0
LINE
  5
22F
330
1E
100
AcDbEntity
  8
0
100
AcDbLine
 10
68.5
 20
115.32681
 30
0.0
 11
70.036
 21
115.43481
 31
0.0
  0
LINE
  5
230
330
1E
100
AcDbEntity
  8
0
100
AcDbLine
 10
70.036
 20
115.43481
 30
0.0
 11
71.476
 21
115.72281
 31
0.0
  0
LINE
  5
231
330
1E
100
AcDbEntity
  8
0
100
AcDbLine
 10
64.252
 20
116.20281
 30
0.0
 11
65.524
 21
115.72281
 31
0.0
  0
LINE
  5
232
330
1E
100
AcDbEntity
  8
0
100
AcDbLine
 10
71.476
 20
115.72281
 30
0.0
 11
72.748
 21
116.20281
 31
0.0
  0
LINE
  5
233
330
1E
100
AcDbEntity
  8
0
100
AcDbLine
 10
72.748
 20
116.20281
 30
0.0
 11
73.708
 21
116.83881
 31
0.0
  0
LINE
  5
234
330
1E
100
AcDbEntity
  8
0
100
AcDbLine
 10
73.708
 20
116.83881
 30
0.0
 11
74.28399999999999
 21
117.55881
 31
0.0
  0
LINE
  5
235
330
1E
100
AcDbEntity
  8
0
100
AcDbLine
 10
74.28399999999999
 20
117.55881
 30
0.0
 11
74.5
 21
118.32681
 31
0.0
  0
LINE
  5
236
330
1E
100
AcDbEntity
  8
0
100
AcDbLine
 10
72.748
 20
120.4508099999999
 30
0.0
 11
73.708
 21
119.81481
 31
0.0
  0
LINE
  5
237
330
1E
100
AcDbEntity
  8
0
100
AcDbLine
 10
73.708
 20
119.81481
 30
0.0
 11
74.28399999999999
 21
119.09481
 31
0.0
  0
LINE
  5
238
330
1E
100
AcDbEntity
  8
0
100
AcDbLine
 10
74.5
 20
118.74881
 30
0.0
 11
74.5
 21
118.32681
 31
0.0
  0
LINE
  5
239
330
1E
100
AcDbEntity
  8
0
100
AcDbLine
 10
74.5
 20
118.32681
 30
0.0
 11
74.5
 21
118.74881
 31
0.0
  0
LINE
  5
23A
330
1E
100
AcDbEntity
  8
0
100
AcDbLine
 10
74.28399999999999
 20
119.09481
 30
0.0
 11
74.5
 21
118.32681
 31
0.0
  0
LINE
  5
23B
330
1E
100
AcDbEntity
  8
0
100
AcDbLine
 10
70.036
 20
121.21881
 30
0.0
 11
71.476
 21
120.93081
 31
0.0
  0
LINE
  5
23C
330
1E
100
AcDbEntity
  8
0
100
AcDbLine
 10
71.476
 20
120.93081
 30
0.0
 11
72.748
 21
120.4508099999999
 31
0.0
  0
LINE
  5
23D
330
1E
100
AcDbEntity
  8
0
100
AcDbLine
 10
68.5
 20
121.32681
 30
0.0
 11
70.036
 21
121.21881
 31
0.0
  0
LINE
  5
23E
330
1E
100
AcDbEntity
  8
0
100
AcDbLine
 10
66.964
 20
121.21881
 30
0.0
 11
68.5
 21
121.32681
 31
0.0
  0
LINE
  5
23F
330
1E
100
AcDbEntity
  8
0
100
AcDbLine
 10
65.524
 20
120.93081
 30
0.0
 11
66.964
 21
121.21881
 31
0.0
  0
LINE
  5
240
330
1E
100
AcDbEntity
  8
0
100
AcDbLine
 10
64.252
 20
120.4508099999999
 30
0.0
 11
65.524
 21
120.93081
 31
0.0
  0
LINE
  5
241
330
1E
100
AcDbEntity
  8
0
100
AcDbLine
 10
63.292
 20
119.81481
 30
0.0
 11
64.252
 21
120.4508099999999
 31
0.0
  0
LINE
  5
242
330
1E
100
AcDbEntity
  8
0
100
AcDbLine
 10
75.616
 20
114.083130754717
 30
0.0
 11
75.616
 21
112.72081
 31
0.0
  0
LINE
  5
243
330
1E
100
AcDbEntity
  8
0
100
AcDbLine
 10
76.61599999999999
 20
113.4274703773579
 30
0.0
 11
76.61599999999999
 21
111.85481
 31
0.0
  0
LINE
  5
244
330
1E
100
AcDbEntity
  8
0
100
AcDbLine
 10
73.884
 20
123.54581
 30
0.0
 11
73.884
 21
125.217645820896
 31
0.0
  0
LINE
  5
245
330
1E
100
AcDbEntity
  8
0
100
AcDbLine
 10
73.884
 20
123.54581
 30
0.0
 11
75.616
 21
123.04581
 31
0.0
  0
LINE
  5
246
330
1E
100
AcDbEntity
  8
0
100
AcDbLine
 10
73.884
 20
123.54581
 30
0.0
 11
74.884
 21
124.41181
 31
0.0
  0
LINE
  5
247
330
1E
100
AcDbEntity
  8
0
100
AcDbLine
 10
76.61599999999999
 20
124.070149622641
 30
0.0
 11
76.61599999999999
 21
123.91181
 31
0.0
  0
LINE
  5
248
330
1E
100
AcDbEntity
  8
0
100
AcDbLine
 10
75.616
 20
123.04581
 30
0.0
 11
76.61599999999999
 21
123.91181
 31
0.0
  0
LINE
  5
249
330
1E
100
AcDbEntity
  8
0
100
AcDbLine
 10
76.61599999999999
 20
123.91181
 30
0.0
 11
76.61599999999999
 21
124.070149622641
 31
0.0
  0
LINE
  5
24A
330
1E
100
AcDbEntity
  8
0
100
AcDbLine
 10
73.884
 20
125.217645820896
 30
0.0
 11
73.884
 21
123.54581
 31
0.0
  0
LINE
  5
24B
330
1E
100
AcDbEntity
  8
0
100
AcDbLine
 10
74.884
 20
126.14381
 30
0.0
 11
74.884
 21
124.41181
 31
0.0
  0
LINE
  5
24C
330
1E
100
AcDbEntity
  8
0
100
AcDbLine
 10
74.884
 20
124.41181
 30
0.0
 11
76.61599999999999
 21
123.91181
 31
0.0
  0
LINE
  5
24D
330
1E
100
AcDbEntity
  8
0
100
AcDbLine
 10
74.884
 20
124.41181
 30
0.0
 11
74.884
 21
126.14381
 31
0.0
  0
LINE
  5
24E
330
1E
100
AcDbEntity
  8
0
100
AcDbLine
 10
63.11600000000001
 20
123.54581
 30
0.0
 11
63.11600000000001
 21
125.217645820896
 31
0.0
  0
LINE
  5
24F
330
1E
100
AcDbEntity
  8
0
100
AcDbLine
 10
62.2115
 20
137.42981
 30
0.0
 11
63.2115
 21
136.56381
 31
0.0
  0
LINE
  5
250
330
1E
100
AcDbEntity
  8
0
100
AcDbLine
 10
61.4794
 20
136.06381
 30
0.0
 11
63.2115
 21
136.56381
 31
0.0
  0
LINE
  5
251
330
1E
100
AcDbEntity
  8
0
100
AcDbLine
 10
68.82049999999999
 20
130.05181
 30
0.0
 11
70.5525
 21
130.55181
 31
0.0
  0
LINE
  5
252
330
1E
100
AcDbEntity
  8
0
100
AcDbLine
 10
67.82049999999999
 20
130.91781
 30
0.0
 11
69.55249999999999
 21
131.41781
 31
0.0
  0
LINE
  5
253
330
1E
100
AcDbEntity
  8
0
100
AcDbLine
 10
67.82049999999999
 20
130.91781
 30
0.0
 11
68.82049999999999
 21
130.05181
 31
0.0
  0
LINE
  5
254
330
1E
100
AcDbEntity
  8
0
100
AcDbLine
 10
69.55249999999999
 20
131.41781
 30
0.0
 11
70.5525
 21
130.55181
 31
0.0
  0
LINE
  5
255
330
1E
100
AcDbEntity
  8
0
100
AcDbLine
 10
76.5147
 20
137.3878099999999
 30
0.0
 11
77.51470000000001
 21
136.52181
 31
0.0
  0
LINE
  5
256
330
1E
100
AcDbEntity
  8
0
100
AcDbLine
 10
75.7827
 20
136.02181
 30
0.0
 11
77.51470000000001
 21
136.52181
 31
0.0
  0
LINE
  5
257
330
1E
100
AcDbEntity
  8
0
100
AcDbLine
 10
74.78270000000001
 20
136.88781
 30
0.0
 11
76.5147
 21
137.3878099999999
 31
0.0
  0
LINE
  5
258
330
1E
100
AcDbEntity
  8
0
100
AcDbLine
 10
74.78270000000001
 20
136.88781
 30
0.0
 11
75.7827
 21
136.02181
 31
0.0
  0
LINE
  5
259
330
1E
100
AcDbEntity
  8
0
100
AcDbLine
 10
71.152
 20
144.35581
 30
0.0
 11
72.152
 21
143.48981
 31
0.0
  0
LINE
  5
25A
330
1E
100
AcDbEntity
  8
0
100
AcDbLine
 10
71.152
 20
144.35581
 30
0.0
 11
71.152
 21
145.505402
 31
0.0
  0
LINE
  5
25B
330
1E
100
AcDbEntity
  8
0
100
AcDbLine
 10
70.42
 20
142.98981
 30
0.0
 11
72.152
 21
143.48981
 31
0.0
  0
LINE
  5
25C
330
1E
100
AcDbEntity
  8
0
100
AcDbLine
 10
76.63389999999999
 20
149.38581
 30
0.0
 11
78.3659
 21
149.88581
 31
0.0
  0
LINE
  5
25D
330
1E
100
AcDbEntity
  8
0
100
AcDbLine
 10
71.152
 20
145.505402
 30
0.0
 11
71.152
 21
144.35581
 31
0.0
  0
LINE
  5
25E
330
1E
100
AcDbEntity
  8
0
100
AcDbLine
 10
69.42
 20
143.85581
 30
0.0
 11
71.152
 21
144.35581
 31
0.0
  0
LINE
  5
25F
330
1E
100
AcDbEntity
  8
0
100
AcDbLine
 10
69.42
 20
143.85581
 30
0.0
 11
70.42
 21
142.98981
 31
0.0
  0
LINE
  5
260
330
1E
100
AcDbEntity
  8
0
100
AcDbLine
 10
75.6339
 20
150.8130261647059
 30
0.0
 11
75.6339
 21
150.25181
 31
0.0
  0
LINE
  5
261
330
1E
100
AcDbEntity
  8
0
100
AcDbLine
 10
75.6339
 20
150.25181
 30
0.0
 11
75.6339
 21
150.8130261647059
 31
0.0
  0
LINE
  5
262
330
1E
100
AcDbEntity
  8
0
100
AcDbLine
 10
75.6339
 20
150.25181
 30
0.0
 11
77.36589999999999
 21
150.75181
 31
0.0
  0
LINE
  5
263
330
1E
100
AcDbEntity
  8
0
100
AcDbLine
 10
75.6339
 20
150.25181
 30
0.0
 11
76.63389999999999
 21
149.38581
 31
0.0
  0
LINE
  5
264
330
1E
100
AcDbEntity
  8
0
100
AcDbLine
 10
64.4556
 20
150.81081
 30
0.0
 11
65.4556
 21
149.94481
 31
0.0
  0
LINE
  5
265
330
1E
100
AcDbEntity
  8
0
100
AcDbLine
 10
63.7236
 20
149.44481
 30
0.0
 11
65.4556
 21
149.94481
 31
0.0
  0
LINE
  5
266
330
1E
100
AcDbEntity
  8
0
100
AcDbLine
 10
62.72359999999999
 20
150.31081
 30
0.0
 11
64.4556
 21
150.81081
 31
0.0
  0
LINE
  5
267
330
1E
100
AcDbEntity
  8
0
100
AcDbLine
 10
62.72359999999999
 20
150.31081
 30
0.0
 11
63.7236
 21
149.44481
 31
0.0
  0
LINE
  5
268
330
1E
100
AcDbEntity
  8
0
100
AcDbLine
 10
62.116
 20
126.14381
 30
0.0
 11
62.116
 21
124.41181
 31
0.0
  0
LINE
  5
269
330
1E
100
AcDbEntity
  8
0
100
AcDbLine
 10
61.38399999999999
 20
114.083130754717
 30
0.0
 11
61.38399999999999
 21
112.72081
 31
0.0
  0
LINE
  5
26A
330
1E
100
AcDbEntity
  8
0
100
AcDbLine
 10
61.38399999999999
 20
112.72081
 30
0.0
 11
61.38399999999999
 21
114.083130754717
 31
0.0
  0
LINE
  5
26B
330
1E
100
AcDbEntity
  8
0
100
AcDbLine
 10
61.38399999999999
 20
112.72081
 30
0.0
 11
63.11600000000001
 21
112.22081
 31
0.0
  0
LINE
  5
26C
330
1E
100
AcDbEntity
  8
0
100
AcDbLine
 10
60.38399999999999
 20
111.85481
 30
0.0
 11
60.38399999999999
 21
113.4274703773579
 31
0.0
  0
LINE
  5
26D
330
1E
100
AcDbEntity
  8
0
100
AcDbLine
 10
60.38399999999999
 20
111.85481
 30
0.0
 11
62.116
 21
111.35481
 31
0.0
  0
LINE
  5
26E
330
1E
100
AcDbEntity
  8
0
100
AcDbLine
 10
60.38399999999999
 20
111.85481
 30
0.0
 11
61.38399999999999
 21
112.72081
 31
0.0
  0
LINE
  5
26F
330
1E
100
AcDbEntity
  8
0
100
AcDbLine
 10
77.0
 20
152.43081
 30
0.0
 11
84.1
 21
151.58081
 31
0.0
  0
LINE
  5
270
330
1E
100
AcDbEntity
  8
0
100
AcDbLine
 10
77.0
 20
88.53111
 30
0.0
 11
77.1288665126837
 21
88.5465376810959
 31
0.0
  0
LINE
  5
271
330
1E
100
AcDbEntity
  8
0
100
AcDbLine
 10
68.5
 20
88.23111
 30
0.0
 11
77.0
 21
88.53111
 31
0.0
  0
LINE
  5
272
330
1E
100
AcDbEntity
  8
0
100
AcDbLine
 10
77.5
 20
87.1118328915662
 30
0.0
 11
77.5
 21
76.18380999999999
 31
0.0
  0
LINE
  5
273
330
1E
100
AcDbEntity
  8
0
100
AcDbLine
 10
77.36589999999999
 20
88.47811
 30
0.0
 11
78.3659
 21
89.34411
 31
0.0
  0
LINE
  5
274
330
1E
100
AcDbEntity
  8
0
100
AcDbLine
 10
82.7175
 20
94.90410999999999
 30
0.0
 11
83.7175
 21
95.77011
 31
0.0
  0
LINE
  5
275
330
1E
100
AcDbEntity
  8
0
100
AcDbLine
 10
77.51470000000001
 20
137.5180057659569
 30
0.0
 11
77.51470000000001
 21
136.52181
 31
0.0
  0
LINE
  5
276
330
1E
100
AcDbEntity
  8
0
100
AcDbLine
 10
77.51470000000001
 20
136.52181
 30
0.0
 11
77.51470000000001
 21
137.5180057659569
 31
0.0
  0
LINE
  5
277
330
1E
100
AcDbEntity
  8
0
100
AcDbLine
 10
77.36589999999999
 20
150.75181
 30
0.0
 11
78.3659
 21
149.88581
 31
0.0
  0
LINE
  5
278
330
1E
100
AcDbEntity
  8
0
100
AcDbLine
 10
79.884
 20
107.5417939999999
 30
0.0
 11
79.884
 21
107.45681
 31
0.0
  0
LINE
  5
279
330
1E
100
AcDbEntity
  8
0
100
AcDbLine
 10
79.884
 20
107.45681
 30
0.0
 11
79.884
 21
107.5417939999999
 31
0.0
  0
LINE
  5
27A
330
1E
100
AcDbEntity
  8
0
100
AcDbLine
 10
79.884
 20
107.45681
 30
0.0
 11
81.61599999999999
 21
107.95681
 31
0.0
  0
LINE
  5
27B
330
1E
100
AcDbEntity
  8
0
100
AcDbLine
 10
79.884
 20
107.45681
 30
0.0
 11
80.884
 21
106.59081
 31
0.0
  0
LINE
  5
27C
330
1E
100
AcDbEntity
  8
0
100
AcDbLine
 10
80.884
 20
106.59081
 30
0.0
 11
82.61599999999999
 21
107.09081
 31
0.0
  0
LINE
  5
27D
330
1E
100
AcDbEntity
  8
0
100
AcDbLine
 10
79.884
 20
129.17481
 30
0.0
 11
79.884
 21
130.4628689999999
 31
0.0
  0
LINE
  5
27E
330
1E
100
AcDbEntity
  8
0
100
AcDbLine
 10
79.884
 20
129.17481
 30
0.0
 11
81.61599999999999
 21
128.67481
 31
0.0
  0
LINE
  5
27F
330
1E
100
AcDbEntity
  8
0
100
AcDbLine
 10
79.884
 20
129.17481
 30
0.0
 11
80.884
 21
130.04081
 31
0.0
  0
LINE
  5
280
330
1E
100
AcDbEntity
  8
0
100
AcDbLine
 10
79.884
 20
130.4628689999999
 30
0.0
 11
79.884
 21
129.17481
 31
0.0
  0
LINE
  5
281
330
1E
100
AcDbEntity
  8
0
100
AcDbLine
 10
80.98550000000001
 20
143.5821351282049
 30
0.0
 11
80.98550000000001
 21
142.9598099999999
 31
0.0
  0
LINE
  5
282
330
1E
100
AcDbEntity
  8
0
100
AcDbLine
 10
80.98550000000001
 20
142.9598099999999
 30
0.0
 11
80.98550000000001
 21
143.5821351282049
 31
0.0
  0
LINE
  5
283
330
1E
100
AcDbEntity
  8
0
100
AcDbLine
 10
80.98550000000001
 20
142.9598099999999
 30
0.0
 11
82.7175
 21
143.45981
 31
0.0
  0
LINE
  5
284
330
1E
100
AcDbEntity
  8
0
100
AcDbLine
 10
80.98550000000001
 20
142.9598099999999
 30
0.0
 11
81.9855
 21
142.09381
 31
0.0
  0
LINE
  5
285
330
1E
100
AcDbEntity
  8
0
100
AcDbLine
 10
80.884
 20
131.2451189999999
 30
0.0
 11
80.884
 21
130.04081
 31
0.0
  0
LINE
  5
286
330
1E
100
AcDbEntity
  8
0
100
AcDbLine
 10
80.884
 20
130.04081
 30
0.0
 11
82.61599999999999
 21
129.54081
 31
0.0
  0
LINE
  5
287
330
1E
100
AcDbEntity
  8
0
100
AcDbLine
 10
80.884
 20
130.04081
 30
0.0
 11
80.884
 21
131.2451189999999
 31
0.0
  0
LINE
  5
288
330
1E
100
AcDbEntity
  8
0
100
AcDbLine
 10
77.51470000000001
 20
101.217047724468
 30
0.0
 11
77.51470000000001
 21
100.9758099999999
 31
0.0
  0
LINE
  5
289
330
1E
100
AcDbEntity
  8
0
100
AcDbLine
 10
77.51470000000001
 20
100.9758099999999
 30
0.0
 11
77.51470000000001
 21
101.217047724468
 31
0.0
  0
LINE
  5
28A
330
1E
100
AcDbEntity
  8
0
100
AcDbLine
 10
81.0
 20
117.9178851445089
 30
0.0
 11
81.0
 21
117.38281
 31
0.0
  0
LINE
  5
28B
330
1E
100
AcDbEntity
  8
0
100
AcDbLine
 10
81.0
 20
119.579734855491
 30
0.0
 11
81.0
 21
118.38281
 31
0.0
  0
LINE
  5
28C
330
1E
100
AcDbEntity
  8
0
100
AcDbLine
 10
81.0
 20
117.38281
 30
0.0
 11
81.0
 21
117.9178851445089
 31
0.0
  0
LINE
  5
28D
330
1E
100
AcDbEntity
  8
0
100
AcDbLine
 10
81.0
 20
117.38281
 30
0.0
 11
81.0
 21
118.38281
 31
0.0
  0
LINE
  5
28E
330
1E
100
AcDbEntity
  8
0
100
AcDbLine
 10
81.0
 20
117.38281
 30
0.0
 11
83.0
 21
117.38281
 31
0.0
  0
LINE
  5
28F
330
1E
100
AcDbEntity
  8
0
100
AcDbLine
 10
81.0
 20
118.38281
 30
0.0
 11
81.0
 21
119.579734855491
 31
0.0
  0
LINE
  5
290
330
1E
100
AcDbEntity
  8
0
100
AcDbLine
 10
81.0
 20
118.38281
 30
0.0
 11
83.0
 21
118.38281
 31
0.0
  0
LINE
  5
291
330
1E
100
AcDbEntity
  8
0
100
AcDbLine
 10
81.0
 20
118.38281
 30
0.0
 11
81.0
 21
117.38281
 31
0.0
  0
LINE
  5
292
330
1E
100
AcDbEntity
  8
0
100
AcDbLine
 10
81.61599999999999
 20
108.9329076842109
 30
0.0
 11
81.61599999999999
 21
107.95681
 31
0.0
  0
LINE
  5
293
330
1E
100
AcDbEntity
  8
0
100
AcDbLine
 10
81.61599999999999
 20
107.95681
 30
0.0
 11
82.61599999999999
 21
107.09081
 31
0.0
  0
LINE
  5
294
330
1E
100
AcDbEntity
  8
0
100
AcDbLine
 10
81.61599999999999
 20
107.95681
 30
0.0
 11
81.61599999999999
 21
108.9329076842109
 31
0.0
  0
LINE
  5
295
330
1E
100
AcDbEntity
  8
0
100
AcDbLine
 10
81.9855
 20
142.09381
 30
0.0
 11
83.7175
 21
142.59381
 31
0.0
  0
LINE
  5
296
330
1E
100
AcDbEntity
  8
0
100
AcDbLine
 10
81.61599999999999
 20
128.67481
 30
0.0
 11
82.61599999999999
 21
129.54081
 31
0.0
  0
LINE
  5
297
330
1E
100
AcDbEntity
  8
0
100
AcDbLine
 10
82.61599999999999
 20
108.431118210526
 30
0.0
 11
82.61599999999999
 21
107.09081
 31
0.0
  0
LINE
  5
298
330
1E
100
AcDbEntity
  8
0
100
AcDbLine
 10
83.0
 20
119.7126828323699
 30
0.0
 11
83.0
 21
118.38281
 31
0.0
  0
LINE
  5
299
330
1E
100
AcDbEntity
  8
0
100
AcDbLine
 10
83.0
 20
118.38281
 30
0.0
 11
83.0
 21
119.7126828323699
 31
0.0
  0
LINE
  5
29A
330
1E
100
AcDbEntity
  8
0
100
AcDbLine
 10
83.0
 20
118.38281
 30
0.0
 11
83.0
 21
117.38281
 31
0.0
  0
LINE
  5
29B
330
1E
100
AcDbEntity
  8
0
100
AcDbLine
 10
83.0
 20
117.38281
 30
0.0
 11
83.0
 21
118.38281
 31
0.0
  0
LINE
  5
29C
330
1E
100
AcDbEntity
  8
0
100
AcDbLine
 10
82.61599999999999
 20
107.09081
 30
0.0
 11
82.61599999999999
 21
108.431118210526
 31
0.0
  0
LINE
  5
29D
330
1E
100
AcDbEntity
  8
0
100
AcDbLine
 10
82.7175
 20
143.45981
 30
0.0
 11
83.7175
 21
142.59381
 31
0.0
  0
LINE
  5
29E
330
1E
100
AcDbEntity
  8
0
100
AcDbLine
 10
81.9855
 20
96.7053691472868
 30
0.0
 11
81.9855
 21
96.27011000000001
 31
0.0
  0
LINE
  5
29F
330
1E
100
AcDbEntity
  8
0
100
AcDbLine
 10
81.9855
 20
96.27011000000001
 30
0.0
 11
81.9855
 21
96.7053691472868
 31
0.0
  0
LINE
  5
2A0
330
1E
100
AcDbEntity
  8
0
100
AcDbLine
 10
81.9855
 20
96.27011000000001
 30
0.0
 11
83.7175
 21
95.77011
 31
0.0
  0
LINE
  5
2A1
330
1E
100
AcDbEntity
  8
0
100
AcDbLine
 10
80.98550000000001
 20
95.99662743589741
 30
0.0
 11
80.98550000000001
 21
95.40411
 31
0.0
  0
LINE
  5
2A2
330
1E
100
AcDbEntity
  8
0
100
AcDbLine
 10
80.98550000000001
 20
95.40411
 30
0.0
 11
80.98550000000001
 21
95.99662743589741
 31
0.0
  0
LINE
  5
2A3
330
1E
100
AcDbEntity
  8
0
100
AcDbLine
 10
80.98550000000001
 20
95.40411
 30
0.0
 11
82.7175
 21
94.90410999999999
 31
0.0
  0
LINE
  5
2A4
330
1E
100
AcDbEntity
  8
0
100
AcDbLine
 10
80.98550000000001
 20
95.40411
 30
0.0
 11
81.9855
 21
96.27011000000001
 31
0.0
  0
LINE
  5
2A5
330
1E
100
AcDbEntity
  8
0
100
AcDbLine
 10
89.75010000000001
 20
89.97161
 30
0.0
 11
90.7501
 21
90.83761
 31
0.0
  0
LINE
  5
2A6
330
1E
100
AcDbEntity
  8
0
100
AcDbLine
 10
85.884
 20
103.497794
 30
0.0
 11
85.884
 21
102.6938099999999
 31
0.0
  0
LINE
  5
2A7
330
1E
100
AcDbEntity
  8
0
100
AcDbLine
 10
85.884
 20
102.6938099999999
 30
0.0
 11
85.884
 21
103.497794
 31
0.0
  0
LINE
  5
2A8
330
1E
100
AcDbEntity
  8
0
100
AcDbLine
 10
85.884
 20
102.6938099999999
 30
0.0
 11
87.61599999999999
 21
103.19381
 31
0.0
  0
LINE
  5
2A9
330
1E
100
AcDbEntity
  8
0
100
AcDbLine
 10
85.884
 20
102.6938099999999
 30
0.0
 11
86.88399999999999
 21
101.82781
 31
0.0
  0
LINE
  5
2AA
330
1E
100
AcDbEntity
  8
0
100
AcDbLine
 10
87.61599999999999
 20
103.19381
 30
0.0
 11
88.61600000000001
 21
102.3278099999999
 31
0.0
  0
LINE
  5
2AB
330
1E
100
AcDbEntity
  8
0
100
AcDbLine
 10
86.88399999999999
 20
101.82781
 30
0.0
 11
88.61600000000001
 21
102.3278099999999
 31
0.0
  0
LINE
  5
2AC
330
1E
100
AcDbEntity
  8
0
100
AcDbLine
 10
88.666
 20
112.174969058824
 30
0.0
 11
88.666
 21
111.30981
 31
0.0
  0
LINE
  5
2AD
330
1E
100
AcDbEntity
  8
0
100
AcDbLine
 10
88.666
 20
113.1400726446279
 30
0.0
 11
88.666
 21
112.30981
 31
0.0
  0
LINE
  5
2AE
330
1E
100
AcDbEntity
  8
0
100
AcDbLine
 10
88.666
 20
111.30981
 30
0.0
 11
88.666
 21
112.174969058824
 31
0.0
  0
LINE
  5
2AF
330
1E
100
AcDbEntity
  8
0
100
AcDbLine
 10
88.666
 20
111.30981
 30
0.0
 11
88.666
 21
112.30981
 31
0.0
  0
LINE
  5
2B0
330
1E
100
AcDbEntity
  8
0
100
AcDbLine
 10
88.666
 20
111.30981
 30
0.0
 11
90.66599999999999
 21
111.30981
 31
0.0
  0
LINE
  5
2B1
330
1E
100
AcDbEntity
  8
0
100
AcDbLine
 10
88.666
 20
112.30981
 30
0.0
 11
88.666
 21
113.1400726446279
 31
0.0
  0
LINE
  5
2B2
330
1E
100
AcDbEntity
  8
0
100
AcDbLine
 10
88.666
 20
112.30981
 30
0.0
 11
90.66599999999999
 21
112.30981
 31
0.0
  0
LINE
  5
2B3
330
1E
100
AcDbEntity
  8
0
100
AcDbLine
 10
88.666
 20
112.30981
 30
0.0
 11
88.666
 21
111.30981
 31
0.0
  0
LINE
  5
2B4
330
1E
100
AcDbEntity
  8
0
100
AcDbLine
 10
85.884
 20
135.1563689999999
 30
0.0
 11
85.884
 21
134.8038099999999
 31
0.0
  0
LINE
  5
2B5
330
1E
100
AcDbEntity
  8
0
100
AcDbLine
 10
85.884
 20
134.8038099999999
 30
0.0
 11
85.884
 21
135.1563689999999
 31
0.0
  0
LINE
  5
2B6
330
1E
100
AcDbEntity
  8
0
100
AcDbLine
 10
85.884
 20
134.8038099999999
 30
0.0
 11
87.61599999999999
 21
134.30381
 31
0.0
  0
LINE
  5
2B7
330
1E
100
AcDbEntity
  8
0
100
AcDbLine
 10
85.884
 20
134.8038099999999
 30
0.0
 11
86.88399999999999
 21
135.66981
 31
0.0
  0
LINE
  5
2B8
330
1E
100
AcDbEntity
  8
0
100
AcDbLine
 10
87.61599999999999
 20
134.30381
 30
0.0
 11
88.61600000000001
 21
135.16981
 31
0.0
  0
LINE
  5
2B9
330
1E
100
AcDbEntity
  8
0
100
AcDbLine
 10
88.01799999999998
 20
148.75881
 30
0.0
 11
89.75010000000001
 21
149.25881
 31
0.0
  0
LINE
  5
2BA
330
1E
100
AcDbEntity
  8
0
100
AcDbLine
 10
88.01799999999998
 20
148.75881
 30
0.0
 11
89.01799999999999
 21
147.89281
 31
0.0
  0
LINE
  5
2BB
330
1E
100
AcDbEntity
  8
0
100
AcDbLine
 10
86.88399999999999
 20
135.9386189999999
 30
0.0
 11
86.88399999999999
 21
135.66981
 31
0.0
  0
LINE
  5
2BC
330
1E
100
AcDbEntity
  8
0
100
AcDbLine
 10
86.88399999999999
 20
135.66981
 30
0.0
 11
88.61600000000001
 21
135.16981
 31
0.0
  0
LINE
  5
2BD
330
1E
100
AcDbEntity
  8
0
100
AcDbLine
 10
86.88399999999999
 20
135.66981
 30
0.0
 11
86.88399999999999
 21
135.9386189999999
 31
0.0
  0
LINE
  5
2BE
330
1E
100
AcDbEntity
  8
0
100
AcDbLine
 10
88.666
 20
125.7482474901959
 30
0.0
 11
88.666
 21
125.32281
 31
0.0
  0
LINE
  5
2BF
330
1E
100
AcDbEntity
  8
0
100
AcDbLine
 10
88.666
 20
125.32281
 30
0.0
 11
88.666
 21
125.7482474901959
 31
0.0
  0
LINE
  5
2C0
330
1E
100
AcDbEntity
  8
0
100
AcDbLine
 10
88.666
 20
125.32281
 30
0.0
 11
88.666
 21
124.32281
 31
0.0
  0
LINE
  5
2C1
330
1E
100
AcDbEntity
  8
0
100
AcDbLine
 10
88.666
 20
125.32281
 30
0.0
 11
90.66599999999999
 21
125.32281
 31
0.0
  0
LINE
  5
2C2
330
1E
100
AcDbEntity
  8
0
100
AcDbLine
 10
89.01799999999999
 20
147.89281
 30
0.0
 11
90.7501
 21
148.3928099999999
 31
0.0
  0
LINE
  5
2C3
330
1E
100
AcDbEntity
  8
0
100
AcDbLine
 10
88.666
 20
124.7129652066119
 30
0.0
 11
88.666
 21
124.32281
 31
0.0
  0
LINE
  5
2C4
330
1E
100
AcDbEntity
  8
0
100
AcDbLine
 10
88.666
 20
124.32281
 30
0.0
 11
88.666
 21
124.7129652066119
 31
0.0
  0
LINE
  5
2C5
330
1E
100
AcDbEntity
  8
0
100
AcDbLine
 10
88.666
 20
124.32281
 30
0.0
 11
90.66599999999999
 21
124.32281
 31
0.0
  0
LINE
  5
2C6
330
1E
100
AcDbEntity
  8
0
100
AcDbLine
 10
88.666
 20
124.32281
 30
0.0
 11
88.666
 21
125.32281
 31
0.0
  0
LINE
  5
2C7
330
1E
100
AcDbEntity
  8
0
100
AcDbLine
 10
89.75010000000001
 20
149.25881
 30
0.0
 11
90.7501
 21
148.3928099999999
 31
0.0
  0
LINE
  5
2C8
330
1E
100
AcDbEntity
  8
0
100
AcDbLine
 10
89.75010000000001
 20
149.25881
 30
0.0
 11
89.75010000000001
 21
150.733295
 31
0.0
  0
LINE
  5
2C9
330
1E
100
AcDbEntity
  8
0
100
AcDbLine
 10
89.75010000000001
 20
150.733295
 30
0.0
 11
89.75010000000001
 21
149.25881
 31
0.0
  0
LINE
  5
2CA
330
1E
100
AcDbEntity
  8
0
100
AcDbLine
 10
89.01799999999999
 20
91.33760999999999
 30
0.0
 11
90.7501
 21
90.83761
 31
0.0
  0
LINE
  5
2CB
330
1E
100
AcDbEntity
  8
0
100
AcDbLine
 10
88.01799999999998
 20
90.47161
 30
0.0
 11
89.75010000000001
 21
89.97161
 31
0.0
  0
LINE
  5
2CC
330
1E
100
AcDbEntity
  8
0
100
AcDbLine
 10
88.01799999999998
 20
90.47161
 30
0.0
 11
89.01799999999999
 21
91.33760999999999
 31
0.0
  0
LINE
  5
2CD
330
1E
100
AcDbEntity
  8
0
100
AcDbLine
 10
84.1
 20
151.58081
 30
0.0
 11
93.1
 21
150.23081
 31
0.0
  0
LINE
  5
2CE
330
1E
100
AcDbEntity
  8
0
100
AcDbLine
 10
84.1
 20
89.38110999999999
 30
0.0
 11
89.16419990392391
 21
90.1407399855886
 31
0.0
  0
LINE
  5
2CF
330
1E
100
AcDbEntity
  8
0
100
AcDbLine
 10
90.66599999999999
 20
112.633130495868
 30
0.0
 11
90.66599999999999
 21
112.30981
 31
0.0
  0
LINE
  5
2D0
330
1E
100
AcDbEntity
  8
0
100
AcDbLine
 10
90.66599999999999
 20
112.30981
 30
0.0
 11
90.66599999999999
 21
112.633130495868
 31
0.0
  0
LINE
  5
2D1
330
1E
100
AcDbEntity
  8
0
100
AcDbLine
 10
90.66599999999999
 20
112.30981
 30
0.0
 11
90.66599999999999
 21
111.30981
 31
0.0
  0
LINE
  5
2D2
330
1E
100
AcDbEntity
  8
0
100
AcDbLine
 10
90.66599999999999
 20
111.30981
 30
0.0
 11
90.66599999999999
 21
112.30981
 31
0.0
  0
LINE
  5
2D3
330
1E
100
AcDbEntity
  8
0
100
AcDbLine
 10
90.66599999999999
 20
124.32281
 30
0.0
 11
90.66599999999999
 21
125.32281
 31
0.0
  0
LINE
  5
2D4
330
1E
100
AcDbEntity
  8
0
100
AcDbLine
 10
90.66599999999999
 20
126.290678862745
 30
0.0
 11
90.66599999999999
 21
125.32281
 31
0.0
  0
LINE
  5
2D5
330
1E
100
AcDbEntity
  8
0
100
AcDbLine
 10
90.7501
 20
148.6521872558139
 30
0.0
 11
90.7501
 21
148.3928099999999
 31
0.0
  0
LINE
  5
2D6
330
1E
100
AcDbEntity
  8
0
100
AcDbLine
 10
90.7501
 20
148.3928099999999
 30
0.0
 11
90.7501
 21
148.6521872558139
 31
0.0
  0
LINE
  5
2D7
330
1E
100
AcDbEntity
  8
0
100
AcDbLine
 10
90.66599999999999
 20
125.32281
 30
0.0
 11
90.66599999999999
 21
124.32281
 31
0.0
  0
LINE
  5
2D8
330
1E
100
AcDbEntity
  8
0
100
AcDbLine
 10
90.66599999999999
 20
125.32281
 30
0.0
 11
90.66599999999999
 21
126.290678862745
 31
0.0
  0
LINE
  5
2D9
330
1E
100
AcDbEntity
  8
0
100
AcDbLine
 10
90.7501
 20
91.99422679069771
 30
0.0
 11
90.7501
 21
90.83761
 31
0.0
  0
LINE
  5
2DA
330
1E
100
AcDbEntity
  8
0
100
AcDbLine
 10
91.88399999999999
 20
97.93111000000001
 30
0.0
 11
93.61600000000001
 21
98.43111
 31
0.0
  0
LINE
  5
2DB
330
1E
100
AcDbEntity
  8
0
100
AcDbLine
 10
91.88399999999999
 20
97.93111000000001
 30
0.0
 11
92.88400000000001
 21
97.06511
 31
0.0
  0
LINE
  5
2DC
330
1E
100
AcDbEntity
  8
0
100
AcDbLine
 10
92.88400000000001
 20
97.06511
 30
0.0
 11
94.616
 21
97.56511000000001
 31
0.0
  0
LINE
  5
2DD
330
1E
100
AcDbEntity
  8
0
100
AcDbLine
 10
93.0
 20
118.113533404255
 30
0.0
 11
93.0
 21
117.81581
 31
0.0
  0
LINE
  5
2DE
330
1E
100
AcDbEntity
  8
0
100
AcDbLine
 10
93.0
 20
119.8262993617019
 30
0.0
 11
93.0
 21
118.81581
 31
0.0
  0
LINE
  5
2DF
330
1E
100
AcDbEntity
  8
0
100
AcDbLine
 10
93.0
 20
117.81581
 30
0.0
 11
93.0
 21
118.113533404255
 31
0.0
  0
LINE
  5
2E0
330
1E
100
AcDbEntity
  8
0
100
AcDbLine
 10
93.0
 20
117.81581
 30
0.0
 11
93.0
 21
118.81581
 31
0.0
  0
LINE
  5
2E1
330
1E
100
AcDbEntity
  8
0
100
AcDbLine
 10
93.0
 20
117.81581
 30
0.0
 11
95.0
 21
117.81581
 31
0.0
  0
LINE
  5
2E2
330
1E
100
AcDbEntity
  8
0
100
AcDbLine
 10
93.61600000000001
 20
99.18507550303031
 30
0.0
 11
93.61600000000001
 21
98.43111
 31
0.0
  0
LINE
  5
2E3
330
1E
100
AcDbEntity
  8
0
100
AcDbLine
 10
93.61600000000001
 20
98.43111
 30
0.0
 11
94.616
 21
97.56511000000001
 31
0.0
  0
LINE
  5
2E4
330
1E
100
AcDbEntity
  8
0
100
AcDbLine
 10
93.61600000000001
 20
98.43111
 30
0.0
 11
93.61600000000001
 21
99.18507550303031
 31
0.0
  0
LINE
  5
2E5
330
1E
100
AcDbEntity
  8
0
100
AcDbLine
 10
93.0
 20
118.81581
 30
0.0
 11
93.0
 21
119.8262993617019
 31
0.0
  0
LINE
  5
2E6
330
1E
100
AcDbEntity
  8
0
100
AcDbLine
 10
93.0
 20
118.81581
 30
0.0
 11
95.0
 21
118.81581
 31
0.0
  0
LINE
  5
2E7
330
1E
100
AcDbEntity
  8
0
100
AcDbLine
 10
93.0
 20
118.81581
 30
0.0
 11
93.0
 21
117.81581
 31
0.0
  0
LINE
  5
2E8
330
1E
100
AcDbEntity
  8
0
100
AcDbLine
 10
91.88399999999999
 20
140.43281
 30
0.0
 11
93.61600000000001
 21
139.93281
 31
0.0
  0
LINE
  5
2E9
330
1E
100
AcDbEntity
  8
0
100
AcDbLine
 10
91.88399999999999
 20
140.43281
 30
0.0
 11
92.88400000000001
 21
141.2988099999999
 31
0.0
  0
LINE
  5
2EA
330
1E
100
AcDbEntity
  8
0
100
AcDbLine
 10
93.61600000000001
 20
139.93281
 30
0.0
 11
94.616
 21
140.79881
 31
0.0
  0
LINE
  5
2EB
330
1E
100
AcDbEntity
  8
0
100
AcDbLine
 10
92.88400000000001
 20
141.2988099999999
 30
0.0
 11
94.616
 21
140.79881
 31
0.0
  0
LINE
  5
2EC
330
1E
100
AcDbEntity
  8
0
100
AcDbLine
 10
90.7501
 20
90.83761
 30
0.0
 11
90.7501
 21
91.99422679069771
 31
0.0
  0
LINE
  5
2ED
330
1E
100
AcDbEntity
  8
0
100
AcDbLine
 10
93.1
 20
150.23081
 30
0.0
 11
100.6
 21
148.4308099999999
 31
0.0
  0
LINE
  5
2EE
330
1E
100
AcDbEntity
  8
0
100
AcDbLine
 10
94.29999999999999
 20
151.58081
 30
0.0
 11
102.0999999999999
 21
149.73081
 31
0.0
  0
LINE
  5
2EF
330
1E
100
AcDbEntity
  8
0
100
AcDbLine
 10
93.1
 20
90.73111
 30
0.0
 11
100.6
 21
92.53111
 31
0.0
  0
LINE
  5
2F0
330
1E
100
AcDbEntity
  8
0
100
AcDbLine
 10
90.10905949720671
 20
90.28246892458099
 30
0.0
 11
93.1
 21
90.73111
 31
0.0
  0
LINE
  5
2F1
330
1E
100
AcDbEntity
  8
0
100
AcDbLine
 10
77.49561634016529
 20
88.5904443505832
 30
0.0
 11
84.1
 21
89.38110999999999
 31
0.0
  0
LINE
  5
2F2
330
1E
100
AcDbEntity
  8
0
100
AcDbLine
 10
98.884
 20
92.30161
 30
0.0
 11
100.6159999999999
 21
92.80160999999999
 31
0.0
  0
LINE
  5
2F3
330
1E
100
AcDbEntity
  8
0
100
AcDbLine
 10
97.88400000000001
 20
93.65520142857141
 30
0.0
 11
97.88400000000001
 21
93.16760999999999
 31
0.0
  0
LINE
  5
2F4
330
1E
100
AcDbEntity
  8
0
100
AcDbLine
 10
97.88400000000001
 20
93.16760999999999
 30
0.0
 11
97.88400000000001
 21
93.65520142857141
 31
0.0
  0
LINE
  5
2F5
330
1E
100
AcDbEntity
  8
0
100
AcDbLine
 10
97.88400000000001
 20
93.16760999999999
 30
0.0
 11
99.616
 21
93.66761
 31
0.0
  0
LINE
  5
2F6
330
1E
100
AcDbEntity
  8
0
100
AcDbLine
 10
97.88400000000001
 20
93.16760999999999
 30
0.0
 11
98.884
 21
92.30161
 31
0.0
  0
LINE
  5
2F7
330
1E
100
AcDbEntity
  8
0
100
AcDbLine
 10
99.616
 20
93.66761
 30
0.0
 11
100.6159999999999
 21
92.80160999999999
 31
0.0
  0
LINE
  5
2F8
330
1E
100
AcDbEntity
  8
0
100
AcDbLine
 10
94.616
 20
98.88303307878791
 30
0.0
 11
94.616
 21
97.56511000000001
 31
0.0
  0
LINE
  5
2F9
330
1E
100
AcDbEntity
  8
0
100
AcDbLine
 10
94.77619999999999
 20
105.95881
 30
0.0
 11
94.77619999999999
 21
106.220699299492
 31
0.0
  0
LINE
  5
2FA
330
1E
100
AcDbEntity
  8
0
100
AcDbLine
 10
94.77619999999999
 20
105.95881
 30
0.0
 11
94.77619999999999
 21
106.95881
 31
0.0
  0
LINE
  5
2FB
330
1E
100
AcDbEntity
  8
0
100
AcDbLine
 10
94.77619999999999
 20
105.95881
 30
0.0
 11
96.7762
 21
105.95881
 31
0.0
  0
LINE
  5
2FC
330
1E
100
AcDbEntity
  8
0
100
AcDbLine
 10
94.77619999999999
 20
106.220699299492
 30
0.0
 11
94.77619999999999
 21
105.95881
 31
0.0
  0
LINE
  5
2FD
330
1E
100
AcDbEntity
  8
0
100
AcDbLine
 10
96.7762
 20
107.9850752203389
 30
0.0
 11
96.7762
 21
106.95881
 31
0.0
  0
LINE
  5
2FE
330
1E
100
AcDbEntity
  8
0
100
AcDbLine
 10
94.77619999999999
 20
106.95881
 30
0.0
 11
96.7762
 21
106.95881
 31
0.0
  0
LINE
  5
2FF
330
1E
100
AcDbEntity
  8
0
100
AcDbLine
 10
94.77619999999999
 20
106.95881
 30
0.0
 11
94.77619999999999
 21
105.95881
 31
0.0
  0
LINE
  5
300
330
1E
100
AcDbEntity
  8
0
100
AcDbLine
 10
96.7762
 20
106.95881
 30
0.0
 11
96.7762
 21
107.9850752203389
 31
0.0
  0
LINE
  5
301
330
1E
100
AcDbEntity
  8
0
100
AcDbLine
 10
96.7762
 20
106.95881
 30
0.0
 11
96.7762
 21
105.95881
 31
0.0
  0
LINE
  5
302
330
1E
100
AcDbEntity
  8
0
100
AcDbLine
 10
96.7762
 20
105.95881
 30
0.0
 11
96.7762
 21
106.95881
 31
0.0
  0
LINE
  5
303
330
1E
100
AcDbEntity
  8
0
100
AcDbLine
 10
94.616
 20
97.56511000000001
 30
0.0
 11
94.616
 21
98.88303307878791
 31
0.0
  0
LINE
  5
304
330
1E
100
AcDbEntity
  8
0
100
AcDbLine
 10
95.0
 20
119.806157517731
 30
0.0
 11
95.0
 21
118.81581
 31
0.0
  0
LINE
  5
305
330
1E
100
AcDbEntity
  8
0
100
AcDbLine
 10
95.0
 20
118.81581
 30
0.0
 11
95.0
 21
119.806157517731
 31
0.0
  0
LINE
  5
306
330
1E
100
AcDbEntity
  8
0
100
AcDbLine
 10
95.0
 20
118.81581
 30
0.0
 11
95.0
 21
117.81581
 31
0.0
  0
LINE
  5
307
330
1E
100
AcDbEntity
  8
0
100
AcDbLine
 10
95.0
 20
117.81581
 30
0.0
 11
95.0
 21
118.81581
 31
0.0
  0
LINE
  5
308
330
1E
100
AcDbEntity
  8
0
100
AcDbLine
 10
96.7762
 20
130.53881
 30
0.0
 11
96.7762
 21
131.53881
 31
0.0
  0
LINE
  5
309
330
1E
100
AcDbEntity
  8
0
100
AcDbLine
 10
94.77619999999999
 20
132.4968992994919
 30
0.0
 11
94.77619999999999
 21
131.53881
 31
0.0
  0
LINE
  5
30A
330
1E
100
AcDbEntity
  8
0
100
AcDbLine
 10
94.77619999999999
 20
131.53881
 30
0.0
 11
94.77619999999999
 21
132.4968992994919
 31
0.0
  0
LINE
  5
30B
330
1E
100
AcDbEntity
  8
0
100
AcDbLine
 10
94.77619999999999
 20
131.53881
 30
0.0
 11
94.77619999999999
 21
130.53881
 31
0.0
  0
LINE
  5
30C
330
1E
100
AcDbEntity
  8
0
100
AcDbLine
 10
94.77619999999999
 20
131.53881
 30
0.0
 11
96.7762
 21
131.53881
 31
0.0
  0
LINE
  5
30D
330
1E
100
AcDbEntity
  8
0
100
AcDbLine
 10
94.77619999999999
 20
130.53881
 30
0.0
 11
96.7762
 21
130.53881
 31
0.0
  0
LINE
  5
30E
330
1E
100
AcDbEntity
  8
0
100
AcDbLine
 10
94.77619999999999
 20
130.53881
 30
0.0
 11
94.77619999999999
 21
131.53881
 31
0.0
  0
LINE
  5
30F
330
1E
100
AcDbEntity
  8
0
100
AcDbLine
 10
96.7762
 20
131.53881
 30
0.0
 11
96.7762
 21
130.53881
 31
0.0
  0
LINE
  5
310
330
1E
100
AcDbEntity
  8
0
100
AcDbLine
 10
97.88400000000001
 20
146.06281
 30
0.0
 11
97.88400000000001
 21
146.986710952381
 31
0.0
  0
LINE
  5
311
330
1E
100
AcDbEntity
  8
0
100
AcDbLine
 10
97.88400000000001
 20
146.06281
 30
0.0
 11
99.616
 21
145.56281
 31
0.0
  0
LINE
  5
312
330
1E
100
AcDbEntity
  8
0
100
AcDbLine
 10
97.88400000000001
 20
146.06281
 30
0.0
 11
98.884
 21
146.9288099999999
 31
0.0
  0
LINE
  5
313
330
1E
100
AcDbEntity
  8
0
100
AcDbLine
 10
99.616
 20
145.56281
 30
0.0
 11
100.6159999999999
 21
146.42881
 31
0.0
  0
LINE
  5
314
330
1E
100
AcDbEntity
  8
0
100
AcDbLine
 10
97.88400000000001
 20
146.986710952381
 30
0.0
 11
97.88400000000001
 21
146.06281
 31
0.0
  0
LINE
  5
315
330
1E
100
AcDbEntity
  8
0
100
AcDbLine
 10
98.884
 20
147.518411632653
 30
0.0
 11
98.884
 21
146.9288099999999
 31
0.0
  0
LINE
  5
316
330
1E
100
AcDbEntity
  8
0
100
AcDbLine
 10
98.884
 20
146.9288099999999
 30
0.0
 11
100.6159999999999
 21
146.42881
 31
0.0
  0
LINE
  5
317
330
1E
100
AcDbEntity
  8
0
100
AcDbLine
 10
98.884
 20
146.9288099999999
 30
0.0
 11
98.884
 21
147.518411632653
 31
0.0
  0
LINE
  5
318
330
1E
100
AcDbEntity
  8
0
100
AcDbLine
 10
101.442
 20
100.8868099999999
 30
0.0
 11
101.442
 21
101.8868099999999
 31
0.0
  0
LINE
  5
319
330
1E
100
AcDbEntity
  8
0
100
AcDbLine
 10
101.442
 20
100.8868099999999
 30
0.0
 11
103.442
 21
100.8868099999999
 31
0.0
  0
LINE
  5
31A
330
1E
100
AcDbEntity
  8
0
100
AcDbLine
 10
101.442
 20
101.8868099999999
 30
0.0
 11
103.442
 21
101.8868099999999
 31
0.0
  0
LINE
  5
31B
330
1E
100
AcDbEntity
  8
0
100
AcDbLine
 10
101.442
 20
101.8868099999999
 30
0.0
 11
101.442
 21
100.8868099999999
 31
0.0
  0
LINE
  5
31C
330
1E
100
AcDbEntity
  8
0
100
AcDbLine
 10
102.0
 20
112.386393011583
 30
0.0
 11
102.0
 21
112.13181
 31
0.0
  0
LINE
  5
31D
330
1E
100
AcDbEntity
  8
0
100
AcDbLine
 10
102.0
 20
112.13181
 30
0.0
 11
102.0
 21
112.386393011583
 31
0.0
  0
LINE
  5
31E
330
1E
100
AcDbEntity
  8
0
100
AcDbLine
 10
102.0
 20
112.13181
 30
0.0
 11
102.0
 21
113.13181
 31
0.0
  0
LINE
  5
31F
330
1E
100
AcDbEntity
  8
0
100
AcDbLine
 10
102.0
 20
112.13181
 30
0.0
 11
104.0
 21
112.13181
 31
0.0
  0
LINE
  5
320
330
1E
100
AcDbEntity
  8
0
100
AcDbLine
 10
102.0
 20
113.13181
 30
0.0
 11
104.0
 21
113.13181
 31
0.0
  0
LINE
  5
321
330
1E
100
AcDbEntity
  8
0
100
AcDbLine
 10
102.0
 20
113.13181
 30
0.0
 11
102.0
 21
112.13181
 31
0.0
  0
LINE
  5
322
330
1E
100
AcDbEntity
  8
0
100
AcDbLine
 10
102.0
 20
126.27481
 30
0.0
 11
102.0
 21
125.36581
 31
0.0
  0
LINE
  5
323
330
1E
100
AcDbEntity
  8
0
100
AcDbLine
 10
102.0
 20
125.36581
 30
0.0
 11
102.0
 21
126.27481
 31
0.0
  0
LINE
  5
324
330
1E
100
AcDbEntity
  8
0
100
AcDbLine
 10
102.0
 20
125.36581
 30
0.0
 11
102.0
 21
124.36581
 31
0.0
  0
LINE
  5
325
330
1E
100
AcDbEntity
  8
0
100
AcDbLine
 10
102.0
 20
125.36581
 30
0.0
 11
104.0
 21
125.36581
 31
0.0
  0
LINE
  5
326
330
1E
100
AcDbEntity
  8
0
100
AcDbLine
 10
102.0
 20
124.36581
 30
0.0
 11
104.0
 21
124.36581
 31
0.0
  0
LINE
  5
327
330
1E
100
AcDbEntity
  8
0
100
AcDbLine
 10
102.0
 20
124.36581
 30
0.0
 11
102.0
 21
125.36581
 31
0.0
  0
LINE
  5
328
330
1E
100
AcDbEntity
  8
0
100
AcDbLine
 10
101.442
 20
137.47781
 30
0.0
 11
101.442
 21
136.47781
 31
0.0
  0
LINE
  5
329
330
1E
100
AcDbEntity
  8
0
100
AcDbLine
 10
101.442
 20
137.47781
 30
0.0
 11
103.442
 21
137.47781
 31
0.0
  0
LINE
  5
32A
330
1E
100
AcDbEntity
  8
0
100
AcDbLine
 10
101.442
 20
136.47781
 30
0.0
 11
103.442
 21
136.47781
 31
0.0
  0
LINE
  5
32B
330
1E
100
AcDbEntity
  8
0
100
AcDbLine
 10
101.442
 20
136.47781
 30
0.0
 11
101.442
 21
137.47781
 31
0.0
  0
LINE
  5
32C
330
1E
100
AcDbEntity
  8
0
100
AcDbLine
 10
100.6
 20
148.4308099999999
 30
0.0
 11
107.6999999999999
 21
146.0308099999999
 31
0.0
  0
LINE
  5
32D
330
1E
100
AcDbEntity
  8
0
100
AcDbLine
 10
102.0999999999999
 20
149.73081
 30
0.0
 11
109.4999999999999
 21
147.23081
 31
0.0
  0
LINE
  5
32E
330
1E
100
AcDbEntity
  8
0
100
AcDbLine
 10
103.442
 20
102.3275431791039
 30
0.0
 11
103.442
 21
101.8868099999999
 31
0.0
  0
LINE
  5
32F
330
1E
100
AcDbEntity
  8
0
100
AcDbLine
 10
103.442
 20
101.8868099999999
 30
0.0
 11
103.442
 21
102.3275431791039
 31
0.0
  0
LINE
  5
330
330
1E
100
AcDbEntity
  8
0
100
AcDbLine
 10
103.442
 20
101.8868099999999
 30
0.0
 11
103.442
 21
100.8868099999999
 31
0.0
  0
LINE
  5
331
330
1E
100
AcDbEntity
  8
0
100
AcDbLine
 10
103.442
 20
100.8868099999999
 30
0.0
 11
103.442
 21
101.8868099999999
 31
0.0
  0
LINE
  5
332
330
1E
100
AcDbEntity
  8
0
100
AcDbLine
 10
104.0
 20
114.258536618705
 30
0.0
 11
104.0
 21
113.13181
 31
0.0
  0
LINE
  5
333
330
1E
100
AcDbEntity
  8
0
100
AcDbLine
 10
104.0
 20
113.13181
 30
0.0
 11
104.0
 21
114.258536618705
 31
0.0
  0
LINE
  5
334
330
1E
100
AcDbEntity
  8
0
100
AcDbLine
 10
104.0
 20
113.13181
 30
0.0
 11
104.0
 21
112.13181
 31
0.0
  0
LINE
  5
335
330
1E
100
AcDbEntity
  8
0
100
AcDbLine
 10
104.0
 20
112.13181
 30
0.0
 11
104.0
 21
113.13181
 31
0.0
  0
LINE
  5
336
330
1E
100
AcDbEntity
  8
0
100
AcDbLine
 10
104.0
 20
124.36581
 30
0.0
 11
104.0
 21
125.36581
 31
0.0
  0
LINE
  5
337
330
1E
100
AcDbEntity
  8
0
100
AcDbLine
 10
107.2189999999999
 20
95.59161000000001
 30
0.0
 11
107.2189999999999
 21
96.59161
 31
0.0
  0
LINE
  5
338
330
1E
100
AcDbEntity
  8
0
100
AcDbLine
 10
107.2189999999999
 20
95.59161000000001
 30
0.0
 11
109.2189999999999
 21
95.59161000000001
 31
0.0
  0
LINE
  5
339
330
1E
100
AcDbEntity
  8
0
100
AcDbLine
 10
107.2189999999999
 20
96.59161
 30
0.0
 11
109.2189999999999
 21
96.59161
 31
0.0
  0
LINE
  5
33A
330
1E
100
AcDbEntity
  8
0
100
AcDbLine
 10
107.2189999999999
 20
96.59161
 30
0.0
 11
107.2189999999999
 21
95.59161000000001
 31
0.0
  0
LINE
  5
33B
330
1E
100
AcDbEntity
  8
0
100
AcDbLine
 10
109.2189999999999
 20
96.59161
 30
0.0
 11
109.2189999999999
 21
95.59161000000001
 31
0.0
  0
LINE
  5
33C
330
1E
100
AcDbEntity
  8
0
100
AcDbLine
 10
109.2189999999999
 20
95.59161000000001
 30
0.0
 11
109.2189999999999
 21
96.59161
 31
0.0
  0
LINE
  5
33D
330
1E
100
AcDbEntity
  8
0
100
AcDbLine
 10
108.777
 20
105.44681
 30
0.0
 11
108.777
 21
106.44681
 31
0.0
  0
LINE
  5
33E
330
1E
100
AcDbEntity
  8
0
100
AcDbLine
 10
108.777
 20
105.44681
 30
0.0
 11
110.777
 21
105.44681
 31
0.0
  0
LINE
  5
33F
330
1E
100
AcDbEntity
  8
0
100
AcDbLine
 10
108.777
 20
106.44681
 30
0.0
 11
110.777
 21
106.44681
 31
0.0
  0
LINE
  5
340
330
1E
100
AcDbEntity
  8
0
100
AcDbLine
 10
108.777
 20
106.44681
 30
0.0
 11
108.777
 21
105.44681
 31
0.0
  0
LINE
  5
341
330
1E
100
AcDbEntity
  8
0
100
AcDbLine
 10
105.0
 20
118.24881
 30
0.0
 11
105.0
 21
118.9714057446809
 31
0.0
  0
LINE
  5
342
330
1E
100
AcDbEntity
  8
0
100
AcDbLine
 10
105.0
 20
118.24881
 30
0.0
 11
105.0
 21
119.24881
 31
0.0
  0
LINE
  5
343
330
1E
100
AcDbEntity
  8
0
100
AcDbLine
 10
105.0
 20
118.24881
 30
0.0
 11
107.0
 21
118.24881
 31
0.0
  0
LINE
  5
344
330
1E
100
AcDbEntity
  8
0
100
AcDbLine
 10
105.0
 20
118.9714057446809
 30
0.0
 11
105.0
 21
118.24881
 31
0.0
  0
LINE
  5
345
330
1E
100
AcDbEntity
  8
0
100
AcDbLine
 10
105.0
 20
119.705448297872
 30
0.0
 11
105.0
 21
119.24881
 31
0.0
  0
LINE
  5
346
330
1E
100
AcDbEntity
  8
0
100
AcDbLine
 10
107.0
 20
119.685306453901
 30
0.0
 11
107.0
 21
119.24881
 31
0.0
  0
LINE
  5
347
330
1E
100
AcDbEntity
  8
0
100
AcDbLine
 10
105.0
 20
119.24881
 30
0.0
 11
105.0
 21
119.705448297872
 31
0.0
  0
LINE
  5
348
330
1E
100
AcDbEntity
  8
0
100
AcDbLine
 10
105.0
 20
119.24881
 30
0.0
 11
107.0
 21
119.24881
 31
0.0
  0
LINE
  5
349
330
1E
100
AcDbEntity
  8
0
100
AcDbLine
 10
105.0
 20
119.24881
 30
0.0
 11
105.0
 21
118.24881
 31
0.0
  0
LINE
  5
34A
330
1E
100
AcDbEntity
  8
0
100
AcDbLine
 10
107.0
 20
119.24881
 30
0.0
 11
107.0
 21
119.685306453901
 31
0.0
  0
LINE
  5
34B
330
1E
100
AcDbEntity
  8
0
100
AcDbLine
 10
107.0
 20
119.24881
 30
0.0
 11
107.0
 21
118.24881
 31
0.0
  0
LINE
  5
34C
330
1E
100
AcDbEntity
  8
0
100
AcDbLine
 10
107.0
 20
118.24881
 30
0.0
 11
107.0
 21
119.24881
 31
0.0
  0
LINE
  5
34D
330
1E
100
AcDbEntity
  8
0
100
AcDbLine
 10
104.0
 20
125.36581
 30
0.0
 11
104.0
 21
124.36581
 31
0.0
  0
LINE
  5
34E
330
1E
100
AcDbEntity
  8
0
100
AcDbLine
 10
108.777
 20
134.123768894472
 30
0.0
 11
108.777
 21
132.91781
 31
0.0
  0
LINE
  5
34F
330
1E
100
AcDbEntity
  8
0
100
AcDbLine
 10
108.777
 20
132.91781
 30
0.0
 11
108.777
 21
134.123768894472
 31
0.0
  0
LINE
  5
350
330
1E
100
AcDbEntity
  8
0
100
AcDbLine
 10
108.777
 20
132.91781
 30
0.0
 11
108.777
 21
131.91781
 31
0.0
  0
LINE
  5
351
330
1E
100
AcDbEntity
  8
0
100
AcDbLine
 10
108.777
 20
132.91781
 30
0.0
 11
110.777
 21
132.91781
 31
0.0
  0
LINE
  5
352
330
1E
100
AcDbEntity
  8
0
100
AcDbLine
 10
108.777
 20
131.91781
 30
0.0
 11
110.777
 21
131.91781
 31
0.0
  0
LINE
  5
353
330
1E
100
AcDbEntity
  8
0
100
AcDbLine
 10
108.777
 20
131.91781
 30
0.0
 11
108.777
 21
132.91781
 31
0.0
  0
LINE
  5
354
330
1E
100
AcDbEntity
  8
0
100
AcDbLine
 10
103.442
 20
136.47781
 30
0.0
 11
103.442
 21
137.47781
 31
0.0
  0
LINE
  5
355
330
1E
100
AcDbEntity
  8
0
100
AcDbLine
 10
103.442
 20
137.47781
 30
0.0
 11
103.442
 21
136.47781
 31
0.0
  0
LINE
  5
356
330
1E
100
AcDbEntity
  8
0
100
AcDbLine
 10
109.2189999999999
 20
142.63881
 30
0.0
 11
109.2189999999999
 21
143.63881
 31
0.0
  0
LINE
  5
357
330
1E
100
AcDbEntity
  8
0
100
AcDbLine
 10
107.2189999999999
 20
143.63881
 30
0.0
 11
107.2189999999999
 21
142.63881
 31
0.0
  0
LINE
  5
358
330
1E
100
AcDbEntity
  8
0
100
AcDbLine
 10
107.2189999999999
 20
143.63881
 30
0.0
 11
109.2189999999999
 21
143.63881
 31
0.0
  0
LINE
  5
359
330
1E
100
AcDbEntity
  8
0
100
AcDbLine
 10
107.2189999999999
 20
142.63881
 30
0.0
 11
109.2189999999999
 21
142.63881
 31
0.0
  0
LINE
  5
35A
330
1E
100
AcDbEntity
  8
0
100
AcDbLine
 10
107.2189999999999
 20
142.63881
 30
0.0
 11
107.2189999999999
 21
143.63881
 31
0.0
  0
LINE
  5
35B
330
1E
100
AcDbEntity
  8
0
100
AcDbLine
 10
109.2189999999999
 20
143.63881
 30
0.0
 11
109.2189999999999
 21
142.63881
 31
0.0
  0
LINE
  5
35C
330
1E
100
AcDbEntity
  8
0
100
AcDbLine
 10
107.6999999999999
 20
146.0308099999999
 30
0.0
 11
114.0
 21
143.23081
 31
0.0
  0
LINE
  5
35D
330
1E
100
AcDbEntity
  8
0
100
AcDbLine
 10
102.6
 20
150.99681
 30
0.0
 11
110.0999999999999
 21
148.49681
 31
0.0
  0
LINE
  5
35E
330
1E
100
AcDbEntity
  8
0
100
AcDbLine
 10
107.6999999999999
 20
94.93111
 30
0.0
 11
109.186125
 21
95.59161000000001
 31
0.0
  0
LINE
  5
35F
330
1E
100
AcDbEntity
  8
0
100
AcDbLine
 10
109.4999999999999
 20
147.23081
 30
0.0
 11
116.2
 21
144.33081
 31
0.0
  0
LINE
  5
360
330
1E
100
AcDbEntity
  8
0
100
AcDbLine
 10
109.2189999999999
 20
95.60622111111108
 30
0.0
 11
114.0
 21
97.73111
 31
0.0
  0
LINE
  5
361
330
1E
100
AcDbEntity
  8
0
100
AcDbLine
 10
100.6
 20
92.53111
 30
0.0
 11
107.6999999999999
 21
94.93111
 31
0.0
  0
LINE
  5
362
330
1E
100
AcDbEntity
  8
0
100
AcDbLine
 10
114.0
 20
97.73111
 30
0.0
 11
119.5999999999999
 21
100.8808099999999
 31
0.0
  0
LINE
  5
363
330
1E
100
AcDbEntity
  8
0
100
AcDbLine
 10
116.2
 20
96.63111
 30
0.0
 11
122.0
 21
99.98080999999999
 31
0.0
  0
LINE
  5
364
330
1E
100
AcDbEntity
  8
0
100
AcDbLine
 10
115.998
 20
100.2078099999999
 30
0.0
 11
115.998
 21
101.3896398947369
 31
0.0
  0
LINE
  5
365
330
1E
100
AcDbEntity
  8
0
100
AcDbLine
 10
115.998
 20
100.2078099999999
 30
0.0
 11
115.998
 21
101.2078099999999
 31
0.0
  0
LINE
  5
366
330
1E
100
AcDbEntity
  8
0
100
AcDbLine
 10
115.998
 20
100.2078099999999
 30
0.0
 11
117.998
 21
100.2078099999999
 31
0.0
  0
LINE
  5
367
330
1E
100
AcDbEntity
  8
0
100
AcDbLine
 10
117.998
 20
100.2078099999999
 30
0.0
 11
117.998
 21
101.2078099999999
 31
0.0
  0
LINE
  5
368
330
1E
100
AcDbEntity
  8
0
100
AcDbLine
 10
122.0
 20
99.98080999999999
 30
0.0
 11
127.0
 21
103.68081
 31
0.0
  0
LINE
  5
369
330
1E
100
AcDbEntity
  8
0
100
AcDbLine
 10
122.0
 20
99.98080999999999
 30
0.0
 11
122.7999999999999
 21
100.5468099999999
 31
0.0
  0
LINE
  5
36A
330
1E
100
AcDbEntity
  8
0
100
AcDbLine
 10
122.641266556291
 20
100.4553472516559
 30
0.0
 11
122.7999999999999
 21
100.5468099999999
 31
0.0
  0
LINE
  5
36B
330
1E
100
AcDbEntity
  8
0
100
AcDbLine
 10
115.998
 20
101.2078099999999
 30
0.0
 11
115.998
 21
102.045854238411
 31
0.0
  0
LINE
  5
36C
330
1E
100
AcDbEntity
  8
0
100
AcDbLine
 10
115.998
 20
101.2078099999999
 30
0.0
 11
117.998
 21
101.2078099999999
 31
0.0
  0
LINE
  5
36D
330
1E
100
AcDbEntity
  8
0
100
AcDbLine
 10
115.998
 20
101.2078099999999
 30
0.0
 11
115.998
 21
100.2078099999999
 31
0.0
  0
LINE
  5
36E
330
1E
100
AcDbEntity
  8
0
100
AcDbLine
 10
115.998
 20
101.3896398947369
 30
0.0
 11
115.998
 21
100.2078099999999
 31
0.0
  0
LINE
  5
36F
330
1E
100
AcDbEntity
  8
0
100
AcDbLine
 10
115.998
 20
102.045854238411
 30
0.0
 11
115.998
 21
101.2078099999999
 31
0.0
  0
LINE
  5
370
330
1E
100
AcDbEntity
  8
0
100
AcDbLine
 10
117.998
 20
101.3989668211919
 30
0.0
 11
117.998
 21
101.2078099999999
 31
0.0
  0
LINE
  5
371
330
1E
100
AcDbEntity
  8
0
100
AcDbLine
 10
117.998
 20
101.2078099999999
 30
0.0
 11
117.998
 21
101.3989668211919
 31
0.0
  0
LINE
  5
372
330
1E
100
AcDbEntity
  8
0
100
AcDbLine
 10
117.998
 20
101.2078099999999
 30
0.0
 11
117.998
 21
100.2078099999999
 31
0.0
  0
LINE
  5
373
330
1E
100
AcDbEntity
  8
0
100
AcDbLine
 10
119.5999999999999
 20
100.8808099999999
 30
0.0
 11
124.3999999999999
 21
104.4308099999999
 31
0.0
  0
LINE
  5
374
330
1E
100
AcDbEntity
  8
0
100
AcDbLine
 10
110.777
 20
105.44681
 30
0.0
 11
110.777
 21
106.44681
 31
0.0
  0
LINE
  5
375
330
1E
100
AcDbEntity
  8
0
100
AcDbLine
 10
110.777
 20
106.44681
 30
0.0
 11
110.777
 21
107.5962998181819
 31
0.0
  0
LINE
  5
376
330
1E
100
AcDbEntity
  8
0
100
AcDbLine
 10
110.777
 20
106.44681
 30
0.0
 11
110.777
 21
105.44681
 31
0.0
  0
LINE
  5
377
330
1E
100
AcDbEntity
  8
0
100
AcDbLine
 10
122.555
 20
105.76881
 30
0.0
 11
122.555
 21
106.76881
 31
0.0
  0
LINE
  5
378
330
1E
100
AcDbEntity
  8
0
100
AcDbLine
 10
122.555
 20
105.76881
 30
0.0
 11
124.555
 21
105.76881
 31
0.0
  0
LINE
  5
379
330
1E
100
AcDbEntity
  8
0
100
AcDbLine
 10
122.555
 20
106.76881
 30
0.0
 11
124.555
 21
106.76881
 31
0.0
  0
LINE
  5
37A
330
1E
100
AcDbEntity
  8
0
100
AcDbLine
 10
122.555
 20
106.76881
 30
0.0
 11
122.555
 21
105.76881
 31
0.0
  0
LINE
  5
37B
330
1E
100
AcDbEntity
  8
0
100
AcDbLine
 10
110.777
 20
107.5962998181819
 30
0.0
 11
110.777
 21
106.44681
 31
0.0
  0
LINE
  5
37C
330
1E
100
AcDbEntity
  8
0
100
AcDbLine
 10
124.555
 20
108.1952070149249
 30
0.0
 11
124.555
 21
106.76881
 31
0.0
  0
LINE
  5
37D
330
1E
100
AcDbEntity
  8
0
100
AcDbLine
 10
124.555
 20
106.76881
 30
0.0
 11
124.555
 21
108.1952070149249
 31
0.0
  0
LINE
  5
37E
330
1E
100
AcDbEntity
  8
0
100
AcDbLine
 10
124.555
 20
106.76881
 30
0.0
 11
124.555
 21
105.76881
 31
0.0
  0
LINE
  5
37F
330
1E
100
AcDbEntity
  8
0
100
AcDbLine
 10
124.555
 20
105.76881
 30
0.0
 11
124.555
 21
106.76881
 31
0.0
  0
LINE
  5
380
330
1E
100
AcDbEntity
  8
0
100
AcDbLine
 10
124.3999999999999
 20
104.4308099999999
 30
0.0
 11
128.0
 21
108.18081
 31
0.0
  0
LINE
  5
381
330
1E
100
AcDbEntity
  8
0
100
AcDbLine
 10
127.0
 20
103.68081
 30
0.0
 11
130.6999999999999
 21
107.58081
 31
0.0
  0
LINE
  5
382
330
1E
100
AcDbEntity
  8
0
100
AcDbLine
 10
122.7999999999999
 20
100.5468099999999
 30
0.0
 11
125.400000000002
 21
102.4968100000019
 31
0.0
  0
LINE
  5
383
330
1E
100
AcDbEntity
  8
0
100
AcDbLine
 10
128.0
 20
108.18081
 30
0.0
 11
130.6999999999999
 21
112.68081
 31
0.0
  0
LINE
  5
384
330
1E
100
AcDbEntity
  8
0
100
AcDbLine
 10
130.6999999999999
 20
107.58081
 30
0.0
 11
133.6
 21
111.9808099999999
 31
0.0
  0
LINE
  5
385
330
1E
100
AcDbEntity
  8
0
100
AcDbLine
 10
127.8
 20
104.2968099999999
 30
0.0
 11
131.6999999999999
 21
108.24681
 31
0.0
  0
LINE
  5
386
330
1E
100
AcDbEntity
  8
0
100
AcDbLine
 10
114.8889999999999
 20
112.06481
 30
0.0
 11
114.8889999999999
 21
113.06481
 31
0.0
  0
LINE
  5
387
330
1E
100
AcDbEntity
  8
0
100
AcDbLine
 10
114.8889999999999
 20
112.06481
 30
0.0
 11
116.8889999999999
 21
112.06481
 31
0.0
  0
LINE
  5
388
330
1E
100
AcDbEntity
  8
0
100
AcDbLine
 10
116.8889999999999
 20
112.06481
 30
0.0
 11
116.8889999999999
 21
113.06481
 31
0.0
  0
LINE
  5
389
330
1E
100
AcDbEntity
  8
0
100
AcDbLine
 10
127.1109999999999
 20
112.38581
 30
0.0
 11
127.1109999999999
 21
112.8934043169399
 31
0.0
  0
LINE
  5
38A
330
1E
100
AcDbEntity
  8
0
100
AcDbLine
 10
127.1109999999999
 20
112.38581
 30
0.0
 11
127.1109999999999
 21
113.38581
 31
0.0
  0
LINE
  5
38B
330
1E
100
AcDbEntity
  8
0
100
AcDbLine
 10
127.1109999999999
 20
112.38581
 30
0.0
 11
129.1109999999999
 21
112.38581
 31
0.0
  0
LINE
  5
38C
330
1E
100
AcDbEntity
  8
0
100
AcDbLine
 10
114.8889999999999
 20
113.617374153005
 30
0.0
 11
114.8889999999999
 21
113.06481
 31
0.0
  0
LINE
  5
38D
330
1E
100
AcDbEntity
  8
0
100
AcDbLine
 10
116.8889999999999
 20
113.49890420765
 30
0.0
 11
116.8889999999999
 21
113.06481
 31
0.0
  0
LINE
  5
38E
330
1E
100
AcDbEntity
  8
0
100
AcDbLine
 10
114.8889999999999
 20
113.06481
 30
0.0
 11
114.8889999999999
 21
113.617374153005
 31
0.0
  0
LINE
  5
38F
330
1E
100
AcDbEntity
  8
0
100
AcDbLine
 10
114.8889999999999
 20
113.06481
 30
0.0
 11
116.8889999999999
 21
113.06481
 31
0.0
  0
LINE
  5
390
330
1E
100
AcDbEntity
  8
0
100
AcDbLine
 10
114.8889999999999
 20
113.06481
 30
0.0
 11
114.8889999999999
 21
112.06481
 31
0.0
  0
LINE
  5
391
330
1E
100
AcDbEntity
  8
0
100
AcDbLine
 10
116.8889999999999
 20
113.06481
 30
0.0
 11
116.8889999999999
 21
113.49890420765
 31
0.0
  0
LINE
  5
392
330
1E
100
AcDbEntity
  8
0
100
AcDbLine
 10
116.8889999999999
 20
113.06481
 30
0.0
 11
116.8889999999999
 21
112.06481
 31
0.0
  0
LINE
  5
393
330
1E
100
AcDbEntity
  8
0
100
AcDbLine
 10
127.1109999999999
 20
112.8934043169399
 30
0.0
 11
127.1109999999999
 21
112.38581
 31
0.0
  0
LINE
  5
394
330
1E
100
AcDbEntity
  8
0
100
AcDbLine
 10
129.1109999999999
 20
113.38581
 30
0.0
 11
129.1109999999999
 21
112.38581
 31
0.0
  0
LINE
  5
395
330
1E
100
AcDbEntity
  8
0
100
AcDbLine
 10
127.1109999999999
 20
113.38581
 30
0.0
 11
129.1109999999999
 21
113.38581
 31
0.0
  0
LINE
  5
396
330
1E
100
AcDbEntity
  8
0
100
AcDbLine
 10
127.1109999999999
 20
113.38581
 30
0.0
 11
127.1109999999999
 21
112.38581
 31
0.0
  0
LINE
  5
397
330
1E
100
AcDbEntity
  8
0
100
AcDbLine
 10
129.1109999999999
 20
112.38581
 30
0.0
 11
129.1109999999999
 21
113.38581
 31
0.0
  0
LINE
  5
398
330
1E
100
AcDbEntity
  8
0
100
AcDbLine
 10
130.6999999999999
 20
112.68081
 30
0.0
 11
132.4
 21
116.23081
 31
0.0
  0
LINE
  5
399
330
1E
100
AcDbEntity
  8
0
100
AcDbLine
 10
132.4
 20
116.23081
 30
0.0
 11
133.0
 21
120.48081
 31
0.0
  0
LINE
  5
39A
330
1E
100
AcDbEntity
  8
0
100
AcDbLine
 10
133.6
 20
111.9808099999999
 30
0.0
 11
135.3
 21
116.13081
 31
0.0
  0
LINE
  5
39B
330
1E
100
AcDbEntity
  8
0
100
AcDbLine
 10
131.6999999999999
 20
108.24681
 30
0.0
 11
134.4999999999999
 21
112.49681
 31
0.0
  0
LINE
  5
39C
330
1E
100
AcDbEntity
  8
0
100
AcDbLine
 10
135.3
 20
116.13081
 30
0.0
 11
136.0
 21
120.48081
 31
0.0
  0
LINE
  5
39D
330
1E
100
AcDbEntity
  8
0
100
AcDbLine
 10
134.4999999999999
 20
112.49681
 30
0.0
 11
136.3
 21
116.94681
 31
0.0
  0
LINE
  5
39E
330
1E
100
AcDbEntity
  8
0
100
AcDbLine
 10
117.0
 20
118.68181
 30
0.0
 11
117.0
 21
119.751546842105
 31
0.0
  0
LINE
  5
39F
330
1E
100
AcDbEntity
  8
0
100
AcDbLine
 10
117.0
 20
118.68181
 30
0.0
 11
117.0
 21
119.68181
 31
0.0
  0
LINE
  5
3A0
330
1E
100
AcDbEntity
  8
0
100
AcDbLine
 10
117.0
 20
118.68181
 30
0.0
 11
119.0
 21
118.68181
 31
0.0
  0
LINE
  5
3A1
330
1E
100
AcDbEntity
  8
0
100
AcDbLine
 10
119.0
 20
118.68181
 30
0.0
 11
119.0
 21
119.68181
 31
0.0
  0
LINE
  5
3A2
330
1E
100
AcDbEntity
  8
0
100
AcDbLine
 10
117.0
 20
119.68181
 30
0.0
 11
117.0
 21
119.751546842105
 31
0.0
  0
LINE
  5
3A3
330
1E
100
AcDbEntity
  8
0
100
AcDbLine
 10
117.0
 20
119.68181
 30
0.0
 11
119.0
 21
119.68181
 31
0.0
  0
LINE
  5
3A4
330
1E
100
AcDbEntity
  8
0
100
AcDbLine
 10
117.0
 20
119.68181
 30
0.0
 11
117.0
 21
118.68181
 31
0.0
  0
LINE
  5
3A5
330
1E
100
AcDbEntity
  8
0
100
AcDbLine
 10
117.0
 20
119.751546842105
 30
0.0
 11
117.0
 21
119.68181
 31
0.0
  0
LINE
  5
3A6
330
1E
100
AcDbEntity
  8
0
100
AcDbLine
 10
117.0
 20
119.751546842105
 30
0.0
 11
117.0
 21
118.68181
 31
0.0
  0
LINE
  5
3A7
330
1E
100
AcDbEntity
  8
0
100
AcDbLine
 10
119.0
 20
119.842704736842
 30
0.0
 11
119.0
 21
119.68181
 31
0.0
  0
LINE
  5
3A8
330
1E
100
AcDbEntity
  8
0
100
AcDbLine
 10
119.0
 20
119.68181
 30
0.0
 11
119.0
 21
119.842704736842
 31
0.0
  0
LINE
  5
3A9
330
1E
100
AcDbEntity
  8
0
100
AcDbLine
 10
119.0
 20
119.68181
 30
0.0
 11
119.0
 21
118.68181
 31
0.0
  0
LINE
  5
3AA
330
1E
100
AcDbEntity
  8
0
100
AcDbLine
 10
129.0
 20
119.698040769231
 30
0.0
 11
129.0
 21
119.11481
 31
0.0
  0
LINE
  5
3AB
330
1E
100
AcDbEntity
  8
0
100
AcDbLine
 10
129.0
 20
119.11481
 30
0.0
 11
129.0
 21
119.698040769231
 31
0.0
  0
LINE
  5
3AC
330
1E
100
AcDbEntity
  8
0
100
AcDbLine
 10
129.0
 20
119.11481
 30
0.0
 11
129.0
 21
120.11481
 31
0.0
  0
LINE
  5
3AD
330
1E
100
AcDbEntity
  8
0
100
AcDbLine
 10
129.0
 20
119.11481
 30
0.0
 11
131.0
 21
119.11481
 31
0.0
  0
LINE
  5
3AE
330
1E
100
AcDbEntity
  8
0
100
AcDbLine
 10
129.0
 20
120.11481
 30
0.0
 11
129.0
 21
120.9082971794869
 31
0.0
  0
LINE
  5
3AF
330
1E
100
AcDbEntity
  8
0
100
AcDbLine
 10
129.0
 20
120.11481
 30
0.0
 11
131.0
 21
120.11481
 31
0.0
  0
LINE
  5
3B0
330
1E
100
AcDbEntity
  8
0
100
AcDbLine
 10
129.0
 20
120.11481
 30
0.0
 11
129.0
 21
119.11481
 31
0.0
  0
LINE
  5
3B1
330
1E
100
AcDbEntity
  8
0
100
AcDbLine
 10
129.0
 20
120.9082971794869
 30
0.0
 11
129.0
 21
120.11481
 31
0.0
  0
LINE
  5
3B2
330
1E
100
AcDbEntity
  8
0
100
AcDbLine
 10
131.0
 20
120.6945535897439
 30
0.0
 11
131.0
 21
120.11481
 31
0.0
  0
LINE
  5
3B3
330
1E
100
AcDbEntity
  8
0
100
AcDbLine
 10
131.0
 20
120.11481
 30
0.0
 11
131.0
 21
120.6945535897439
 31
0.0
  0
LINE
  5
3B4
330
1E
100
AcDbEntity
  8
0
100
AcDbLine
 10
131.0
 20
120.11481
 30
0.0
 11
131.0
 21
119.11481
 31
0.0
  0
LINE
  5
3B5
330
1E
100
AcDbEntity
  8
0
100
AcDbLine
 10
131.0
 20
119.11481
 30
0.0
 11
131.0
 21
120.11481
 31
0.0
  0
LINE
  5
3B6
330
1E
100
AcDbEntity
  8
0
100
AcDbLine
 10
116.8889999999999
 20
125.29981
 30
0.0
 11
116.8889999999999
 21
126.29981
 31
0.0
  0
LINE
  5
3B7
330
1E
100
AcDbEntity
  8
0
100
AcDbLine
 10
114.8889999999999
 20
125.29981
 30
0.0
 11
114.8889999999999
 21
125.847816775956
 31
0.0
  0
LINE
  5
3B8
330
1E
100
AcDbEntity
  8
0
100
AcDbLine
 10
114.8889999999999
 20
125.29981
 30
0.0
 11
116.8889999999999
 21
125.29981
 31
0.0
  0
LINE
  5
3B9
330
1E
100
AcDbEntity
  8
0
100
AcDbLine
 10
114.8889999999999
 20
125.29981
 30
0.0
 11
114.8889999999999
 21
126.29981
 31
0.0
  0
LINE
  5
3BA
330
1E
100
AcDbEntity
  8
0
100
AcDbLine
 10
132.4
 20
124.73081
 30
0.0
 11
133.0
 21
120.48081
 31
0.0
  0
LINE
  5
3BB
330
1E
100
AcDbEntity
  8
0
100
AcDbLine
 10
135.3
 20
124.83081
 30
0.0
 11
136.0
 21
120.48081
 31
0.0
  0
LINE
  5
3BC
330
1E
100
AcDbEntity
  8
0
100
AcDbLine
 10
114.8889999999999
 20
126.29981
 30
0.0
 11
114.8889999999999
 21
125.29981
 31
0.0
  0
LINE
  5
3BD
330
1E
100
AcDbEntity
  8
0
100
AcDbLine
 10
114.8889999999999
 20
126.29981
 30
0.0
 11
116.8889999999999
 21
126.29981
 31
0.0
  0
LINE
  5
3BE
330
1E
100
AcDbEntity
  8
0
100
AcDbLine
 10
114.8889999999999
 20
125.847816775956
 30
0.0
 11
114.8889999999999
 21
125.29981
 31
0.0
  0
LINE
  5
3BF
330
1E
100
AcDbEntity
  8
0
100
AcDbLine
 10
110.777
 20
131.91781
 30
0.0
 11
110.777
 21
132.91781
 31
0.0
  0
LINE
  5
3C0
330
1E
100
AcDbEntity
  8
0
100
AcDbLine
 10
116.8889999999999
 20
126.29981
 30
0.0
 11
116.8889999999999
 21
125.29981
 31
0.0
  0
LINE
  5
3C1
330
1E
100
AcDbEntity
  8
0
100
AcDbLine
 10
127.1109999999999
 20
127.7285354644809
 30
0.0
 11
127.1109999999999
 21
126.84381
 31
0.0
  0
LINE
  5
3C2
330
1E
100
AcDbEntity
  8
0
100
AcDbLine
 10
127.1109999999999
 20
126.84381
 30
0.0
 11
127.1109999999999
 21
127.7285354644809
 31
0.0
  0
LINE
  5
3C3
330
1E
100
AcDbEntity
  8
0
100
AcDbLine
 10
127.1109999999999
 20
126.84381
 30
0.0
 11
127.1109999999999
 21
125.84381
 31
0.0
  0
LINE
  5
3C4
330
1E
100
AcDbEntity
  8
0
100
AcDbLine
 10
127.1109999999999
 20
126.84381
 30
0.0
 11
129.1109999999999
 21
126.84381
 31
0.0
  0
LINE
  5
3C5
330
1E
100
AcDbEntity
  8
0
100
AcDbLine
 10
129.1109999999999
 20
125.84381
 30
0.0
 11
129.1109999999999
 21
126.84381
 31
0.0
  0
LINE
  5
3C6
330
1E
100
AcDbEntity
  8
0
100
AcDbLine
 10
127.1109999999999
 20
125.84381
 30
0.0
 11
129.1109999999999
 21
125.84381
 31
0.0
  0
LINE
  5
3C7
330
1E
100
AcDbEntity
  8
0
100
AcDbLine
 10
127.1109999999999
 20
125.84381
 30
0.0
 11
127.1109999999999
 21
126.84381
 31
0.0
  0
LINE
  5
3C8
330
1E
100
AcDbEntity
  8
0
100
AcDbLine
 10
129.1109999999999
 20
128.036295027322
 30
0.0
 11
129.1109999999999
 21
126.84381
 31
0.0
  0
LINE
  5
3C9
330
1E
100
AcDbEntity
  8
0
100
AcDbLine
 10
129.1109999999999
 20
126.84381
 30
0.0
 11
129.1109999999999
 21
125.84381
 31
0.0
  0
LINE
  5
3CA
330
1E
100
AcDbEntity
  8
0
100
AcDbLine
 10
129.1109999999999
 20
126.84381
 30
0.0
 11
129.1109999999999
 21
128.036295027322
 31
0.0
  0
LINE
  5
3CB
330
1E
100
AcDbEntity
  8
0
100
AcDbLine
 10
124.555
 20
132.46181
 30
0.0
 11
124.555
 21
133.46181
 31
0.0
  0
LINE
  5
3CC
330
1E
100
AcDbEntity
  8
0
100
AcDbLine
 10
122.555
 20
132.46181
 30
0.0
 11
124.555
 21
132.46181
 31
0.0
  0
LINE
  5
3CD
330
1E
100
AcDbEntity
  8
0
100
AcDbLine
 10
122.555
 20
132.46181
 30
0.0
 11
122.555
 21
133.46181
 31
0.0
  0
LINE
  5
3CE
330
1E
100
AcDbEntity
  8
0
100
AcDbLine
 10
110.777
 20
132.91781
 30
0.0
 11
110.777
 21
131.91781
 31
0.0
  0
LINE
  5
3CF
330
1E
100
AcDbEntity
  8
0
100
AcDbLine
 10
128.0
 20
132.78081
 30
0.0
 11
130.6999999999999
 21
128.28081
 31
0.0
  0
LINE
  5
3D0
330
1E
100
AcDbEntity
  8
0
100
AcDbLine
 10
130.6999999999999
 20
128.28081
 30
0.0
 11
132.4
 21
124.73081
 31
0.0
  0
LINE
  5
3D1
330
1E
100
AcDbEntity
  8
0
100
AcDbLine
 10
122.555
 20
133.46181
 30
0.0
 11
122.555
 21
132.46181
 31
0.0
  0
LINE
  5
3D2
330
1E
100
AcDbEntity
  8
0
100
AcDbLine
 10
122.555
 20
133.46181
 30
0.0
 11
124.555
 21
133.46181
 31
0.0
  0
LINE
  5
3D3
330
1E
100
AcDbEntity
  8
0
100
AcDbLine
 10
124.555
 20
133.46181
 30
0.0
 11
124.555
 21
132.46181
 31
0.0
  0
LINE
  5
3D4
330
1E
100
AcDbEntity
  8
0
100
AcDbLine
 10
130.6999999999999
 20
133.3808099999999
 30
0.0
 11
133.6
 21
128.98081
 31
0.0
  0
LINE
  5
3D5
330
1E
100
AcDbEntity
  8
0
100
AcDbLine
 10
133.6
 20
128.98081
 30
0.0
 11
135.3
 21
124.83081
 31
0.0
  0
LINE
  5
3D6
330
1E
100
AcDbEntity
  8
0
100
AcDbLine
 10
115.998
 20
139.243629368421
 30
0.0
 11
115.998
 21
139.02281
 31
0.0
  0
LINE
  5
3D7
330
1E
100
AcDbEntity
  8
0
100
AcDbLine
 10
115.998
 20
139.02281
 30
0.0
 11
115.998
 21
139.243629368421
 31
0.0
  0
LINE
  5
3D8
330
1E
100
AcDbEntity
  8
0
100
AcDbLine
 10
115.998
 20
139.02281
 30
0.0
 11
115.998
 21
138.02281
 31
0.0
  0
LINE
  5
3D9
330
1E
100
AcDbEntity
  8
0
100
AcDbLine
 10
115.998
 20
139.02281
 30
0.0
 11
117.998
 21
139.02281
 31
0.0
  0
LINE
  5
3DA
330
1E
100
AcDbEntity
  8
0
100
AcDbLine
 10
115.998
 20
138.502609205298
 30
0.0
 11
115.998
 21
138.02281
 31
0.0
  0
LINE
  5
3DB
330
1E
100
AcDbEntity
  8
0
100
AcDbLine
 10
117.998
 20
138.02281
 30
0.0
 11
117.998
 21
139.02281
 31
0.0
  0
LINE
  5
3DC
330
1E
100
AcDbEntity
  8
0
100
AcDbLine
 10
115.998
 20
138.02281
 30
0.0
 11
115.998
 21
138.502609205298
 31
0.0
  0
LINE
  5
3DD
330
1E
100
AcDbEntity
  8
0
100
AcDbLine
 10
115.998
 20
138.02281
 30
0.0
 11
117.998
 21
138.02281
 31
0.0
  0
LINE
  5
3DE
330
1E
100
AcDbEntity
  8
0
100
AcDbLine
 10
115.998
 20
138.02281
 30
0.0
 11
115.998
 21
139.02281
 31
0.0
  0
LINE
  5
3DF
330
1E
100
AcDbEntity
  8
0
100
AcDbLine
 10
117.998
 20
139.7084714736839
 30
0.0
 11
117.998
 21
139.02281
 31
0.0
  0
LINE
  5
3E0
330
1E
100
AcDbEntity
  8
0
100
AcDbLine
 10
117.998
 20
139.02281
 30
0.0
 11
117.998
 21
138.02281
 31
0.0
  0
LINE
  5
3E1
330
1E
100
AcDbEntity
  8
0
100
AcDbLine
 10
117.998
 20
139.02281
 30
0.0
 11
117.998
 21
139.7084714736839
 31
0.0
  0
LINE
  5
3E2
330
1E
100
AcDbEntity
  8
0
100
AcDbLine
 10
119.5999999999999
 20
140.08081
 30
0.0
 11
124.3999999999999
 21
136.53081
 31
0.0
  0
LINE
  5
3E3
330
1E
100
AcDbEntity
  8
0
100
AcDbLine
 10
124.3999999999999
 20
136.53081
 30
0.0
 11
128.0
 21
132.78081
 31
0.0
  0
LINE
  5
3E4
330
1E
100
AcDbEntity
  8
0
100
AcDbLine
 10
122.0
 20
140.98081
 30
0.0
 11
127.0
 21
137.28081
 31
0.0
  0
LINE
  5
3E5
330
1E
100
AcDbEntity
  8
0
100
AcDbLine
 10
127.0
 20
137.28081
 30
0.0
 11
130.6999999999999
 21
133.3808099999999
 31
0.0
  0
LINE
  5
3E6
330
1E
100
AcDbEntity
  8
0
100
AcDbLine
 10
114.0
 20
143.23081
 30
0.0
 11
119.5999999999999
 21
140.08081
 31
0.0
  0
LINE
  5
3E7
330
1E
100
AcDbEntity
  8
0
100
AcDbLine
 10
122.7999999999999
 20
142.14681
 30
0.0
 11
127.8
 21
138.39681
 31
0.0
  0
LINE
  5
3E8
330
1E
100
AcDbEntity
  8
0
100
AcDbLine
 10
127.8
 20
138.39681
 30
0.0
 11
131.6999999999999
 21
134.44681
 31
0.0
  0
LINE
  5
3E9
330
1E
100
AcDbEntity
  8
0
100
AcDbLine
 10
131.6999999999999
 20
134.44681
 30
0.0
 11
134.4999999999999
 21
130.19681
 31
0.0
  0
LINE
  5
3EA
330
1E
100
AcDbEntity
  8
0
100
AcDbLine
 10
134.4999999999999
 20
130.19681
 30
0.0
 11
136.3
 21
125.74681
 31
0.0
  0
LINE
  5
3EB
330
1E
100
AcDbEntity
  8
0
100
AcDbLine
 10
136.3
 20
125.74681
 30
0.0
 11
137.0
 21
121.34681
 31
0.0
  0
LINE
  5
3EC
330
1E
100
AcDbEntity
  8
0
100
AcDbLine
 10
137.0
 20
121.34681
 30
0.0
 11
137.0
 21
139.53381
 31
0.0
  0
LINE
  5
3ED
330
1E
100
AcDbEntity
  8
0
100
AcDbLine
 10
116.2
 20
144.33081
 30
0.0
 11
122.0
 21
140.98081
 31
0.0
  0
LINE
  5
3EE
330
1E
100
AcDbEntity
  8
0
100
AcDbLine
 10
110.0999999999999
 20
148.49681
 30
0.0
 11
116.9
 21
145.54681
 31
0.0
  0
LINE
  5
3EF
330
1E
100
AcDbEntity
  8
0
100
AcDbLine
 10
116.9
 20
145.54681
 30
0.0
 11
122.7999999999999
 21
142.14681
 31
0.0
  0
LINE
  5
3F0
330
1E
100
AcDbEntity
  8
0
100
AcDbLine
 10
134.4999999999999
 20
148.38381
 30
0.0
 11
136.3
 21
143.93381
 31
0.0
  0
LINE
  5
3F1
330
1E
100
AcDbEntity
  8
0
100
AcDbLine
 10
136.3
 20
143.93381
 30
0.0
 11
137.0
 21
139.53381
 31
0.0
  0
LINE
  5
3F2
330
1E
100
AcDbEntity
  8
0
100
AcDbLine
 10
137.0
 20
139.53381
 30
0.0
 11
137.0
 21
121.34681
 31
0.0
  0
LINE
  5
3F3
330
1E
100
AcDbEntity
  8
0
100
AcDbLine
 10
136.3
 20
116.94681
 30
0.0
 11
137.0
 21
121.34681
 31
0.0
  0
LINE
  5
3F4
330
1E
100
AcDbEntity
  8
0
100
AcDbLine
 10
109.4999999999999
 20
93.73110999999999
 30
0.0
 11
116.2
 21
96.63111
 31
0.0
  0
LINE
  5
3F5
330
1E
100
AcDbEntity
  8
0
100
AcDbLine
 10
102.0999999999999
 20
91.23110999999999
 30
0.0
 11
109.4999999999999
 21
93.73110999999999
 31
0.0
  0
LINE
  5
3F6
330
1E
100
AcDbEntity
  8
0
100
AcDbLine
 10
94.29999999999999
 20
89.38110999999999
 30
0.0
 11
102.0999999999999
 21
91.23110999999999
 31
0.0
  0
LINE
  5
3F7
330
1E
100
AcDbEntity
  8
0
100
AcDbLine
 10
85.5
 20
87.93111000000001
 30
0.0
 11
94.29999999999999
 21
89.38110999999999
 31
0.0
  0
LINE
  5
3F8
330
1E
100
AcDbEntity
  8
0
100
AcDbLine
 10
77.2
 20
87.08111
 30
0.0
 11
85.5
 21
87.93111000000001
 31
0.0
  0
LINE
  5
3F9
330
1E
100
AcDbEntity
  8
0
100
AcDbLine
 10
68.5
 20
86.73111
 30
0.0
 11
77.2
 21
87.08111
 31
0.0
  0
LINE
  5
3FA
330
1E
100
AcDbEntity
  8
0
100
AcDbLine
 10
60.0
 20
88.53111
 30
0.0
 11
68.5
 21
88.23111
 31
0.0
  0
LINE
  5
3FB
330
1E
100
AcDbEntity
  8
0
100
AcDbLine
 10
68.5
 20
152.73081
 30
0.0
 11
77.0
 21
152.43081
 31
0.0
  0
LINE
  5
3FC
330
1E
100
AcDbEntity
  8
0
100
AcDbLine
 10
68.5
 20
154.23081
 30
0.0
 11
77.2
 21
153.8808099999999
 31
0.0
  0
LINE
  5
3FD
330
1E
100
AcDbEntity
  8
0
100
AcDbLine
 10
85.5
 20
153.03081
 30
0.0
 11
94.29999999999999
 21
151.58081
 31
0.0
  0
LINE
  5
3FE
330
1E
100
AcDbEntity
  8
0
100
AcDbLine
 10
77.2
 20
153.8808099999999
 30
0.0
 11
85.5
 21
153.03081
 31
0.0
  0
LINE
  5
3FF
330
1E
100
AcDbEntity
  8
0
100
AcDbLine
 10
94.7
 20
152.94681
 30
0.0
 11
102.6
 21
150.99681
 31
0.0
  0
LINE
  5
400
330
1E
100
AcDbEntity
  8
0
100
AcDbLine
 10
86.2
 20
154.34681
 30
0.0
 11
94.7
 21
152.94681
 31
0.0
  0
LINE
  5
401
330
1E
100
AcDbEntity
  8
0
100
AcDbLine
 10
77.3
 20
155.24681
 30
0.0
 11
86.2
 21
154.34681
 31
0.0
  0
LINE
  5
402
330
1E
100
AcDbEntity
  8
0
100
AcDbLine
 10
68.5
 20
155.59681
 30
0.0
 11
77.3
 21
155.24681
 31
0.0
  0
LINE
  5
403
330
1E
100
AcDbEntity
  8
0
100
AcDbLine
 10
68.5
 20
173.78381
 30
0.0
 11
77.3
 21
173.43381
 31
0.0
  0
LINE
  5
404
330
1E
100
AcDbEntity
  8
0
100
AcDbLine
 10
86.2
 20
172.53381
 30
0.0
 11
94.7
 21
171.13381
 31
0.0
  0
LINE
  5
405
330
1E
100
AcDbEntity
  8
0
100
AcDbLine
 10
102.6
 20
169.18381
 30
0.0
 11
110.0999999999999
 21
166.68381
 31
0.0
  0
LINE
  5
406
330
1E
100
AcDbEntity
  8
0
100
AcDbLine
 10
110.0999999999999
 20
166.68381
 30
0.0
 11
116.9
 21
163.73381
 31
0.0
  0
LINE
  5
407
330
1E
100
AcDbEntity
  8
0
100
AcDbLine
 10
109.4999999999999
 20
167.1498099999999
 30
0.0
 11
116.2
 21
164.24981
 31
0.0
  0
LINE
  5
408
330
1E
100
AcDbEntity
  8
0
100
AcDbLine
 10
94.7
 20
171.13381
 30
0.0
 11
102.6
 21
169.18381
 31
0.0
  0
LINE
  5
409
330
1E
100
AcDbEntity
  8
0
100
AcDbLine
 10
102.0999999999999
 20
169.64981
 30
0.0
 11
109.4999999999999
 21
167.1498099999999
 31
0.0
  0
LINE
  5
40A
330
1E
100
AcDbEntity
  8
0
100
AcDbLine
 10
94.29999999999999
 20
171.49981
 30
0.0
 11
102.0999999999999
 21
169.64981
 31
0.0
  0
LINE
  5
40B
330
1E
100
AcDbEntity
  8
0
100
AcDbLine
 10
77.3
 20
173.43381
 30
0.0
 11
86.2
 21
172.53381
 31
0.0
  0
LINE
  5
40C
330
1E
100
AcDbEntity
  8
0
100
AcDbLine
 10
85.5
 20
172.94981
 30
0.0
 11
94.29999999999999
 21
171.49981
 31
0.0
  0
LINE
  5
40D
330
1E
100
AcDbEntity
  8
0
100
AcDbLine
 10
77.2
 20
173.79981
 30
0.0
 11
85.5
 21
172.94981
 31
0.0
  0
LINE
  5
40E
330
1E
100
AcDbEntity
  8
0
100
AcDbLine
 10
68.5
 20
174.14981
 30
0.0
 11
77.2
 21
173.79981
 31
0.0
  0
LINE
  5
40F
330
1E
100
AcDbEntity
  8
0
100
AcDbLine
 10
116.9
 20
163.73381
 30
0.0
 11
122.7999999999999
 21
160.33381
 31
0.0
  0
LINE
  5
410
330
1E
100
AcDbEntity
  8
0
100
AcDbLine
 10
122.0
 20
160.8998099999999
 30
0.0
 11
122.7999999999999
 21
160.33381
 31
0.0
  0
LINE
  5
411
330
1E
100
AcDbEntity
  8
0
100
AcDbLine
 10
122.7999999999999
 20
160.33381
 30
0.0
 11
127.8
 21
156.58381
 31
0.0
  0
LINE
  5
412
330
1E
100
AcDbEntity
  8
0
100
AcDbLine
 10
116.2
 20
164.24981
 30
0.0
 11
122.0
 21
160.8998099999999
 31
0.0
  0
LINE
  5
413
330
1E
100
AcDbEntity
  8
0
100
AcDbLine
 10
125.399999999999
 20
158.383810000001
 30
0.0
 11
127.0
 21
157.19981
 31
0.0
  0
LINE
  5
414
330
1E
100
AcDbEntity
  8
0
100
AcDbLine
 10
127.8
 20
156.58381
 30
0.0
 11
131.6999999999999
 21
152.63381
 31
0.0
  0
LINE
  5
415
330
1E
100
AcDbEntity
  8
0
100
AcDbLine
 10
131.6999999999999
 20
152.63381
 30
0.0
 11
134.4999999999999
 21
148.38381
 31
0.0
  0
LINE
  5
416
330
1E
100
AcDbEntity
  8
0
100
AcDbLine
 10
127.0
 20
157.19981
 30
0.0
 11
127.052622222222
 21
157.1443433333329
 31
0.0
  0
LINE
  5
417
330
1E
100
AcDbEntity
  8
0
100
AcDbLine
 10
60.0
 20
152.43081
 30
0.0
 11
68.5
 21
152.73081
 31
0.0
  0
LINE
  5
418
330
1E
100
AcDbEntity
  8
0
100
AcDbLine
 10
59.8
 20
173.79981
 30
0.0
 11
68.5
 21
174.14981
 31
0.0
  0
ENDSEC
  0
SECTION
  2
OBJECTS
  0
DICTIONARY
  5
C
330
0
100
AcDbDictionary
281
     1
  3
ACAD_GROUP
350
D
  3
ACAD_LAYOUT
350
19
  3
ACAD_MLINESTYLE
350
16
  3
ACAD_PLOTSETTINGS
350
18
  3
ACAD_PLOTSTYLENAME
350
E
  3
AcDbVariableDictionary
350
41D
  0
DICTIONARY
  5
D
102
{ACAD_REACTORS
330
C
102
}
330
C
100
AcDbDictionary
281
     1
  0
DICTIONARY
  5
19
102
{ACAD_REACTORS
330
C
102
}
330
C
100
AcDbDictionary
281
     1
  3
Layout1
350
1D
  3
Model
350
21
  0
DICTIONARY
  5
16
102
{ACAD_REACTORS
330
C
102
}
330
C
100
AcDbDictionary
281
     1
  3
Standard
350
17
  0
DICTIONARY
  5
18
102
{ACAD_REACTORS
330
C
102
}
330
C
100
AcDbDictionary
281
     1
  0
ACDBDICTIONARYWDFLT
  5
E
102
{ACAD_REACTORS
330
C
102
}
330
C
100
AcDbDictionary
281
     1
  3
Normal
350
F
100
AcDbDictionaryWithDefault
340
F
  0
DICTIONARY
  5
41D
102
{ACAD_REACTORS
330
C
102
}
330
C
100
AcDbDictionary
281
     1
  3
DIMASSOC
350
41E
  0
LAYOUT
  5
1D
102
{ACAD_REACTORS
330
19
102
}
330
19
100
AcDbPlotSettings
  1

  2
hp deskjet 980c series
  4

  6

 40
0.0
 41
0.0
 42
0.0
 43
0.0
 44
0.0
 45
0.0
 46
0.0
 47
0.0
 48
0.0
 49
0.0
140
0.0
141
0.0
142
1.0
143
1.0
 70
   688
 72
     0
 73
     0
 74
     5
  7

 75
    16
147
1.0
148
0.0
149
0.0
100
AcDbLayout
  1
Layout1
 70
     1
 71
     1
 10
0.0
 20
0.0
 11
12.0
 21
9.0
 12
0.0
 22
0.0
 32
0.0
 14
1.000000000000000E+20
 24
1.000000000000000E+20
 34
1.000000000000000E+20
 15
-1.000000000000000E+20
 25
-1.000000000000000E+20
 35
-1.000000000000000E+20
146
0.0
 13
0.0
 23
0.0
 33
0.0
 16
1.0
 26
0.0
 36
0.0
 17
0.0
 27
1.0
 37
0.0
 76
     0
330
1A
  0
LAYOUT
  5
21
102
{ACAD_REACTORS
330
19
102
}
330
19
100
AcDbPlotSettings
  1

  2
hp deskjet 980c series
  4

  6

 40
0.0
 41
0.0
 42
0.0
 43
0.0
 44
0.0
 45
0.0
 46
0.0
 47
0.0
 48
0.0
 49
0.0
140
0.0
141
0.0
142
1.0
143
1.0
 70
  1712
 72
     0
 73
     0
 74
     0
  7

 75
     0
147
1.0
148
0.0
149
0.0
100
AcDbLayout
  1
Model
 70
     1
 71
     0
 10
0.0
 20
0.0
 11
12.0
 21
9.0
 12
0.0
 22
0.0
 32
0.0
 14
0.0
 24
0.0
 34
0.0
 15
0.0
 25
0.0
 35
0.0
146
0.0
 13
0.0
 23
0.0
 33
0.0
 16
1.0
 26
0.0
 36
0.0
 17
0.0
 27
1.0
 37
0.0
 76
     0
330
1E
  0
MLINESTYLE
  5
17
102
{ACAD_REACTORS
330
16
102
}
330
16
100
AcDbMlineStyle
  2
STANDARD
 70
     0
  3

 62
   256
 51
90.0
 52
90.0
 71
     2
 49
0.5
 62
   256
  6
BYLAYER
 49
-0.5
 62
   256
  6
BYLAYER
  0
ACDBPLACEHOLDER
  5
F
102
{ACAD_REACTORS
330
E
102
}
330
E
  0
DICTIONARYVAR
  5
41E
102
{ACAD_REACTORS
330
41D
102
}
330
41D
100
DictionaryVariables
280
     0
  1
1
  0
ENDSEC
  0
EOF
