  0
SECTION
  2
HEADER
  9
$ACADVER
  1
AC1014
  9
$ACADMAINTVER
 70
     9
  9
$DWGCODEPAGE
  3
ANSI_1252
  9
$INSBASE
 10
0.0
 20
0.0
 30
0.0
  9
$EXTMIN
 10
0.0000000000000074
 20
0.249999999999992
 30
0.0
  9
$EXTMAX
 10
266.0
 20
144.7499999999999
 30
0.0
  9
$LIMMIN
 10
0.0
 20
0.0
  9
$LIMMAX
 10
12.0
 20
9.0
  9
$ORTHOMODE
 70
     0
  9
$REGENMODE
 70
     1
  9
$FILLMODE
 70
     1
  9
$QTEXTMODE
 70
     0
  9
$MIRRTEXT
 70
     1
  9
$DRAGMODE
 70
     2
  9
$LTSCALE
 40
1.0
  9
$OSMODE
 70
    37
  9
$ATTMODE
 70
     1
  9
$TEXTSIZE
 40
0.2
  9
$TRACEWID
 40
0.05
  9
$TEXTSTYLE
  7
STANDARD
  9
$CLAYER
  8
0
  9
$CELTYPE
  6
CONTINUOUS
  9
$CECOLOR
 62
   256
  9
$CELTSCALE
 40
1.0
  9
$DELOBJ
 70
     1
  9
$DISPSILH
 70
     0
  9
$DIMSCALE
 40
1.0
  9
$DIMASZ
 40
0.18
  9
$DIMEXO
 40
0.0625
  9
$DIMDLI
 40
0.38
  9
$DIMRND
 40
0.0
  9
$DIMDLE
 40
0.0
  9
$DIMEXE
 40
0.18
  9
$DIMTP
 40
0.0
  9
$DIMTM
 40
0.0
  9
$DIMTXT
 40
0.18
  9
$DIMCEN
 40
0.09
  9
$DIMTSZ
 40
0.0
  9
$DIMTOL
 70
     0
  9
$DIMLIM
 70
     0
  9
$DIMTIH
 70
     1
  9
$DIMTOH
 70
     1
  9
$DIMSE1
 70
     0
  9
$DIMSE2
 70
     0
  9
$DIMTAD
 70
     0
  9
$DIMZIN
 70
     0
  9
$DIMBLK
  1

  9
$DIMASO
 70
     1
  9
$DIMSHO
 70
     1
  9
$DIMPOST
  1

  9
$DIMAPOST
  1

  9
$DIMALT
 70
     0
  9
$DIMALTD
 70
     2
  9
$DIMALTF
 40
25.4
  9
$DIMLFAC
 40
1.0
  9
$DIMTOFL
 70
     0
  9
$DIMTVP
 40
0.0
  9
$DIMTIX
 70
     0
  9
$DIMSOXD
 70
     0
  9
$DIMSAH
 70
     0
  9
$DIMBLK1
  1

  9
$DIMBLK2
  1

  9
$DIMSTYLE
  2
STANDARD
  9
$DIMCLRD
 70
     0
  9
$DIMCLRE
 70
     0
  9
$DIMCLRT
 70
     0
  9
$DIMTFAC
 40
1.0
  9
$DIMGAP
 40
0.09
  9
$DIMJUST
 70
     0
  9
$DIMSD1
 70
     0
  9
$DIMSD2
 70
     0
  9
$DIMTOLJ
 70
     1
  9
$DIMTZIN
 70
     0
  9
$DIMALTZ
 70
     0
  9
$DIMALTTZ
 70
     0
  9
$DIMFIT
 70
     3
  9
$DIMUPT
 70
     0
  9
$DIMUNIT
 70
     2
  9
$DIMDEC
 70
     4
  9
$DIMTDEC
 70
     4
  9
$DIMALTU
 70
     2
  9
$DIMALTTD
 70
     2
  9
$DIMTXSTY
  7
STANDARD
  9
$DIMAUNIT
 70
     0
  9
$LUNITS
 70
     2
  9
$LUPREC
 70
     4
  9
$SKETCHINC
 40
0.1
  9
$FILLETRAD
 40
0.0
  9
$AUNITS
 70
     0
  9
$AUPREC
 70
     0
  9
$MENU
  1
.
  9
$ELEVATION
 40
0.0
  9
$PELEVATION
 40
0.0
  9
$THICKNESS
 40
0.0
  9
$LIMCHECK
 70
     0
  9
$BLIPMODE
 70
     0
  9
$CHAMFERA
 40
0.0
  9
$CHAMFERB
 40
0.0
  9
$CHAMFERC
 40
0.0
  9
$CHAMFERD
 40
0.0
  9
$SKPOLY
 70
     0
  9
$TDCREATE
 40
2454687.471527777
  9
$TDUPDATE
 40
2454687.520454097
  9
$TDINDWG
 40
0.0489265046
  9
$TDUSRTIMER
 40
0.0489265046
  9
$USRTIMER
 70
     1
  9
$ANGBASE
 50
0.0
  9
$ANGDIR
 70
     0
  9
$PDMODE
 70
     0
  9
$PDSIZE
 40
0.0
  9
$PLINEWID
 40
0.0
  9
$COORDS
 70
     1
  9
$SPLFRAME
 70
     0
  9
$SPLINETYPE
 70
     6
  9
$SPLINESEGS
 70
     8
  9
$ATTDIA
 70
     0
  9
$ATTREQ
 70
     1
  9
$HANDLING
 70
 22529
  9
$HANDSEED
  5
21F
  9
$SURFTAB1
 70
     6
  9
$SURFTAB2
 70
     6
  9
$SURFTYPE
 70
     6
  9
$SURFU
 70
     6
  9
$SURFV
 70
     6
  9
$UCSNAME
  2

  9
$UCSORG
 10
0.0
 20
0.0
 30
0.0
  9
$UCSXDIR
 10
1.0
 20
0.0
 30
0.0
  9
$UCSYDIR
 10
0.0
 20
1.0
 30
0.0
  9
$PUCSNAME
  2

  9
$PUCSORG
 10
0.0
 20
0.0
 30
0.0
  9
$PUCSXDIR
 10
1.0
 20
0.0
 30
0.0
  9
$PUCSYDIR
 10
0.0
 20
1.0
 30
0.0
  9
$USERI1
 70
     0
  9
$USERI2
 70
     0
  9
$USERI3
 70
     0
  9
$USERI4
 70
     0
  9
$USERI5
 70
     0
  9
$USERR1
 40
0.0
  9
$USERR2
 40
0.0
  9
$USERR3
 40
0.0
  9
$USERR4
 40
0.0
  9
$USERR5
 40
0.0
  9
$WORLDVIEW
 70
     1
  9
$SHADEDGE
 70
     3
  9
$SHADEDIF
 70
    70
  9
$TILEMODE
 70
     1
  9
$MAXACTVP
 70
    64
  9
$PINSBASE
 10
0.0
 20
0.0
 30
0.0
  9
$PLIMCHECK
 70
     0
  9
$PEXTMIN
 10
1.000000000000000E+20
 20
1.000000000000000E+20
 30
1.000000000000000E+20
  9
$PEXTMAX
 10
-1.000000000000000E+20
 20
-1.000000000000000E+20
 30
-1.000000000000000E+20
  9
$PLIMMIN
 10
0.0
 20
0.0
  9
$PLIMMAX
 10
12.0
 20
9.0
  9
$UNITMODE
 70
     0
  9
$VISRETAIN
 70
     1
  9
$PLINEGEN
 70
     0
  9
$PSLTSCALE
 70
     1
  9
$TREEDEPTH
 70
  3020
  9
$PICKSTYLE
 70
     1
  9
$CMLSTYLE
  2
STANDARD
  9
$CMLJUST
 70
     0
  9
$CMLSCALE
 40
1.0
  9
$PROXYGRAPHICS
 70
     1
  9
$MEASUREMENT
 70
     0
  0
ENDSEC
  0
SECTION
  2
CLASSES
  0
CLASS
  1
ACDBDICTIONARYWDFLT
  2
AcDbDictionaryWithDefault
  3
AutoCAD 2000
 90
        0
280
     0
281
     0
  0
CLASS
  1
ACDBPLACEHOLDER
  2
AcDbPlaceHolder
  3
AutoCAD 2000
 90
        0
280
     0
281
     0
  0
CLASS
  1
LAYOUT
  2
AcDbLayout
  3
AutoCAD 2000
 90
        0
280
     0
281
     0
  0
CLASS
  1
DICTIONARYVAR
  2
AcDbDictionaryVar
  3
AutoCAD 2000
 90
        0
280
     0
281
     0
  0
CLASS
  1
LONG_TRANSACTION
  2
AcDbLongTransaction
  3
AutoCAD 2000
 90
        0
280
     0
281
     0
  0
CLASS
  1
LWPOLYLINE
  2
AcDbPolyline
  3
AutoCAD 2000
 90
        0
280
     0
281
     1
  0
CLASS
  1
HATCH
  2
AcDbHatch
  3
AutoCAD 2000
 90
        0
280
     0
281
     1
  0
CLASS
  1
XRECORD
  2
AcDbXrecord
  3
AutoCAD 2000
 90
        0
280
     0
281
     0
  0
ENDSEC
  0
SECTION
  2
TABLES
  0
TABLE
  2
VPORT
  5
8
330
0
100
AcDbSymbolTable
 70
     4
  0
VPORT
  5
1FA
330
8
100
AcDbSymbolTableRecord
100
AcDbViewportTableRecord
  2
*ACTIVE
 70
     0
 10
0.0
 20
0.0
 11
1.0
 21
1.0
 12
133.0
 22
72.49999999999999
 13
0.0
 23
0.0
 14
1.0
 24
1.0
 15
0.0
 25
0.0
 16
0.0
 26
0.0
 36
1.0
 17
0.0
 27
0.0
 37
0.0
 40
145.6086956521739
 41
2.043533930857874
 42
50.0
 43
0.0
 44
0.0
 50
0.0
 51
0.0
 71
     0
 72
   100
 73
     1
 74
     3
 75
     0
 76
     0
 77
     0
 78
     0
  0
ENDTAB
  0
TABLE
  2
LTYPE
  5
5
330
0
100
AcDbSymbolTable
 70
     1
  0
LTYPE
  5
13
330
5
100
AcDbSymbolTableRecord
100
AcDbLinetypeTableRecord
  2
BYBLOCK
 70
     0
  3

 72
    65
 73
     0
 40
0.0
  0
LTYPE
  5
14
330
5
100
AcDbSymbolTableRecord
100
AcDbLinetypeTableRecord
  2
BYLAYER
 70
     0
  3

 72
    65
 73
     0
 40
0.0
  0
LTYPE
  5
15
330
5
100
AcDbSymbolTableRecord
100
AcDbLinetypeTableRecord
  2
CONTINUOUS
 70
     0
  3
Solid line
 72
    65
 73
     0
 40
0.0
  0
ENDTAB
  0
TABLE
  2
LAYER
  5
2
330
0
100
AcDbSymbolTable
 70
     1
  0
LAYER
  5
10
330
2
100
AcDbSymbolTableRecord
100
AcDbLayerTableRecord
  2
0
 70
     0
 62
     7
  6
CONTINUOUS
  0
ENDTAB
  0
TABLE
  2
STYLE
  5
3
330
0
100
AcDbSymbolTable
 70
     1
  0
STYLE
  5
11
330
3
100
AcDbSymbolTableRecord
100
AcDbTextStyleTableRecord
  2
STANDARD
 70
     0
 40
0.0
 41
1.0
 50
0.0
 71
     0
 42
0.2
  3
txt
  4

  0
ENDTAB
  0
TABLE
  2
VIEW
  5
6
330
0
100
AcDbSymbolTable
 70
     0
  0
ENDTAB
  0
TABLE
  2
UCS
  5
7
330
0
100
AcDbSymbolTable
 70
     0
  0
ENDTAB
  0
TABLE
  2
APPID
  5
9
330
0
100
AcDbSymbolTable
 70
     1
  0
APPID
  5
12
330
9
100
AcDbSymbolTableRecord
100
AcDbRegAppTableRecord
  2
ACAD
 70
     0
  0
ENDTAB
  0
TABLE
  2
DIMSTYLE
  5
A
330
0
100
AcDbSymbolTable
 70
     1
  0
DIMSTYLE
105
172
330
A
100
AcDbSymbolTableRecord
100
AcDbDimStyleTableRecord
  2
STANDARD
 70
     0
  3

  4

  5

  6

  7

 40
1.0
 41
0.18
 42
0.0625
 43
0.38
 44
0.18
 45
0.0
 46
0.0
 47
0.0
 48
0.0
140
0.18
141
0.09
142
0.0
143
25.4
144
1.0
145
0.0
146
1.0
147
0.09
 71
     0
 72
     0
 73
     1
 74
     1
 75
     0
 76
     0
 77
     0
 78
     0
170
     0
171
     2
172
     0
173
     0
174
     0
175
     0
176
     0
177
     0
178
     0
270
     2
271
     4
272
     4
273
     2
274
     2
340
11
275
     0
280
     0
281
     0
282
     0
283
     1
284
     0
285
     0
286
     0
287
     3
288
     0
  0
ENDTAB
  0
TABLE
  2
BLOCK_RECORD
  5
1
330
0
100
AcDbSymbolTable
 70
     0
  0
BLOCK_RECORD
  5
1E
102
{ACAD_XDICTIONARY
360
21D
102
}
330
1
100
AcDbSymbolTableRecord
100
AcDbBlockTableRecord
  2
*MODEL_SPACE
  0
BLOCK_RECORD
  5
1A
102
{ACAD_XDICTIONARY
360
21B
102
}
330
1
100
AcDbSymbolTableRecord
100
AcDbBlockTableRecord
  2
*PAPER_SPACE
  0
ENDTAB
  0
ENDSEC
  0
SECTION
  2
BLOCKS
  0
BLOCK
  5
1F
330
1E
100
AcDbEntity
  8
0
100
AcDbBlockBegin
  2
*MODEL_SPACE
 70
     0
 10
0.0
 20
0.0
 30
0.0
  3
*MODEL_SPACE
  1

  0
ENDBLK
  5
20
330
1E
100
AcDbEntity
  8
0
100
AcDbBlockEnd
  0
BLOCK
  5
1B
330
1A
100
AcDbEntity
 67
     1
  8
0
100
AcDbBlockBegin
  2
*PAPER_SPACE
 70
     0
 10
0.0
 20
0.0
 30
0.0
  3
*PAPER_SPACE
  1

  0
ENDBLK
  5
1C
330
1A
100
AcDbEntity
 67
     1
  8
0
100
AcDbBlockEnd
  0
ENDSEC
  0
SECTION
  2
ENTITIES
  0
LINE
  5
22
330
1E
100
AcDbEntity
  8
0
100
AcDbLine
 10
40.0
 20
86.1838
 30
0.0
 11
47.46179999999999
 21
87.225
 31
0.0
  0
LINE
  5
23
330
1E
100
AcDbEntity
  8
0
100
AcDbLine
 10
107.8629999999999
 20
0.2762499999999961
 30
0.0
 11
108.538
 21
0.351219999999996
 31
0.0
  0
LINE
  5
24
330
1E
100
AcDbEntity
  8
0
100
AcDbLine
 10
108.538
 20
0.351219999999996
 30
0.0
 11
109.776
 21
0.726039999999996
 31
0.0
  0
LINE
  5
25
330
1E
100
AcDbEntity
  8
0
100
AcDbLine
 10
109.776
 20
0.726039999999996
 30
0.0
 11
111.276
 21
1.40073
 31
0.0
  0
LINE
  5
26
330
1E
100
AcDbEntity
  8
0
100
AcDbLine
 10
113.077
 20
2.525199999999999
 30
0.0
 11
115.0279999999999
 21
4.511769999999999
 31
0.0
  0
LINE
  5
27
330
1E
100
AcDbEntity
  8
0
100
AcDbLine
 10
115.0279999999999
 20
4.511769999999999
 30
0.0
 11
116.791
 21
5.861139999999999
 31
0.0
  0
LINE
  5
28
330
1E
100
AcDbEntity
  8
0
100
AcDbLine
 10
116.791
 20
5.861139999999999
 30
0.0
 11
118.6289999999999
 21
7.060579999999999
 31
0.0
  0
LINE
  5
29
330
1E
100
AcDbEntity
  8
0
100
AcDbLine
 10
115.0279999999999
 20
4.511769999999999
 30
0.0
 11
116.791
 21
5.861139999999999
 31
0.0
  0
LINE
  5
2A
330
1E
100
AcDbEntity
  8
0
100
AcDbLine
 10
116.791
 20
5.861139999999999
 30
0.0
 11
118.6289999999999
 21
7.060579999999999
 31
0.0
  0
LINE
  5
2B
330
1E
100
AcDbEntity
  8
0
100
AcDbLine
 10
118.6289999999999
 20
7.060579999999999
 30
0.0
 11
120.43
 21
8.260019999999999
 31
0.0
  0
LINE
  5
2C
330
1E
100
AcDbEntity
  8
0
100
AcDbLine
 10
121.5179999999999
 20
9.30953
 30
0.0
 11
122.231
 21
10.0217
 31
0.0
  0
LINE
  5
2D
330
1E
100
AcDbEntity
  8
0
100
AcDbLine
 10
120.43
 20
8.260019999999999
 30
0.0
 11
121.5179999999999
 21
9.30953
 31
0.0
  0
LINE
  5
2E
330
1E
100
AcDbEntity
  8
0
100
AcDbLine
 10
120.43
 20
8.260019999999999
 30
0.0
 11
121.5179999999999
 21
9.30953
 31
0.0
  0
LINE
  5
2F
330
1E
100
AcDbEntity
  8
0
100
AcDbLine
 10
121.5
 20
60.25
 30
0.0
 11
122.1999999999999
 21
60.25
 31
0.0
  0
LINE
  5
30
330
1E
100
AcDbEntity
  8
0
100
AcDbLine
 10
121.5179999999999
 20
9.30953
 30
0.0
 11
122.231
 21
10.0217
 31
0.0
  0
LINE
  5
31
330
1E
100
AcDbEntity
  8
0
100
AcDbLine
 10
122.1999999999999
 20
60.25
 30
0.0
 11
122.5
 21
60.25
 31
0.0
  0
LINE
  5
32
330
1E
100
AcDbEntity
  8
0
100
AcDbLine
 10
122.5
 20
10.25
 30
0.0
 11
122.5
 21
60.25
 31
0.0
  0
LINE
  5
33
330
1E
100
AcDbEntity
  8
0
100
AcDbLine
 10
122.231
 20
10.0217
 30
0.0
 11
122.5
 21
10.25
 31
0.0
  0
LINE
  5
34
330
1E
100
AcDbEntity
  8
0
100
AcDbLine
 10
113.077
 20
2.525199999999999
 30
0.0
 11
115.0279999999999
 21
4.511769999999999
 31
0.0
  0
LINE
  5
35
330
1E
100
AcDbEntity
  8
0
100
AcDbLine
 10
111.276
 20
1.40073
 30
0.0
 11
113.077
 21
2.525199999999999
 31
0.0
  0
LINE
  5
36
330
1E
100
AcDbEntity
  8
0
100
AcDbLine
 10
109.776
 20
0.7260399999999971
 30
0.0
 11
111.276
 21
1.40073
 31
0.0
  0
LINE
  5
37
330
1E
100
AcDbEntity
  8
0
100
AcDbLine
 10
108.4999999999999
 20
60.25
 30
0.0
 11
109.6999999999999
 21
60.25
 31
0.0
  0
LINE
  5
38
330
1E
100
AcDbEntity
  8
0
100
AcDbLine
 10
108.538
 20
0.351219999999996
 30
0.0
 11
109.776
 21
0.7260399999999971
 31
0.0
  0
LINE
  5
39
330
1E
100
AcDbEntity
  8
0
100
AcDbLine
 10
107.8
 20
60.25
 30
0.0
 11
108.4999999999999
 21
60.25
 31
0.0
  0
LINE
  5
3A
330
1E
100
AcDbEntity
  8
0
100
AcDbLine
 10
107.8629999999999
 20
0.2762499999999961
 30
0.0
 11
108.538
 21
0.351219999999996
 31
0.0
  0
LINE
  5
3B
330
1E
100
AcDbEntity
  8
0
100
AcDbLine
 10
107.4999999999999
 20
60.25
 30
0.0
 11
107.4999999999999
 21
0.249999999999992
 31
0.0
  0
LINE
  5
3C
330
1E
100
AcDbEntity
  8
0
100
AcDbLine
 10
107.4999999999999
 20
60.25
 30
0.0
 11
107.8
 21
60.25
 31
0.0
  0
LINE
  5
3D
330
1E
100
AcDbEntity
  8
0
100
AcDbLine
 10
107.4999999999999
 20
0.249999999999996
 30
0.0
 11
107.8629999999999
 21
0.2762499999999961
 31
0.0
  0
LINE
  5
3E
330
1E
100
AcDbEntity
  8
0
100
AcDbLine
 10
107.4999999999999
 20
0.249999999999996
 30
0.0
 11
107.4999999999999
 21
60.25
 31
0.0
  0
LINE
  5
3F
330
1E
100
AcDbEntity
  8
0
100
AcDbLine
 10
107.4999999999999
 20
0.249999999999996
 30
0.0
 11
107.8629999999999
 21
0.2762499999999961
 31
0.0
  0
LINE
  5
40
330
1E
100
AcDbEntity
  8
0
100
AcDbLine
 10
122.5
 20
60.25
 30
0.0
 11
122.7999999999999
 21
60.25
 31
0.0
  0
LINE
  5
41
330
1E
100
AcDbEntity
  8
0
100
AcDbLine
 10
122.5
 20
60.25
 30
0.0
 11
122.5
 21
10.25
 31
0.0
  0
LINE
  5
42
330
1E
100
AcDbEntity
  8
0
100
AcDbLine
 10
122.7999999999999
 20
60.25
 30
0.0
 11
123.7
 21
60.25
 31
0.0
  0
LINE
  5
43
330
1E
100
AcDbEntity
  8
0
100
AcDbLine
 10
124.0
 20
60.25
 30
0.0
 11
126.0
 21
88.25000000000001
 31
0.0
  0
LINE
  5
44
330
1E
100
AcDbEntity
  8
0
100
AcDbLine
 10
123.7
 20
60.25
 30
0.0
 11
124.0
 21
60.25
 31
0.0
  0
LINE
  5
45
330
1E
100
AcDbEntity
  8
0
100
AcDbLine
 10
107.2
 20
60.25
 30
0.0
 11
107.4999999999999
 21
60.25
 31
0.0
  0
LINE
  5
46
330
1E
100
AcDbEntity
  8
0
100
AcDbLine
 10
106.2999999999999
 20
60.25
 30
0.0
 11
107.2
 21
60.25
 31
0.0
  0
LINE
  5
47
330
1E
100
AcDbEntity
  8
0
100
AcDbLine
 10
106.2999999999999
 20
60.25
 30
0.0
 11
107.2
 21
60.25
 31
0.0
  0
LINE
  5
48
330
1E
100
AcDbEntity
  8
0
100
AcDbLine
 10
109.6999999999999
 20
60.25
 30
0.0
 11
111.2999999999999
 21
60.25
 31
0.0
  0
LINE
  5
49
330
1E
100
AcDbEntity
  8
0
100
AcDbLine
 10
108.6
 20
60.25
 30
0.0
 11
110.4999999999999
 21
60.25
 31
0.0
  0
LINE
  5
4A
330
1E
100
AcDbEntity
  8
0
100
AcDbLine
 10
116.9
 20
60.25
 30
0.0
 11
118.7
 21
60.25
 31
0.0
  0
LINE
  5
4B
330
1E
100
AcDbEntity
  8
0
100
AcDbLine
 10
113.1
 20
60.25
 30
0.0
 11
115.0
 21
60.25
 31
0.0
  0
LINE
  5
4C
330
1E
100
AcDbEntity
  8
0
100
AcDbLine
 10
111.2999999999999
 20
60.25
 30
0.0
 11
113.1
 21
60.25
 31
0.0
  0
LINE
  5
4D
330
1E
100
AcDbEntity
  8
0
100
AcDbLine
 10
118.7
 20
60.25
 30
0.0
 11
120.3
 21
60.25
 31
0.0
  0
LINE
  5
4E
330
1E
100
AcDbEntity
  8
0
100
AcDbLine
 10
120.3
 20
60.25
 30
0.0
 11
121.5
 21
60.25
 31
0.0
  0
LINE
  5
4F
330
1E
100
AcDbEntity
  8
0
100
AcDbLine
 10
121.4
 20
60.25
 30
0.0
 11
122.7999999999999
 21
60.25
 31
0.0
  0
LINE
  5
50
330
1E
100
AcDbEntity
  8
0
100
AcDbLine
 10
122.7999999999999
 20
60.25
 30
0.0
 11
123.7
 21
60.25
 31
0.0
  0
LINE
  5
51
330
1E
100
AcDbEntity
  8
0
100
AcDbLine
 10
119.5
 20
60.25
 30
0.0
 11
121.4
 21
60.25
 31
0.0
  0
LINE
  5
52
330
1E
100
AcDbEntity
  8
0
100
AcDbLine
 10
117.3
 20
60.25
 30
0.0
 11
119.5
 21
60.25
 31
0.0
  0
LINE
  5
53
330
1E
100
AcDbEntity
  8
0
100
AcDbLine
 10
115.0
 20
60.25
 30
0.0
 11
117.3
 21
60.25
 31
0.0
  0
LINE
  5
54
330
1E
100
AcDbEntity
  8
0
100
AcDbLine
 10
115.0
 20
60.25
 30
0.0
 11
116.9
 21
60.25
 31
0.0
  0
LINE
  5
55
330
1E
100
AcDbEntity
  8
0
100
AcDbLine
 10
110.4999999999999
 20
60.25
 30
0.0
 11
112.7
 21
60.25
 31
0.0
  0
LINE
  5
56
330
1E
100
AcDbEntity
  8
0
100
AcDbLine
 10
112.7
 20
60.25
 30
0.0
 11
115.0
 21
60.25
 31
0.0
  0
LINE
  5
57
330
1E
100
AcDbEntity
  8
0
100
AcDbLine
 10
107.2
 20
60.25
 30
0.0
 11
108.6
 21
60.25
 31
0.0
  0
LINE
  5
58
330
1E
100
AcDbEntity
  8
0
100
AcDbLine
 10
106.0
 20
60.25
 30
0.0
 11
106.2999999999999
 21
60.25
 31
0.0
  0
LINE
  5
59
330
1E
100
AcDbEntity
  8
0
100
AcDbLine
 10
40.0
 20
85.75000000000001
 30
0.0
 11
47.5485
 21
86.79120000000001
 31
0.0
  0
LINE
  5
5A
330
1E
100
AcDbEntity
  8
0
100
AcDbLine
 10
47.46179999999999
 20
87.225
 30
0.0
 11
54.4897
 21
90.0882
 31
0.0
  0
LINE
  5
5B
330
1E
100
AcDbEntity
  8
0
100
AcDbLine
 10
20.01369401122079
 20
94.25
 30
0.0
 11
25.5103
 21
90.0882
 31
0.0
  0
LINE
  5
5C
330
1E
100
AcDbEntity
  8
0
100
AcDbLine
 10
104.0
 20
89.25
 30
0.0
 11
104.3879999999999
 21
89.25
 31
0.0
  0
LINE
  5
5D
330
1E
100
AcDbEntity
  8
0
100
AcDbLine
 10
104.0
 20
89.25
 30
0.0
 11
104.0
 21
94.25
 31
0.0
  0
LINE
  5
5E
330
1E
100
AcDbEntity
  8
0
100
AcDbLine
 10
107.2349999999999
 20
89.25
 30
0.0
 11
109.532
 21
89.25
 31
0.0
  0
LINE
  5
5F
330
1E
100
AcDbEntity
  8
0
100
AcDbLine
 10
109.532
 20
89.25
 30
0.0
 11
112.185
 21
89.25
 31
0.0
  0
LINE
  5
60
330
1E
100
AcDbEntity
  8
0
100
AcDbLine
 10
125.5
 20
89.25
 30
0.0
 11
125.612
 21
89.25
 31
0.0
  0
LINE
  5
61
330
1E
100
AcDbEntity
  8
0
100
AcDbLine
 10
122.765
 20
89.25
 30
0.0
 11
124.512
 21
89.25
 31
0.0
  0
LINE
  5
62
330
1E
100
AcDbEntity
  8
0
100
AcDbLine
 10
124.512
 20
89.25
 30
0.0
 11
125.612
 21
89.25
 31
0.0
  0
LINE
  5
63
330
1E
100
AcDbEntity
  8
0
100
AcDbLine
 10
126.0
 20
89.25
 30
0.0
 11
126.0
 21
94.25
 31
0.0
  0
LINE
  5
64
330
1E
100
AcDbEntity
  8
0
100
AcDbLine
 10
125.612
 20
89.25
 30
0.0
 11
126.0
 21
89.25
 31
0.0
  0
LINE
  5
65
330
1E
100
AcDbEntity
  8
0
100
AcDbLine
 10
120.4679999999999
 20
89.25
 30
0.0
 11
122.765
 21
89.25
 31
0.0
  0
LINE
  5
66
330
1E
100
AcDbEntity
  8
0
100
AcDbLine
 10
117.815
 20
89.25
 30
0.0
 11
120.4679999999999
 21
89.25
 31
0.0
  0
LINE
  5
67
330
1E
100
AcDbEntity
  8
0
100
AcDbLine
 10
115.0
 20
89.25
 30
0.0
 11
117.815
 21
89.25
 31
0.0
  0
LINE
  5
68
330
1E
100
AcDbEntity
  8
0
100
AcDbLine
 10
112.185
 20
89.25
 30
0.0
 11
115.0
 21
89.25
 31
0.0
  0
LINE
  5
69
330
1E
100
AcDbEntity
  8
0
100
AcDbLine
 10
105.488
 20
89.25
 30
0.0
 11
107.2349999999999
 21
89.25
 31
0.0
  0
LINE
  5
6A
330
1E
100
AcDbEntity
  8
0
100
AcDbLine
 10
104.3879999999999
 20
89.25
 30
0.0
 11
105.488
 21
89.25
 31
0.0
  0
LINE
  5
6B
330
1E
100
AcDbEntity
  8
0
100
AcDbLine
 10
104.3879999999999
 20
89.25
 30
0.0
 11
104.4999999999999
 21
89.25
 31
0.0
  0
LINE
  5
6C
330
1E
100
AcDbEntity
  8
0
100
AcDbLine
 10
125.5
 20
89.25
 30
0.0
 11
126.0
 21
88.25000000000001
 31
0.0
  0
LINE
  5
6D
330
1E
100
AcDbEntity
  8
0
100
AcDbLine
 10
125.5
 20
89.25
 30
0.0
 11
125.612
 21
89.25
 31
0.0
  0
LINE
  5
6E
330
1E
100
AcDbEntity
  8
0
100
AcDbLine
 10
104.0
 20
88.25000000000001
 30
0.0
 11
106.0
 21
60.25
 31
0.0
  0
LINE
  5
6F
330
1E
100
AcDbEntity
  8
0
100
AcDbLine
 10
104.0
 20
88.25000000000001
 30
0.0
 11
104.4999999999999
 21
89.25
 31
0.0
  0
LINE
  5
70
330
1E
100
AcDbEntity
  8
0
100
AcDbLine
 10
104.0
 20
94.25
 30
0.0
 11
104.0
 21
89.25
 31
0.0
  0
LINE
  5
71
330
1E
100
AcDbEntity
  8
0
100
AcDbLine
 10
54.4897
 20
90.0882
 30
0.0
 11
59.9863059887792
 21
94.25
 31
0.0
  0
LINE
  5
72
330
1E
100
AcDbEntity
  8
0
100
AcDbLine
 10
54.6632
 20
89.7412
 30
0.0
 11
60.59143525494629
 21
94.25
 31
0.0
  0
LINE
  5
73
330
1E
100
AcDbEntity
  8
0
100
AcDbLine
 10
25.5103
 20
90.0882
 30
0.0
 11
32.5382
 21
87.225
 31
0.0
  0
LINE
  5
74
330
1E
100
AcDbEntity
  8
0
100
AcDbLine
 10
32.5382
 20
87.225
 30
0.0
 11
40.0
 21
86.1838
 31
0.0
  0
LINE
  5
75
330
1E
100
AcDbEntity
  8
0
100
AcDbLine
 10
19.4085647450537
 20
94.25
 30
0.0
 11
25.3368
 21
89.7412
 31
0.0
  0
LINE
  5
76
330
1E
100
AcDbEntity
  8
0
100
AcDbLine
 10
32.4515
 20
86.79120000000001
 30
0.0
 11
40.0
 21
85.75000000000001
 31
0.0
  0
LINE
  5
77
330
1E
100
AcDbEntity
  8
0
100
AcDbLine
 10
170.0138465185059
 20
94.25
 30
0.0
 11
175.5099999999999
 21
90.0882
 31
0.0
  0
LINE
  5
78
330
1E
100
AcDbEntity
  8
0
100
AcDbLine
 10
175.5099999999999
 20
90.0882
 30
0.0
 11
182.5379999999999
 21
87.225
 31
0.0
  0
LINE
  5
79
330
1E
100
AcDbEntity
  8
0
100
AcDbLine
 10
182.5379999999999
 20
87.225
 30
0.0
 11
190.0
 21
86.1838
 31
0.0
  0
LINE
  5
7A
330
1E
100
AcDbEntity
  8
0
100
AcDbLine
 10
182.4519999999999
 20
86.79120000000001
 30
0.0
 11
190.0
 21
85.75000000000001
 31
0.0
  0
LINE
  5
7B
330
1E
100
AcDbEntity
  8
0
100
AcDbLine
 10
190.0
 20
86.1838
 30
0.0
 11
197.462
 21
87.225
 31
0.0
  0
LINE
  5
7C
330
1E
100
AcDbEntity
  8
0
100
AcDbLine
 10
197.462
 20
87.225
 30
0.0
 11
204.49
 21
90.0882
 31
0.0
  0
LINE
  5
7D
330
1E
100
AcDbEntity
  8
0
100
AcDbLine
 10
204.49
 20
90.0882
 30
0.0
 11
209.986153481494
 21
94.25
 31
0.0
  0
LINE
  5
7E
330
1E
100
AcDbEntity
  8
0
100
AcDbLine
 10
204.6629999999999
 20
89.7412
 30
0.0
 11
210.591908885237
 21
94.25
 31
0.0
  0
LINE
  5
7F
330
1E
100
AcDbEntity
  8
0
100
AcDbLine
 10
190.0
 20
85.75000000000001
 30
0.0
 11
197.548
 21
86.79120000000001
 31
0.0
  0
LINE
  5
80
330
1E
100
AcDbEntity
  8
0
100
AcDbLine
 10
229.022
 20
94.25
 30
0.0
 11
229.674
 21
94.5588
 31
0.0
  0
LINE
  5
81
330
1E
100
AcDbEntity
  8
0
100
AcDbLine
 10
126.0
 20
94.25
 30
0.0
 11
229.022
 21
94.25
 31
0.0
  0
LINE
  5
82
330
1E
100
AcDbEntity
  8
0
100
AcDbLine
 10
126.0
 20
94.25
 30
0.0
 11
126.0
 21
89.25
 31
0.0
  0
LINE
  5
83
330
1E
100
AcDbEntity
  8
0
100
AcDbLine
 10
0.9782610000000049
 20
94.25
 30
0.0
 11
128.5282706646407
 21
94.25
 31
0.0
  0
LINE
  5
84
330
1E
100
AcDbEntity
  8
0
100
AcDbLine
 10
0.9782610000000049
 20
94.25
 30
0.0
 11
128.5282706646407
 21
94.25
 31
0.0
  0
LINE
  5
85
330
1E
100
AcDbEntity
  8
0
100
AcDbLine
 10
229.674
 20
94.5588
 30
0.0
 11
230.0
 21
95.17650000000001
 31
0.0
  0
LINE
  5
86
330
1E
100
AcDbEntity
  8
0
100
AcDbLine
 10
229.674
 20
94.5588
 30
0.0
 11
229.674
 21
95.29999999999999
 31
0.0
  0
LINE
  5
87
330
1E
100
AcDbEntity
  8
0
100
AcDbLine
 10
0.0000000000000074
 20
95.91759999999998
 30
0.0
 11
0.0000000000000074
 21
95.17650000000001
 31
0.0
  0
LINE
  5
88
330
1E
100
AcDbEntity
  8
0
100
AcDbLine
 10
0.0000000000000074
 20
95.91759999999998
 30
0.0
 11
0.0000000000000074
 21
97.8941
 31
0.0
  0
LINE
  5
89
330
1E
100
AcDbEntity
  8
0
100
AcDbLine
 10
230.0
 20
95.17650000000001
 30
0.0
 11
230.0
 21
95.91759999999998
 31
0.0
  0
LINE
  5
8A
330
1E
100
AcDbEntity
  8
0
100
AcDbLine
 10
229.674
 20
95.29999999999999
 30
0.0
 11
229.674
 21
97.33820000000001
 31
0.0
  0
LINE
  5
8B
330
1E
100
AcDbEntity
  8
0
100
AcDbLine
 10
229.674
 20
95.29999999999999
 30
0.0
 11
229.674
 21
94.5588
 31
0.0
  0
LINE
  5
8C
330
1E
100
AcDbEntity
  8
0
100
AcDbLine
 10
230.0
 20
95.91759999999998
 30
0.0
 11
230.0
 21
97.8941
 31
0.0
  0
LINE
  5
8D
330
1E
100
AcDbEntity
  8
0
100
AcDbLine
 10
230.0
 20
95.91759999999998
 30
0.0
 11
230.0
 21
95.17650000000001
 31
0.0
  0
LINE
  5
8E
330
1E
100
AcDbEntity
  8
0
100
AcDbLine
 10
0.326087000000008
 20
95.29999999999999
 30
0.0
 11
0.326087000000008
 21
94.5588
 31
0.0
  0
LINE
  5
8F
330
1E
100
AcDbEntity
  8
0
100
AcDbLine
 10
0.326087000000008
 20
95.29999999999999
 30
0.0
 11
0.326087000000008
 21
97.33820000000001
 31
0.0
  0
LINE
  5
90
330
1E
100
AcDbEntity
  8
0
100
AcDbLine
 10
0.0000000000000074
 20
95.17650000000001
 30
0.0
 11
0.326087000000008
 21
94.5588
 31
0.0
  0
LINE
  5
91
330
1E
100
AcDbEntity
  8
0
100
AcDbLine
 10
0.0000000000000074
 20
95.17650000000001
 30
0.0
 11
0.0000000000000074
 21
95.91759999999998
 31
0.0
  0
LINE
  5
92
330
1E
100
AcDbEntity
  8
0
100
AcDbLine
 10
0.326087000000008
 20
94.5588
 30
0.0
 11
0.9782610000000071
 21
94.25
 31
0.0
  0
LINE
  5
93
330
1E
100
AcDbEntity
  8
0
100
AcDbLine
 10
0.326087000000008
 20
94.5588
 30
0.0
 11
0.326087000000008
 21
95.29999999999999
 31
0.0
  0
LINE
  5
94
330
1E
100
AcDbEntity
  8
0
100
AcDbLine
 10
232.857
 20
95.93000000000001
 30
0.0
 11
233.0
 21
95.94438937499999
 31
0.0
  0
LINE
  5
95
330
1E
100
AcDbEntity
  8
0
100
AcDbLine
 10
230.0
 20
95.93000000000001
 30
0.0
 11
232.857
 21
95.93000000000001
 31
0.0
  0
LINE
  5
96
330
1E
100
AcDbEntity
  8
0
100
AcDbLine
 10
233.0
 20
95.05
 30
0.0
 11
233.0
 21
97.05010000000001
 31
0.0
  0
LINE
  5
97
330
1E
100
AcDbEntity
  8
0
100
AcDbLine
 10
0.0000000000000074
 20
97.8941
 30
0.0
 11
0.0000000000000074
 21
95.91759999999998
 31
0.0
  0
LINE
  5
98
330
1E
100
AcDbEntity
  8
0
100
AcDbLine
 10
0.0000000000000074
 20
97.8941
 30
0.0
 11
0.0000000000000074
 21
101.044
 31
0.0
  0
LINE
  5
99
330
1E
100
AcDbEntity
  8
0
100
AcDbLine
 10
0.0000000000000074
 20
101.044
 30
0.0
 11
0.0000000000000074
 21
97.8941
 31
0.0
  0
LINE
  5
9A
330
1E
100
AcDbEntity
  8
0
100
AcDbLine
 10
0.0000000000000074
 20
101.044
 30
0.0
 11
0.0000000000000074
 21
105.244
 31
0.0
  0
LINE
  5
9B
330
1E
100
AcDbEntity
  8
0
100
AcDbLine
 10
0.326087000000008
 20
100.612
 30
0.0
 11
0.326087000000008
 21
97.33820000000001
 31
0.0
  0
LINE
  5
9C
330
1E
100
AcDbEntity
  8
0
100
AcDbLine
 10
0.326087000000008
 20
100.612
 30
0.0
 11
0.326087000000008
 21
104.935
 31
0.0
  0
LINE
  5
9D
330
1E
100
AcDbEntity
  8
0
100
AcDbLine
 10
230.0
 20
101.044
 30
0.0
 11
230.0
 21
97.8941
 31
0.0
  0
LINE
  5
9E
330
1E
100
AcDbEntity
  8
0
100
AcDbLine
 10
230.0
 20
101.044
 30
0.0
 11
230.0
 21
105.244
 31
0.0
  0
LINE
  5
9F
330
1E
100
AcDbEntity
  8
0
100
AcDbLine
 10
230.0
 20
97.8941
 30
0.0
 11
230.0
 21
101.044
 31
0.0
  0
LINE
  5
A0
330
1E
100
AcDbEntity
  8
0
100
AcDbLine
 10
230.0
 20
97.8941
 30
0.0
 11
230.0
 21
95.91759999999998
 31
0.0
  0
LINE
  5
A1
330
1E
100
AcDbEntity
  8
0
100
AcDbLine
 10
229.674
 20
100.612
 30
0.0
 11
229.674
 21
97.33820000000001
 31
0.0
  0
LINE
  5
A2
330
1E
100
AcDbEntity
  8
0
100
AcDbLine
 10
229.674
 20
100.612
 30
0.0
 11
229.674
 21
104.935
 31
0.0
  0
LINE
  5
A3
330
1E
100
AcDbEntity
  8
0
100
AcDbLine
 10
229.674
 20
97.33820000000001
 30
0.0
 11
229.674
 21
100.612
 31
0.0
  0
LINE
  5
A4
330
1E
100
AcDbEntity
  8
0
100
AcDbLine
 10
229.674
 20
97.33820000000001
 30
0.0
 11
229.674
 21
95.29999999999999
 31
0.0
  0
LINE
  5
A5
330
1E
100
AcDbEntity
  8
0
100
AcDbLine
 10
0.326087000000008
 20
97.33820000000001
 30
0.0
 11
0.326087000000008
 21
95.29999999999999
 31
0.0
  0
LINE
  5
A6
330
1E
100
AcDbEntity
  8
0
100
AcDbLine
 10
0.326087000000008
 20
97.33820000000001
 30
0.0
 11
0.326087000000008
 21
100.612
 31
0.0
  0
LINE
  5
A7
330
1E
100
AcDbEntity
  8
0
100
AcDbLine
 10
233.0
 20
97.05010000000001
 30
0.0
 11
233.0
 21
100.4499999999999
 31
0.0
  0
LINE
  5
A8
330
1E
100
AcDbEntity
  8
0
100
AcDbLine
 10
233.0
 20
100.4499999999999
 30
0.0
 11
233.0
 21
104.8499999999999
 31
0.0
  0
LINE
  5
A9
330
1E
100
AcDbEntity
  8
0
100
AcDbLine
 10
0.0000000000000074
 20
105.244
 30
0.0
 11
0.0000000000000074
 21
101.044
 31
0.0
  0
LINE
  5
AA
330
1E
100
AcDbEntity
  8
0
100
AcDbLine
 10
0.0000000000000074
 20
105.244
 30
0.0
 11
0.0000000000000074
 21
110.062
 31
0.0
  0
LINE
  5
AB
330
1E
100
AcDbEntity
  8
0
100
AcDbLine
 10
230.0
 20
105.244
 30
0.0
 11
230.0
 21
110.062
 31
0.0
  0
LINE
  5
AC
330
1E
100
AcDbEntity
  8
0
100
AcDbLine
 10
230.0
 20
105.244
 30
0.0
 11
230.0
 21
101.044
 31
0.0
  0
LINE
  5
AD
330
1E
100
AcDbEntity
  8
0
100
AcDbLine
 10
229.674
 20
104.935
 30
0.0
 11
229.674
 21
109.9379999999999
 31
0.0
  0
LINE
  5
AE
330
1E
100
AcDbEntity
  8
0
100
AcDbLine
 10
229.674
 20
104.935
 30
0.0
 11
229.674
 21
100.612
 31
0.0
  0
LINE
  5
AF
330
1E
100
AcDbEntity
  8
0
100
AcDbLine
 10
0.326087000000008
 20
104.935
 30
0.0
 11
0.326087000000008
 21
100.612
 31
0.0
  0
LINE
  5
B0
330
1E
100
AcDbEntity
  8
0
100
AcDbLine
 10
0.326087000000008
 20
104.935
 30
0.0
 11
0.326087000000008
 21
109.9379999999999
 31
0.0
  0
LINE
  5
B1
330
1E
100
AcDbEntity
  8
0
100
AcDbLine
 10
233.0
 20
104.8499999999999
 30
0.0
 11
233.0
 21
109.85
 31
0.0
  0
LINE
  5
B2
330
1E
100
AcDbEntity
  8
0
100
AcDbLine
 10
233.0
 20
109.85
 30
0.0
 11
233.0
 21
115.25
 31
0.0
  0
LINE
  5
B3
330
1E
100
AcDbEntity
  8
0
100
AcDbLine
 10
233.0
 20
94.25
 30
0.0
 11
247.053
 21
94.25
 31
0.0
  0
LINE
  5
B4
330
1E
100
AcDbEntity
  8
0
100
AcDbLine
 10
233.0
 20
94.25
 30
0.0
 11
233.0
 21
95.05
 31
0.0
  0
LINE
  5
B5
330
1E
100
AcDbEntity
  8
0
100
AcDbLine
 10
247.053
 20
94.25
 30
0.0
 11
250.084
 21
94.25
 31
0.0
  0
LINE
  5
B6
330
1E
100
AcDbEntity
  8
0
100
AcDbLine
 10
0.0000000000000074
 20
110.062
 30
0.0
 11
0.0000000000000074
 21
105.244
 31
0.0
  0
LINE
  5
B7
330
1E
100
AcDbEntity
  8
0
100
AcDbLine
 10
0.0000000000000074
 20
110.062
 30
0.0
 11
0.0000000000000074
 21
115.25
 31
0.0
  0
LINE
  5
B8
330
1E
100
AcDbEntity
  8
0
100
AcDbLine
 10
0.0000000000000074
 20
115.25
 30
0.0
 11
0.0000000000000074
 21
110.062
 31
0.0
  0
LINE
  5
B9
330
1E
100
AcDbEntity
  8
0
100
AcDbLine
 10
0.0000000000000074
 20
115.25
 30
0.0
 11
0.0000000000000074
 21
120.438
 31
0.0
  0
LINE
  5
BA
330
1E
100
AcDbEntity
  8
0
100
AcDbLine
 10
0.326087000000008
 20
109.9379999999999
 30
0.0
 11
0.326087000000008
 21
104.935
 31
0.0
  0
LINE
  5
BB
330
1E
100
AcDbEntity
  8
0
100
AcDbLine
 10
0.326087000000008
 20
109.9379999999999
 30
0.0
 11
0.326087000000008
 21
115.25
 31
0.0
  0
LINE
  5
BC
330
1E
100
AcDbEntity
  8
0
100
AcDbLine
 10
230.0
 20
115.25
 30
0.0
 11
230.0
 21
110.062
 31
0.0
  0
LINE
  5
BD
330
1E
100
AcDbEntity
  8
0
100
AcDbLine
 10
230.0
 20
115.25
 30
0.0
 11
230.0
 21
120.438
 31
0.0
  0
LINE
  5
BE
330
1E
100
AcDbEntity
  8
0
100
AcDbLine
 10
230.0
 20
110.062
 30
0.0
 11
230.0
 21
115.25
 31
0.0
  0
LINE
  5
BF
330
1E
100
AcDbEntity
  8
0
100
AcDbLine
 10
230.0
 20
110.062
 30
0.0
 11
230.0
 21
105.244
 31
0.0
  0
LINE
  5
C0
330
1E
100
AcDbEntity
  8
0
100
AcDbLine
 10
229.674
 20
115.25
 30
0.0
 11
229.674
 21
109.9379999999999
 31
0.0
  0
LINE
  5
C1
330
1E
100
AcDbEntity
  8
0
100
AcDbLine
 10
229.674
 20
115.25
 30
0.0
 11
229.674
 21
120.562
 31
0.0
  0
LINE
  5
C2
330
1E
100
AcDbEntity
  8
0
100
AcDbLine
 10
229.674
 20
109.9379999999999
 30
0.0
 11
229.674
 21
115.25
 31
0.0
  0
LINE
  5
C3
330
1E
100
AcDbEntity
  8
0
100
AcDbLine
 10
229.674
 20
109.9379999999999
 30
0.0
 11
229.674
 21
104.935
 31
0.0
  0
LINE
  5
C4
330
1E
100
AcDbEntity
  8
0
100
AcDbLine
 10
0.326087000000008
 20
115.25
 30
0.0
 11
0.326087000000008
 21
109.9379999999999
 31
0.0
  0
LINE
  5
C5
330
1E
100
AcDbEntity
  8
0
100
AcDbLine
 10
0.326087000000008
 20
115.25
 30
0.0
 11
0.326087000000008
 21
120.562
 31
0.0
  0
LINE
  5
C7
330
1E
100
AcDbEntity
  8
0
100
AcDbLine
 10
250.084
 20
94.25
 30
0.0
 11
263.4739999999999
 21
94.25
 31
0.0
  0
LINE
  5
C9
330
1E
100
AcDbEntity
  8
0
100
AcDbLine
 10
233.0
 20
115.25
 30
0.0
 11
233.0
 21
120.65
 31
0.0
  0
LINE
  5
D2
330
1E
100
AcDbEntity
  8
0
100
AcDbLine
 10
250.842
 20
109.85
 30
0.0
 11
251.2249999999999
 21
105.0529999999999
 31
0.0
  0
LINE
  5
D5
330
1E
100
AcDbEntity
  8
0
100
AcDbLine
 10
254.6159999999999
 20
100.3879999999999
 30
0.0
 11
258.7839999999999
 21
97.48690000000001
 31
0.0
  0
LINE
  5
DA
330
1E
100
AcDbEntity
  8
0
100
AcDbLine
 10
250.7159999999999
 20
115.25
 30
0.0
 11
250.842
 21
120.65
 31
0.0
  0
LINE
  5
DB
330
1E
100
AcDbEntity
  8
0
100
AcDbLine
 10
250.7159999999999
 20
115.25
 30
0.0
 11
250.842
 21
109.85
 31
0.0
  0
LINE
  5
DC
330
1E
100
AcDbEntity
  8
0
100
AcDbLine
 10
0.0000000000000074
 20
120.438
 30
0.0
 11
0.0000000000000074
 21
115.25
 31
0.0
  0
LINE
  5
DD
330
1E
100
AcDbEntity
  8
0
100
AcDbLine
 10
0.0000000000000074
 20
120.438
 30
0.0
 11
0.0000000000000074
 21
125.256
 31
0.0
  0
LINE
  5
DE
330
1E
100
AcDbEntity
  8
0
100
AcDbLine
 10
230.0
 20
120.438
 30
0.0
 11
230.0
 21
125.256
 31
0.0
  0
LINE
  5
DF
330
1E
100
AcDbEntity
  8
0
100
AcDbLine
 10
230.0
 20
120.438
 30
0.0
 11
230.0
 21
115.25
 31
0.0
  0
LINE
  5
E0
330
1E
100
AcDbEntity
  8
0
100
AcDbLine
 10
229.674
 20
120.562
 30
0.0
 11
229.674
 21
125.5649999999999
 31
0.0
  0
LINE
  5
E1
330
1E
100
AcDbEntity
  8
0
100
AcDbLine
 10
229.674
 20
120.562
 30
0.0
 11
229.674
 21
115.25
 31
0.0
  0
LINE
  5
E2
330
1E
100
AcDbEntity
  8
0
100
AcDbLine
 10
0.326087000000008
 20
120.562
 30
0.0
 11
0.326087000000008
 21
115.25
 31
0.0
  0
LINE
  5
E3
330
1E
100
AcDbEntity
  8
0
100
AcDbLine
 10
0.326087000000008
 20
120.562
 30
0.0
 11
0.326087000000008
 21
125.5649999999999
 31
0.0
  0
LINE
  5
E4
330
1E
100
AcDbEntity
  8
0
100
AcDbLine
 10
233.0
 20
120.65
 30
0.0
 11
233.0
 21
125.65
 31
0.0
  0
LINE
  5
E6
330
1E
100
AcDbEntity
  8
0
100
AcDbLine
 10
230.0
 20
125.256
 30
0.0
 11
230.0
 21
129.456
 31
0.0
  0
LINE
  5
E7
330
1E
100
AcDbEntity
  8
0
100
AcDbLine
 10
230.0
 20
125.256
 30
0.0
 11
230.0
 21
120.438
 31
0.0
  0
LINE
  5
E8
330
1E
100
AcDbEntity
  8
0
100
AcDbLine
 10
229.674
 20
125.5649999999999
 30
0.0
 11
229.674
 21
129.888
 31
0.0
  0
LINE
  5
E9
330
1E
100
AcDbEntity
  8
0
100
AcDbLine
 10
229.674
 20
125.5649999999999
 30
0.0
 11
229.674
 21
120.562
 31
0.0
  0
LINE
  5
EA
330
1E
100
AcDbEntity
  8
0
100
AcDbLine
 10
0.0000000000000074
 20
125.256
 30
0.0
 11
0.0000000000000074
 21
120.438
 31
0.0
  0
LINE
  5
EB
330
1E
100
AcDbEntity
  8
0
100
AcDbLine
 10
0.0000000000000074
 20
125.256
 30
0.0
 11
0.0000000000000074
 21
129.456
 31
0.0
  0
LINE
  5
EC
330
1E
100
AcDbEntity
  8
0
100
AcDbLine
 10
0.326087000000008
 20
125.5649999999999
 30
0.0
 11
0.326087000000008
 21
120.562
 31
0.0
  0
LINE
  5
ED
330
1E
100
AcDbEntity
  8
0
100
AcDbLine
 10
0.326087000000008
 20
125.5649999999999
 30
0.0
 11
0.326087000000008
 21
129.888
 31
0.0
  0
LINE
  5
EE
330
1E
100
AcDbEntity
  8
0
100
AcDbLine
 10
233.0
 20
125.65
 30
0.0
 11
233.0
 21
130.05
 31
0.0
  0
LINE
  5
EF
330
1E
100
AcDbEntity
  8
0
100
AcDbLine
 10
230.0
 20
129.456
 30
0.0
 11
230.0
 21
132.606
 31
0.0
  0
LINE
  5
F0
330
1E
100
AcDbEntity
  8
0
100
AcDbLine
 10
230.0
 20
129.456
 30
0.0
 11
230.0
 21
125.256
 31
0.0
  0
LINE
  5
F1
330
1E
100
AcDbEntity
  8
0
100
AcDbLine
 10
229.674
 20
129.888
 30
0.0
 11
229.674
 21
133.162
 31
0.0
  0
LINE
  5
F2
330
1E
100
AcDbEntity
  8
0
100
AcDbLine
 10
229.674
 20
129.888
 30
0.0
 11
229.674
 21
125.5649999999999
 31
0.0
  0
LINE
  5
F3
330
1E
100
AcDbEntity
  8
0
100
AcDbLine
 10
0.0000000000000074
 20
129.456
 30
0.0
 11
0.0000000000000074
 21
132.606
 31
0.0
  0
LINE
  5
F4
330
1E
100
AcDbEntity
  8
0
100
AcDbLine
 10
0.0000000000000074
 20
129.456
 30
0.0
 11
0.0000000000000074
 21
125.256
 31
0.0
  0
LINE
  5
F5
330
1E
100
AcDbEntity
  8
0
100
AcDbLine
 10
0.326087000000008
 20
129.888
 30
0.0
 11
0.326087000000008
 21
133.162
 31
0.0
  0
LINE
  5
F6
330
1E
100
AcDbEntity
  8
0
100
AcDbLine
 10
0.326087000000008
 20
129.888
 30
0.0
 11
0.326087000000008
 21
125.5649999999999
 31
0.0
  0
LINE
  5
F7
330
1E
100
AcDbEntity
  8
0
100
AcDbLine
 10
233.0
 20
130.05
 30
0.0
 11
233.0
 21
133.45
 31
0.0
  0
LINE
  5
FD
330
1E
100
AcDbEntity
  8
0
100
AcDbLine
 10
250.842
 20
120.65
 30
0.0
 11
251.2249999999999
 21
125.4469999999999
 31
0.0
  0
LINE
  5
FF
330
1E
100
AcDbEntity
  8
0
100
AcDbLine
 10
0.0000000000000074
 20
132.606
 30
0.0
 11
0.0000000000000074
 21
129.456
 31
0.0
  0
LINE
  5
100
330
1E
100
AcDbEntity
  8
0
100
AcDbLine
 10
0.0000000000000074
 20
132.606
 30
0.0
 11
0.0000000000000074
 21
134.582
 31
0.0
  0
LINE
  5
101
330
1E
100
AcDbEntity
  8
0
100
AcDbLine
 10
230.0
 20
132.606
 30
0.0
 11
230.0
 21
134.582
 31
0.0
  0
LINE
  5
102
330
1E
100
AcDbEntity
  8
0
100
AcDbLine
 10
230.0
 20
132.606
 30
0.0
 11
230.0
 21
129.456
 31
0.0
  0
LINE
  5
103
330
1E
100
AcDbEntity
  8
0
100
AcDbLine
 10
229.674
 20
133.162
 30
0.0
 11
229.674
 21
135.1999999999999
 31
0.0
  0
LINE
  5
104
330
1E
100
AcDbEntity
  8
0
100
AcDbLine
 10
229.674
 20
133.162
 30
0.0
 11
229.674
 21
129.888
 31
0.0
  0
LINE
  5
105
330
1E
100
AcDbEntity
  8
0
100
AcDbLine
 10
0.326087000000008
 20
133.162
 30
0.0
 11
0.326087000000008
 21
129.888
 31
0.0
  0
LINE
  5
106
330
1E
100
AcDbEntity
  8
0
100
AcDbLine
 10
0.326087000000008
 20
133.162
 30
0.0
 11
0.326087000000008
 21
135.1999999999999
 31
0.0
  0
LINE
  5
107
330
1E
100
AcDbEntity
  8
0
100
AcDbLine
 10
233.0
 20
133.45
 30
0.0
 11
233.0
 21
135.4499999999999
 31
0.0
  0
LINE
  5
109
330
1E
100
AcDbEntity
  8
0
100
AcDbLine
 10
232.857
 20
134.5699999999999
 30
0.0
 11
233.0
 21
134.5555927499999
 31
0.0
  0
LINE
  5
10A
330
1E
100
AcDbEntity
  8
0
100
AcDbLine
 10
0.0000000000000074
 20
134.582
 30
0.0
 11
0.0000000000000074
 21
132.606
 31
0.0
  0
LINE
  5
10B
330
1E
100
AcDbEntity
  8
0
100
AcDbLine
 10
0.0000000000000074
 20
134.582
 30
0.0
 11
0.0000000000000074
 21
135.3239999999999
 31
0.0
  0
LINE
  5
10C
330
1E
100
AcDbEntity
  8
0
100
AcDbLine
 10
0.0000000000000074
 20
135.3239999999999
 30
0.0
 11
0.0000000000000074
 21
134.582
 31
0.0
  0
LINE
  5
10D
330
1E
100
AcDbEntity
  8
0
100
AcDbLine
 10
0.0000000000000074
 20
135.3239999999999
 30
0.0
 11
0.326087000000008
 21
135.941
 31
0.0
  0
LINE
  5
10E
330
1E
100
AcDbEntity
  8
0
100
AcDbLine
 10
0.326087000000008
 20
135.1999999999999
 30
0.0
 11
0.326087000000008
 21
133.162
 31
0.0
  0
LINE
  5
10F
330
1E
100
AcDbEntity
  8
0
100
AcDbLine
 10
0.326087000000008
 20
135.1999999999999
 30
0.0
 11
0.326087000000008
 21
135.941
 31
0.0
  0
LINE
  5
110
330
1E
100
AcDbEntity
  8
0
100
AcDbLine
 10
0.326087000000008
 20
135.941
 30
0.0
 11
0.326087000000008
 21
135.1999999999999
 31
0.0
  0
LINE
  5
111
330
1E
100
AcDbEntity
  8
0
100
AcDbLine
 10
0.326087000000008
 20
135.941
 30
0.0
 11
0.9782610000000071
 21
136.25
 31
0.0
  0
LINE
  5
112
330
1E
100
AcDbEntity
  8
0
100
AcDbLine
 10
20.0139079582518
 20
136.25
 30
0.0
 11
25.5103
 21
140.4119999999999
 31
0.0
  0
LINE
  5
113
330
1E
100
AcDbEntity
  8
0
100
AcDbLine
 10
19.40792215581639
 20
136.25
 30
0.0
 11
25.3368
 21
140.7589999999999
 31
0.0
  0
LINE
  5
114
330
1E
100
AcDbEntity
  8
0
100
AcDbLine
 10
170.014060447924
 20
136.25
 30
0.0
 11
175.5099999999999
 21
140.4119999999999
 31
0.0
  0
LINE
  5
115
330
1E
100
AcDbEntity
  8
0
100
AcDbLine
 10
169.4074484525079
 20
136.25
 30
0.0
 11
175.337
 21
140.7589999999999
 31
0.0
  0
LINE
  5
116
330
1E
100
AcDbEntity
  8
0
100
AcDbLine
 10
229.674
 20
135.941
 30
0.0
 11
229.674
 21
135.1999999999999
 31
0.0
  0
LINE
  5
117
330
1E
100
AcDbEntity
  8
0
100
AcDbLine
 10
229.674
 20
135.941
 30
0.0
 11
230.0
 21
135.3239999999999
 31
0.0
  0
LINE
  5
118
330
1E
100
AcDbEntity
  8
0
100
AcDbLine
 10
230.0
 20
135.3239999999999
 30
0.0
 11
230.0
 21
134.582
 31
0.0
  0
LINE
  5
119
330
1E
100
AcDbEntity
  8
0
100
AcDbLine
 10
230.0
 20
134.582
 30
0.0
 11
230.0
 21
135.3239999999999
 31
0.0
  0
LINE
  5
11A
330
1E
100
AcDbEntity
  8
0
100
AcDbLine
 10
230.0
 20
134.582
 30
0.0
 11
230.0
 21
132.606
 31
0.0
  0
LINE
  5
11B
330
1E
100
AcDbEntity
  8
0
100
AcDbLine
 10
229.674
 20
135.1999999999999
 30
0.0
 11
229.674
 21
135.941
 31
0.0
  0
LINE
  5
11C
330
1E
100
AcDbEntity
  8
0
100
AcDbLine
 10
229.674
 20
135.1999999999999
 30
0.0
 11
229.674
 21
133.162
 31
0.0
  0
LINE
  5
11D
330
1E
100
AcDbEntity
  8
0
100
AcDbLine
 10
229.022
 20
136.25
 30
0.0
 11
229.674
 21
135.941
 31
0.0
  0
LINE
  5
11E
330
1E
100
AcDbEntity
  8
0
100
AcDbLine
 10
115.0
 20
136.25
 30
0.0
 11
229.022
 21
136.25
 31
0.0
  0
LINE
  5
11F
330
1E
100
AcDbEntity
  8
0
100
AcDbLine
 10
0.9782610000000071
 20
136.25
 30
0.0
 11
115.0
 21
136.25
 31
0.0
  0
LINE
  5
120
330
1E
100
AcDbEntity
  8
0
100
AcDbLine
 10
0.9782610000000049
 20
136.25
 30
0.0
 11
115.0
 21
136.25
 31
0.0
  0
LINE
  5
121
330
1E
100
AcDbEntity
  8
0
100
AcDbLine
 10
230.0
 20
134.5699999999999
 30
0.0
 11
232.857
 21
134.5699999999999
 31
0.0
  0
LINE
  5
122
330
1E
100
AcDbEntity
  8
0
100
AcDbLine
 10
233.0
 20
135.4499999999999
 30
0.0
 11
233.0
 21
136.25
 31
0.0
  0
LINE
  5
123
330
1E
100
AcDbEntity
  8
0
100
AcDbLine
 10
25.5103
 20
140.4119999999999
 30
0.0
 11
32.5382
 21
143.275
 31
0.0
  0
LINE
  5
124
330
1E
100
AcDbEntity
  8
0
100
AcDbLine
 10
32.5382
 20
143.275
 30
0.0
 11
40.0
 21
144.3159999999999
 31
0.0
  0
LINE
  5
125
330
1E
100
AcDbEntity
  8
0
100
AcDbLine
 10
25.3368
 20
140.7589999999999
 30
0.0
 11
32.4515
 21
143.7089999999999
 31
0.0
  0
LINE
  5
126
330
1E
100
AcDbEntity
  8
0
100
AcDbLine
 10
54.4897
 20
140.4119999999999
 30
0.0
 11
59.9860920417482
 21
136.25
 31
0.0
  0
LINE
  5
127
330
1E
100
AcDbEntity
  8
0
100
AcDbLine
 10
54.4897
 20
140.4119999999999
 30
0.0
 11
59.9860920417482
 21
136.25
 31
0.0
  0
LINE
  5
128
330
1E
100
AcDbEntity
  8
0
100
AcDbLine
 10
47.46179999999999
 20
143.275
 30
0.0
 11
54.4897
 21
140.4119999999999
 31
0.0
  0
LINE
  5
129
330
1E
100
AcDbEntity
  8
0
100
AcDbLine
 10
40.0
 20
144.3159999999999
 30
0.0
 11
47.46179999999999
 21
143.275
 31
0.0
  0
LINE
  5
12A
330
1E
100
AcDbEntity
  8
0
100
AcDbLine
 10
40.0
 20
144.7499999999999
 30
0.0
 11
47.5485
 21
143.7089999999999
 31
0.0
  0
LINE
  5
12B
330
1E
100
AcDbEntity
  8
0
100
AcDbLine
 10
204.49
 20
140.4119999999999
 30
0.0
 11
209.9859395520769
 21
136.25
 31
0.0
  0
LINE
  5
12C
330
1E
100
AcDbEntity
  8
0
100
AcDbLine
 10
197.462
 20
143.275
 30
0.0
 11
204.49
 21
140.4119999999999
 31
0.0
  0
LINE
  5
12D
330
1E
100
AcDbEntity
  8
0
100
AcDbLine
 10
204.6629999999999
 20
140.7589999999999
 30
0.0
 11
210.5925515474919
 21
136.25
 31
0.0
  0
LINE
  5
12E
330
1E
100
AcDbEntity
  8
0
100
AcDbLine
 10
175.5099999999999
 20
140.4119999999999
 30
0.0
 11
182.5379999999999
 21
143.275
 31
0.0
  0
LINE
  5
12F
330
1E
100
AcDbEntity
  8
0
100
AcDbLine
 10
190.0
 20
144.3159999999999
 30
0.0
 11
197.462
 21
143.275
 31
0.0
  0
LINE
  5
130
330
1E
100
AcDbEntity
  8
0
100
AcDbLine
 10
197.548
 20
143.7089999999999
 30
0.0
 11
204.6629999999999
 21
140.7589999999999
 31
0.0
  0
LINE
  5
131
330
1E
100
AcDbEntity
  8
0
100
AcDbLine
 10
182.5379999999999
 20
143.275
 30
0.0
 11
190.0
 21
144.3159999999999
 31
0.0
  0
LINE
  5
132
330
1E
100
AcDbEntity
  8
0
100
AcDbLine
 10
190.0
 20
144.7499999999999
 30
0.0
 11
197.548
 21
143.7089999999999
 31
0.0
  0
LINE
  5
133
330
1E
100
AcDbEntity
  8
0
100
AcDbLine
 10
54.6632
 20
140.7589999999999
 30
0.0
 11
60.5920778441836
 21
136.25
 31
0.0
  0
LINE
  5
134
330
1E
100
AcDbEntity
  8
0
100
AcDbLine
 10
233.0
 20
136.25
 30
0.0
 11
247.053
 21
136.25
 31
0.0
  0
LINE
  5
135
330
1E
100
AcDbEntity
  8
0
100
AcDbLine
 10
250.084
 20
136.25
 30
0.0
 11
263.4739999999999
 21
136.25
 31
0.0
  0
LINE
  5
136
330
1E
100
AcDbEntity
  8
0
100
AcDbLine
 10
247.053
 20
136.25
 30
0.0
 11
250.084
 21
136.25
 31
0.0
  0
LINE
  5
13A
330
1E
100
AcDbEntity
  8
0
100
AcDbLine
 10
254.6159999999999
 20
130.112
 30
0.0
 11
258.7839999999999
 21
133.013
 31
0.0
  0
LINE
  5
13F
330
1E
100
AcDbEntity
  8
0
100
AcDbLine
 10
263.4739999999999
 20
94.25
 30
0.0
 11
265.368
 21
94.25
 31
0.0
  0
LINE
  5
149
330
1E
100
AcDbEntity
  8
0
100
AcDbLine
 10
265.368
 20
94.25
 30
0.0
 11
265.7469999999999
 21
94.65000000000001
 31
0.0
  0
LINE
  5
14A
330
1E
100
AcDbEntity
  8
0
100
AcDbLine
 10
265.368
 20
94.25
 30
0.0
 11
265.3939999999999
 21
97.61000000000001
 31
0.0
  0
LINE
  5
14B
330
1E
100
AcDbEntity
  8
0
100
AcDbLine
 10
265.3939999999999
 20
97.61000000000001
 30
0.0
 11
265.3939999999999
 21
98.11399999999999
 31
0.0
  0
LINE
  5
14C
330
1E
100
AcDbEntity
  8
0
100
AcDbLine
 10
265.3939999999999
 20
98.11399999999999
 30
0.0
 11
265.3939999999999
 21
97.61000000000001
 31
0.0
  0
LINE
  5
14D
330
1E
100
AcDbEntity
  8
0
100
AcDbLine
 10
265.3939999999999
 20
98.11399999999999
 30
0.0
 11
265.3939999999999
 21
99.96200000000001
 31
0.0
  0
LINE
  5
14E
330
1E
100
AcDbEntity
  8
0
100
AcDbLine
 10
265.3939999999999
 20
99.96200000000001
 30
0.0
 11
265.3939999999999
 21
98.11399999999999
 31
0.0
  0
LINE
  5
14F
330
1E
100
AcDbEntity
  8
0
100
AcDbLine
 10
265.3939999999999
 20
99.96200000000001
 30
0.0
 11
265.3939999999999
 21
102.6499999999999
 31
0.0
  0
LINE
  5
150
330
1E
100
AcDbEntity
  8
0
100
AcDbLine
 10
265.3939999999999
 20
102.6499999999999
 30
0.0
 11
265.3939999999999
 21
99.96200000000001
 31
0.0
  0
LINE
  5
151
330
1E
100
AcDbEntity
  8
0
100
AcDbLine
 10
265.3939999999999
 20
102.6499999999999
 30
0.0
 11
265.3939999999999
 21
106.5139999999999
 31
0.0
  0
LINE
  5
152
330
1E
100
AcDbEntity
  8
0
100
AcDbLine
 10
265.3939999999999
 20
106.5139999999999
 30
0.0
 11
265.3939999999999
 21
102.6499999999999
 31
0.0
  0
LINE
  5
153
330
1E
100
AcDbEntity
  8
0
100
AcDbLine
 10
265.3939999999999
 20
106.5139999999999
 30
0.0
 11
265.3939999999999
 21
110.714
 31
0.0
  0
LINE
  5
154
330
1E
100
AcDbEntity
  8
0
100
AcDbLine
 10
265.3939999999999
 20
110.714
 30
0.0
 11
265.3939999999999
 21
106.5139999999999
 31
0.0
  0
LINE
  5
155
330
1E
100
AcDbEntity
  8
0
100
AcDbLine
 10
265.3939999999999
 20
110.714
 30
0.0
 11
265.3939999999999
 21
115.25
 31
0.0
  0
LINE
  5
156
330
1E
100
AcDbEntity
  8
0
100
AcDbLine
 10
265.3939999999999
 20
115.25
 30
0.0
 11
265.3939999999999
 21
119.786
 31
0.0
  0
LINE
  5
157
330
1E
100
AcDbEntity
  8
0
100
AcDbLine
 10
265.3939999999999
 20
115.25
 30
0.0
 11
265.3939999999999
 21
110.714
 31
0.0
  0
LINE
  5
159
330
1E
100
AcDbEntity
  8
0
100
AcDbLine
 10
265.3939999999999
 20
127.8499999999999
 30
0.0
 11
265.3939999999999
 21
123.9859999999999
 31
0.0
  0
LINE
  5
15A
330
1E
100
AcDbEntity
  8
0
100
AcDbLine
 10
265.3939999999999
 20
127.8499999999999
 30
0.0
 11
265.3939999999999
 21
130.5379999999999
 31
0.0
  0
LINE
  5
15B
330
1E
100
AcDbEntity
  8
0
100
AcDbLine
 10
265.3939999999999
 20
123.9859999999999
 30
0.0
 11
265.3939999999999
 21
119.786
 31
0.0
  0
LINE
  5
15C
330
1E
100
AcDbEntity
  8
0
100
AcDbLine
 10
265.3939999999999
 20
123.9859999999999
 30
0.0
 11
265.3939999999999
 21
127.8499999999999
 31
0.0
  0
LINE
  5
15D
330
1E
100
AcDbEntity
  8
0
100
AcDbLine
 10
265.7469999999999
 20
94.65000000000001
 30
0.0
 11
266.0
 21
95.25
 31
0.0
  0
LINE
  5
15E
330
1E
100
AcDbEntity
  8
0
100
AcDbLine
 10
265.3939999999999
 20
119.786
 30
0.0
 11
265.3939999999999
 21
115.25
 31
0.0
  0
LINE
  5
15F
330
1E
100
AcDbEntity
  8
0
100
AcDbLine
 10
265.3939999999999
 20
119.786
 30
0.0
 11
265.3939999999999
 21
123.9859999999999
 31
0.0
  0
LINE
  5
160
330
1E
100
AcDbEntity
  8
0
100
AcDbLine
 10
263.4739999999999
 20
136.25
 30
0.0
 11
265.368
 21
136.25
 31
0.0
  0
LINE
  5
165
330
1E
100
AcDbEntity
  8
0
100
AcDbLine
 10
265.368
 20
136.25
 30
0.0
 11
265.7469999999999
 21
135.85
 31
0.0
  0
LINE
  5
166
330
1E
100
AcDbEntity
  8
0
100
AcDbLine
 10
265.368
 20
136.25
 30
0.0
 11
265.3939999999999
 21
132.8899999999999
 31
0.0
  0
LINE
  5
167
330
1E
100
AcDbEntity
  8
0
100
AcDbLine
 10
265.3939999999999
 20
132.8899999999999
 30
0.0
 11
265.3939999999999
 21
132.386
 31
0.0
  0
LINE
  5
168
330
1E
100
AcDbEntity
  8
0
100
AcDbLine
 10
265.7469999999999
 20
135.85
 30
0.0
 11
266.0
 21
135.25
 31
0.0
  0
LINE
  5
169
330
1E
100
AcDbEntity
  8
0
100
AcDbLine
 10
265.3939999999999
 20
132.386
 30
0.0
 11
265.3939999999999
 21
130.5379999999999
 31
0.0
  0
LINE
  5
16A
330
1E
100
AcDbEntity
  8
0
100
AcDbLine
 10
265.3939999999999
 20
132.386
 30
0.0
 11
265.3939999999999
 21
132.8899999999999
 31
0.0
  0
LINE
  5
16B
330
1E
100
AcDbEntity
  8
0
100
AcDbLine
 10
265.3939999999999
 20
130.5379999999999
 30
0.0
 11
265.3939999999999
 21
127.8499999999999
 31
0.0
  0
LINE
  5
16C
330
1E
100
AcDbEntity
  8
0
100
AcDbLine
 10
265.3939999999999
 20
130.5379999999999
 30
0.0
 11
265.3939999999999
 21
132.386
 31
0.0
  0
LINE
  5
176
330
1E
100
AcDbEntity
  8
0
100
AcDbLine
 10
32.4515
 20
143.7089999999999
 30
0.0
 11
40.0
 21
144.7499999999999
 31
0.0
  0
LINE
  5
177
330
1E
100
AcDbEntity
  8
0
100
AcDbLine
 10
47.5485
 20
143.7089999999999
 30
0.0
 11
54.6632
 21
140.7589999999999
 31
0.0
  0
LINE
  5
178
330
1E
100
AcDbEntity
  8
0
100
AcDbLine
 10
25.3368
 20
89.7412
 30
0.0
 11
32.4515
 21
86.79120000000001
 31
0.0
  0
LINE
  5
179
330
1E
100
AcDbEntity
  8
0
100
AcDbLine
 10
47.5485
 20
86.79120000000001
 30
0.0
 11
54.6632
 21
89.7412
 31
0.0
  0
LINE
  5
17A
330
1E
100
AcDbEntity
  8
0
100
AcDbLine
 10
197.548
 20
86.79120000000001
 30
0.0
 11
204.6629999999999
 21
89.7412
 31
0.0
  0
LINE
  5
17B
330
1E
100
AcDbEntity
  8
0
100
AcDbLine
 10
182.4519999999999
 20
86.79120000000001
 30
0.0
 11
174.9759824904769
 21
89.87268764012709
 31
0.0
  0
LINE
  5
17C
330
1E
100
AcDbEntity
  8
0
100
AcDbLine
 10
174.9759824904769
 20
89.87268764012709
 30
0.0
 11
169.4977773787373
 21
94.09271336344369
 31
0.0
  0
LINE
  5
17D
330
1E
100
AcDbEntity
  8
0
100
AcDbLine
 10
175.337
 20
140.7589999999999
 30
0.0
 11
182.2138263959251
 21
143.5382239281699
 31
0.0
  0
LINE
  5
17E
330
1E
100
AcDbEntity
  8
0
100
AcDbLine
 10
182.2138263959251
 20
143.5382239281699
 30
0.0
 11
190.0
 21
144.7499999999999
 31
0.0
  0
LINE
  5
17F
330
1E
100
AcDbEntity
  8
0
100
AcDbLine
 10
254.6159999999999
 20
100.3879999999999
 30
0.0
 11
251.2249999999999
 21
105.0529999999999
 31
0.0
  0
LINE
  5
180
330
1E
100
AcDbEntity
  8
0
100
AcDbLine
 10
251.2249999999999
 20
105.0529999999999
 30
0.0
 11
250.842
 21
109.85
 31
0.0
  0
LINE
  5
181
330
1E
100
AcDbEntity
  8
0
100
AcDbLine
 10
265.368
 20
94.25
 30
0.0
 11
258.7839999999999
 21
97.48690000000001
 31
0.0
  0
LINE
  5
182
330
1E
100
AcDbEntity
  8
0
100
AcDbLine
 10
254.6159999999999
 20
130.112
 30
0.0
 11
251.2249999999999
 21
125.4469999999999
 31
0.0
  0
LINE
  5
183
330
1E
100
AcDbEntity
  8
0
100
AcDbLine
 10
251.2249999999999
 20
125.4469999999999
 30
0.0
 11
250.842
 21
120.65
 31
0.0
  0
LINE
  5
184
330
1E
100
AcDbEntity
  8
0
100
AcDbLine
 10
258.7839999999999
 20
133.013
 30
0.0
 11
265.368
 21
136.25
 31
0.0
  0
LINE
  5
185
330
1E
100
AcDbEntity
  8
0
100
AcDbLine
 10
266.0
 20
95.25
 30
0.0
 11
266.0
 21
135.25
 31
0.0
  0
ENDSEC
  0
SECTION
  2
OBJECTS
  0
DICTIONARY
  5
C
330
0
100
AcDbDictionary
  3
ACAD_GROUP
350
D
  3
ACAD_LAYOUT
350
19
  3
ACAD_MLINESTYLE
350
16
  3
ACAD_PLOTSETTINGS
350
18
  3
ACAD_PLOTSTYLENAME
350
E
  3
ACDBHEADERROUNDTRIPXREC
350
1FB
  3
ACDBVARIABLEDICTIONARY
350
1F8
  0
DICTIONARY
  5
21D
330
1E
100
AcDbDictionary
280
     1
  3
ACAD_LAYOUTSELFREF
360
21E
  0
DICTIONARY
  5
21B
330
1A
100
AcDbDictionary
280
     1
  3
ACAD_LAYOUTSELFREF
360
21C
  0
DICTIONARY
  5
D
102
{ACAD_REACTORS
330
C
102
}
330
C
100
AcDbDictionary
  0
DICTIONARY
  5
19
102
{ACAD_REACTORS
330
C
102
}
330
C
100
AcDbDictionary
  0
DICTIONARY
  5
16
102
{ACAD_REACTORS
330
C
102
}
330
C
100
AcDbDictionary
  3
STANDARD
350
17
  0
DICTIONARY
  5
18
102
{ACAD_REACTORS
330
C
102
}
330
C
100
AcDbDictionary
  0
ACDBDICTIONARYWDFLT
  5
E
102
{ACAD_REACTORS
330
C
102
}
330
C
100
AcDbDictionary
281
     1
  3
Normal
350
F
100
AcDbDictionaryWithDefault
340
F
  0
DICTIONARY
  5
1FB
102
{ACAD_REACTORS
330
C
102
}
330
C
100
AcDbDictionary
  3
CEPSNTYPE
350
205
  3
FINGERPRINTGUID
350
206
  3
HYPERLINKBASE
350
1FE
  3
INSUNITS
350
204
  3
LAYOUTDICT
350
200
  3
LWETCUNION
350
203
  3
PLOTSETDICT
350
201
  3
PLOTSTYLNAMDICT
350
202
  3
PSVPSCALE
350
208
  3
PUCSBASE
350
20B
  3
PUCSORGBACK
350
211
  3
PUCSORGBOTTOM
350
20D
  3
PUCSORGFRONT
350
210
  3
PUCSORGLEFT
350
20E
  3
PUCSORGRIGHT
350
20F
  3
PUCSORGTOP
350
20C
  3
PUCSORTHOREF
350
209
  3
PUCSORTHOVIEW
350
20A
  3
STYLESHEET
350
1FF
  3
TSTACKALIGN
350
1FC
  3
TSTACKSIZE
350
1FD
  3
UCSBASE
350
214
  3
UCSORGBACK
350
21A
  3
UCSORGBOTTOM
350
216
  3
UCSORGFRONT
350
219
  3
UCSORGLEFT
350
217
  3
UCSORGRIGHT
350
218
  3
UCSORGTOP
350
215
  3
UCSORTHOREF
350
212
  3
UCSORTHOVIEW
350
213
  3
VERSIONGUID
350
207
  0
DICTIONARY
  5
1F8
102
{ACAD_REACTORS
330
C
102
}
330
C
100
AcDbDictionary
  3
DIMASSOC
350
1F9
  0
XRECORD
  5
21E
102
{ACAD_REACTORS
330
21D
102
}
330
21D
100
AcDbXrecord
340
1E
  0
XRECORD
  5
21C
102
{ACAD_REACTORS
330
21B
102
}
330
21B
100
AcDbXrecord
340
1A
  0
MLINESTYLE
  5
17
102
{ACAD_REACTORS
330
16
102
}
330
16
100
AcDbMlineStyle
  2
STANDARD
 70
     0
  3

 62
   256
 51
90.0
 52
90.0
 71
     2
 49
0.5
 62
   256
  6
BYLAYER
 49
-0.5
 62
   256
  6
BYLAYER
  0
ACDBPLACEHOLDER
  5
F
102
{ACAD_REACTORS
330
E
102
}
330
E
100
AcDbPlaceHolder
280
     0
  0
XRECORD
  5
205
102
{ACAD_REACTORS
330
1FB
102
}
330
1FB
100
AcDbXrecord
 90
        0
  0
XRECORD
  5
206
102
{ACAD_REACTORS
330
1FB
102
}
330
1FB
100
AcDbXrecord
  1
{4D0C39F3-26FC-4F36-A585-F7581F329A1B}
  0
XRECORD
  5
1FE
102
{ACAD_REACTORS
330
1FB
102
}
330
1FB
100
AcDbXrecord
  1

  0
XRECORD
  5
204
102
{ACAD_REACTORS
330
1FB
102
}
330
1FB
100
AcDbXrecord
 90
        0
  0
XRECORD
  5
200
102
{ACAD_REACTORS
330
1FB
102
}
330
1FB
100
AcDbXrecord
340
19
  0
XRECORD
  5
203
102
{ACAD_REACTORS
330
1FB
102
}
330
1FB
100
AcDbXrecord
 90
    10781
  0
XRECORD
  5
201
102
{ACAD_REACTORS
330
1FB
102
}
330
1FB
100
AcDbXrecord
340
18
  0
XRECORD
  5
202
102
{ACAD_REACTORS
330
1FB
102
}
330
1FB
100
AcDbXrecord
340
E
  0
XRECORD
  5
208
102
{ACAD_REACTORS
330
1FB
102
}
330
1FB
100
AcDbXrecord
 40
0.0
  0
XRECORD
  5
20B
102
{ACAD_REACTORS
330
1FB
102
}
330
1FB
100
AcDbXrecord
340
0
  0
XRECORD
  5
211
102
{ACAD_REACTORS
330
1FB
102
}
330
1FB
100
AcDbXrecord
 10
0.0
 20
0.0
 30
0.0
  0
XRECORD
  5
20D
102
{ACAD_REACTORS
330
1FB
102
}
330
1FB
100
AcDbXrecord
 10
0.0
 20
0.0
 30
0.0
  0
XRECORD
  5
210
102
{ACAD_REACTORS
330
1FB
102
}
330
1FB
100
AcDbXrecord
 10
0.0
 20
0.0
 30
0.0
  0
XRECORD
  5
20E
102
{ACAD_REACTORS
330
1FB
102
}
330
1FB
100
AcDbXrecord
 10
0.0
 20
0.0
 30
0.0
  0
XRECORD
  5
20F
102
{ACAD_REACTORS
330
1FB
102
}
330
1FB
100
AcDbXrecord
 10
0.0
 20
0.0
 30
0.0
  0
XRECORD
  5
20C
102
{ACAD_REACTORS
330
1FB
102
}
330
1FB
100
AcDbXrecord
 10
0.0
 20
0.0
 30
0.0
  0
XRECORD
  5
209
102
{ACAD_REACTORS
330
1FB
102
}
330
1FB
100
AcDbXrecord
340
0
  0
XRECORD
  5
20A
102
{ACAD_REACTORS
330
1FB
102
}
330
1FB
100
AcDbXrecord
 70
     0
  0
XRECORD
  5
1FF
102
{ACAD_REACTORS
330
1FB
102
}
330
1FB
100
AcDbXrecord
  1

  0
XRECORD
  5
1FC
102
{ACAD_REACTORS
330
1FB
102
}
330
1FB
100
AcDbXrecord
 90
        1
  0
XRECORD
  5
1FD
102
{ACAD_REACTORS
330
1FB
102
}
330
1FB
100
AcDbXrecord
 90
       70
  0
XRECORD
  5
214
102
{ACAD_REACTORS
330
1FB
102
}
330
1FB
100
AcDbXrecord
340
0
  0
XRECORD
  5
21A
102
{ACAD_REACTORS
330
1FB
102
}
330
1FB
100
AcDbXrecord
 10
0.0
 20
0.0
 30
0.0
  0
XRECORD
  5
216
102
{ACAD_REACTORS
330
1FB
102
}
330
1FB
100
AcDbXrecord
 10
0.0
 20
0.0
 30
0.0
  0
XRECORD
  5
219
102
{ACAD_REACTORS
330
1FB
102
}
330
1FB
100
AcDbXrecord
 10
0.0
 20
0.0
 30
0.0
  0
XRECORD
  5
217
102
{ACAD_REACTORS
330
1FB
102
}
330
1FB
100
AcDbXrecord
 10
0.0
 20
0.0
 30
0.0
  0
XRECORD
  5
218
102
{ACAD_REACTORS
330
1FB
102
}
330
1FB
100
AcDbXrecord
 10
0.0
 20
0.0
 30
0.0
  0
XRECORD
  5
215
102
{ACAD_REACTORS
330
1FB
102
}
330
1FB
100
AcDbXrecord
 10
0.0
 20
0.0
 30
0.0
  0
XRECORD
  5
212
102
{ACAD_REACTORS
330
1FB
102
}
330
1FB
100
AcDbXrecord
340
0
  0
XRECORD
  5
213
102
{ACAD_REACTORS
330
1FB
102
}
330
1FB
100
AcDbXrecord
 70
     1
  0
XRECORD
  5
207
102
{ACAD_REACTORS
330
1FB
102
}
330
1FB
100
AcDbXrecord
  1
{AD9B3829-20EE-459E-8806-7844D6533EA0}
  0
DICTIONARYVAR
  5
1F9
102
{ACAD_REACTORS
330
1F8
102
}
330
1F8
100
DictionaryVariables
280
     0
  1
1
  0
ENDSEC
  0
EOF
