  0
SECTION
  2
HEADER
  9
$ACADVER
  1
AC1015
  9
$ACADMAINTVER
 70
     6
  9
$DWGCODEPAGE
  3
ANSI_1252
  9
$INSBASE
 10
0.0
 20
0.0
 30
0.0
  9
$EXTMIN
 10
0.0
 20
-0.16494
 30
0.0
  9
$EXTMAX
 10
34.0
 20
81.16494
 30
0.0
  9
$LIMMIN
 10
0.0
 20
0.0
  9
$LIMMAX
 10
12.0
 20
9.0
  9
$ORTHOMODE
 70
     0
  9
$REGENMODE
 70
     1
  9
$FILLMODE
 70
     1
  9
$QTEXTMODE
 70
     0
  9
$MIRRTEXT
 70
     1
  9
$LTSCALE
 40
1.0
  9
$ATTMODE
 70
     1
  9
$TEXTSIZE
 40
0.2
  9
$TRACEWID
 40
0.05
  9
$TEXTSTYLE
  7
Standard
  9
$CLAYER
  8
0
  9
$CELTYPE
  6
ByBlock
  9
$CECOLOR
 62
   256
  9
$CELTSCALE
 40
1.0
  9
$DISPSILH
 70
     0
  9
$DIMSCALE
 40
1.0
  9
$DIMASZ
 40
0.18
  9
$DIMEXO
 40
0.0625
  9
$DIMDLI
 40
0.38
  9
$DIMRND
 40
0.0
  9
$DIMDLE
 40
0.0
  9
$DIMEXE
 40
0.18
  9
$DIMTP
 40
0.0
  9
$DIMTM
 40
0.0
  9
$DIMTXT
 40
0.18
  9
$DIMCEN
 40
0.09
  9
$DIMTSZ
 40
0.0
  9
$DIMTOL
 70
     0
  9
$DIMLIM
 70
     0
  9
$DIMTIH
 70
     1
  9
$DIMTOH
 70
     1
  9
$DIMSE1
 70
     0
  9
$DIMSE2
 70
     0
  9
$DIMTAD
 70
     0
  9
$DIMZIN
 70
     0
  9
$DIMBLK
  1

  9
$DIMASO
 70
     1
  9
$DIMSHO
 70
     1
  9
$DIMPOST
  1

  9
$DIMAPOST
  1

  9
$DIMALT
 70
     0
  9
$DIMALTD
 70
     2
  9
$DIMALTF
 40
25.4
  9
$DIMLFAC
 40
1.0
  9
$DIMTOFL
 70
     0
  9
$DIMTVP
 40
0.0
  9
$DIMTIX
 70
     0
  9
$DIMSOXD
 70
     0
  9
$DIMSAH
 70
     0
  9
$DIMBLK1
  1

  9
$DIMBLK2
  1

  9
$DIMSTYLE
  2
Standard
  9
$DIMCLRD
 70
     0
  9
$DIMCLRE
 70
     0
  9
$DIMCLRT
 70
     0
  9
$DIMTFAC
 40
1.0
  9
$DIMGAP
 40
0.09
  9
$DIMJUST
 70
     0
  9
$DIMSD1
 70
     0
  9
$DIMSD2
 70
     0
  9
$DIMTOLJ
 70
     1
  9
$DIMTZIN
 70
     0
  9
$DIMALTZ
 70
     0
  9
$DIMALTTZ
 70
     0
  9
$DIMUPT
 70
     0
  9
$DIMDEC
 70
     4
  9
$DIMTDEC
 70
     4
  9
$DIMALTU
 70
     2
  9
$DIMALTTD
 70
     2
  9
$DIMTXSTY
  7
Standard
  9
$DIMAUNIT
 70
     0
  9
$DIMADEC
 70
     0
  9
$DIMALTRND
 40
0.0
  9
$DIMAZIN
 70
     0
  9
$DIMDSEP
 70
    46
  9
$DIMATFIT
 70
     3
  9
$DIMFRAC
 70
     0
  9
$DIMLDRBLK
  1

  9
$DIMLUNIT
 70
     2
  9
$DIMLWD
 70
    -2
  9
$DIMLWE
 70
    -2
  9
$DIMTMOVE
 70
     2
  9
$LUNITS
 70
     2
  9
$LUPREC
 70
     4
  9
$SKETCHINC
 40
0.1
  9
$FILLETRAD
 40
0.5
  9
$AUNITS
 70
     0
  9
$AUPREC
 70
     0
  9
$MENU
  1
.
  9
$ELEVATION
 40
0.0
  9
$PELEVATION
 40
0.0
  9
$THICKNESS
 40
0.0
  9
$LIMCHECK
 70
     0
  9
$CHAMFERA
 40
0.5
  9
$CHAMFERB
 40
0.5
  9
$CHAMFERC
 40
1.0
  9
$CHAMFERD
 40
0.0
  9
$SKPOLY
 70
     0
  9
$TDCREATE
 40
2455820.862706701
  9
$TDUCREATE
 40
2455820.779373368
  9
$TDUPDATE
 40
2455820.867251875
  9
$TDUUPDATE
 40
2455820.783918542
  9
$TDINDWG
 40
0.004545
  9
$TDUSRTIMER
 40
0.004545
  9
$USRTIMER
 70
     1
  9
$ANGBASE
 50
0.0
  9
$ANGDIR
 70
     0
  9
$PDMODE
 70
     0
  9
$PDSIZE
 40
0.0
  9
$PLINEWID
 40
0.0
  9
$SPLFRAME
 70
     0
  9
$SPLINETYPE
 70
     6
  9
$SPLINESEGS
 70
     8
  9
$HANDSEED
  5
2B7
  9
$SURFTAB1
 70
     6
  9
$SURFTAB2
 70
     6
  9
$SURFTYPE
 70
     6
  9
$SURFU
 70
     6
  9
$SURFV
 70
     6
  9
$UCSBASE
  2

  9
$UCSNAME
  2

  9
$UCSORG
 10
0.0
 20
0.0
 30
0.0
  9
$UCSXDIR
 10
1.0
 20
0.0
 30
0.0
  9
$UCSYDIR
 10
0.0
 20
1.0
 30
0.0
  9
$UCSORTHOREF
  2

  9
$UCSORTHOVIEW
 70
     0
  9
$UCSORGTOP
 10
0.0
 20
0.0
 30
0.0
  9
$UCSORGBOTTOM
 10
0.0
 20
0.0
 30
0.0
  9
$UCSORGLEFT
 10
0.0
 20
0.0
 30
0.0
  9
$UCSORGRIGHT
 10
0.0
 20
0.0
 30
0.0
  9
$UCSORGFRONT
 10
0.0
 20
0.0
 30
0.0
  9
$UCSORGBACK
 10
0.0
 20
0.0
 30
0.0
  9
$PUCSBASE
  2

  9
$PUCSNAME
  2

  9
$PUCSORG
 10
0.0
 20
0.0
 30
0.0
  9
$PUCSXDIR
 10
1.0
 20
0.0
 30
0.0
  9
$PUCSYDIR
 10
0.0
 20
1.0
 30
0.0
  9
$PUCSORTHOREF
  2

  9
$PUCSORTHOVIEW
 70
     0
  9
$PUCSORGTOP
 10
0.0
 20
0.0
 30
0.0
  9
$PUCSORGBOTTOM
 10
0.0
 20
0.0
 30
0.0
  9
$PUCSORGLEFT
 10
0.0
 20
0.0
 30
0.0
  9
$PUCSORGRIGHT
 10
0.0
 20
0.0
 30
0.0
  9
$PUCSORGFRONT
 10
0.0
 20
0.0
 30
0.0
  9
$PUCSORGBACK
 10
0.0
 20
0.0
 30
0.0
  9
$USERI1
 70
     0
  9
$USERI2
 70
     0
  9
$USERI3
 70
     0
  9
$USERI4
 70
     0
  9
$USERI5
 70
     0
  9
$USERR1
 40
0.0
  9
$USERR2
 40
0.0
  9
$USERR3
 40
0.0
  9
$USERR4
 40
0.0
  9
$USERR5
 40
0.0
  9
$WORLDVIEW
 70
     1
  9
$SHADEDGE
 70
     3
  9
$SHADEDIF
 70
    70
  9
$TILEMODE
 70
     1
  9
$MAXACTVP
 70
    64
  9
$PINSBASE
 10
0.0
 20
0.0
 30
0.0
  9
$PLIMCHECK
 70
     0
  9
$PEXTMIN
 10
1.000000000000E+20
 20
1.000000000000E+20
 30
1.000000000000E+20
  9
$PEXTMAX
 10
-1.000000000000E+20
 20
-1.000000000000E+20
 30
-1.000000000000E+20
  9
$PLIMMIN
 10
0.0
 20
0.0
  9
$PLIMMAX
 10
12.0
 20
9.0
  9
$UNITMODE
 70
     0
  9
$VISRETAIN
 70
     1
  9
$PLINEGEN
 70
     0
  9
$PSLTSCALE
 70
     1
  9
$TREEDEPTH
 70
  3020
  9
$CMLSTYLE
  2
Standard
  9
$CMLJUST
 70
     0
  9
$CMLSCALE
 40
1.0
  9
$PROXYGRAPHICS
 70
     1
  9
$MEASUREMENT
 70
     0
  9
$CELWEIGHT
370
    -1
  9
$ENDCAPS
280
     0
  9
$JOINSTYLE
280
     0
  9
$LWDISPLAY
290
     0
  9
$INSUNITS
 70
     0
  9
$HYPERLINKBASE
  1

  9
$STYLESHEET
  1

  9
$XEDIT
290
     1
  9
$CEPSNTYPE
380
     0
  9
$PSTYLEMODE
290
     1
  9
$FINGERPRINTGUID
  2
{EA986504-FD87-4C1F-81AD-FF15609A989C}
  9
$VERSIONGUID
  2
{FAEB1C32-E019-11D5-929B-00C0DF256EC4}
  9
$EXTNAMES
290
     1
  9
$PSVPSCALE
 40
0.0
  9
$OLESTARTUP
290
     0
  0
ENDSEC
  0
SECTION
  2
CLASSES
  0
CLASS
  1
ACDBDICTIONARYWDFLT
  2
AcDbDictionaryWithDefault
  3
ObjectDBX Classes
 90
        0
280
     0
281
     0
  0
CLASS
  1
SCALE
  2
AcDbScale
  3
ObjectDBX Classes
 90
     1153
280
     0
281
     0
  0
CLASS
  1
DICTIONARYVAR
  2
AcDbDictionaryVar
  3
ObjectDBX Classes
 90
        0
280
     0
281
     0
  0
CLASS
  1
ACDBPLACEHOLDER
  2
AcDbPlaceHolder
  3
ObjectDBX Classes
 90
        0
280
     0
281
     0
  0
CLASS
  1
LAYOUT
  2
AcDbLayout
  3
ObjectDBX Classes
 90
        0
280
     0
281
     0
  0
ENDSEC
  0
SECTION
  2
TABLES
  0
TABLE
  2
VPORT
  5
8
330
0
100
AcDbSymbolTable
 70
     1
  0
VPORT
  5
288
330
8
100
AcDbSymbolTableRecord
100
AcDbViewportTableRecord
  2
*Active
 70
     0
 10
0.0
 20
0.0
 11
1.0
 21
1.0
 12
17.0
 22
40.5
 13
0.0
 23
0.0
 14
0.5
 24
0.5
 15
0.5
 25
0.5
 16
0.0
 26
0.0
 36
1.0
 17
0.0
 27
0.0
 37
0.0
 40
82.9564776
 41
1.790857142857
 42
50.0
 43
0.0
 44
0.0
 50
0.0
 51
0.0
 71
    16
 72
   100
 73
     1
 74
     3
 75
     0
 76
     0
 77
     0
 78
     0
281
     0
 65
     1
110
0.0
120
0.0
130
0.0
111
1.0
121
0.0
131
0.0
112
0.0
122
1.0
132
0.0
 79
     0
146
0.0
  0
ENDTAB
  0
TABLE
  2
LTYPE
  5
5
330
0
100
AcDbSymbolTable
 70
     1
  0
LTYPE
  5
14
330
5
100
AcDbSymbolTableRecord
100
AcDbLinetypeTableRecord
  2
ByBlock
 70
     0
  3

 72
    65
 73
     0
 40
0.0
  0
LTYPE
  5
15
330
5
100
AcDbSymbolTableRecord
100
AcDbLinetypeTableRecord
  2
ByLayer
 70
     0
  3

 72
    65
 73
     0
 40
0.0
  0
LTYPE
  5
16
330
5
100
AcDbSymbolTableRecord
100
AcDbLinetypeTableRecord
  2
Continuous
 70
     0
  3
Solid line
 72
    65
 73
     0
 40
0.0
  0
ENDTAB
  0
TABLE
  2
LAYER
  5
2
330
0
100
AcDbSymbolTable
 70
     1
  0
LAYER
  5
10
330
2
100
AcDbSymbolTableRecord
100
AcDbLayerTableRecord
  2
0
 70
     0
 62
     7
  6
Continuous
370
    -3
390
F
  0
ENDTAB
  0
TABLE
  2
STYLE
  5
3
330
0
100
AcDbSymbolTable
 70
     1
  0
STYLE
  5
11
330
3
100
AcDbSymbolTableRecord
100
AcDbTextStyleTableRecord
  2
Standard
 70
     0
 40
0.0
 41
1.0
 50
0.0
 71
     0
 42
0.2
  3
txt
  4

  0
ENDTAB
  0
TABLE
  2
VIEW
  5
6
330
0
100
AcDbSymbolTable
 70
     0
  0
ENDTAB
  0
TABLE
  2
UCS
  5
7
330
0
100
AcDbSymbolTable
 70
     0
  0
ENDTAB
  0
TABLE
  2
APPID
  5
9
330
0
100
AcDbSymbolTable
 70
     1
  0
APPID
  5
12
330
9
100
AcDbSymbolTableRecord
100
AcDbRegAppTableRecord
  2
ACAD
 70
     0
  0
ENDTAB
  0
TABLE
  2
DIMSTYLE
  5
A
330
0
100
AcDbSymbolTable
 70
     1
100
AcDbDimStyleTable
  0
DIMSTYLE
105
20
330
A
100
AcDbSymbolTableRecord
100
AcDbDimStyleTableRecord
  2
Standard
 70
     0
340
11
  0
ENDTAB
  0
TABLE
  2
BLOCK_RECORD
  5
1
330
0
100
AcDbSymbolTable
 70
     0
  0
BLOCK_RECORD
  5
1D
330
1
100
AcDbSymbolTableRecord
100
AcDbBlockTableRecord
  2
*Model_Space
340
1E
  0
BLOCK_RECORD
  5
1B
330
1
100
AcDbSymbolTableRecord
100
AcDbBlockTableRecord
  2
*Paper_Space
340
1C
  0
ENDTAB
  0
ENDSEC
  0
SECTION
  2
BLOCKS
  0
BLOCK
  5
28B
330
1D
100
AcDbEntity
  8
0
100
AcDbBlockBegin
  2
*Model_Space
 70
     0
 10
0.0
 20
0.0
 30
0.0
  3
*Model_Space
  1
*Model_Space
  0
ENDBLK
  5
28C
330
1D
100
AcDbEntity
  8
0
100
AcDbBlockEnd
  0
BLOCK
  5
289
330
1B
100
AcDbEntity
 67
     1
  8
0
100
AcDbBlockBegin
  2
*Paper_Space
 70
     0
 10
0.0
 20
0.0
 30
0.0
  3
*Paper_Space
  1
*Paper_Space
  0
ENDBLK
  5
28A
330
1B
100
AcDbEntity
 67
     1
  8
0
100
AcDbBlockEnd
  0
ENDSEC
  0
SECTION
  2
ENTITIES
  0
LINE
  5
21
330
1D
100
AcDbEntity
  8
0
100
AcDbLine
 10
0.6
 20
7.76494
 30
0.0
 11
2.3
 21
3.66494
 31
0.0
  0
LINE
  5
22
330
1D
100
AcDbEntity
  8
0
100
AcDbLine
 10
0.6
 20
7.76494
 30
0.0
 11
2.3
 21
3.66494
 31
0.0
  0
LINE
  5
23
330
1D
100
AcDbEntity
  8
0
100
AcDbLine
 10
0.6
 20
7.76494
 30
0.0
 11
2.3
 21
3.66494
 31
0.0
  0
LINE
  5
24
330
1D
100
AcDbEntity
  8
0
100
AcDbLine
 10
2.3
 20
3.66494
 30
0.0
 11
5.0
 21
0.16494
 31
0.0
  0
LINE
  5
25
330
1D
100
AcDbEntity
  8
0
100
AcDbLine
 10
2.3
 20
3.66494
 30
0.0
 11
5.0
 21
0.16494
 31
0.0
  0
LINE
  5
26
330
1D
100
AcDbEntity
  8
0
100
AcDbLine
 10
0.6
 20
7.76494
 30
0.0
 11
2.3
 21
3.66494
 31
0.0
  0
LINE
  5
27
330
1D
100
AcDbEntity
  8
0
100
AcDbLine
 10
2.3
 20
3.66494
 30
0.0
 11
5.0
 21
0.16494
 31
0.0
  0
LINE
  5
28
330
1D
100
AcDbEntity
  8
0
100
AcDbLine
 10
2.3
 20
3.66494
 30
0.0
 11
5.0
 21
0.16494
 31
0.0
  0
LINE
  5
29
330
1D
100
AcDbEntity
  8
0
100
AcDbLine
 10
0.0
 20
12.16494
 30
0.0
 11
0.6
 21
7.76494
 31
0.0
  0
LINE
  5
2A
330
1D
100
AcDbEntity
  8
0
100
AcDbLine
 10
0.0
 20
12.16494
 30
0.0
 11
0.6
 21
7.76494
 31
0.0
  0
LINE
  5
2B
330
1D
100
AcDbEntity
  8
0
100
AcDbLine
 10
0.0
 20
12.16494
 30
0.0
 11
0.6
 21
16.56494
 31
0.0
  0
LINE
  5
2C
330
1D
100
AcDbEntity
  8
0
100
AcDbLine
 10
3.0
 20
12.16494
 30
0.0
 11
3.5
 21
8.56494
 31
0.0
  0
LINE
  5
2D
330
1D
100
AcDbEntity
  8
0
100
AcDbLine
 10
3.0
 20
12.16494
 30
0.0
 11
3.5
 21
15.76494
 31
0.0
  0
LINE
  5
2E
330
1D
100
AcDbEntity
  8
0
100
AcDbLine
 10
3.5
 20
8.56494
 30
0.0
 11
4.9
 21
5.16494
 31
0.0
  0
LINE
  5
2F
330
1D
100
AcDbEntity
  8
0
100
AcDbLine
 10
5.0
 20
0.16494
 30
0.0
 11
7.1
 21
2.26494
 31
0.0
  0
LINE
  5
30
330
1D
100
AcDbEntity
  8
0
100
AcDbLine
 10
5.0
 20
0.16494
 30
0.0
 11
7.1
 21
2.26494
 31
0.0
  0
LINE
  5
31
330
1D
100
AcDbEntity
  8
0
100
AcDbLine
 10
5.0
 20
0.16494
 30
0.0
 11
7.1
 21
2.26494
 31
0.0
  0
LINE
  5
32
330
1D
100
AcDbEntity
  8
0
100
AcDbLine
 10
5.0
 20
0.16494
 30
0.0
 11
7.1
 21
2.26494
 31
0.0
  0
LINE
  5
33
330
1D
100
AcDbEntity
  8
0
100
AcDbLine
 10
4.9
 20
5.16494
 30
0.0
 11
7.1
 21
2.26494
 31
0.0
  0
LINE
  5
34
330
1D
100
AcDbEntity
  8
0
100
AcDbLine
 10
0.6
 20
16.56494
 30
0.0
 11
2.3
 21
20.66494
 31
0.0
  0
LINE
  5
35
330
1D
100
AcDbEntity
  8
0
100
AcDbLine
 10
0.6
 20
16.56494
 30
0.0
 11
2.3
 21
20.66494
 31
0.0
  0
LINE
  5
36
330
1D
100
AcDbEntity
  8
0
100
AcDbLine
 10
0.6
 20
40.76494
 30
0.0
 11
2.3
 21
36.66494
 31
0.0
  0
LINE
  5
37
330
1D
100
AcDbEntity
  8
0
100
AcDbLine
 10
0.6
 20
40.76494
 30
0.0
 11
2.3
 21
36.66494
 31
0.0
  0
LINE
  5
38
330
1D
100
AcDbEntity
  8
0
100
AcDbLine
 10
2.3
 20
20.66494
 30
0.0
 11
5.0
 21
24.16494
 31
0.0
  0
LINE
  5
39
330
1D
100
AcDbEntity
  8
0
100
AcDbLine
 10
3.5
 20
15.76494
 30
0.0
 11
4.9
 21
19.16494
 31
0.0
  0
LINE
  5
3A
330
1D
100
AcDbEntity
  8
0
100
AcDbLine
 10
3.5
 20
15.76494
 30
0.0
 11
4.9
 21
19.16494
 31
0.0
  0
LINE
  5
3B
330
1D
100
AcDbEntity
  8
0
100
AcDbLine
 10
2.3
 20
36.66494
 30
0.0
 11
5.0
 21
33.16494
 31
0.0
  0
LINE
  5
3C
330
1D
100
AcDbEntity
  8
0
100
AcDbLine
 10
2.3
 20
36.66494
 30
0.0
 11
5.0
 21
33.16494
 31
0.0
  0
LINE
  5
3D
330
1D
100
AcDbEntity
  8
0
100
AcDbLine
 10
0.6
 20
40.76494
 30
0.0
 11
2.3
 21
36.66494
 31
0.0
  0
LINE
  5
3E
330
1D
100
AcDbEntity
  8
0
100
AcDbLine
 10
3.5
 20
41.56494
 30
0.0
 11
4.9
 21
38.16494
 31
0.0
  0
LINE
  5
3F
330
1D
100
AcDbEntity
  8
0
100
AcDbLine
 10
3.5
 20
41.56494
 30
0.0
 11
4.9
 21
38.16494
 31
0.0
  0
LINE
  5
40
330
1D
100
AcDbEntity
  8
0
100
AcDbLine
 10
0.0
 20
45.16494
 30
0.0
 11
0.6
 21
49.56494
 31
0.0
  0
LINE
  5
41
330
1D
100
AcDbEntity
  8
0
100
AcDbLine
 10
0.0
 20
45.16494
 30
0.0
 11
0.6
 21
40.76494
 31
0.0
  0
LINE
  5
42
330
1D
100
AcDbEntity
  8
0
100
AcDbLine
 10
0.0
 20
45.16494
 30
0.0
 11
0.6
 21
40.76494
 31
0.0
  0
LINE
  5
43
330
1D
100
AcDbEntity
  8
0
100
AcDbLine
 10
4.9
 20
19.16494
 30
0.0
 11
7.1
 21
22.06494
 31
0.0
  0
LINE
  5
44
330
1D
100
AcDbEntity
  8
0
100
AcDbLine
 10
5.0
 20
24.16494
 30
0.0
 11
8.5
 21
26.86494
 31
0.0
  0
LINE
  5
45
330
1D
100
AcDbEntity
  8
0
100
AcDbLine
 10
4.9
 20
19.16494
 30
0.0
 11
7.1
 21
22.06494
 31
0.0
  0
LINE
  5
46
330
1D
100
AcDbEntity
  8
0
100
AcDbLine
 10
5.0
 20
33.16494
 30
0.0
 11
8.5
 21
30.46494
 31
0.0
  0
LINE
  5
47
330
1D
100
AcDbEntity
  8
0
100
AcDbLine
 10
5.0
 20
33.16494
 30
0.0
 11
8.5
 21
30.46494
 31
0.0
  0
LINE
  5
48
330
1D
100
AcDbEntity
  8
0
100
AcDbLine
 10
4.9
 20
38.16494
 30
0.0
 11
7.1
 21
35.26494
 31
0.0
  0
LINE
  5
49
330
1D
100
AcDbEntity
  8
0
100
AcDbLine
 10
4.5
 20
41.76494
 30
0.0
 11
5.7
 21
38.66494
 31
0.0
  0
LINE
  5
4A
330
1D
100
AcDbEntity
  8
0
100
AcDbLine
 10
4.9
 20
38.16494
 30
0.0
 11
7.1
 21
35.26494
 31
0.0
  0
LINE
  5
4B
330
1D
100
AcDbEntity
  8
0
100
AcDbLine
 10
3.5
 20
41.56494
 30
0.0
 11
4.9
 21
38.16494
 31
0.0
  0
LINE
  5
4C
330
1D
100
AcDbEntity
  8
0
100
AcDbLine
 10
3.0
 20
45.16494
 30
0.0
 11
3.5
 21
41.56494
 31
0.0
  0
LINE
  5
4D
330
1D
100
AcDbEntity
  8
0
100
AcDbLine
 10
0.6
 20
49.56494
 30
0.0
 11
2.3
 21
53.66494
 31
0.0
  0
LINE
  5
4E
330
1D
100
AcDbEntity
  8
0
100
AcDbLine
 10
0.6
 20
49.56494
 30
0.0
 11
2.3
 21
53.66494
 31
0.0
  0
LINE
  5
4F
330
1D
100
AcDbEntity
  8
0
100
AcDbLine
 10
2.3
 20
53.66494
 30
0.0
 11
5.0
 21
57.16494
 31
0.0
  0
LINE
  5
50
330
1D
100
AcDbEntity
  8
0
100
AcDbLine
 10
3.5
 20
48.76494
 30
0.0
 11
4.9
 21
52.16494
 31
0.0
  0
LINE
  5
51
330
1D
100
AcDbEntity
  8
0
100
AcDbLine
 10
3.0
 20
45.16494
 30
0.0
 11
3.5
 21
41.56494
 31
0.0
  0
LINE
  5
52
330
1D
100
AcDbEntity
  8
0
100
AcDbLine
 10
3.0
 20
45.16494
 30
0.0
 11
3.5
 21
48.76494
 31
0.0
  0
LINE
  5
53
330
1D
100
AcDbEntity
  8
0
100
AcDbLine
 10
5.0
 20
57.16494
 30
0.0
 11
7.0
 21
58.707797142857
 31
0.0
  0
LINE
  5
54
330
1D
100
AcDbEntity
  8
0
100
AcDbLine
 10
4.9
 20
52.16494
 30
0.0
 11
7.1
 21
55.06494
 31
0.0
  0
LINE
  5
55
330
1D
100
AcDbEntity
  8
0
100
AcDbLine
 10
4.5
 20
48.56494
 30
0.0
 11
5.7
 21
51.66494
 31
0.0
  0
LINE
  5
56
330
1D
100
AcDbEntity
  8
0
100
AcDbLine
 10
4.0
 20
45.16494
 30
0.0
 11
4.5
 21
41.76494
 31
0.0
  0
LINE
  5
57
330
1D
100
AcDbEntity
  8
0
100
AcDbLine
 10
4.0
 20
45.16494
 30
0.0
 11
4.5
 21
48.56494
 31
0.0
  0
LINE
  5
58
330
1D
100
AcDbEntity
  8
0
100
AcDbLine
 10
3.0
 20
45.16494
 30
0.0
 11
3.5
 21
41.56494
 31
0.0
  0
LINE
  5
59
330
1D
100
AcDbEntity
  8
0
100
AcDbLine
 10
5.0
 20
12.33484
 30
0.0
 11
5.42353
 21
15.40544
 31
0.0
  0
LINE
  5
5A
330
1D
100
AcDbEntity
  8
0
100
AcDbLine
 10
16.5714
 20
-0.16494
 30
0.0
 11
17.4286
 21
-0.16494
 31
0.0
  0
LINE
  5
5B
330
1D
100
AcDbEntity
  8
0
100
AcDbLine
 10
16.1429
 20
-0.164934
 30
0.0
 11
16.5714
 21
-0.16494
 31
0.0
  0
LINE
  5
5C
330
1D
100
AcDbEntity
  8
0
100
AcDbLine
 10
16.1429
 20
-0.164934
 30
0.0
 11
16.1429
 21
0.453093026965
 31
0.0
  0
LINE
  5
5D
330
1D
100
AcDbEntity
  8
0
100
AcDbLine
 10
16.1429
 20
-0.164934
 30
0.0
 11
16.5714
 21
-0.16494
 31
0.0
  0
LINE
  5
5E
330
1D
100
AcDbEntity
  8
0
100
AcDbLine
 10
16.1429
 20
-0.164934
 30
0.0
 11
16.1429
 21
0.679764
 31
0.0
  0
LINE
  5
5F
330
1D
100
AcDbEntity
  8
0
100
AcDbLine
 10
16.1429
 20
-0.164934
 30
0.0
 11
16.5714
 21
-0.16494
 31
0.0
  0
LINE
  5
60
330
1D
100
AcDbEntity
  8
0
100
AcDbLine
 10
16.1429
 20
-0.164934
 30
0.0
 11
16.1429
 21
0.453093026965
 31
0.0
  0
LINE
  5
61
330
1D
100
AcDbEntity
  8
0
100
AcDbLine
 10
16.1429
 20
-0.164934
 30
0.0
 11
16.1429
 21
0.453093026965
 31
0.0
  0
LINE
  5
62
330
1D
100
AcDbEntity
  8
0
100
AcDbLine
 10
16.1429
 20
-0.164934
 30
0.0
 11
16.5714
 21
-0.16494
 31
0.0
  0
LINE
  5
63
330
1D
100
AcDbEntity
  8
0
100
AcDbLine
 10
16.1429
 20
-0.164934
 30
0.0
 11
16.5714
 21
-0.16494
 31
0.0
  0
LINE
  5
64
330
1D
100
AcDbEntity
  8
0
100
AcDbLine
 10
16.1429
 20
-0.164934
 30
0.0
 11
16.1429
 21
0.453093026965
 31
0.0
  0
LINE
  5
65
330
1D
100
AcDbEntity
  8
0
100
AcDbLine
 10
16.1429
 20
-0.164934
 30
0.0
 11
16.5714
 21
-0.16494
 31
0.0
  0
LINE
  5
66
330
1D
100
AcDbEntity
  8
0
100
AcDbLine
 10
16.1429
 20
-0.164934
 30
0.0
 11
16.1429
 21
0.453093026965
 31
0.0
  0
LINE
  5
67
330
1D
100
AcDbEntity
  8
0
100
AcDbLine
 10
16.1429
 20
-0.164934
 30
0.0
 11
16.5714
 21
-0.16494
 31
0.0
  0
LINE
  5
68
330
1D
100
AcDbEntity
  8
0
100
AcDbLine
 10
16.1429
 20
-0.164934
 30
0.0
 11
16.1429
 21
0.453093026965
 31
0.0
  0
LINE
  5
69
330
1D
100
AcDbEntity
  8
0
100
AcDbLine
 10
16.1429
 20
-0.164934
 30
0.0
 11
16.5714
 21
-0.16494
 31
0.0
  0
LINE
  5
6A
330
1D
100
AcDbEntity
  8
0
100
AcDbLine
 10
16.1429
 20
-0.164934
 30
0.0
 11
16.1429
 21
0.453093026965
 31
0.0
  0
LINE
  5
6B
330
1D
100
AcDbEntity
  8
0
100
AcDbLine
 10
16.1429
 20
-0.164934
 30
0.0
 11
16.5714
 21
-0.16494
 31
0.0
  0
LINE
  5
6C
330
1D
100
AcDbEntity
  8
0
100
AcDbLine
 10
16.1429
 20
-0.164934
 30
0.0
 11
16.1429
 21
0.453093026965
 31
0.0
  0
LINE
  5
6D
330
1D
100
AcDbEntity
  8
0
100
AcDbLine
 10
16.1429
 20
-0.164934
 30
0.0
 11
16.5714
 21
-0.16494
 31
0.0
  0
LINE
  5
6E
330
1D
100
AcDbEntity
  8
0
100
AcDbLine
 10
16.1429
 20
-0.164934
 30
0.0
 11
16.1429
 21
0.453093026965
 31
0.0
  0
LINE
  5
6F
330
1D
100
AcDbEntity
  8
0
100
AcDbLine
 10
16.1429
 20
-0.164934
 30
0.0
 11
16.5714
 21
-0.16494
 31
0.0
  0
LINE
  5
70
330
1D
100
AcDbEntity
  8
0
100
AcDbLine
 10
16.1429
 20
-0.164934
 30
0.0
 11
16.1429
 21
0.453093026965
 31
0.0
  0
LINE
  5
71
330
1D
100
AcDbEntity
  8
0
100
AcDbLine
 10
16.1429
 20
-0.164924
 30
0.0
 11
16.1429
 21
0.453093026965
 31
0.0
  0
LINE
  5
72
330
1D
100
AcDbEntity
  8
0
100
AcDbLine
 10
16.1429
 20
-0.164924
 30
0.0
 11
16.1429
 21
0.679775
 31
0.0
  0
LINE
  5
73
330
1D
100
AcDbEntity
  8
0
100
AcDbLine
 10
16.1429
 20
-0.164924
 30
0.0
 11
16.1429
 21
0.453093026965
 31
0.0
  0
LINE
  5
74
330
1D
100
AcDbEntity
  8
0
100
AcDbLine
 10
16.1429
 20
-0.164924
 30
0.0
 11
16.1429
 21
0.453093026965
 31
0.0
  0
LINE
  5
75
330
1D
100
AcDbEntity
  8
0
100
AcDbLine
 10
16.1429
 20
-0.164924
 30
0.0
 11
16.1429
 21
0.453093026965
 31
0.0
  0
LINE
  5
76
330
1D
100
AcDbEntity
  8
0
100
AcDbLine
 10
16.1429
 20
-0.164924
 30
0.0
 11
16.1429
 21
0.453093026965
 31
0.0
  0
LINE
  5
77
330
1D
100
AcDbEntity
  8
0
100
AcDbLine
 10
16.1429
 20
-0.164924
 30
0.0
 11
16.1429
 21
0.453093026965
 31
0.0
  0
LINE
  5
78
330
1D
100
AcDbEntity
  8
0
100
AcDbLine
 10
16.1429
 20
-0.164924
 30
0.0
 11
16.1429
 21
0.453093026965
 31
0.0
  0
LINE
  5
79
330
1D
100
AcDbEntity
  8
0
100
AcDbLine
 10
16.1429
 20
-0.164924
 30
0.0
 11
16.1429
 21
0.453093026965
 31
0.0
  0
LINE
  5
7A
330
1D
100
AcDbEntity
  8
0
100
AcDbLine
 10
16.1429
 20
-0.164924
 30
0.0
 11
16.1429
 21
0.453093026965
 31
0.0
  0
LINE
  5
7B
330
1D
100
AcDbEntity
  8
0
100
AcDbLine
 10
16.1429
 20
-0.164924
 30
0.0
 11
16.1429
 21
0.453093026965
 31
0.0
  0
LINE
  5
7C
330
1D
100
AcDbEntity
  8
0
100
AcDbLine
 10
16.1429
 20
-0.164924
 30
0.0
 11
16.1429
 21
0.453093026965
 31
0.0
  0
LINE
  5
7D
330
1D
100
AcDbEntity
  8
0
100
AcDbLine
 10
17.4286
 20
-0.16494
 30
0.0
 11
17.8571
 21
-0.164934
 31
0.0
  0
LINE
  5
7E
330
1D
100
AcDbEntity
  8
0
100
AcDbLine
 10
16.5714
 20
-0.16494
 30
0.0
 11
17.4286
 21
-0.16494
 31
0.0
  0
LINE
  5
7F
330
1D
100
AcDbEntity
  8
0
100
AcDbLine
 10
16.5714
 20
-0.16494
 30
0.0
 11
17.4286
 21
-0.16494
 31
0.0
  0
LINE
  5
80
330
1D
100
AcDbEntity
  8
0
100
AcDbLine
 10
16.5714
 20
-0.16494
 30
0.0
 11
17.4286
 21
-0.16494
 31
0.0
  0
LINE
  5
81
330
1D
100
AcDbEntity
  8
0
100
AcDbLine
 10
16.5714
 20
-0.16494
 30
0.0
 11
17.4286
 21
-0.16494
 31
0.0
  0
LINE
  5
82
330
1D
100
AcDbEntity
  8
0
100
AcDbLine
 10
16.5714
 20
-0.16494
 30
0.0
 11
17.4286
 21
-0.16494
 31
0.0
  0
LINE
  5
84
330
1D
100
AcDbEntity
  8
0
100
AcDbLine
 10
16.5714
 20
-0.16494
 30
0.0
 11
17.4286
 21
-0.16494
 31
0.0
  0
LINE
  5
85
330
1D
100
AcDbEntity
  8
0
100
AcDbLine
 10
16.5714
 20
-0.16494
 30
0.0
 11
17.4286
 21
-0.16494
 31
0.0
  0
LINE
  5
86
330
1D
100
AcDbEntity
  8
0
100
AcDbLine
 10
16.5714
 20
-0.16494
 30
0.0
 11
17.4286
 21
-0.16494
 31
0.0
  0
LINE
  5
87
330
1D
100
AcDbEntity
  8
0
100
AcDbLine
 10
16.5714
 20
-0.16494
 30
0.0
 11
17.4286
 21
-0.16494
 31
0.0
  0
LINE
  5
88
330
1D
100
AcDbEntity
  8
0
100
AcDbLine
 10
16.5714
 20
-0.16494
 30
0.0
 11
17.4286
 21
-0.16494
 31
0.0
  0
LINE
  5
89
330
1D
100
AcDbEntity
  8
0
100
AcDbLine
 10
17.4286
 20
-0.16494
 30
0.0
 11
17.8571
 21
-0.164934
 31
0.0
  0
LINE
  5
8A
330
1D
100
AcDbEntity
  8
0
100
AcDbLine
 10
17.4286
 20
-0.16494
 30
0.0
 11
17.8571
 21
-0.164934
 31
0.0
  0
LINE
  5
8B
330
1D
100
AcDbEntity
  8
0
100
AcDbLine
 10
17.4286
 20
-0.16494
 30
0.0
 11
17.8571
 21
-0.164934
 31
0.0
  0
LINE
  5
8C
330
1D
100
AcDbEntity
  8
0
100
AcDbLine
 10
17.4286
 20
-0.16494
 30
0.0
 11
17.8571
 21
-0.164934
 31
0.0
  0
LINE
  5
8D
330
1D
100
AcDbEntity
  8
0
100
AcDbLine
 10
17.4286
 20
-0.16494
 30
0.0
 11
17.8571
 21
-0.164934
 31
0.0
  0
LINE
  5
8E
330
1D
100
AcDbEntity
  8
0
100
AcDbLine
 10
17.4286
 20
-0.16494
 30
0.0
 11
17.8571
 21
-0.164934
 31
0.0
  0
LINE
  5
8F
330
1D
100
AcDbEntity
  8
0
100
AcDbLine
 10
17.4286
 20
-0.16494
 30
0.0
 11
17.8571
 21
-0.164934
 31
0.0
  0
LINE
  5
90
330
1D
100
AcDbEntity
  8
0
100
AcDbLine
 10
17.4286
 20
-0.16494
 30
0.0
 11
17.8571
 21
-0.164934
 31
0.0
  0
LINE
  5
91
330
1D
100
AcDbEntity
  8
0
100
AcDbLine
 10
17.4286
 20
-0.16494
 30
0.0
 11
17.8571
 21
-0.164934
 31
0.0
  0
LINE
  5
92
330
1D
100
AcDbEntity
  8
0
100
AcDbLine
 10
17.4286
 20
-0.16494
 30
0.0
 11
17.8571
 21
-0.164934
 31
0.0
  0
LINE
  5
93
330
1D
100
AcDbEntity
  8
0
100
AcDbLine
 10
16.5714
 20
-0.16494
 30
0.0
 11
17.4286
 21
-0.16494
 31
0.0
  0
LINE
  5
94
330
1D
100
AcDbEntity
  8
0
100
AcDbLine
 10
17.8571
 20
-0.164934
 30
0.0
 11
17.8571
 21
0.679764
 31
0.0
  0
LINE
  5
95
330
1D
100
AcDbEntity
  8
0
100
AcDbLine
 10
16.1429
 20
-0.164934
 30
0.0
 11
16.5714
 21
-0.16494
 31
0.0
  0
LINE
  5
96
330
1D
100
AcDbEntity
  8
0
100
AcDbLine
 10
16.1429
 20
-0.164934
 30
0.0
 11
16.1429
 21
0.453093026965
 31
0.0
  0
LINE
  5
97
330
1D
100
AcDbEntity
  8
0
100
AcDbLine
 10
17.4286
 20
-0.16494
 30
0.0
 11
17.8571
 21
-0.164934
 31
0.0
  0
LINE
  5
98
330
1D
100
AcDbEntity
  8
0
100
AcDbLine
 10
29.0
 20
0.16494
 30
0.0
 11
31.7
 21
3.66494
 31
0.0
  0
LINE
  5
99
330
1D
100
AcDbEntity
  8
0
100
AcDbLine
 10
12.5112
 20
0.638981
 30
0.0
 11
12.768941935485
 21
0.540312612903
 31
0.0
  0
LINE
  5
9A
330
1D
100
AcDbEntity
  8
0
100
AcDbLine
 10
12.5112
 20
0.638981
 30
0.0
 11
12.768941935485
 21
0.540312612903
 31
0.0
  0
LINE
  5
9B
330
1D
100
AcDbEntity
  8
0
100
AcDbLine
 10
12.5112
 20
0.639001
 30
0.0
 11
12.9107
 21
0.486034
 31
0.0
  0
LINE
  5
9D
330
1D
100
AcDbEntity
  8
0
100
AcDbLine
 10
12.5112
 20
0.638981
 30
0.0
 11
12.768941935485
 21
0.540312612903
 31
0.0
  0
LINE
  5
9E
330
1D
100
AcDbEntity
  8
0
100
AcDbLine
 10
12.5112
 20
0.638981
 30
0.0
 11
12.768941935485
 21
0.540312612903
 31
0.0
  0
LINE
  5
9F
330
1D
100
AcDbEntity
  8
0
100
AcDbLine
 10
12.5112
 20
0.638981
 30
0.0
 11
12.768941935485
 21
0.540312612903
 31
0.0
  0
LINE
  5
A0
330
1D
100
AcDbEntity
  8
0
100
AcDbLine
 10
12.5112
 20
0.638981
 30
0.0
 11
12.768941935485
 21
0.540312612903
 31
0.0
  0
LINE
  5
A1
330
1D
100
AcDbEntity
  8
0
100
AcDbLine
 10
12.5112
 20
0.638981
 30
0.0
 11
12.768941935485
 21
0.540312612903
 31
0.0
  0
LINE
  5
A2
330
1D
100
AcDbEntity
  8
0
100
AcDbLine
 10
12.5112
 20
0.638981
 30
0.0
 11
12.768941935485
 21
0.540312612903
 31
0.0
  0
LINE
  5
A3
330
1D
100
AcDbEntity
  8
0
100
AcDbLine
 10
12.5112
 20
0.638981
 30
0.0
 11
12.768941935485
 21
0.540312612903
 31
0.0
  0
LINE
  5
A4
330
1D
100
AcDbEntity
  8
0
100
AcDbLine
 10
12.5112
 20
0.638981
 30
0.0
 11
12.768941935485
 21
0.540312612903
 31
0.0
  0
LINE
  5
A5
330
1D
100
AcDbEntity
  8
0
100
AcDbLine
 10
12.5112
 20
0.638981
 30
0.0
 11
12.768941935485
 21
0.540312612903
 31
0.0
  0
LINE
  5
A6
330
1D
100
AcDbEntity
  8
0
100
AcDbLine
 10
12.5112
 20
0.638981
 30
0.0
 11
12.768941935485
 21
0.540312612903
 31
0.0
  0
LINE
  5
A7
330
1D
100
AcDbEntity
  8
0
100
AcDbLine
 10
12.5112
 20
0.638981
 30
0.0
 11
12.768941935484
 21
0.540312612903
 31
0.0
  0
LINE
  5
A8
330
1D
100
AcDbEntity
  8
0
100
AcDbLine
 10
12.5112
 20
0.638981
 30
0.0
 11
12.768941935485
 21
0.540312612903
 31
0.0
  0
LINE
  5
A9
330
1D
100
AcDbEntity
  8
0
100
AcDbLine
 10
12.5112
 20
0.638981
 30
0.0
 11
12.768941935485
 21
0.540312612903
 31
0.0
  0
LINE
  5
AA
330
1D
100
AcDbEntity
  8
0
100
AcDbLine
 10
12.5112
 20
0.638981
 30
0.0
 11
12.768941935485
 21
0.540312612903
 31
0.0
  0
LINE
  5
AB
330
1D
100
AcDbEntity
  8
0
100
AcDbLine
 10
12.5112
 20
0.638981
 30
0.0
 11
12.768941935485
 21
0.540312612903
 31
0.0
  0
LINE
  5
AC
330
1D
100
AcDbEntity
  8
0
100
AcDbLine
 10
12.5112
 20
0.638981
 30
0.0
 11
12.768941935485
 21
0.540312612903
 31
0.0
  0
LINE
  5
AD
330
1D
100
AcDbEntity
  8
0
100
AcDbLine
 10
12.5112
 20
0.638981
 30
0.0
 11
12.768941935485
 21
0.540312612903
 31
0.0
  0
LINE
  5
AE
330
1D
100
AcDbEntity
  8
0
100
AcDbLine
 10
12.5112
 20
0.638981
 30
0.0
 11
12.768941935485
 21
0.540312612903
 31
0.0
  0
LINE
  5
AF
330
1D
100
AcDbEntity
  8
0
100
AcDbLine
 10
12.5112
 20
0.638981
 30
0.0
 11
12.768941935485
 21
0.540312612903
 31
0.0
  0
LINE
  5
B0
330
1D
100
AcDbEntity
  8
0
100
AcDbLine
 10
12.5112
 20
0.638981
 30
0.0
 11
12.768941935485
 21
0.540312612903
 31
0.0
  0
LINE
  5
B1
330
1D
100
AcDbEntity
  8
0
100
AcDbLine
 10
12.768941935481
 20
0.540312612904
 30
0.0
 11
12.9107
 21
0.486034
 31
0.0
  0
LINE
  5
B2
330
1D
100
AcDbEntity
  8
0
100
AcDbLine
 10
12.76894193548
 20
0.540312612905
 30
0.0
 11
12.9107
 21
0.486034
 31
0.0
  0
LINE
  5
B3
330
1D
100
AcDbEntity
  8
0
100
AcDbLine
 10
12.76894193548
 20
0.540312612905
 30
0.0
 11
12.9107
 21
0.486034
 31
0.0
  0
LINE
  5
B4
330
1D
100
AcDbEntity
  8
0
100
AcDbLine
 10
12.76894193548
 20
0.540312612905
 30
0.0
 11
12.9107
 21
0.486034
 31
0.0
  0
LINE
  5
B5
330
1D
100
AcDbEntity
  8
0
100
AcDbLine
 10
12.76894193548
 20
0.540312612905
 30
0.0
 11
12.9107
 21
0.486034
 31
0.0
  0
LINE
  5
B6
330
1D
100
AcDbEntity
  8
0
100
AcDbLine
 10
12.76894193548
 20
0.540312612905
 30
0.0
 11
12.9107
 21
0.486034
 31
0.0
  0
LINE
  5
B7
330
1D
100
AcDbEntity
  8
0
100
AcDbLine
 10
12.76894193548
 20
0.540312612905
 30
0.0
 11
12.9107
 21
0.486034
 31
0.0
  0
LINE
  5
B8
330
1D
100
AcDbEntity
  8
0
100
AcDbLine
 10
12.76894193548
 20
0.540312612905
 30
0.0
 11
12.9107
 21
0.486034
 31
0.0
  0
LINE
  5
B9
330
1D
100
AcDbEntity
  8
0
100
AcDbLine
 10
12.76894193548
 20
0.540312612905
 30
0.0
 11
12.9107
 21
0.486034
 31
0.0
  0
LINE
  5
BA
330
1D
100
AcDbEntity
  8
0
100
AcDbLine
 10
12.76894193548
 20
0.540312612905
 30
0.0
 11
12.9107
 21
0.486034
 31
0.0
  0
LINE
  5
BB
330
1D
100
AcDbEntity
  8
0
100
AcDbLine
 10
12.76894193548
 20
0.540312612905
 30
0.0
 11
12.9107
 21
0.486034
 31
0.0
  0
LINE
  5
BC
330
1D
100
AcDbEntity
  8
0
100
AcDbLine
 10
12.768941935481
 20
0.540312612905
 30
0.0
 11
12.9107
 21
0.486034
 31
0.0
  0
LINE
  5
BD
330
1D
100
AcDbEntity
  8
0
100
AcDbLine
 10
12.768941935481
 20
0.540312612905
 30
0.0
 11
12.9107
 21
0.486034
 31
0.0
  0
LINE
  5
BE
330
1D
100
AcDbEntity
  8
0
100
AcDbLine
 10
12.9107
 20
0.486034
 30
0.0
 11
13.2211
 21
1.2734
 31
0.0
  0
LINE
  5
BF
330
1D
100
AcDbEntity
  8
0
100
AcDbLine
 10
12.768941935481
 20
0.540312612904
 30
0.0
 11
12.9107
 21
0.486034
 31
0.0
  0
LINE
  5
C0
330
1D
100
AcDbEntity
  8
0
100
AcDbLine
 10
12.768941935479
 20
0.540312612905
 30
0.0
 11
12.9107
 21
0.486034
 31
0.0
  0
LINE
  5
C1
330
1D
100
AcDbEntity
  8
0
100
AcDbLine
 10
12.768941935479
 20
0.540312612905
 30
0.0
 11
12.9107
 21
0.486034
 31
0.0
  0
LINE
  5
C2
330
1D
100
AcDbEntity
  8
0
100
AcDbLine
 10
12.768941935479
 20
0.540312612905
 30
0.0
 11
12.9107
 21
0.486034
 31
0.0
  0
LINE
  5
C3
330
1D
100
AcDbEntity
  8
0
100
AcDbLine
 10
12.768941935479
 20
0.540312612905
 30
0.0
 11
12.9107
 21
0.486034
 31
0.0
  0
LINE
  5
C4
330
1D
100
AcDbEntity
  8
0
100
AcDbLine
 10
16.5714
 20
0.679758
 30
0.0
 11
17.4286
 21
0.679758
 31
0.0
  0
LINE
  5
C7
330
1D
100
AcDbEntity
  8
0
100
AcDbLine
 10
17.4286
 20
0.679758
 30
0.0
 11
17.8571
 21
0.679764
 31
0.0
  0
LINE
  5
C8
330
1D
100
AcDbEntity
  8
0
100
AcDbLine
 10
16.1429
 20
0.679764
 30
0.0
 11
16.5714
 21
0.679758
 31
0.0
  0
LINE
  5
C9
330
1D
100
AcDbEntity
  8
0
100
AcDbLine
 10
17.4286
 20
0.67978
 30
0.0
 11
17.8571
 21
0.679775
 31
0.0
  0
LINE
  5
CA
330
1D
100
AcDbEntity
  8
0
100
AcDbLine
 10
16.5714
 20
0.67978
 30
0.0
 11
17.4286
 21
0.67978
 31
0.0
  0
LINE
  5
CB
330
1D
100
AcDbEntity
  8
0
100
AcDbLine
 10
16.1429
 20
0.679775
 30
0.0
 11
16.1429
 21
-0.164924
 31
0.0
  0
LINE
  5
CC
330
1D
100
AcDbEntity
  8
0
100
AcDbLine
 10
16.1429
 20
0.679775
 30
0.0
 11
16.5714
 21
0.67978
 31
0.0
  0
LINE
  5
CD
330
1D
100
AcDbEntity
  8
0
100
AcDbLine
 10
17.8571
 20
0.679764
 30
0.0
 11
17.8571
 21
-0.164934
 31
0.0
  0
LINE
  5
CE
330
1D
100
AcDbEntity
  8
0
100
AcDbLine
 10
12.768941935479
 20
0.540312612905
 30
0.0
 11
12.9107
 21
0.486034
 31
0.0
  0
LINE
  5
CF
330
1D
100
AcDbEntity
  8
0
100
AcDbLine
 10
12.768941935479
 20
0.540312612905
 30
0.0
 11
12.9107
 21
0.486034
 31
0.0
  0
LINE
  5
D0
330
1D
100
AcDbEntity
  8
0
100
AcDbLine
 10
12.768941935479
 20
0.540312612905
 30
0.0
 11
12.9107
 21
0.486034
 31
0.0
  0
LINE
  5
D1
330
1D
100
AcDbEntity
  8
0
100
AcDbLine
 10
12.768941935479
 20
0.540312612905
 30
0.0
 11
12.9107
 21
0.486034
 31
0.0
  0
LINE
  5
D2
330
1D
100
AcDbEntity
  8
0
100
AcDbLine
 10
12.5112
 20
0.638981
 30
0.0
 11
12.768941935485
 21
0.540312612903
 31
0.0
  0
LINE
  5
D3
330
1D
100
AcDbEntity
  8
0
100
AcDbLine
 10
12.5112
 20
0.638981
 30
0.0
 11
12.768941935485
 21
0.540312612903
 31
0.0
  0
LINE
  5
D4
330
1D
100
AcDbEntity
  8
0
100
AcDbLine
 10
16.1429
 20
0.453093026965
 30
0.0
 11
16.1429
 21
-0.164924
 31
0.0
  0
LINE
  5
D5
330
1D
100
AcDbEntity
  8
0
100
AcDbLine
 10
16.1429
 20
0.453093026965
 30
0.0
 11
16.1429
 21
-0.164934
 31
0.0
  0
LINE
  5
D6
330
1D
100
AcDbEntity
  8
0
100
AcDbLine
 10
16.1429
 20
0.453093026965
 30
0.0
 11
16.1429
 21
-0.164934
 31
0.0
  0
LINE
  5
D7
330
1D
100
AcDbEntity
  8
0
100
AcDbLine
 10
16.1429
 20
0.453093026965
 30
0.0
 11
16.1429
 21
-0.164924
 31
0.0
  0
LINE
  5
D8
330
1D
100
AcDbEntity
  8
0
100
AcDbLine
 10
16.1429
 20
0.453093026965
 30
0.0
 11
16.1429
 21
-0.164934
 31
0.0
  0
LINE
  5
D9
330
1D
100
AcDbEntity
  8
0
100
AcDbLine
 10
16.1429
 20
0.453093026965
 30
0.0
 11
16.1429
 21
-0.164924
 31
0.0
  0
LINE
  5
DA
330
1D
100
AcDbEntity
  8
0
100
AcDbLine
 10
16.1429
 20
0.453093026965
 30
0.0
 11
16.1429
 21
-0.164924
 31
0.0
  0
LINE
  5
DB
330
1D
100
AcDbEntity
  8
0
100
AcDbLine
 10
16.1429
 20
0.453093026965
 30
0.0
 11
16.1429
 21
-0.164934
 31
0.0
  0
LINE
  5
DC
330
1D
100
AcDbEntity
  8
0
100
AcDbLine
 10
16.1429
 20
0.453093026965
 30
0.0
 11
16.1429
 21
-0.164924
 31
0.0
  0
LINE
  5
DD
330
1D
100
AcDbEntity
  8
0
100
AcDbLine
 10
16.1429
 20
0.453093026965
 30
0.0
 11
16.1429
 21
-0.164924
 31
0.0
  0
LINE
  5
DE
330
1D
100
AcDbEntity
  8
0
100
AcDbLine
 10
16.1429
 20
0.453093026965
 30
0.0
 11
16.1429
 21
-0.164924
 31
0.0
  0
LINE
  5
DF
330
1D
100
AcDbEntity
  8
0
100
AcDbLine
 10
16.1429
 20
0.453093026965
 30
0.0
 11
16.1429
 21
-0.164934
 31
0.0
  0
LINE
  5
E0
330
1D
100
AcDbEntity
  8
0
100
AcDbLine
 10
16.1429
 20
0.453093026965
 30
0.0
 11
16.1429
 21
-0.164924
 31
0.0
  0
LINE
  5
E1
330
1D
100
AcDbEntity
  8
0
100
AcDbLine
 10
16.1429
 20
0.453093026965
 30
0.0
 11
16.1429
 21
-0.164924
 31
0.0
  0
LINE
  5
E2
330
1D
100
AcDbEntity
  8
0
100
AcDbLine
 10
16.1429
 20
0.453093026965
 30
0.0
 11
16.1429
 21
-0.164924
 31
0.0
  0
LINE
  5
E3
330
1D
100
AcDbEntity
  8
0
100
AcDbLine
 10
16.1429
 20
0.453093026965
 30
0.0
 11
16.1429
 21
-0.164934
 31
0.0
  0
LINE
  5
E4
330
1D
100
AcDbEntity
  8
0
100
AcDbLine
 10
16.1429
 20
0.453093026965
 30
0.0
 11
16.1429
 21
-0.164924
 31
0.0
  0
LINE
  5
E5
330
1D
100
AcDbEntity
  8
0
100
AcDbLine
 10
17.8571
 20
0.630967811847
 30
0.0
 11
20.0353
 21
0.934881
 31
0.0
  0
LINE
  5
E6
330
1D
100
AcDbEntity
  8
0
100
AcDbLine
 10
9.05604
 20
2.6645
 30
0.0
 11
9.64585
 21
3.27743
 31
0.0
  0
LINE
  5
E7
330
1D
100
AcDbEntity
  8
0
100
AcDbLine
 10
9.05604
 20
2.66447
 30
0.0
 11
9.64585
 21
3.2774
 31
0.0
  0
LINE
  5
E8
330
1D
100
AcDbEntity
  8
0
100
AcDbLine
 10
8.74507
 20
2.95505
 30
0.0
 11
9.05604
 21
2.66447
 31
0.0
  0
LINE
  5
E9
330
1D
100
AcDbEntity
  8
0
100
AcDbLine
 10
8.74507
 20
2.95507
 30
0.0
 11
9.05604
 21
2.6645
 31
0.0
  0
LINE
  5
EB
330
1D
100
AcDbEntity
  8
0
100
AcDbLine
 10
8.74507
 20
2.95505
 30
0.0
 11
9.05604
 21
2.66447
 31
0.0
  0
LINE
  5
EC
330
1D
100
AcDbEntity
  8
0
100
AcDbLine
 10
8.74507
 20
2.95505
 30
0.0
 11
9.05604
 21
2.66447
 31
0.0
  0
LINE
  5
ED
330
1D
100
AcDbEntity
  8
0
100
AcDbLine
 10
8.74507
 20
2.95505
 30
0.0
 11
9.05604
 21
2.66447
 31
0.0
  0
LINE
  5
EE
330
1D
100
AcDbEntity
  8
0
100
AcDbLine
 10
8.74507
 20
2.95505
 30
0.0
 11
9.05604
 21
2.66447
 31
0.0
  0
LINE
  5
EF
330
1D
100
AcDbEntity
  8
0
100
AcDbLine
 10
8.74507
 20
2.95505
 30
0.0
 11
9.05604
 21
2.66447
 31
0.0
  0
LINE
  5
F0
330
1D
100
AcDbEntity
  8
0
100
AcDbLine
 10
8.74507
 20
2.95505
 30
0.0
 11
9.05604
 21
2.66447
 31
0.0
  0
LINE
  5
F1
330
1D
100
AcDbEntity
  8
0
100
AcDbLine
 10
8.74507
 20
2.95505
 30
0.0
 11
9.05604
 21
2.66447
 31
0.0
  0
LINE
  5
F2
330
1D
100
AcDbEntity
  8
0
100
AcDbLine
 10
8.74507
 20
2.95505
 30
0.0
 11
9.05604
 21
2.66447
 31
0.0
  0
LINE
  5
F3
330
1D
100
AcDbEntity
  8
0
100
AcDbLine
 10
8.74507
 20
2.95505
 30
0.0
 11
9.05604
 21
2.66447
 31
0.0
  0
LINE
  5
F4
330
1D
100
AcDbEntity
  8
0
100
AcDbLine
 10
8.74507
 20
2.95505
 30
0.0
 11
9.05604
 21
2.66447
 31
0.0
  0
LINE
  5
F5
330
1D
100
AcDbEntity
  8
0
100
AcDbLine
 10
8.434094999996
 20
3.245715000003
 30
0.0
 11
8.74507
 21
2.95505
 31
0.0
  0
LINE
  5
F6
330
1D
100
AcDbEntity
  8
0
100
AcDbLine
 10
8.434094999996
 20
3.245715000003
 30
0.0
 11
8.74507
 21
2.95505
 31
0.0
  0
LINE
  5
F7
330
1D
100
AcDbEntity
  8
0
100
AcDbLine
 10
8.434094999996
 20
3.245715000003
 30
0.0
 11
8.74507
 21
2.95505
 31
0.0
  0
LINE
  5
F8
330
1D
100
AcDbEntity
  8
0
100
AcDbLine
 10
8.434094999996
 20
3.245715000003
 30
0.0
 11
8.74507
 21
2.95505
 31
0.0
  0
LINE
  5
F9
330
1D
100
AcDbEntity
  8
0
100
AcDbLine
 10
8.434094999996
 20
3.245715000003
 30
0.0
 11
8.74507
 21
2.95505
 31
0.0
  0
LINE
  5
FA
330
1D
100
AcDbEntity
  8
0
100
AcDbLine
 10
8.434094999996
 20
3.245715000003
 30
0.0
 11
8.74507
 21
2.95505
 31
0.0
  0
LINE
  5
FB
330
1D
100
AcDbEntity
  8
0
100
AcDbLine
 10
8.434094999996
 20
3.245715000003
 30
0.0
 11
8.74507
 21
2.95505
 31
0.0
  0
LINE
  5
FC
330
1D
100
AcDbEntity
  8
0
100
AcDbLine
 10
8.434094999996
 20
3.245715000003
 30
0.0
 11
8.74507
 21
2.95505
 31
0.0
  0
LINE
  5
FD
330
1D
100
AcDbEntity
  8
0
100
AcDbLine
 10
8.434094999996
 20
3.245715000003
 30
0.0
 11
8.74507
 21
2.95505
 31
0.0
  0
LINE
  5
FE
330
1D
100
AcDbEntity
  8
0
100
AcDbLine
 10
7.81215
 20
3.82695
 30
0.0
 11
7.998732000001
 21
3.652607999999
 31
0.0
  0
LINE
  5
FF
330
1D
100
AcDbEntity
  8
0
100
AcDbLine
 10
7.81215
 20
3.82695
 30
0.0
 11
7.998732000001
 21
3.652607999999
 31
0.0
  0
LINE
  5
100
330
1D
100
AcDbEntity
  8
0
100
AcDbLine
 10
7.81215
 20
3.82695
 30
0.0
 11
7.998732000001
 21
3.652607999999
 31
0.0
  0
LINE
  5
101
330
1D
100
AcDbEntity
  8
0
100
AcDbLine
 10
7.81215
 20
3.82695
 30
0.0
 11
7.998732000001
 21
3.652607999999
 31
0.0
  0
LINE
  5
102
330
1D
100
AcDbEntity
  8
0
100
AcDbLine
 10
7.81215
 20
3.82695
 30
0.0
 11
7.998732000001
 21
3.652607999999
 31
0.0
  0
LINE
  5
103
330
1D
100
AcDbEntity
  8
0
100
AcDbLine
 10
7.81215
 20
3.82695
 30
0.0
 11
7.998732000001
 21
3.652607999999
 31
0.0
  0
LINE
  5
104
330
1D
100
AcDbEntity
  8
0
100
AcDbLine
 10
7.81215
 20
3.82695
 30
0.0
 11
7.998732000004
 21
3.652607999996
 31
0.0
  0
LINE
  5
105
330
1D
100
AcDbEntity
  8
0
100
AcDbLine
 10
7.81215
 20
3.82695
 30
0.0
 11
7.998732000004
 21
3.652607999996
 31
0.0
  0
LINE
  5
106
330
1D
100
AcDbEntity
  8
0
100
AcDbLine
 10
7.81215
 20
3.82695
 30
0.0
 11
7.998732000001
 21
3.652607999999
 31
0.0
  0
LINE
  5
107
330
1D
100
AcDbEntity
  8
0
100
AcDbLine
 10
7.81215
 20
3.82695
 30
0.0
 11
7.998732000001
 21
3.652607999999
 31
0.0
  0
LINE
  5
108
330
1D
100
AcDbEntity
  8
0
100
AcDbLine
 10
7.81215
 20
3.82695
 30
0.0
 11
7.998732000003
 21
3.652607999997
 31
0.0
  0
LINE
  5
109
330
1D
100
AcDbEntity
  8
0
100
AcDbLine
 10
7.81215
 20
3.82695
 30
0.0
 11
7.998732000003
 21
3.652607999997
 31
0.0
  0
LINE
  5
10A
330
1D
100
AcDbEntity
  8
0
100
AcDbLine
 10
7.81215
 20
3.82695
 30
0.0
 11
7.998732000001
 21
3.652607999999
 31
0.0
  0
LINE
  5
10B
330
1D
100
AcDbEntity
  8
0
100
AcDbLine
 10
7.81215
 20
3.82695
 30
0.0
 11
7.998732
 21
3.652608
 31
0.0
  0
LINE
  5
10C
330
1D
100
AcDbEntity
  8
0
100
AcDbLine
 10
7.81215
 20
3.82695
 30
0.0
 11
7.998732000001
 21
3.652607999999
 31
0.0
  0
LINE
  5
10D
330
1D
100
AcDbEntity
  8
0
100
AcDbLine
 10
7.81215
 20
3.82695
 30
0.0
 11
7.998732000001
 21
3.652607999999
 31
0.0
  0
LINE
  5
10E
330
1D
100
AcDbEntity
  8
0
100
AcDbLine
 10
7.81215
 20
3.82695
 30
0.0
 11
7.998732000001
 21
3.652607999999
 31
0.0
  0
LINE
  5
10F
330
1D
100
AcDbEntity
  8
0
100
AcDbLine
 10
7.81215
 20
3.82695
 30
0.0
 11
7.998732
 21
3.652608
 31
0.0
  0
LINE
  5
110
330
1D
100
AcDbEntity
  8
0
100
AcDbLine
 10
7.81215
 20
3.82695
 30
0.0
 11
7.998732000003
 21
3.652607999997
 31
0.0
  0
LINE
  5
111
330
1D
100
AcDbEntity
  8
0
100
AcDbLine
 10
7.81215
 20
3.82695
 30
0.0
 11
7.998732000003
 21
3.652607999997
 31
0.0
  0
LINE
  5
112
330
1D
100
AcDbEntity
  8
0
100
AcDbLine
 10
7.81215
 20
3.82695
 30
0.0
 11
7.998732000001
 21
3.652607999999
 31
0.0
  0
LINE
  5
113
330
1D
100
AcDbEntity
  8
0
100
AcDbLine
 10
7.81215
 20
3.82695
 30
0.0
 11
7.998732000001
 21
3.652607999999
 31
0.0
  0
LINE
  5
114
330
1D
100
AcDbEntity
  8
0
100
AcDbLine
 10
7.81215
 20
3.82698
 30
0.0
 11
8.40196
 21
4.43992
 31
0.0
  0
LINE
  5
115
330
1D
100
AcDbEntity
  8
0
100
AcDbLine
 10
7.81215
 20
3.82698
 30
0.0
 11
8.12312
 21
3.53636
 31
0.0
  0
LINE
  5
116
330
1D
100
AcDbEntity
  8
0
100
AcDbLine
 10
7.81215
 20
3.82698
 30
0.0
 11
8.228613256781
 21
4.259775287654
 31
0.0
  0
LINE
  5
117
330
1D
100
AcDbEntity
  8
0
100
AcDbLine
 10
7.998732
 20
3.652608
 30
0.0
 11
8.12312
 21
3.53636
 31
0.0
  0
LINE
  5
118
330
1D
100
AcDbEntity
  8
0
100
AcDbLine
 10
7.998732000001
 20
3.652607999999
 30
0.0
 11
8.12312
 21
3.53636
 31
0.0
  0
LINE
  5
11A
330
1D
100
AcDbEntity
  8
0
100
AcDbLine
 10
8.12312
 20
3.53636
 30
0.0
 11
8.74507
 21
2.95507
 31
0.0
  0
LINE
  5
11B
330
1D
100
AcDbEntity
  8
0
100
AcDbLine
 10
8.12312
 20
3.53636
 30
0.0
 11
8.434094999996
 21
3.245715000003
 31
0.0
  0
LINE
  5
11C
330
1D
100
AcDbEntity
  8
0
100
AcDbLine
 10
8.12312
 20
3.53636
 30
0.0
 11
8.434095000004
 21
3.245714999997
 31
0.0
  0
LINE
  5
11D
330
1D
100
AcDbEntity
  8
0
100
AcDbLine
 10
8.12312
 20
3.53636
 30
0.0
 11
8.434094999996
 21
3.245715000003
 31
0.0
  0
LINE
  5
11E
330
1D
100
AcDbEntity
  8
0
100
AcDbLine
 10
7.998732000001
 20
3.652607999999
 30
0.0
 11
8.12312
 21
3.53636
 31
0.0
  0
LINE
  5
11F
330
1D
100
AcDbEntity
  8
0
100
AcDbLine
 10
7.998732000001
 20
3.652607999999
 30
0.0
 11
8.12312
 21
3.53636
 31
0.0
  0
LINE
  5
120
330
1D
100
AcDbEntity
  8
0
100
AcDbLine
 10
7.998732000001
 20
3.652607999999
 30
0.0
 11
8.12312
 21
3.53636
 31
0.0
  0
LINE
  5
121
330
1D
100
AcDbEntity
  8
0
100
AcDbLine
 10
8.12312
 20
3.53636
 30
0.0
 11
8.434095000004
 21
3.245714999996
 31
0.0
  0
LINE
  5
122
330
1D
100
AcDbEntity
  8
0
100
AcDbLine
 10
8.12312
 20
3.53636
 30
0.0
 11
8.434095000005
 21
3.245714999996
 31
0.0
  0
LINE
  5
123
330
1D
100
AcDbEntity
  8
0
100
AcDbLine
 10
8.12312
 20
3.53636
 30
0.0
 11
8.434094999995
 21
3.245715000004
 31
0.0
  0
LINE
  5
124
330
1D
100
AcDbEntity
  8
0
100
AcDbLine
 10
8.12312
 20
3.53636
 30
0.0
 11
8.434094999996
 21
3.245715000003
 31
0.0
  0
LINE
  5
125
330
1D
100
AcDbEntity
  8
0
100
AcDbLine
 10
8.12312
 20
3.53636
 30
0.0
 11
8.434095000004
 21
3.245714999996
 31
0.0
  0
LINE
  5
126
330
1D
100
AcDbEntity
  8
0
100
AcDbLine
 10
8.12312
 20
3.53636
 30
0.0
 11
8.434095000005
 21
3.245714999996
 31
0.0
  0
LINE
  5
127
330
1D
100
AcDbEntity
  8
0
100
AcDbLine
 10
8.12312
 20
3.53636
 30
0.0
 11
8.434094999995
 21
3.245715000004
 31
0.0
  0
LINE
  5
128
330
1D
100
AcDbEntity
  8
0
100
AcDbLine
 10
8.12312
 20
3.53636
 30
0.0
 11
8.434094999996
 21
3.245715000003
 31
0.0
  0
LINE
  5
129
330
1D
100
AcDbEntity
  8
0
100
AcDbLine
 10
8.12312
 20
3.53636
 30
0.0
 11
8.434095000004
 21
3.245714999996
 31
0.0
  0
LINE
  5
12A
330
1D
100
AcDbEntity
  8
0
100
AcDbLine
 10
7.998732000001
 20
3.652607999999
 30
0.0
 11
8.12312
 21
3.53636
 31
0.0
  0
LINE
  5
12B
330
1D
100
AcDbEntity
  8
0
100
AcDbLine
 10
8.12312
 20
3.53636
 30
0.0
 11
8.434094999996
 21
3.245715000003
 31
0.0
  0
LINE
  5
12C
330
1D
100
AcDbEntity
  8
0
100
AcDbLine
 10
8.12312
 20
3.53636
 30
0.0
 11
8.434094999996
 21
3.245715000004
 31
0.0
  0
LINE
  5
12D
330
1D
100
AcDbEntity
  8
0
100
AcDbLine
 10
8.12312
 20
3.53636
 30
0.0
 11
8.434095000004
 21
3.245714999996
 31
0.0
  0
LINE
  5
12E
330
1D
100
AcDbEntity
  8
0
100
AcDbLine
 10
8.12312
 20
3.53636
 30
0.0
 11
8.434095000004
 21
3.245714999996
 31
0.0
  0
LINE
  5
12F
330
1D
100
AcDbEntity
  8
0
100
AcDbLine
 10
8.434094999995
 20
3.245715000004
 30
0.0
 11
8.74507
 21
2.95505
 31
0.0
  0
LINE
  5
130
330
1D
100
AcDbEntity
  8
0
100
AcDbLine
 10
8.434094999995
 20
3.245715000004
 30
0.0
 11
8.74507
 21
2.95505
 31
0.0
  0
LINE
  5
131
330
1D
100
AcDbEntity
  8
0
100
AcDbLine
 10
8.434094999995
 20
3.245715000004
 30
0.0
 11
8.74507
 21
2.95505
 31
0.0
  0
LINE
  5
132
330
1D
100
AcDbEntity
  8
0
100
AcDbLine
 10
8.434094999995
 20
3.245715000004
 30
0.0
 11
8.74507
 21
2.95505
 31
0.0
  0
LINE
  5
133
330
1D
100
AcDbEntity
  8
0
100
AcDbLine
 10
8.434094999987
 20
3.245715000012
 30
0.0
 11
8.74507
 21
2.95505
 31
0.0
  0
LINE
  5
134
330
1D
100
AcDbEntity
  8
0
100
AcDbLine
 10
8.434094999995
 20
3.245715000004
 30
0.0
 11
8.74507
 21
2.95505
 31
0.0
  0
LINE
  5
135
330
1D
100
AcDbEntity
  8
0
100
AcDbLine
 10
8.434094999996
 20
3.245715000004
 30
0.0
 11
8.74507
 21
2.95505
 31
0.0
  0
LINE
  5
136
330
1D
100
AcDbEntity
  8
0
100
AcDbLine
 10
8.434094999996
 20
3.245715000004
 30
0.0
 11
8.74507
 21
2.95505
 31
0.0
  0
LINE
  5
137
330
1D
100
AcDbEntity
  8
0
100
AcDbLine
 10
8.434094999995
 20
3.245715000004
 30
0.0
 11
8.74507
 21
2.95505
 31
0.0
  0
LINE
  5
138
330
1D
100
AcDbEntity
  8
0
100
AcDbLine
 10
8.434094999987
 20
3.245715000012
 30
0.0
 11
8.74507
 21
2.95505
 31
0.0
  0
LINE
  5
139
330
1D
100
AcDbEntity
  8
0
100
AcDbLine
 10
9.33488
 20
3.568
 30
0.0
 11
9.64585
 21
3.27743
 31
0.0
  0
LINE
  5
13A
330
1D
100
AcDbEntity
  8
0
100
AcDbLine
 10
8.434094999987
 20
3.245715000012
 30
0.0
 11
8.74507
 21
2.95505
 31
0.0
  0
LINE
  5
13B
330
1D
100
AcDbEntity
  8
0
100
AcDbLine
 10
8.434094999987
 20
3.245715000012
 30
0.0
 11
8.74507
 21
2.95505
 31
0.0
  0
LINE
  5
13C
330
1D
100
AcDbEntity
  8
0
100
AcDbLine
 10
8.434094999987
 20
3.245715000012
 30
0.0
 11
8.74507
 21
2.95505
 31
0.0
  0
LINE
  5
13D
330
1D
100
AcDbEntity
  8
0
100
AcDbLine
 10
8.434094999987
 20
3.245715000012
 30
0.0
 11
8.74507
 21
2.95505
 31
0.0
  0
LINE
  5
13E
330
1D
100
AcDbEntity
  8
0
100
AcDbLine
 10
8.12312
 20
3.53636
 30
0.0
 11
8.434094999996
 21
3.245715000003
 31
0.0
  0
LINE
  5
13F
330
1D
100
AcDbEntity
  8
0
100
AcDbLine
 10
8.12312
 20
3.53636
 30
0.0
 11
8.434094999996
 21
3.245715000004
 31
0.0
  0
LINE
  5
140
330
1D
100
AcDbEntity
  8
0
100
AcDbLine
 10
7.998731999997
 20
3.652608000002
 30
0.0
 11
8.12312
 21
3.53636
 31
0.0
  0
LINE
  5
141
330
1D
100
AcDbEntity
  8
0
100
AcDbLine
 10
7.998731999997
 20
3.652608000003
 30
0.0
 11
8.12312
 21
3.53636
 31
0.0
  0
LINE
  5
142
330
1D
100
AcDbEntity
  8
0
100
AcDbLine
 10
7.998731999997
 20
3.652608000002
 30
0.0
 11
8.12312
 21
3.53636
 31
0.0
  0
LINE
  5
143
330
1D
100
AcDbEntity
  8
0
100
AcDbLine
 10
7.998731999997
 20
3.652608000003
 30
0.0
 11
8.12312
 21
3.53636
 31
0.0
  0
LINE
  5
144
330
1D
100
AcDbEntity
  8
0
100
AcDbLine
 10
7.998731999997
 20
3.652608000003
 30
0.0
 11
8.12312
 21
3.53636
 31
0.0
  0
LINE
  5
145
330
1D
100
AcDbEntity
  8
0
100
AcDbLine
 10
7.998731999997
 20
3.652608000003
 30
0.0
 11
8.12312
 21
3.53636
 31
0.0
  0
LINE
  5
146
330
1D
100
AcDbEntity
  8
0
100
AcDbLine
 10
7.998731999997
 20
3.652608000003
 30
0.0
 11
8.12312
 21
3.53636
 31
0.0
  0
LINE
  5
147
330
1D
100
AcDbEntity
  8
0
100
AcDbLine
 10
7.998731999997
 20
3.652608000003
 30
0.0
 11
8.12312
 21
3.53636
 31
0.0
  0
LINE
  5
148
330
1D
100
AcDbEntity
  8
0
100
AcDbLine
 10
8.71293
 20
4.14934
 30
0.0
 11
9.33488
 21
3.568
 31
0.0
  0
LINE
  5
149
330
1D
100
AcDbEntity
  8
0
100
AcDbLine
 10
8.40196
 20
4.43992
 30
0.0
 11
8.71293
 21
4.14934
 31
0.0
  0
LINE
  5
14A
330
1D
100
AcDbEntity
  8
0
100
AcDbLine
 10
7.998731999999
 20
3.652608000001
 30
0.0
 11
8.12312
 21
3.53636
 31
0.0
  0
LINE
  5
14B
330
1D
100
AcDbEntity
  8
0
100
AcDbLine
 10
7.998731999999
 20
3.652608000001
 30
0.0
 11
8.12312
 21
3.53636
 31
0.0
  0
LINE
  5
14C
330
1D
100
AcDbEntity
  8
0
100
AcDbLine
 10
7.998731999999
 20
3.652608000001
 30
0.0
 11
8.12312
 21
3.53636
 31
0.0
  0
LINE
  5
14D
330
1D
100
AcDbEntity
  8
0
100
AcDbLine
 10
7.81215
 20
3.82695
 30
0.0
 11
7.998732000001
 21
3.652607999999
 31
0.0
  0
LINE
  5
14E
330
1D
100
AcDbEntity
  8
0
100
AcDbLine
 10
7.81215
 20
3.82695
 30
0.0
 11
7.998732
 21
3.652608
 31
0.0
  0
LINE
  5
14F
330
1D
100
AcDbEntity
  8
0
100
AcDbLine
 10
8.434094999996
 20
3.245715000004
 30
0.0
 11
8.74507
 21
2.95505
 31
0.0
  0
LINE
  5
150
330
1D
100
AcDbEntity
  8
0
100
AcDbLine
 10
9.60557012153
 20
3.235541187992
 30
0.0
 11
11.1059
 21
2.09958
 31
0.0
  0
LINE
  5
151
330
1D
100
AcDbEntity
  8
0
100
AcDbLine
 10
5.6
 20
9.29958
 30
0.0
 11
6.76471
 21
6.44078
 31
0.0
  0
LINE
  5
152
330
1D
100
AcDbEntity
  8
0
100
AcDbLine
 10
6.76471
 20
6.44078
 30
0.0
 11
8.333499554042
 21
4.368774807912
 31
0.0
  0
LINE
  5
153
330
1D
100
AcDbEntity
  8
0
100
AcDbLine
 10
6.76471
 20
6.44078
 30
0.0
 11
8.333499554042
 21
4.368774807912
 31
0.0
  0
LINE
  5
154
330
1D
100
AcDbEntity
  8
0
100
AcDbLine
 10
6.62353
 20
6.37018
 30
0.0
 11
8.228613256781
 21
4.259775287654
 31
0.0
  0
LINE
  5
155
330
1D
100
AcDbEntity
  8
0
100
AcDbLine
 10
6.62353
 20
6.37018
 30
0.0
 11
8.228613256781
 21
4.259775287654
 31
0.0
  0
LINE
  5
156
330
1D
100
AcDbEntity
  8
0
100
AcDbLine
 10
5.42353
 20
9.26428
 30
0.0
 11
6.62353
 21
6.37018
 31
0.0
  0
LINE
  5
157
330
1D
100
AcDbEntity
  8
0
100
AcDbLine
 10
9.500137456566
 20
3.125975661235
 30
0.0
 11
11.0353
 21
1.95838
 31
0.0
  0
LINE
  5
158
330
1D
100
AcDbEntity
  8
0
100
AcDbLine
 10
12.111699999997
 20
0.791931000001
 30
0.0
 11
12.5112
 21
0.638981
 31
0.0
  0
LINE
  5
159
330
1D
100
AcDbEntity
  8
0
100
AcDbLine
 10
12.111699999997
 20
0.791931000001
 30
0.0
 11
12.5112
 21
0.638981
 31
0.0
  0
LINE
  5
15A
330
1D
100
AcDbEntity
  8
0
100
AcDbLine
 10
12.111699999997
 20
0.791931000001
 30
0.0
 11
12.5112
 21
0.638981
 31
0.0
  0
LINE
  5
15B
330
1D
100
AcDbEntity
  8
0
100
AcDbLine
 10
12.111699999997
 20
0.791931000001
 30
0.0
 11
12.5112
 21
0.638981
 31
0.0
  0
LINE
  5
15C
330
1D
100
AcDbEntity
  8
0
100
AcDbLine
 10
12.111699999997
 20
0.791931000001
 30
0.0
 11
12.5112
 21
0.638981
 31
0.0
  0
LINE
  5
15D
330
1D
100
AcDbEntity
  8
0
100
AcDbLine
 10
12.111699999997
 20
0.791931000001
 30
0.0
 11
12.5112
 21
0.638981
 31
0.0
  0
LINE
  5
15E
330
1D
100
AcDbEntity
  8
0
100
AcDbLine
 10
12.111699999997
 20
0.791931000001
 30
0.0
 11
12.5112
 21
0.638981
 31
0.0
  0
LINE
  5
15F
330
1D
100
AcDbEntity
  8
0
100
AcDbLine
 10
12.111699999997
 20
0.791931000001
 30
0.0
 11
12.5112
 21
0.638981
 31
0.0
  0
LINE
  5
160
330
1D
100
AcDbEntity
  8
0
100
AcDbLine
 10
12.111699999999
 20
0.791931
 30
0.0
 11
12.5112
 21
0.638981
 31
0.0
  0
LINE
  5
161
330
1D
100
AcDbEntity
  8
0
100
AcDbLine
 10
12.111699999999
 20
0.791931000001
 30
0.0
 11
12.5112
 21
0.638981
 31
0.0
  0
LINE
  5
162
330
1D
100
AcDbEntity
  8
0
100
AcDbLine
 10
12.111699999998
 20
0.791931000001
 30
0.0
 11
12.5112
 21
0.638981
 31
0.0
  0
LINE
  5
163
330
1D
100
AcDbEntity
  8
0
100
AcDbLine
 10
12.111699999999
 20
0.791931000001
 30
0.0
 11
12.5112
 21
0.638981
 31
0.0
  0
LINE
  5
164
330
1D
100
AcDbEntity
  8
0
100
AcDbLine
 10
12.111699999997
 20
0.791931000001
 30
0.0
 11
12.5112
 21
0.638981
 31
0.0
  0
LINE
  5
165
330
1D
100
AcDbEntity
  8
0
100
AcDbLine
 10
12.111699999997
 20
0.791931000001
 30
0.0
 11
12.5112
 21
0.638981
 31
0.0
  0
LINE
  5
166
330
1D
100
AcDbEntity
  8
0
100
AcDbLine
 10
12.111699999997
 20
0.791931000001
 30
0.0
 11
12.5112
 21
0.638981
 31
0.0
  0
LINE
  5
167
330
1D
100
AcDbEntity
  8
0
100
AcDbLine
 10
12.111699999997
 20
0.791931000001
 30
0.0
 11
12.5112
 21
0.638981
 31
0.0
  0
LINE
  5
168
330
1D
100
AcDbEntity
  8
0
100
AcDbLine
 10
12.111699999997
 20
0.791931000001
 30
0.0
 11
12.5112
 21
0.638981
 31
0.0
  0
LINE
  5
169
330
1D
100
AcDbEntity
  8
0
100
AcDbLine
 10
12.111699999997
 20
0.791931000001
 30
0.0
 11
12.5112
 21
0.638981
 31
0.0
  0
LINE
  5
16A
330
1D
100
AcDbEntity
  8
0
100
AcDbLine
 10
12.111699999997
 20
0.791931000001
 30
0.0
 11
12.5112
 21
0.638981
 31
0.0
  0
LINE
  5
16B
330
1D
100
AcDbEntity
  8
0
100
AcDbLine
 10
12.111699999997
 20
0.791931000001
 30
0.0
 11
12.5112
 21
0.638981
 31
0.0
  0
LINE
  5
16C
330
1D
100
AcDbEntity
  8
0
100
AcDbLine
 10
12.111699999997
 20
0.791931000001
 30
0.0
 11
12.5112
 21
0.638981
 31
0.0
  0
LINE
  5
16D
330
1D
100
AcDbEntity
  8
0
100
AcDbLine
 10
12.111699999997
 20
0.791931000001
 30
0.0
 11
12.5112
 21
0.638981
 31
0.0
  0
LINE
  5
16E
330
1D
100
AcDbEntity
  8
0
100
AcDbLine
 10
12.111699999997
 20
0.791931000001
 30
0.0
 11
12.5112
 21
0.638981
 31
0.0
  0
LINE
  5
16F
330
1D
100
AcDbEntity
  8
0
100
AcDbLine
 10
12.111699999997
 20
0.791931000001
 30
0.0
 11
12.5112
 21
0.638981
 31
0.0
  0
LINE
  5
170
330
1D
100
AcDbEntity
  8
0
100
AcDbLine
 10
11.7122
 20
0.944861
 30
0.0
 11
12.5112
 21
0.639001
 31
0.0
  0
LINE
  5
172
330
1D
100
AcDbEntity
  8
0
100
AcDbLine
 10
11.7122
 20
0.944861
 30
0.0
 11
12.111700000006
 21
0.791930999998
 31
0.0
  0
LINE
  5
173
330
1D
100
AcDbEntity
  8
0
100
AcDbLine
 10
11.7122
 20
0.944861
 30
0.0
 11
12.111700000005
 21
0.791930999998
 31
0.0
  0
LINE
  5
174
330
1D
100
AcDbEntity
  8
0
100
AcDbLine
 10
11.7122
 20
0.944861
 30
0.0
 11
12.111700000005
 21
0.791930999998
 31
0.0
  0
LINE
  5
175
330
1D
100
AcDbEntity
  8
0
100
AcDbLine
 10
11.7122
 20
0.944861
 30
0.0
 11
12.111700000006
 21
0.791930999998
 31
0.0
  0
LINE
  5
176
330
1D
100
AcDbEntity
  8
0
100
AcDbLine
 10
11.7122
 20
0.944861
 30
0.0
 11
12.111700000006
 21
0.791930999998
 31
0.0
  0
LINE
  5
177
330
1D
100
AcDbEntity
  8
0
100
AcDbLine
 10
11.7122
 20
0.944861
 30
0.0
 11
12.111700000005
 21
0.791930999998
 31
0.0
  0
LINE
  5
178
330
1D
100
AcDbEntity
  8
0
100
AcDbLine
 10
11.7122
 20
0.944861
 30
0.0
 11
12.111700000006
 21
0.791930999998
 31
0.0
  0
LINE
  5
179
330
1D
100
AcDbEntity
  8
0
100
AcDbLine
 10
11.7122
 20
0.944861
 30
0.0
 11
12.111700000006
 21
0.791930999998
 31
0.0
  0
LINE
  5
17A
330
1D
100
AcDbEntity
  8
0
100
AcDbLine
 10
11.7122
 20
0.944861
 30
0.0
 11
12.111700000007
 21
0.791930999997
 31
0.0
  0
LINE
  5
17B
330
1D
100
AcDbEntity
  8
0
100
AcDbLine
 10
11.7122
 20
0.944861
 30
0.0
 11
12.111700000007
 21
0.791930999997
 31
0.0
  0
LINE
  5
17C
330
1D
100
AcDbEntity
  8
0
100
AcDbLine
 10
11.7122
 20
0.944861
 30
0.0
 11
12.111700000006
 21
0.791930999998
 31
0.0
  0
LINE
  5
17D
330
1D
100
AcDbEntity
  8
0
100
AcDbLine
 10
11.7122
 20
0.944861
 30
0.0
 11
12.111700000005
 21
0.791930999998
 31
0.0
  0
LINE
  5
17E
330
1D
100
AcDbEntity
  8
0
100
AcDbLine
 10
11.7122
 20
0.944861
 30
0.0
 11
12.111700000007
 21
0.791930999997
 31
0.0
  0
LINE
  5
17F
330
1D
100
AcDbEntity
  8
0
100
AcDbLine
 10
11.7122
 20
0.944861
 30
0.0
 11
12.111700000007
 21
0.791930999997
 31
0.0
  0
LINE
  5
180
330
1D
100
AcDbEntity
  8
0
100
AcDbLine
 10
11.7122
 20
0.944861
 30
0.0
 11
12.111700000004
 21
0.791930999998
 31
0.0
  0
LINE
  5
181
330
1D
100
AcDbEntity
  8
0
100
AcDbLine
 10
11.7122
 20
0.944861
 30
0.0
 11
12.111700000004
 21
0.791930999998
 31
0.0
  0
LINE
  5
182
330
1D
100
AcDbEntity
  8
0
100
AcDbLine
 10
11.7122
 20
0.944861
 30
0.0
 11
12.111700000007
 21
0.791930999997
 31
0.0
  0
LINE
  5
183
330
1D
100
AcDbEntity
  8
0
100
AcDbLine
 10
11.7122
 20
0.944861
 30
0.0
 11
12.111700000007
 21
0.791930999997
 31
0.0
  0
LINE
  5
184
330
1D
100
AcDbEntity
  8
0
100
AcDbLine
 10
11.7122
 20
0.944861
 30
0.0
 11
12.111700000004
 21
0.791930999998
 31
0.0
  0
LINE
  5
185
330
1D
100
AcDbEntity
  8
0
100
AcDbLine
 10
11.7122
 20
0.944861
 30
0.0
 11
12.111700000004
 21
0.791930999998
 31
0.0
  0
LINE
  5
186
330
1D
100
AcDbEntity
  8
0
100
AcDbLine
 10
11.7122
 20
0.944861
 30
0.0
 11
12.111700000007
 21
0.791930999997
 31
0.0
  0
LINE
  5
187
330
1D
100
AcDbEntity
  8
0
100
AcDbLine
 10
11.7122
 20
0.944861
 30
0.0
 11
12.111700000007
 21
0.791930999997
 31
0.0
  0
LINE
  5
188
330
1D
100
AcDbEntity
  8
0
100
AcDbLine
 10
13.9647
 20
0.934881
 30
0.0
 11
16.1429
 21
0.630967811847
 31
0.0
  0
LINE
  5
189
330
1D
100
AcDbEntity
  8
0
100
AcDbLine
 10
20.0353
 20
0.934881
 30
0.0
 11
20.791064957836
 21
1.242785956844
 31
0.0
  0
LINE
  5
18A
330
1D
100
AcDbEntity
  8
0
100
AcDbLine
 10
20.0353
 20
0.934881
 30
0.0
 11
20.791064957836
 21
1.242785956844
 31
0.0
  0
LINE
  5
18B
330
1D
100
AcDbEntity
  8
0
100
AcDbLine
 10
11.1059
 20
2.09958
 30
0.0
 11
11.770973282273
 21
1.828623589342
 31
0.0
  0
LINE
  5
18C
330
1D
100
AcDbEntity
  8
0
100
AcDbLine
 10
11.1059
 20
2.09958
 30
0.0
 11
11.770973282273
 21
1.828623589342
 31
0.0
  0
LINE
  5
18D
330
1D
100
AcDbEntity
  8
0
100
AcDbLine
 10
11.3127
 20
1.097801
 30
0.0
 11
11.7122
 21
0.944861
 31
0.0
  0
LINE
  5
18E
330
1D
100
AcDbEntity
  8
0
100
AcDbLine
 10
11.3127
 20
1.097801
 30
0.0
 11
11.7122
 21
0.944861
 31
0.0
  0
LINE
  5
18F
330
1D
100
AcDbEntity
  8
0
100
AcDbLine
 10
11.3127
 20
1.097801
 30
0.0
 11
11.7122
 21
0.944861
 31
0.0
  0
LINE
  5
190
330
1D
100
AcDbEntity
  8
0
100
AcDbLine
 10
11.3127
 20
1.097801
 30
0.0
 11
11.7122
 21
0.944861
 31
0.0
  0
LINE
  5
191
330
1D
100
AcDbEntity
  8
0
100
AcDbLine
 10
11.3127
 20
1.097801
 30
0.0
 11
11.6231
 21
1.88523
 31
0.0
  0
LINE
  5
192
330
1D
100
AcDbEntity
  8
0
100
AcDbLine
 10
11.3127
 20
1.097801
 30
0.0
 11
11.7122
 21
0.944861
 31
0.0
  0
LINE
  5
193
330
1D
100
AcDbEntity
  8
0
100
AcDbLine
 10
11.3127
 20
1.097801
 30
0.0
 11
11.7122
 21
0.944861
 31
0.0
  0
LINE
  5
194
330
1D
100
AcDbEntity
  8
0
100
AcDbLine
 10
11.3127
 20
1.097801
 30
0.0
 11
11.7122
 21
0.944861
 31
0.0
  0
LINE
  5
195
330
1D
100
AcDbEntity
  8
0
100
AcDbLine
 10
11.3127
 20
1.097801
 30
0.0
 11
11.7122
 21
0.944861
 31
0.0
  0
LINE
  5
196
330
1D
100
AcDbEntity
  8
0
100
AcDbLine
 10
11.3127
 20
1.097801
 30
0.0
 11
11.7122
 21
0.944861
 31
0.0
  0
LINE
  5
197
330
1D
100
AcDbEntity
  8
0
100
AcDbLine
 10
11.3127
 20
1.097801
 30
0.0
 11
11.7122
 21
0.944861
 31
0.0
  0
LINE
  5
198
330
1D
100
AcDbEntity
  8
0
100
AcDbLine
 10
11.3127
 20
1.097801
 30
0.0
 11
11.7122
 21
0.944861
 31
0.0
  0
LINE
  5
199
330
1D
100
AcDbEntity
  8
0
100
AcDbLine
 10
11.3127
 20
1.097801
 30
0.0
 11
11.7122
 21
0.944861
 31
0.0
  0
LINE
  5
19A
330
1D
100
AcDbEntity
  8
0
100
AcDbLine
 10
11.3127
 20
1.097811
 30
0.0
 11
11.6231
 21
1.88524
 31
0.0
  0
LINE
  5
19B
330
1D
100
AcDbEntity
  8
0
100
AcDbLine
 10
13.209017853589
 20
1.242752218778
 30
0.0
 11
13.9647
 21
0.934881
 31
0.0
  0
LINE
  5
19C
330
1D
100
AcDbEntity
  8
0
100
AcDbLine
 10
12.8216
 20
1.42642
 30
0.0
 11
13.2211
 21
1.27341
 31
0.0
  0
LINE
  5
19D
330
1D
100
AcDbEntity
  8
0
100
AcDbLine
 10
12.422099999997
 20
1.579350000001
 30
0.0
 11
12.8216
 21
1.42642
 31
0.0
  0
LINE
  5
19E
330
1D
100
AcDbEntity
  8
0
100
AcDbLine
 10
12.8216
 20
1.4264
 30
0.0
 11
13.2211
 21
1.2734
 31
0.0
  0
LINE
  5
19F
330
1D
100
AcDbEntity
  8
0
100
AcDbLine
 10
12.0226
 20
1.7323
 30
0.0
 11
12.8216
 21
1.4264
 31
0.0
  0
LINE
  5
1A0
330
1D
100
AcDbEntity
  8
0
100
AcDbLine
 10
11.6231
 20
1.88523
 30
0.0
 11
12.0226
 21
1.7323
 31
0.0
  0
LINE
  5
1A1
330
1D
100
AcDbEntity
  8
0
100
AcDbLine
 10
11.6231
 20
1.88524
 30
0.0
 11
11.756266666668
 21
1.834253333333
 31
0.0
  0
LINE
  5
1A2
330
1D
100
AcDbEntity
  8
0
100
AcDbLine
 10
13.209017853589
 20
1.242752218778
 30
0.0
 11
13.9647
 21
0.934881
 31
0.0
  0
LINE
  5
1A3
330
1D
100
AcDbEntity
  8
0
100
AcDbLine
 10
13.146104042917
 20
1.083163960231
 30
0.0
 11
13.9294
 21
0.758381
 31
0.0
  0
LINE
  5
1A4
330
1D
100
AcDbEntity
  8
0
100
AcDbLine
 10
11.0353
 20
1.95838
 30
0.0
 11
11.565303711724
 21
1.73862120657
 31
0.0
  0
LINE
  5
1A5
330
1D
100
AcDbEntity
  8
0
100
AcDbLine
 10
13.9294
 20
0.758381
 30
0.0
 11
16.1429
 21
0.453093026965
 31
0.0
  0
LINE
  5
1A6
330
1D
100
AcDbEntity
  8
0
100
AcDbLine
 10
21.0893
 20
0.486034
 30
0.0
 11
21.4888
 21
0.639001
 31
0.0
  0
LINE
  5
1A7
330
1D
100
AcDbEntity
  8
0
100
AcDbLine
 10
21.231058064515
 20
0.540312612903
 30
0.0
 11
21.4888
 21
0.638981
 31
0.0
  0
LINE
  5
1A8
330
1D
100
AcDbEntity
  8
0
100
AcDbLine
 10
21.231058064515
 20
0.540312612903
 30
0.0
 11
21.4888
 21
0.638981
 31
0.0
  0
LINE
  5
1A9
330
1D
100
AcDbEntity
  8
0
100
AcDbLine
 10
21.4888
 20
0.638981
 30
0.0
 11
21.888300000003
 21
0.791931000001
 31
0.0
  0
LINE
  5
1AA
330
1D
100
AcDbEntity
  8
0
100
AcDbLine
 10
21.4888
 20
0.638981
 30
0.0
 11
21.888300000003
 21
0.791931000001
 31
0.0
  0
LINE
  5
1AB
330
1D
100
AcDbEntity
  8
0
100
AcDbLine
 10
21.4888
 20
0.639001
 30
0.0
 11
22.2878
 21
0.944861
 31
0.0
  0
LINE
  5
1AC
330
1D
100
AcDbEntity
  8
0
100
AcDbLine
 10
22.2878
 20
0.944861
 30
0.0
 11
22.6872
 21
1.097801
 31
0.0
  0
LINE
  5
1AD
330
1D
100
AcDbEntity
  8
0
100
AcDbLine
 10
20.853961143975
 20
1.083190989084
 30
0.0
 11
21.0893
 21
0.486034
 31
0.0
  0
LINE
  5
1AE
330
1D
100
AcDbEntity
  8
0
100
AcDbLine
 10
20.779
 20
1.27341
 30
0.0
 11
21.1784
 21
1.42642
 31
0.0
  0
LINE
  5
1AF
330
1D
100
AcDbEntity
  8
0
100
AcDbLine
 10
20.779
 20
1.2734
 30
0.0
 11
21.0893
 21
0.486034
 31
0.0
  0
LINE
  5
1B0
330
1D
100
AcDbEntity
  8
0
100
AcDbLine
 10
20.779
 20
1.2734
 30
0.0
 11
21.1784
 21
1.4264
 31
0.0
  0
LINE
  5
1B1
330
1D
100
AcDbEntity
  8
0
100
AcDbLine
 10
20.853961143975
 20
1.083190989084
 30
0.0
 11
21.0893
 21
0.486034
 31
0.0
  0
LINE
  5
1B2
330
1D
100
AcDbEntity
  8
0
100
AcDbLine
 10
20.853961143975
 20
1.083190989084
 30
0.0
 11
21.0893
 21
0.486034
 31
0.0
  0
LINE
  5
1B3
330
1D
100
AcDbEntity
  8
0
100
AcDbLine
 10
20.853961143975
 20
1.083190989084
 30
0.0
 11
21.0893
 21
0.486034
 31
0.0
  0
LINE
  5
1B4
330
1D
100
AcDbEntity
  8
0
100
AcDbLine
 10
20.853961143975
 20
1.083190989084
 30
0.0
 11
21.0893
 21
0.486034
 31
0.0
  0
LINE
  5
1B5
330
1D
100
AcDbEntity
  8
0
100
AcDbLine
 10
20.853961143975
 20
1.083190989084
 30
0.0
 11
21.0893
 21
0.486034
 31
0.0
  0
LINE
  5
1B6
330
1D
100
AcDbEntity
  8
0
100
AcDbLine
 10
20.853961143975
 20
1.083190989084
 30
0.0
 11
21.0893
 21
0.486034
 31
0.0
  0
LINE
  5
1B7
330
1D
100
AcDbEntity
  8
0
100
AcDbLine
 10
20.853961143975
 20
1.083190989084
 30
0.0
 11
21.0893
 21
0.486034
 31
0.0
  0
LINE
  5
1B8
330
1D
100
AcDbEntity
  8
0
100
AcDbLine
 10
20.853961143975
 20
1.083190989084
 30
0.0
 11
21.0893
 21
0.486034
 31
0.0
  0
LINE
  5
1B9
330
1D
100
AcDbEntity
  8
0
100
AcDbLine
 10
20.853961143975
 20
1.083190989084
 30
0.0
 11
21.0893
 21
0.486034
 31
0.0
  0
LINE
  5
1BA
330
1D
100
AcDbEntity
  8
0
100
AcDbLine
 10
20.853961143975
 20
1.083190989084
 30
0.0
 11
21.0893
 21
0.486034
 31
0.0
  0
LINE
  5
1BB
330
1D
100
AcDbEntity
  8
0
100
AcDbLine
 10
21.1784
 20
1.42642
 30
0.0
 11
21.577900000003
 21
1.579350000001
 31
0.0
  0
LINE
  5
1BC
330
1D
100
AcDbEntity
  8
0
100
AcDbLine
 10
21.1784
 20
1.4264
 30
0.0
 11
21.9774
 21
1.7323
 31
0.0
  0
LINE
  5
1BF
330
1D
100
AcDbEntity
  8
0
100
AcDbLine
 10
21.9774
 20
1.7323
 30
0.0
 11
22.3769
 21
1.88523
 31
0.0
  0
LINE
  5
1C0
330
1D
100
AcDbEntity
  8
0
100
AcDbLine
 10
20.853961143975
 20
1.083190989084
 30
0.0
 11
21.0893
 21
0.486034
 31
0.0
  0
LINE
  5
1C1
330
1D
100
AcDbEntity
  8
0
100
AcDbLine
 10
20.853961143975
 20
1.083190989084
 30
0.0
 11
21.0893
 21
0.486034
 31
0.0
  0
LINE
  5
1C2
330
1D
100
AcDbEntity
  8
0
100
AcDbLine
 10
20.853961143975
 20
1.083190989084
 30
0.0
 11
21.0893
 21
0.486034
 31
0.0
  0
LINE
  5
1C3
330
1D
100
AcDbEntity
  8
0
100
AcDbLine
 10
22.434680283441
 20
1.738614570384
 30
0.0
 11
22.9647
 21
1.95838
 31
0.0
  0
LINE
  5
1C4
330
1D
100
AcDbEntity
  8
0
100
AcDbLine
 10
22.229026717727
 20
1.828623589342
 30
0.0
 11
22.8941
 21
2.09958
 31
0.0
  0
LINE
  5
1C5
330
1D
100
AcDbEntity
  8
0
100
AcDbLine
 10
22.243733333332
 20
1.834253333333
 30
0.0
 11
22.3769
 21
1.88524
 31
0.0
  0
LINE
  5
1C6
330
1D
100
AcDbEntity
  8
0
100
AcDbLine
 10
22.3769
 20
1.88524
 30
0.0
 11
22.6872
 21
1.097811
 31
0.0
  0
LINE
  5
1C7
330
1D
100
AcDbEntity
  8
0
100
AcDbLine
 10
22.3769
 20
1.88523
 30
0.0
 11
22.6872
 21
1.097801
 31
0.0
  0
LINE
  5
1C8
330
1D
100
AcDbEntity
  8
0
100
AcDbLine
 10
22.8941
 20
2.09958
 30
0.0
 11
24.394401950594
 21
3.235524640485
 31
0.0
  0
LINE
  5
1C9
330
1D
100
AcDbEntity
  8
0
100
AcDbLine
 10
22.229026717727
 20
1.828623589342
 30
0.0
 11
22.8941
 21
2.09958
 31
0.0
  0
LINE
  5
1CA
330
1D
100
AcDbEntity
  8
0
100
AcDbLine
 10
24.944
 20
2.6645
 30
0.0
 11
25.255
 21
2.95507
 31
0.0
  0
LINE
  5
1CB
330
1D
100
AcDbEntity
  8
0
100
AcDbLine
 10
24.944
 20
2.66447
 30
0.0
 11
25.255
 21
2.95505
 31
0.0
  0
LINE
  5
1CC
330
1D
100
AcDbEntity
  8
0
100
AcDbLine
 10
24.944
 20
2.66447
 30
0.0
 11
25.255
 21
2.95505
 31
0.0
  0
LINE
  5
1CD
330
1D
100
AcDbEntity
  8
0
100
AcDbLine
 10
24.944
 20
2.66447
 30
0.0
 11
25.255
 21
2.95505
 31
0.0
  0
LINE
  5
1CE
330
1D
100
AcDbEntity
  8
0
100
AcDbLine
 10
24.944
 20
2.66447
 30
0.0
 11
25.255
 21
2.95505
 31
0.0
  0
LINE
  5
1CF
330
1D
100
AcDbEntity
  8
0
100
AcDbLine
 10
24.944
 20
2.66447
 30
0.0
 11
25.255
 21
2.95505
 31
0.0
  0
LINE
  5
1D0
330
1D
100
AcDbEntity
  8
0
100
AcDbLine
 10
24.944
 20
2.66447
 30
0.0
 11
25.255
 21
2.95505
 31
0.0
  0
LINE
  5
1D1
330
1D
100
AcDbEntity
  8
0
100
AcDbLine
 10
24.944
 20
2.66447
 30
0.0
 11
25.255
 21
2.95505
 31
0.0
  0
LINE
  5
1D2
330
1D
100
AcDbEntity
  8
0
100
AcDbLine
 10
24.944
 20
2.66447
 30
0.0
 11
25.255
 21
2.95505
 31
0.0
  0
LINE
  5
1D3
330
1D
100
AcDbEntity
  8
0
100
AcDbLine
 10
24.944
 20
2.66447
 30
0.0
 11
25.255
 21
2.95505
 31
0.0
  0
LINE
  5
1D4
330
1D
100
AcDbEntity
  8
0
100
AcDbLine
 10
24.944
 20
2.66447
 30
0.0
 11
25.255
 21
2.95505
 31
0.0
  0
LINE
  5
1D5
330
1D
100
AcDbEntity
  8
0
100
AcDbLine
 10
24.3541
 20
3.2774
 30
0.0
 11
24.944
 21
2.66447
 31
0.0
  0
LINE
  5
1D6
330
1D
100
AcDbEntity
  8
0
100
AcDbLine
 10
24.3541
 20
3.27743
 30
0.0
 11
24.944
 21
2.6645
 31
0.0
  0
LINE
  5
1D7
330
1D
100
AcDbEntity
  8
0
100
AcDbLine
 10
24.3541
 20
3.27743
 30
0.0
 11
24.6651
 21
3.568
 31
0.0
  0
LINE
  5
1D9
330
1D
100
AcDbEntity
  8
0
100
AcDbLine
 10
24.6651
 20
3.568
 30
0.0
 11
25.287
 21
4.14934
 31
0.0
  0
LINE
  5
1DA
330
1D
100
AcDbEntity
  8
0
100
AcDbLine
 10
24.499849101547
 20
3.125960778418
 30
0.0
 11
24.944
 21
2.66447
 31
0.0
  0
LINE
  5
1DB
330
1D
100
AcDbEntity
  8
0
100
AcDbLine
 10
24.499849101547
 20
3.125960778418
 30
0.0
 11
24.944
 21
2.66447
 31
0.0
  0
LINE
  5
1DC
330
1D
100
AcDbEntity
  8
0
100
AcDbLine
 10
24.499849101547
 20
3.125960778418
 30
0.0
 11
24.944
 21
2.66447
 31
0.0
  0
LINE
  5
1DD
330
1D
100
AcDbEntity
  8
0
100
AcDbLine
 10
24.499849101547
 20
3.125960778418
 30
0.0
 11
24.944
 21
2.66447
 31
0.0
  0
LINE
  5
1DE
330
1D
100
AcDbEntity
  8
0
100
AcDbLine
 10
24.499849101547
 20
3.125960778418
 30
0.0
 11
24.944
 21
2.66447
 31
0.0
  0
LINE
  5
1DF
330
1D
100
AcDbEntity
  8
0
100
AcDbLine
 10
24.499849101547
 20
3.125960778418
 30
0.0
 11
24.944
 21
2.66447
 31
0.0
  0
LINE
  5
1E0
330
1D
100
AcDbEntity
  8
0
100
AcDbLine
 10
24.499849101547
 20
3.125960778418
 30
0.0
 11
24.944
 21
2.66447
 31
0.0
  0
LINE
  5
1E1
330
1D
100
AcDbEntity
  8
0
100
AcDbLine
 10
24.499849101547
 20
3.125960778418
 30
0.0
 11
24.944
 21
2.66447
 31
0.0
  0
LINE
  5
1E2
330
1D
100
AcDbEntity
  8
0
100
AcDbLine
 10
24.499849101547
 20
3.125960778418
 30
0.0
 11
24.944
 21
2.66447
 31
0.0
  0
LINE
  5
1E3
330
1D
100
AcDbEntity
  8
0
100
AcDbLine
 10
24.499849101547
 20
3.125960778418
 30
0.0
 11
24.944
 21
2.66447
 31
0.0
  0
LINE
  5
1E4
330
1D
100
AcDbEntity
  8
0
100
AcDbLine
 10
25.255
 20
2.95505
 30
0.0
 11
25.565950000004
 21
3.245715000004
 31
0.0
  0
LINE
  5
1E5
330
1D
100
AcDbEntity
  8
0
100
AcDbLine
 10
25.255
 20
2.95505
 30
0.0
 11
25.565950000004
 21
3.245715000003
 31
0.0
  0
LINE
  5
1E6
330
1D
100
AcDbEntity
  8
0
100
AcDbLine
 10
25.255
 20
2.95507
 30
0.0
 11
25.8769
 21
3.53636
 31
0.0
  0
LINE
  5
1E8
330
1D
100
AcDbEntity
  8
0
100
AcDbLine
 10
25.287
 20
4.14934
 30
0.0
 11
25.5981
 21
4.43992
 31
0.0
  0
LINE
  5
1E9
330
1D
100
AcDbEntity
  8
0
100
AcDbLine
 10
24.944
 20
2.66447
 30
0.0
 11
25.255
 21
2.95505
 31
0.0
  0
LINE
  5
1EA
330
1D
100
AcDbEntity
  8
0
100
AcDbLine
 10
25.5981
 20
4.43992
 30
0.0
 11
26.1879
 21
3.82698
 31
0.0
  0
LINE
  5
1EB
330
1D
100
AcDbEntity
  8
0
100
AcDbLine
 10
25.66652256554
 20
4.368812968257
 30
0.0
 11
27.2353
 21
6.44078
 31
0.0
  0
LINE
  5
1EC
330
1D
100
AcDbEntity
  8
0
100
AcDbLine
 10
26.001299999999
 20
3.652607999999
 30
0.0
 11
26.1879
 21
3.82695
 31
0.0
  0
LINE
  5
1ED
330
1D
100
AcDbEntity
  8
0
100
AcDbLine
 10
26.001299999999
 20
3.652607999999
 30
0.0
 11
26.1879
 21
3.82695
 31
0.0
  0
LINE
  5
1EE
330
1D
100
AcDbEntity
  8
0
100
AcDbLine
 10
25.8769
 20
3.53636
 30
0.0
 11
26.1879
 21
3.82698
 31
0.0
  0
LINE
  5
1EF
330
1D
100
AcDbEntity
  8
0
100
AcDbLine
 10
26.9
 20
2.26494
 30
0.0
 11
29.0
 21
0.16494
 31
0.0
  0
LINE
  5
1F0
330
1D
100
AcDbEntity
  8
0
100
AcDbLine
 10
26.9
 20
2.26494
 30
0.0
 11
29.0
 21
0.16494
 31
0.0
  0
LINE
  5
1F1
330
1D
100
AcDbEntity
  8
0
100
AcDbLine
 10
31.7
 20
3.66494
 30
0.0
 11
33.4
 21
7.76494
 31
0.0
  0
LINE
  5
1F2
330
1D
100
AcDbEntity
  8
0
100
AcDbLine
 10
29.1
 20
5.16494
 30
0.0
 11
30.5
 21
8.56494
 31
0.0
  0
LINE
  5
1F3
330
1D
100
AcDbEntity
  8
0
100
AcDbLine
 10
26.9
 20
2.26494
 30
0.0
 11
29.1
 21
5.16494
 31
0.0
  0
LINE
  5
1F4
330
1D
100
AcDbEntity
  8
0
100
AcDbLine
 10
26.9
 20
2.26494
 30
0.0
 11
29.0
 21
0.16494
 31
0.0
  0
LINE
  5
1F5
330
1D
100
AcDbEntity
  8
0
100
AcDbLine
 10
25.771419282107
 20
4.25980077183
 30
0.0
 11
27.3765
 21
6.37018
 31
0.0
  0
LINE
  5
1F6
330
1D
100
AcDbEntity
  8
0
100
AcDbLine
 10
27.2353
 20
6.44078
 30
0.0
 11
28.4
 21
9.29958
 31
0.0
  0
LINE
  5
1F7
330
1D
100
AcDbEntity
  8
0
100
AcDbLine
 10
33.4
 20
7.76494
 30
0.0
 11
34.0
 21
12.16494
 31
0.0
  0
LINE
  5
1F8
330
1D
100
AcDbEntity
  8
0
100
AcDbLine
 10
33.4
 20
7.76494
 30
0.0
 11
34.0
 21
12.16494
 31
0.0
  0
LINE
  5
1F9
330
1D
100
AcDbEntity
  8
0
100
AcDbLine
 10
33.4
 20
7.76494
 30
0.0
 11
34.0
 21
12.16494
 31
0.0
  0
LINE
  5
1FA
330
1D
100
AcDbEntity
  8
0
100
AcDbLine
 10
30.5
 20
8.56494
 30
0.0
 11
31.0
 21
12.16494
 31
0.0
  0
LINE
  5
1FB
330
1D
100
AcDbEntity
  8
0
100
AcDbLine
 10
30.5
 20
8.56494
 30
0.0
 11
31.0
 21
12.16494
 31
0.0
  0
LINE
  5
1FC
330
1D
100
AcDbEntity
  8
0
100
AcDbLine
 10
28.4
 20
9.29958
 30
0.0
 11
28.8235
 21
12.33484
 31
0.0
  0
LINE
  5
1FD
330
1D
100
AcDbEntity
  8
0
100
AcDbLine
 10
27.3765
 20
6.37018
 30
0.0
 11
28.5765
 21
9.26428
 31
0.0
  0
LINE
  5
1FE
330
1D
100
AcDbEntity
  8
0
100
AcDbLine
 10
22.9647
 20
1.95838
 30
0.0
 11
24.499849101547
 21
3.125960778418
 31
0.0
  0
LINE
  5
1FF
330
1D
100
AcDbEntity
  8
0
100
AcDbLine
 10
22.434680283441
 20
1.738614570384
 30
0.0
 11
22.9647
 21
1.95838
 31
0.0
  0
LINE
  5
200
330
1D
100
AcDbEntity
  8
0
100
AcDbLine
 10
20.0706
 20
0.758381
 30
0.0
 11
20.853961143975
 21
1.083190989084
 31
0.0
  0
LINE
  5
201
330
1D
100
AcDbEntity
  8
0
100
AcDbLine
 10
17.8571
 20
0.453093026965
 30
0.0
 11
20.0706
 21
0.758381
 31
0.0
  0
LINE
  5
202
330
1D
100
AcDbEntity
  8
0
100
AcDbLine
 10
5.6
 20
15.37014
 30
0.0
 11
6.76471
 21
18.22894
 31
0.0
  0
LINE
  5
203
330
1D
100
AcDbEntity
  8
0
100
AcDbLine
 10
5.17647
 20
12.33484
 30
0.0
 11
5.6
 21
15.37014
 31
0.0
  0
LINE
  5
204
330
1D
100
AcDbEntity
  8
0
100
AcDbLine
 10
5.17647
 20
12.33484
 30
0.0
 11
5.6
 21
9.29958
 31
0.0
  0
LINE
  5
205
330
1D
100
AcDbEntity
  8
0
100
AcDbLine
 10
5.7
 20
51.66494
 30
0.0
 11
7.8
 21
54.36494
 31
0.0
  0
LINE
  5
206
330
1D
100
AcDbEntity
  8
0
100
AcDbLine
 10
5.7
 20
38.66494
 30
0.0
 11
7.8
 21
35.96494
 31
0.0
  0
LINE
  5
207
330
1D
100
AcDbEntity
  8
0
100
AcDbLine
 10
7.1
 20
22.06494
 30
0.0
 11
10.0
 21
24.26494
 31
0.0
  0
LINE
  5
208
330
1D
100
AcDbEntity
  8
0
100
AcDbLine
 10
8.5
 20
26.86494
 30
0.0
 11
8.5
 21
28.66494
 31
0.0
  0
LINE
  5
209
330
1D
100
AcDbEntity
  8
0
100
AcDbLine
 10
8.5
 20
26.86494
 30
0.0
 11
8.5
 21
28.66494
 31
0.0
  0
LINE
  5
20A
330
1D
100
AcDbEntity
  8
0
100
AcDbLine
 10
7.1
 20
22.06494
 30
0.0
 11
10.0
 21
24.26494
 31
0.0
  0
LINE
  5
20B
330
1D
100
AcDbEntity
  8
0
100
AcDbLine
 10
8.5
 20
28.66494
 30
0.0
 11
8.5
 21
30.46494
 31
0.0
  0
LINE
  5
20C
330
1D
100
AcDbEntity
  8
0
100
AcDbLine
 10
8.5
 20
28.66494
 30
0.0
 11
8.5
 21
26.86494
 31
0.0
  0
LINE
  5
20D
330
1D
100
AcDbEntity
  8
0
100
AcDbLine
 10
8.5
 20
30.46494
 30
0.0
 11
8.5
 21
28.66494
 31
0.0
  0
LINE
  5
20E
330
1D
100
AcDbEntity
  8
0
100
AcDbLine
 10
8.5
 20
28.66494
 30
0.0
 11
8.5
 21
30.46494
 31
0.0
  0
LINE
  5
20F
330
1D
100
AcDbEntity
  8
0
100
AcDbLine
 10
8.5
 20
28.66494
 30
0.0
 11
17.0
 21
28.66494
 31
0.0
  0
LINE
  5
210
330
1D
100
AcDbEntity
  8
0
100
AcDbLine
 10
8.5
 20
28.66494
 30
0.0
 11
8.5
 21
26.86494
 31
0.0
  0
LINE
  5
211
330
1D
100
AcDbEntity
  8
0
100
AcDbLine
 10
7.0
 20
54.933121818182
 30
0.0
 11
7.0
 21
81.16494
 31
0.0
  0
LINE
  5
212
330
1D
100
AcDbEntity
  8
0
100
AcDbLine
 10
7.0
 20
81.16494
 30
0.0
 11
7.4
 21
81.16494
 31
0.0
  0
LINE
  5
213
330
1D
100
AcDbEntity
  8
0
100
AcDbLine
 10
7.0
 20
81.16494
 30
0.0
 11
7.0
 21
54.933121818182
 31
0.0
  0
LINE
  5
214
330
1D
100
AcDbEntity
  8
0
100
AcDbLine
 10
7.0
 20
81.16494
 30
0.0
 11
7.0
 21
58.707797142857
 31
0.0
  0
LINE
  5
215
330
1D
100
AcDbEntity
  8
0
100
AcDbLine
 10
7.1
 20
35.26494
 30
0.0
 11
10.0
 21
33.06494
 31
0.0
  0
LINE
  5
216
330
1D
100
AcDbEntity
  8
0
100
AcDbLine
 10
7.1
 20
55.06494
 30
0.0
 11
10.0
 21
57.26494
 31
0.0
  0
LINE
  5
217
330
1D
100
AcDbEntity
  8
0
100
AcDbLine
 10
7.8
 20
54.36494
 30
0.0
 11
10.5
 21
56.46494
 31
0.0
  0
LINE
  5
218
330
1D
100
AcDbEntity
  8
0
100
AcDbLine
 10
7.4
 20
81.16494
 30
0.0
 11
8.3
 21
81.16494
 31
0.0
  0
LINE
  5
219
330
1D
100
AcDbEntity
  8
0
100
AcDbLine
 10
8.3
 20
81.16494
 30
0.0
 11
10.0
 21
81.16494
 31
0.0
  0
LINE
  5
21A
330
1D
100
AcDbEntity
  8
0
100
AcDbLine
 10
7.8
 20
35.96494
 30
0.0
 11
10.5
 21
33.86494
 31
0.0
  0
LINE
  5
21B
330
1D
100
AcDbEntity
  8
0
100
AcDbLine
 10
7.0
 20
58.707797142857
 30
0.0
 11
7.0
 21
81.16494
 31
0.0
  0
LINE
  5
21C
330
1D
100
AcDbEntity
  8
0
100
AcDbLine
 10
7.1
 20
35.26494
 30
0.0
 11
10.0
 21
33.06494
 31
0.0
  0
LINE
  5
21D
330
1D
100
AcDbEntity
  8
0
100
AcDbLine
 10
8.52941
 20
20.80544
 30
0.0
 11
11.0353
 21
22.71134
 31
0.0
  0
LINE
  5
21E
330
1D
100
AcDbEntity
  8
0
100
AcDbLine
 10
6.76471
 20
18.22894
 30
0.0
 11
8.63529
 21
20.69954
 31
0.0
  0
LINE
  5
21F
330
1D
100
AcDbEntity
  8
0
100
AcDbLine
 10
6.62353
 20
18.29954
 30
0.0
 11
8.52941
 21
20.80544
 31
0.0
  0
LINE
  5
220
330
1D
100
AcDbEntity
  8
0
100
AcDbLine
 10
5.42353
 20
15.40544
 30
0.0
 11
6.62353
 21
18.29954
 31
0.0
  0
LINE
  5
221
330
1D
100
AcDbEntity
  8
0
100
AcDbLine
 10
8.63529
 20
20.69954
 30
0.0
 11
11.1059
 21
22.57014
 31
0.0
  0
LINE
  5
222
330
1D
100
AcDbEntity
  8
0
100
AcDbLine
 10
28.4
 20
15.37014
 30
0.0
 11
28.8235
 21
12.33484
 31
0.0
  0
LINE
  5
223
330
1D
100
AcDbEntity
  8
0
100
AcDbLine
 10
33.4
 20
16.56494
 30
0.0
 11
34.0
 21
12.16494
 31
0.0
  0
LINE
  5
224
330
1D
100
AcDbEntity
  8
0
100
AcDbLine
 10
30.5
 20
15.76494
 30
0.0
 11
31.0
 21
12.16494
 31
0.0
  0
LINE
  5
225
330
1D
100
AcDbEntity
  8
0
100
AcDbLine
 10
30.5
 20
15.76494
 30
0.0
 11
31.0
 21
12.16494
 31
0.0
  0
LINE
  5
226
330
1D
100
AcDbEntity
  8
0
100
AcDbLine
 10
28.5765
 20
15.40544
 30
0.0
 11
29.0
 21
12.33484
 31
0.0
  0
LINE
  5
227
330
1D
100
AcDbEntity
  8
0
100
AcDbLine
 10
25.3647
 20
20.69954
 30
0.0
 11
27.2353
 21
18.22894
 31
0.0
  0
LINE
  5
228
330
1D
100
AcDbEntity
  8
0
100
AcDbLine
 10
27.2353
 20
18.22894
 30
0.0
 11
28.4
 21
15.37014
 31
0.0
  0
LINE
  5
229
330
1D
100
AcDbEntity
  8
0
100
AcDbLine
 10
26.9
 20
22.06494
 30
0.0
 11
29.1
 21
19.16494
 31
0.0
  0
LINE
  5
22A
330
1D
100
AcDbEntity
  8
0
100
AcDbLine
 10
26.9
 20
22.06494
 30
0.0
 11
29.1
 21
19.16494
 31
0.0
  0
LINE
  5
22B
330
1D
100
AcDbEntity
  8
0
100
AcDbLine
 10
25.4706
 20
20.80544
 30
0.0
 11
27.3765
 21
18.29954
 31
0.0
  0
LINE
  5
22C
330
1D
100
AcDbEntity
  8
0
100
AcDbLine
 10
31.7
 20
20.66494
 30
0.0
 11
33.4
 21
16.56494
 31
0.0
  0
LINE
  5
22D
330
1D
100
AcDbEntity
  8
0
100
AcDbLine
 10
29.1
 20
19.16494
 30
0.0
 11
30.5
 21
15.76494
 31
0.0
  0
LINE
  5
22E
330
1D
100
AcDbEntity
  8
0
100
AcDbLine
 10
29.1
 20
19.16494
 30
0.0
 11
30.5
 21
15.76494
 31
0.0
  0
LINE
  5
22F
330
1D
100
AcDbEntity
  8
0
100
AcDbLine
 10
27.3765
 20
18.29954
 30
0.0
 11
28.5765
 21
15.40544
 31
0.0
  0
LINE
  5
230
330
1D
100
AcDbEntity
  8
0
100
AcDbLine
 10
11.1059
 20
22.57014
 30
0.0
 11
13.9647
 21
23.73484
 31
0.0
  0
LINE
  5
231
330
1D
100
AcDbEntity
  8
0
100
AcDbLine
 10
10.0
 20
24.26494
 30
0.0
 11
13.4
 21
25.66494
 31
0.0
  0
LINE
  5
232
330
1D
100
AcDbEntity
  8
0
100
AcDbLine
 10
10.0
 20
24.26494
 30
0.0
 11
13.4
 21
25.66494
 31
0.0
  0
LINE
  5
233
330
1D
100
AcDbEntity
  8
0
100
AcDbLine
 10
10.0
 20
57.26494
 30
0.0
 11
13.4
 21
58.66494
 31
0.0
  0
LINE
  5
234
330
1D
100
AcDbEntity
  8
0
100
AcDbLine
 10
10.0
 20
81.16494
 30
0.0
 11
12.0
 21
81.16494
 31
0.0
  0
LINE
  5
235
330
1D
100
AcDbEntity
  8
0
100
AcDbLine
 10
10.0
 20
33.06494
 30
0.0
 11
13.4
 21
31.66494
 31
0.0
  0
LINE
  5
236
330
1D
100
AcDbEntity
  8
0
100
AcDbLine
 10
13.4
 20
25.66494
 30
0.0
 11
17.0
 21
26.16494
 31
0.0
  0
LINE
  5
237
330
1D
100
AcDbEntity
  8
0
100
AcDbLine
 10
13.4
 20
25.66494
 30
0.0
 11
17.0
 21
26.16494
 31
0.0
  0
LINE
  5
238
330
1D
100
AcDbEntity
  8
0
100
AcDbLine
 10
10.5
 20
56.46494
 30
0.0
 11
13.6
 21
57.66494
 31
0.0
  0
LINE
  5
239
330
1D
100
AcDbEntity
  8
0
100
AcDbLine
 10
13.4
 20
31.66494
 30
0.0
 11
17.0
 21
31.16494
 31
0.0
  0
LINE
  5
23A
330
1D
100
AcDbEntity
  8
0
100
AcDbLine
 10
13.4
 20
58.66494
 30
0.0
 11
17.0
 21
59.16494
 31
0.0
  0
LINE
  5
23B
330
1D
100
AcDbEntity
  8
0
100
AcDbLine
 10
13.6
 20
57.66494
 30
0.0
 11
17.0
 21
58.16494
 31
0.0
  0
LINE
  5
23C
330
1D
100
AcDbEntity
  8
0
100
AcDbLine
 10
12.0
 20
81.16494
 30
0.0
 11
14.4
 21
81.16494
 31
0.0
  0
LINE
  5
23D
330
1D
100
AcDbEntity
  8
0
100
AcDbLine
 10
13.6
 20
32.66494
 30
0.0
 11
17.0
 21
32.16494
 31
0.0
  0
LINE
  5
23E
330
1D
100
AcDbEntity
  8
0
100
AcDbLine
 10
10.5
 20
33.86494
 30
0.0
 11
13.6
 21
32.66494
 31
0.0
  0
LINE
  5
23F
330
1D
100
AcDbEntity
  8
0
100
AcDbLine
 10
13.4
 20
31.66494
 30
0.0
 11
17.0
 21
31.16494
 31
0.0
  0
LINE
  5
240
330
1D
100
AcDbEntity
  8
0
100
AcDbLine
 10
10.0
 20
33.06494
 30
0.0
 11
13.4
 21
31.66494
 31
0.0
  0
LINE
  5
241
330
1D
100
AcDbEntity
  8
0
100
AcDbLine
 10
11.0353
 20
22.71134
 30
0.0
 11
13.9294
 21
23.91134
 31
0.0
  0
LINE
  5
242
330
1D
100
AcDbEntity
  8
0
100
AcDbLine
 10
22.8941
 20
22.57014
 30
0.0
 11
25.3647
 21
20.69954
 31
0.0
  0
LINE
  5
243
330
1D
100
AcDbEntity
  8
0
100
AcDbLine
 10
20.0353
 20
23.73484
 30
0.0
 11
22.8941
 21
22.57014
 31
0.0
  0
LINE
  5
244
330
1D
100
AcDbEntity
  8
0
100
AcDbLine
 10
22.9647
 20
22.71134
 30
0.0
 11
25.4706
 21
20.80544
 31
0.0
  0
LINE
  5
245
330
1D
100
AcDbEntity
  8
0
100
AcDbLine
 10
17.0
 20
26.16494
 30
0.0
 11
20.6
 21
25.66494
 31
0.0
  0
LINE
  5
246
330
1D
100
AcDbEntity
  8
0
100
AcDbLine
 10
17.0
 20
26.16494
 30
0.0
 11
20.6
 21
25.66494
 31
0.0
  0
LINE
  5
247
330
1D
100
AcDbEntity
  8
0
100
AcDbLine
 10
17.0
 20
28.66494
 30
0.0
 11
25.5
 21
28.66494
 31
0.0
  0
LINE
  5
248
330
1D
100
AcDbEntity
  8
0
100
AcDbLine
 10
17.0
 20
59.16494
 30
0.0
 11
20.6
 21
58.66494
 31
0.0
  0
LINE
  5
249
330
1D
100
AcDbEntity
  8
0
100
AcDbLine
 10
17.0
 20
58.16494
 30
0.0
 11
20.4
 21
57.66494
 31
0.0
  0
LINE
  5
24A
330
1D
100
AcDbEntity
  8
0
100
AcDbLine
 10
17.0
 20
81.16494
 30
0.0
 11
19.6
 21
81.16494
 31
0.0
  0
LINE
  5
24B
330
1D
100
AcDbEntity
  8
0
100
AcDbLine
 10
17.0
 20
31.16494
 30
0.0
 11
20.6
 21
31.66494
 31
0.0
  0
LINE
  5
24C
330
1D
100
AcDbEntity
  8
0
100
AcDbLine
 10
17.0
 20
32.16494
 30
0.0
 11
20.4
 21
32.66494
 31
0.0
  0
LINE
  5
24D
330
1D
100
AcDbEntity
  8
0
100
AcDbLine
 10
17.0
 20
31.16494
 30
0.0
 11
20.6
 21
31.66494
 31
0.0
  0
LINE
  5
24E
330
1D
100
AcDbEntity
  8
0
100
AcDbLine
 10
14.4
 20
81.16494
 30
0.0
 11
17.0
 21
81.16494
 31
0.0
  0
LINE
  5
24F
330
1D
100
AcDbEntity
  8
0
100
AcDbLine
 10
17.0
 20
24.15834
 30
0.0
 11
20.0353
 21
23.73484
 31
0.0
  0
LINE
  5
250
330
1D
100
AcDbEntity
  8
0
100
AcDbLine
 10
24.0
 20
24.26494
 30
0.0
 11
26.9
 21
22.06494
 31
0.0
  0
LINE
  5
251
330
1D
100
AcDbEntity
  8
0
100
AcDbLine
 10
20.6
 20
25.66494
 30
0.0
 11
24.0
 21
24.26494
 31
0.0
  0
LINE
  5
252
330
1D
100
AcDbEntity
  8
0
100
AcDbLine
 10
20.6
 20
25.66494
 30
0.0
 11
24.0
 21
24.26494
 31
0.0
  0
LINE
  5
253
330
1D
100
AcDbEntity
  8
0
100
AcDbLine
 10
24.0
 20
24.26494
 30
0.0
 11
26.9
 21
22.06494
 31
0.0
  0
LINE
  5
254
330
1D
100
AcDbEntity
  8
0
100
AcDbLine
 10
20.6
 20
31.66494
 30
0.0
 11
24.0
 21
33.06494
 31
0.0
  0
LINE
  5
255
330
1D
100
AcDbEntity
  8
0
100
AcDbLine
 10
20.4
 20
32.66494
 30
0.0
 11
23.5
 21
33.86494
 31
0.0
  0
LINE
  5
256
330
1D
100
AcDbEntity
  8
0
100
AcDbLine
 10
20.6
 20
31.66494
 30
0.0
 11
24.0
 21
33.06494
 31
0.0
  0
LINE
  5
257
330
1D
100
AcDbEntity
  8
0
100
AcDbLine
 10
25.5
 20
26.86494
 30
0.0
 11
29.0
 21
24.16494
 31
0.0
  0
LINE
  5
258
330
1D
100
AcDbEntity
  8
0
100
AcDbLine
 10
25.5
 20
28.66494
 30
0.0
 11
25.5
 21
30.46494
 31
0.0
  0
LINE
  5
259
330
1D
100
AcDbEntity
  8
0
100
AcDbLine
 10
25.5
 20
28.66494
 30
0.0
 11
25.5
 21
26.86494
 31
0.0
  0
LINE
  5
25A
330
1D
100
AcDbEntity
  8
0
100
AcDbLine
 10
29.0
 20
24.16494
 30
0.0
 11
31.7
 21
20.66494
 31
0.0
  0
LINE
  5
25B
330
1D
100
AcDbEntity
  8
0
100
AcDbLine
 10
25.5
 20
30.46494
 30
0.0
 11
29.0
 21
33.16494
 31
0.0
  0
LINE
  5
25C
330
1D
100
AcDbEntity
  8
0
100
AcDbLine
 10
25.5
 20
30.46494
 30
0.0
 11
29.0
 21
33.16494
 31
0.0
  0
LINE
  5
25D
330
1D
100
AcDbEntity
  8
0
100
AcDbLine
 10
25.5
 20
30.46494
 30
0.0
 11
25.5
 21
28.66494
 31
0.0
  0
LINE
  5
25E
330
1D
100
AcDbEntity
  8
0
100
AcDbLine
 10
24.0
 20
33.06494
 30
0.0
 11
26.9
 21
35.26494
 31
0.0
  0
LINE
  5
25F
330
1D
100
AcDbEntity
  8
0
100
AcDbLine
 10
23.5
 20
33.86494
 30
0.0
 11
26.2
 21
35.96494
 31
0.0
  0
LINE
  5
260
330
1D
100
AcDbEntity
  8
0
100
AcDbLine
 10
29.0
 20
33.16494
 30
0.0
 11
31.7
 21
36.66494
 31
0.0
  0
LINE
  5
261
330
1D
100
AcDbEntity
  8
0
100
AcDbLine
 10
29.0
 20
33.16494
 30
0.0
 11
31.7
 21
36.66494
 31
0.0
  0
LINE
  5
262
330
1D
100
AcDbEntity
  8
0
100
AcDbLine
 10
24.0
 20
33.06494
 30
0.0
 11
26.9
 21
35.26494
 31
0.0
  0
LINE
  5
263
330
1D
100
AcDbEntity
  8
0
100
AcDbLine
 10
26.9
 20
35.26494
 30
0.0
 11
29.1
 21
38.16494
 31
0.0
  0
LINE
  5
264
330
1D
100
AcDbEntity
  8
0
100
AcDbLine
 10
26.2
 20
35.96494
 30
0.0
 11
28.3
 21
38.66494
 31
0.0
  0
LINE
  5
265
330
1D
100
AcDbEntity
  8
0
100
AcDbLine
 10
29.1
 20
38.16494
 30
0.0
 11
30.5
 21
41.56494
 31
0.0
  0
LINE
  5
266
330
1D
100
AcDbEntity
  8
0
100
AcDbLine
 10
28.3
 20
38.66494
 30
0.0
 11
29.5
 21
41.76494
 31
0.0
  0
LINE
  5
267
330
1D
100
AcDbEntity
  8
0
100
AcDbLine
 10
26.9
 20
35.26494
 30
0.0
 11
29.1
 21
38.16494
 31
0.0
  0
LINE
  5
268
330
1D
100
AcDbEntity
  8
0
100
AcDbLine
 10
29.1
 20
38.16494
 30
0.0
 11
30.5
 21
41.56494
 31
0.0
  0
LINE
  5
269
330
1D
100
AcDbEntity
  8
0
100
AcDbLine
 10
20.6
 20
58.66494
 30
0.0
 11
24.0
 21
57.26494
 31
0.0
  0
LINE
  5
26A
330
1D
100
AcDbEntity
  8
0
100
AcDbLine
 10
20.4
 20
57.66494
 30
0.0
 11
23.5
 21
56.46494
 31
0.0
  0
LINE
  5
26B
330
1D
100
AcDbEntity
  8
0
100
AcDbLine
 10
24.0
 20
57.26494
 30
0.0
 11
26.9
 21
55.06494
 31
0.0
  0
LINE
  5
26C
330
1D
100
AcDbEntity
  8
0
100
AcDbLine
 10
23.5
 20
56.46494
 30
0.0
 11
26.2
 21
54.36494
 31
0.0
  0
LINE
  5
26D
330
1D
100
AcDbEntity
  8
0
100
AcDbLine
 10
29.0
 20
57.16494
 30
0.0
 11
31.7
 21
53.66494
 31
0.0
  0
LINE
  5
26E
330
1D
100
AcDbEntity
  8
0
100
AcDbLine
 10
27.0
 20
58.707797142857
 30
0.0
 11
29.0
 21
57.16494
 31
0.0
  0
LINE
  5
26F
330
1D
100
AcDbEntity
  8
0
100
AcDbLine
 10
26.9
 20
55.06494
 30
0.0
 11
29.1
 21
52.16494
 31
0.0
  0
LINE
  5
270
330
1D
100
AcDbEntity
  8
0
100
AcDbLine
 10
29.1
 20
52.16494
 30
0.0
 11
30.5
 21
48.76494
 31
0.0
  0
LINE
  5
271
330
1D
100
AcDbEntity
  8
0
100
AcDbLine
 10
26.2
 20
54.36494
 30
0.0
 11
28.3
 21
51.66494
 31
0.0
  0
LINE
  5
272
330
1D
100
AcDbEntity
  8
0
100
AcDbLine
 10
28.3
 20
51.66494
 30
0.0
 11
29.5
 21
48.56494
 31
0.0
  0
LINE
  5
273
330
1D
100
AcDbEntity
  8
0
100
AcDbLine
 10
29.5
 20
48.56494
 30
0.0
 11
30.0
 21
45.16494
 31
0.0
  0
LINE
  5
274
330
1D
100
AcDbEntity
  8
0
100
AcDbLine
 10
26.6
 20
81.16494
 30
0.0
 11
27.0
 21
81.16494
 31
0.0
  0
LINE
  5
275
330
1D
100
AcDbEntity
  8
0
100
AcDbLine
 10
25.7
 20
81.16494
 30
0.0
 11
26.6
 21
81.16494
 31
0.0
  0
LINE
  5
276
330
1D
100
AcDbEntity
  8
0
100
AcDbLine
 10
24.0
 20
81.16494
 30
0.0
 11
25.7
 21
81.16494
 31
0.0
  0
LINE
  5
277
330
1D
100
AcDbEntity
  8
0
100
AcDbLine
 10
22.0
 20
81.16494
 30
0.0
 11
24.0
 21
81.16494
 31
0.0
  0
LINE
  5
278
330
1D
100
AcDbEntity
  8
0
100
AcDbLine
 10
19.6
 20
81.16494
 30
0.0
 11
22.0
 21
81.16494
 31
0.0
  0
LINE
  5
279
330
1D
100
AcDbEntity
  8
0
100
AcDbLine
 10
30.5
 20
41.56494
 30
0.0
 11
31.0
 21
45.16494
 31
0.0
  0
LINE
  5
27A
330
1D
100
AcDbEntity
  8
0
100
AcDbLine
 10
30.5
 20
48.76494
 30
0.0
 11
31.0
 21
45.16494
 31
0.0
  0
LINE
  5
27B
330
1D
100
AcDbEntity
  8
0
100
AcDbLine
 10
30.5
 20
41.56494
 30
0.0
 11
31.0
 21
45.16494
 31
0.0
  0
LINE
  5
27C
330
1D
100
AcDbEntity
  8
0
100
AcDbLine
 10
29.5
 20
41.76494
 30
0.0
 11
30.0
 21
45.16494
 31
0.0
  0
LINE
  5
27D
330
1D
100
AcDbEntity
  8
0
100
AcDbLine
 10
30.5
 20
41.56494
 30
0.0
 11
31.0
 21
45.16494
 31
0.0
  0
LINE
  5
27E
330
1D
100
AcDbEntity
  8
0
100
AcDbLine
 10
33.4
 20
40.76494
 30
0.0
 11
34.0
 21
45.16494
 31
0.0
  0
LINE
  5
27F
330
1D
100
AcDbEntity
  8
0
100
AcDbLine
 10
31.7
 20
36.66494
 30
0.0
 11
33.4
 21
40.76494
 31
0.0
  0
LINE
  5
280
330
1D
100
AcDbEntity
  8
0
100
AcDbLine
 10
33.4
 20
40.76494
 30
0.0
 11
34.0
 21
45.16494
 31
0.0
  0
LINE
  5
281
330
1D
100
AcDbEntity
  8
0
100
AcDbLine
 10
33.4
 20
49.56494
 30
0.0
 11
34.0
 21
45.16494
 31
0.0
  0
LINE
  5
282
330
1D
100
AcDbEntity
  8
0
100
AcDbLine
 10
31.7
 20
53.66494
 30
0.0
 11
33.4
 21
49.56494
 31
0.0
  0
LINE
  5
283
330
1D
100
AcDbEntity
  8
0
100
AcDbLine
 10
20.0706
 20
23.91134
 30
0.0
 11
22.9647
 21
22.71134
 31
0.0
  0
LINE
  5
284
330
1D
100
AcDbEntity
  8
0
100
AcDbLine
 10
17.0
 20
24.33484
 30
0.0
 11
20.0706
 21
23.91134
 31
0.0
  0
LINE
  5
285
330
1D
100
AcDbEntity
  8
0
100
AcDbLine
 10
13.9647
 20
23.73484
 30
0.0
 11
17.0
 21
24.15834
 31
0.0
  0
LINE
  5
286
330
1D
100
AcDbEntity
  8
0
100
AcDbLine
 10
13.9294
 20
23.91134
 30
0.0
 11
17.0
 21
24.33484
 31
0.0
  0
LINE
  5
287
330
1D
100
AcDbEntity
  8
0
100
AcDbLine
 10
5.0
 20
12.33484
 30
0.0
 11
5.42353
 21
9.26428
 31
0.0
  0
LINE
  5
2AF
330
1D
100
AcDbEntity
  8
0
100
AcDbLine
 10
26.6
 20
81.16494
 30
0.0
 11
26.6
 21
55.292526206897
 31
0.0
  0
LINE
  5
2B0
330
1D
100
AcDbEntity
  8
0
100
AcDbLine
 10
29.0
 20
12.33484
 30
0.0
 11
28.5765
 21
9.26428
 31
0.0
  0
ENDSEC
  0
SECTION
  2
OBJECTS
  0
DICTIONARY
  5
C
330
0
100
AcDbDictionary
281
     1
  3
ACAD_GROUP
350
D
  3
ACAD_LAYOUT
350
1A
  3
ACAD_MLEADERSTYLE
350
2B3
  3
ACAD_MLINESTYLE
350
17
  3
ACAD_PLOTSETTINGS
350
19
  3
ACAD_PLOTSTYLENAME
350
E
  3
ACAD_SCALELIST
350
28D
  3
AcDbVariableDictionary
350
2B1
  3
DWGPROPS
350
2B6
  0
DICTIONARY
  5
D
102
{ACAD_REACTORS
330
C
102
}
330
C
100
AcDbDictionary
281
     1
  0
DICTIONARY
  5
1A
102
{ACAD_REACTORS
330
C
102
}
330
C
100
AcDbDictionary
281
     1
  3
Layout1
350
1C
  3
Model
350
1E
  0
DICTIONARY
  5
2B3
102
{ACAD_REACTORS
330
C
102
}
330
C
100
AcDbDictionary
281
     1
  0
DICTIONARY
  5
17
102
{ACAD_REACTORS
330
C
102
}
330
C
100
AcDbDictionary
281
     1
  3
Standard
350
18
  0
DICTIONARY
  5
19
102
{ACAD_REACTORS
330
C
102
}
330
C
100
AcDbDictionary
281
     1
  0
ACDBDICTIONARYWDFLT
  5
E
102
{ACAD_REACTORS
330
C
102
}
330
C
100
AcDbDictionary
281
     1
  3
Normal
350
F
100
AcDbDictionaryWithDefault
340
F
  0
DICTIONARY
  5
28D
102
{ACAD_REACTORS
330
C
102
}
330
C
100
AcDbDictionary
281
     1
  3
A0
350
28E
  3
A1
350
28F
  3
A2
350
290
  3
A3
350
291
  3
A4
350
292
  3
A5
350
293
  3
A6
350
294
  3
A7
350
295
  3
A8
350
296
  3
A9
350
297
  3
B0
350
298
  3
B1
350
299
  3
B2
350
29A
  3
B3
350
29B
  3
B4
350
29C
  3
B5
350
29D
  3
B6
350
29E
  3
B7
350
29F
  3
B8
350
2A0
  3
B9
350
2A1
  3
C0
350
2A2
  3
C1
350
2A3
  3
C2
350
2A4
  3
C3
350
2A5
  3
C4
350
2A6
  3
C5
350
2A7
  3
C6
350
2A8
  3
C7
350
2A9
  3
C8
350
2AA
  3
C9
350
2AB
  3
D0
350
2AC
  3
D1
350
2AD
  3
D2
350
2AE
  0
DICTIONARY
  5
2B1
102
{ACAD_REACTORS
330
C
102
}
330
C
100
AcDbDictionary
281
     1
  3
CANNOSCALE
350
2B4
  0
XRECORD
  5
2B6
102
{ACAD_REACTORS
330
C
102
}
330
C
100
AcDbXrecord
280
     1
  1
DWGPROPS COOKIE
  2

  3

  4

  6

  7

  8
MARTIN
  9

300
=
301
=
302
=
303
=
304
=
305
=
306
=
307
=
308
=
309
=
 40
0.0
 41
2455820.779373368
 42
2455820.783918542
  1

 90
        0
  0
LAYOUT
  5
1C
102
{ACAD_REACTORS
330
1A
102
}
330
1A
100
AcDbPlotSettings
  1

  2
none_device
  4

  6

 40
0.0
 41
0.0
 42
0.0
 43
0.0
 44
0.0
 45
0.0
 46
0.0
 47
0.0
 48
0.0
 49
0.0
140
0.0
141
0.0
142
1.0
143
1.0
 70
   688
 72
     0
 73
     0
 74
     5
  7

 75
    16
147
1.0
148
0.0
149
0.0
100
AcDbLayout
  1
Layout1
 70
     1
 71
     1
 10
0.0
 20
0.0
 11
12.0
 21
9.0
 12
0.0
 22
0.0
 32
0.0
 14
1.000000000000E+20
 24
1.000000000000E+20
 34
1.000000000000E+20
 15
-1.000000000000E+20
 25
-1.000000000000E+20
 35
-1.000000000000E+20
146
0.0
 13
0.0
 23
0.0
 33
0.0
 16
1.0
 26
0.0
 36
0.0
 17
0.0
 27
1.0
 37
0.0
 76
     0
330
1B
  0
LAYOUT
  5
1E
102
{ACAD_REACTORS
330
1A
102
}
330
1A
100
AcDbPlotSettings
  1

  2
none_device
  4

  6

 40
0.0
 41
0.0
 42
0.0
 43
0.0
 44
0.0
 45
0.0
 46
0.0
 47
0.0
 48
0.0
 49
0.0
140
0.0
141
0.0
142
1.0
143
1.0
 70
  1712
 72
     0
 73
     0
 74
     0
  7

 75
     0
147
1.0
148
0.0
149
0.0
100
AcDbLayout
  1
Model
 70
     1
 71
     0
 10
0.0
 20
0.0
 11
12.0
 21
9.0
 12
0.0
 22
0.0
 32
0.0
 14
0.0
 24
-0.16494
 34
0.0
 15
34.0
 25
81.16494
 35
0.0
146
0.0
 13
0.0
 23
0.0
 33
0.0
 16
1.0
 26
0.0
 36
0.0
 17
0.0
 27
1.0
 37
0.0
 76
     0
330
1D
331
288
  0
MLINESTYLE
  5
18
102
{ACAD_REACTORS
330
17
102
}
330
17
100
AcDbMlineStyle
  2
Standard
 70
     0
  3

 62
   256
 51
90.0
 52
90.0
 71
     2
 49
0.5
 62
   256
  6
BYLAYER
 49
-0.5
 62
   256
  6
BYLAYER
  0
ACDBPLACEHOLDER
  5
F
102
{ACAD_REACTORS
330
E
102
}
330
E
  0
SCALE
  5
28E
102
{ACAD_REACTORS
330
28D
102
}
330
28D
100
AcDbScale
 70
     0
300
1:1
140
1.0
141
1.0
290
     1
  0
SCALE
  5
28F
102
{ACAD_REACTORS
330
28D
102
}
330
28D
100
AcDbScale
 70
     0
300
1:2
140
1.0
141
2.0
290
     0
  0
SCALE
  5
290
102
{ACAD_REACTORS
330
28D
102
}
330
28D
100
AcDbScale
 70
     0
300
1:4
140
1.0
141
4.0
290
     0
  0
SCALE
  5
291
102
{ACAD_REACTORS
330
28D
102
}
330
28D
100
AcDbScale
 70
     0
300
1:5
140
1.0
141
5.0
290
     0
  0
SCALE
  5
292
102
{ACAD_REACTORS
330
28D
102
}
330
28D
100
AcDbScale
 70
     0
300
1:8
140
1.0
141
8.0
290
     0
  0
SCALE
  5
293
102
{ACAD_REACTORS
330
28D
102
}
330
28D
100
AcDbScale
 70
     0
300
1:10
140
1.0
141
10.0
290
     0
  0
SCALE
  5
294
102
{ACAD_REACTORS
330
28D
102
}
330
28D
100
AcDbScale
 70
     0
300
1:16
140
1.0
141
16.0
290
     0
  0
SCALE
  5
295
102
{ACAD_REACTORS
330
28D
102
}
330
28D
100
AcDbScale
 70
     0
300
1:20
140
1.0
141
20.0
290
     0
  0
SCALE
  5
296
102
{ACAD_REACTORS
330
28D
102
}
330
28D
100
AcDbScale
 70
     0
300
1:30
140
1.0
141
30.0
290
     0
  0
SCALE
  5
297
102
{ACAD_REACTORS
330
28D
102
}
330
28D
100
AcDbScale
 70
     0
300
1:40
140
1.0
141
40.0
290
     0
  0
SCALE
  5
298
102
{ACAD_REACTORS
330
28D
102
}
330
28D
100
AcDbScale
 70
     0
300
1:50
140
1.0
141
50.0
290
     0
  0
SCALE
  5
299
102
{ACAD_REACTORS
330
28D
102
}
330
28D
100
AcDbScale
 70
     0
300
1:100
140
1.0
141
100.0
290
     0
  0
SCALE
  5
29A
102
{ACAD_REACTORS
330
28D
102
}
330
28D
100
AcDbScale
 70
     0
300
2:1
140
2.0
141
1.0
290
     0
  0
SCALE
  5
29B
102
{ACAD_REACTORS
330
28D
102
}
330
28D
100
AcDbScale
 70
     0
300
4:1
140
4.0
141
1.0
290
     0
  0
SCALE
  5
29C
102
{ACAD_REACTORS
330
28D
102
}
330
28D
100
AcDbScale
 70
     0
300
8:1
140
8.0
141
1.0
290
     0
  0
SCALE
  5
29D
102
{ACAD_REACTORS
330
28D
102
}
330
28D
100
AcDbScale
 70
     0
300
10:1
140
10.0
141
1.0
290
     0
  0
SCALE
  5
29E
102
{ACAD_REACTORS
330
28D
102
}
330
28D
100
AcDbScale
 70
     0
300
100:1
140
100.0
141
1.0
290
     0
  0
SCALE
  5
29F
102
{ACAD_REACTORS
330
28D
102
}
330
28D
100
AcDbScale
 70
     0
300
1/128" = 1'-0"
140
0.0078125
141
12.0
290
     0
  0
SCALE
  5
2A0
102
{ACAD_REACTORS
330
28D
102
}
330
28D
100
AcDbScale
 70
     0
300
1/64" = 1'-0"
140
0.015625
141
12.0
290
     0
  0
SCALE
  5
2A1
102
{ACAD_REACTORS
330
28D
102
}
330
28D
100
AcDbScale
 70
     0
300
1/32" = 1'-0"
140
0.03125
141
12.0
290
     0
  0
SCALE
  5
2A2
102
{ACAD_REACTORS
330
28D
102
}
330
28D
100
AcDbScale
 70
     0
300
1/16" = 1'-0"
140
0.0625
141
12.0
290
     0
  0
SCALE
  5
2A3
102
{ACAD_REACTORS
330
28D
102
}
330
28D
100
AcDbScale
 70
     0
300
3/32" = 1'-0"
140
0.09375
141
12.0
290
     0
  0
SCALE
  5
2A4
102
{ACAD_REACTORS
330
28D
102
}
330
28D
100
AcDbScale
 70
     0
300
1/8" = 1'-0"
140
0.125
141
12.0
290
     0
  0
SCALE
  5
2A5
102
{ACAD_REACTORS
330
28D
102
}
330
28D
100
AcDbScale
 70
     0
300
3/16" = 1'-0"
140
0.1875
141
12.0
290
     0
  0
SCALE
  5
2A6
102
{ACAD_REACTORS
330
28D
102
}
330
28D
100
AcDbScale
 70
     0
300
1/4" = 1'-0"
140
0.25
141
12.0
290
     0
  0
SCALE
  5
2A7
102
{ACAD_REACTORS
330
28D
102
}
330
28D
100
AcDbScale
 70
     0
300
3/8" = 1'-0"
140
0.375
141
12.0
290
     0
  0
SCALE
  5
2A8
102
{ACAD_REACTORS
330
28D
102
}
330
28D
100
AcDbScale
 70
     0
300
1/2" = 1'-0"
140
0.5
141
12.0
290
     0
  0
SCALE
  5
2A9
102
{ACAD_REACTORS
330
28D
102
}
330
28D
100
AcDbScale
 70
     0
300
3/4" = 1'-0"
140
0.75
141
12.0
290
     0
  0
SCALE
  5
2AA
102
{ACAD_REACTORS
330
28D
102
}
330
28D
100
AcDbScale
 70
     0
300
1" = 1'-0"
140
1.0
141
12.0
290
     0
  0
SCALE
  5
2AB
102
{ACAD_REACTORS
330
28D
102
}
330
28D
100
AcDbScale
 70
     0
300
1-1/2" = 1'-0"
140
1.5
141
12.0
290
     0
  0
SCALE
  5
2AC
102
{ACAD_REACTORS
330
28D
102
}
330
28D
100
AcDbScale
 70
     0
300
3" = 1'-0"
140
3.0
141
12.0
290
     0
  0
SCALE
  5
2AD
102
{ACAD_REACTORS
330
28D
102
}
330
28D
100
AcDbScale
 70
     0
300
6" = 1'-0"
140
6.0
141
12.0
290
     0
  0
SCALE
  5
2AE
102
{ACAD_REACTORS
330
28D
102
}
330
28D
100
AcDbScale
 70
     0
300
1'-0" = 1'-0"
140
12.0
141
12.0
290
     0
  0
DICTIONARYVAR
  5
2B4
102
{ACAD_REACTORS
330
2B1
102
}
330
2B1
100
DictionaryVariables
280
     0
  1
1:1
  0
ENDSEC
  0
SECTION
  2
THUMBNAILIMAGE
 90
    16364
310
28000000B40000005500000001000800000000000000000000000000000000000000000000000000FFFFFF000000FF0000FFFF0000FF0000FFFF0000FF000000FF00FF000000000080808000C0C0C0000000FF007F7FFF000000A5005252A50000007F003F3F7F0000004C0026264C000000260013132600003FFF007F9FFF
310
000029A5005267A500001F7F003F4F7F0000134C00262F4C000009260013172600007FFF007FBFFF000052A500527CA500003F7F003F5F7F0000264C0026394C0000132600131C260000BFFF007FDFFF00007CA5005291A500005F7F003F6F7F0000394C0026424C00001C26001321260000FFFF007FFFFF0000A5A50052A5
310
A500007F7F003F7F7F00004C4C00264C4C00002626001326260000FFBF007FFFDF0000A57C0052A59100007F5F003F7F6F00004C3900264C420000261C001326210000FF7F007FFFBF0000A5520052A57C00007F3F003F7F5F00004C2600264C39000026130013261C0000FF3F007FFF9F0000A5290052A56700007F1F003F
310
7F4F00004C1300264C2F00002609001326170000FF00007FFF7F0000A5000052A55200007F00003F7F3F00004C0000264C260000260000132613003FFF00009FFF7F0029A5000067A552001F7F00004F7F3F00134C00002F4C260009260000172613007FFF0000BFFF7F0052A500007CA552003F7F00005F7F3F00264C0000
310
394C2600132600001C261300BFFF0000DFFF7F007CA5000091A552005F7F00006F7F3F00394C0000424C26001C26000021261300FFFF0000FFFF7F00A5A50000A5A552007F7F00007F7F3F004C4C00004C4C26002626000026261300FFBF0000FFDF7F00A57C0000A59152007F5F00007F6F3F004C3900004C422600261C00
310
0026211300FF7F0000FFBF7F00A5520000A57C52007F3F00007F5F3F004C2600004C39260026130000261C1300FF3F0000FF9F7F00A5290000A56752007F1F00007F4F3F004C1300004C2F26002609000026171300FF000000FF7F7F00A5000000A55252007F0000007F3F3F004C0000004C2626002600000026131300FF00
310
3F00FF7F9F00A5002900A55267007F001F007F3F4F004C0013004C262F002600090026131700FF007F00FF7FBF00A5005200A5527C007F003F007F3F5F004C0026004C2639002600130026131C00FF00BF00FF7FDF00A5007C00A55291007F005F007F3F6F004C0039004C26420026001C0026132100FF00FF00FF7FFF00A5
310
00A500A552A5007F007F007F3F7F004C004C004C264C002600260026132600BF00FF00DF7FFF007C00A5009152A5005F007F006F3F7F0039004C0042264C001C002600211326007F00FF00BF7FFF005200A5007C52A5003F007F005F3F7F0026004C0039264C00130026001C1326003F00FF009F7FFF002900A5006752A500
310
1F007F004F3F7F0013004C002F264C000900260017132600000000002D2D2D005B5B5B0089898900B7B7B700B3B3B30000000000000000000000000000000000000000000000000000000000000000000000000000000000000000000000000000000000000000000000000000000000000000000000000000000000000007
310
00000000000000000000070707000000000000000000000700000000000000000000000000000000000000000000000000000000000000000000000000000000000000000000000000000000000000000000000000000000000000000000000000000000000000000000000000000000000000000000000000000000000000
310
00000000000000000000000000000000000000000000000000000000000000000000000000000000000000000000000000000007000700000000070707070707070707070707000000000007000700000000000000000000000000000000000000000000000000000000000000000000000000000000000000000000000000
310
00000000000000000000000000000000000000000000000000000000000000000000000000000000000000000000000000000000000000000000000000000000000000000000000000000000000000000000000000000000000000000000000000000000000000070000000000000007070000000000000000000707000000
310
07000007000000000000000000000000000000000000000000000000000000000000000000000000000000000000000000000000000000000000000000000000000000000000000000000000000000000000000000000000000000000000000000000000000000000000000000000000000000000000000000000000000000
310
00000000000000000000000000000000000000000000000000000000000700000700070707000000000000000000000000000707000007000007000000000000000000000000000000000000000000000000000000000000000000000000000000000000000000000000000000000000000000000000000000000000000000
310
00000000000000000000000000000000000000000000000000000000000000000000000000000000000000000000000000000000000000000000000000000000000000000000000000000000000000000007000000070007070000000000000000000000000000000707000700000007000000000000000000000000000000
310
00000000000000000000000000000000000000000000000000000000000000000000000000000000000000000000000000000000000000000000000000000000000000000000000000000000000000000000000000000000000000000000000000000000000000000000000000000000000000000000000000000000000000
310
00000000000007000000070007070000000000000000000000000000000000070700070000070000000000000000000000000000000000000000000000000000000000000000000000000000000000000000000000000000000000000000000000000000000000000000000000000000000000000000000000000000000000
310
00000000000000000000000000000000000000000000000000000000000000000000000000000000000000000000000000000000000000000000000700000700000700000000000000000000000000000000000000070007000000070000000000000000000000000000000000000000000000000000000000000000000000
310
00000000000000000000000000000000000000000000000000000000000000000000000000000000000000000000000000000000000000000000000000000000000000000000000000000000000000000000000000000000000000000000000000000000000000000000000000000007000000070007070000000000000000
310
00000000000000000000000707000700000700000000000000000000000000000000000000000000000000000000000000000000000000000000000000000000000000000000000000000000000000000000000000000000000000000000000000000000000000000000000000000000000000000000000000000000000000
310
00000000000000000000000000000000000000000000000000000000000000000000000000070000070007070000000000000000000000000000000000000000000700070000000700000000000000000000000000000000000000000000000000000000000000000000000000000000000000000000000000000000000000
310
00000000000000000000000000000000000000000000000000000000000000000000000000000000000000000000000000000000000000000000000000000000000000000000000000000000000000000000000000000000000007000007000707000000000000000000000000000000000000000000070000070000070000
310
00000000000000000000000000000000000000000000000000000000000000000000000000000000000000000000000000000000000000000000000000000000000000000000000000000000000000000000000000000000000000000000000000000000000000000000000000000000000000000000000000000000000000
310
00000000000000000000000000000000070000070007000000000000000000000000000000000000000000000007000700000700000000000000000000000000000000000000000000000000000000000000000000000000000000000000000000000000000000000000000000000000000000000000000000000000000000
310
00000000000000000000000000000000000000000000000000000000000000000000000000000000000000000000000000000000000000000000000000000000000000000007000007000700000000000000000000000000000000000000000000000700070000070000000000000000000000000000000000000000000000
310
00000000000000000000000000000000000000000000000000000000000000000000000000000000000000000000000000000000000000000000000000000000000000000000000000000000000000000000000000000000000000000000000000000000000000000000000000000000000000000000000000000700000700
310
07000000000000000000000000000000000000000000000007000000000000000000000000000000000000000000000000000000000000000000000000000000000000000000000000000000000000000000000000000000000000000000000000000000000000000000000000000000000000000000000000000000000000
310
00000000000000000000000000000000000000000000000000000000000000000000000000000000000000000000000007000007000700000000000000000000000000000000000000000000000700070000070000000000000000000000000000000000000000000000000000000000000000000000000000000000000000
310
00000000000000000000000000000000000000000000000000000000000000000000000000000000000000000000000000000000000000000000000000000000000000000000000000000000000000000000000000000000000000000000000000000000000700000700070000000000000000000000000000000000000000
310
00000007000700000700000000000000000000000000000000000000000000000000000000000000000000000000000000000000000000000000000000000000000000000000000000000000000000000000000000000000000000000000000000000000000000000000000000000000000000000000000000000000000000
310
00000000000000000000000000000000000000000000000000000007000007000700000000000000000000000000000000000000000000000700070000070000000000000000000000000000000000000000000000000000000000000000000000000000000000000000000000000000000000000000000000000000000000
310
00000000000000000000000000000000000000000000000000000000000000000000000000000000000000000000000000000000000000000000000000000000000000000000000000000000000000000700000700070000000000000000000000000000000000000000000000070007000007000000000000000000000000
310
00000000000000000000000000000000000000000000000000000000000000000000000000000000000000000000000000000000000000000000000000000000000000000000000000000000000000000000000000000000000000000000000000000000000000000000000000000000000000000000000000000000000000
310
00000000000007000007000707000000000000000000000000000000000000000000070707000000070000000000000000000000000000000000000000000000000000000000000000000000000000000000000000000000000000000000000000000000000000000000000000000000000000000000000000000000000000
310
00000000000000000000000000000000000000000000000000000000000000000000000000000000000000000000000000000000000000000000000700000007000700000000000000000000000000000000000000000007000700000700000000000000000000000000000000000000000000000000000000000000000000
310
00000000000000000000000000000000000000000000000000000000000000000000000000000000000000000000000000000000000000000000000000000000000000000000000000000000000000000000000000000000000000000000000000000000000000000000000000000000000700000700070700000000000000
310
00000000000000000000000007070700000007000000000000000000000000000000000000000000000000000000000000000000000000000000000000000000000000000000000000000000000000000000000000000000000000000000000000000000000000000000000000000000000000000000000000000000000000
310
00000000000000000000000000000000000000000000000000000000000000000000000000000007000000070007000000000000000000000000000000000000070700070000070000000000000000000000000000000000000000000000000000000000000000000000000000000000000000000000000000000000000000
310
00000000000000000000000000000000000000000000000000000000000000000000000000000000000000000000000000000000000000000000000000000000000000000000000000000000000000000000000000000000000000000007000000070007000000000000000000000000000000000007000700000007000000
310
00000000000000000000000000000000000000000000000000000000000000000000000000000000000000000000000000000000000000000000000000000000000000000000000000000000000000000000000000000000000000000000000000000000000000000000000000000000000000000000000000000000000000
310
00000000000000000000000000000000000000000700000700000707000000000000000000000000000707000007000007000000000000000000000000000000000000000000000000000000000000000000000000000000000000000000000000000000000000000000000000000000000000000000000000000000000000
310
00000000000000000000000000000000000000000000000000000000000000000000000000000000000000000000000000000000000000000000000000000000000000000000000000070000000700000007070000000000000000000707000000070000070000000000000000000000000000000000000000000000000000
310
00000000000000000000000000000000000000000000000000000000000000000000000000000000000000000000000000000000000000000000000000000000000000000000000000000000000000000000000000000000000000000000000000000000000000000000000000000000000000000000000000000000000000
310
07000000070700000707070700000007070707000007070000000700000000000000000000000000000000000000000000000000000000000000000000000000000000000000000000000000000000000000000000000000000000000000000000000000000000000000000000000000000000000000000000000000000000
310
00000000000000000000000000000000000000000000000000000000000000000000000000000000000000000000000000000000000007000000000707000007070707070707000007070000000007000000000000000000000000000000000000000000000000000000000000000000000000000000000000000000000000
310
00000000000000000000000000000000000000000000000000000000000000000000000000000000000000000000000000000000000000000000000000000000000000000000000000000000000000000000000000000000000000000000000000000000000000000000000007000000000007070700000000000707070000
310
00000007000000000000000000000000000000000000000000000000000000000000000000000000000000000000000000000000000000000000000000000000000000000000000000000000000000000000000000000000000000000000000000000000000000000000000000000000000000000000000000000000000000
310
00000000000000000000000000000000000000000000000000000000000000000000000700000000000000070707070700000000000000070000000000000000000000000000000000000000000000000000000000000000000000000000000000000000000000000000000000000000000000000000000000000000000000
310
00000000000000000000000000000000000000000000000000000000000000000000000000000000000000000000000000000000000000000000000000000000000000000000000000000000000000000000000000000000000700000000000000000000000000000000000700000000000000000000000000000000000000
310
00000000000000000000000000000000000000000000000000000000000000000000000000000000000000000000000000000000000000000000000000000000000000000000000000000000000000000000000000000000000000000000000000000000000000000000000000000000000000000000000000000000000000
310
00000000000000000000000000000007070707070707070707070707070707070707000000000000000000000000000000000000000000000000000000000000000000000000000000000000000000000000000000000000000000000000000000000000000000000000000000000000000000000000000000000000000000
310
00000000000000000000000000000000000000000000000000000000000000000000000000000000000000000000000000000000000000000000000000000000000000000700000000000000000000000000000000000700000000000000000000000000000000000000000000000000000000000000000000000000000000
310
00000000000000000000000000000000000000000000000000000000000000000000000000000000000000000000000000000000000000000000000000000000000000000000000000000000000000000000000000000000000000000000000000000000000000000000000000000000000000000000000000070000000000
310
00000000000000000000000007000000000000000000000000000000000000000000000000000000000000000000000000000000000000000000000000000000000000000000000000000000000000000000000000000000000000000000000000000000000000000000000000000000000000000000000000000000000000
310
00000000000000000000000000000000000000000000000000000000000000000000000000000000000000000000070000000000070707070707070707000000000007000000000000000000000000000000000000000000000000000000000000000000000000000000000000000000000000000000000000000000000000
310
00000000000000000000000000000000000000000000000000000000000000000000000000000000000000000000000000000000000000000000000000000000000000000000000000000000000000000000000000000000000000000000000000000700000000070700070707070707070007070000000007000000000000
310
00000000000000000000000000000000000000000000000000000000000000000000000000000000000000000000000000000000000000000000000000000000000000000000000000000000000000000000000000000000000000000000000000000000000000000000000000000000000000000000000000000000000000
310
00000000000000000000000000000000000000000000000700000000070007070000000000000007070007000000000700000000000000000000000000000000000000000000000000000000000000000000000000000000000000000000000000000000000000000000000000000000000000000000000000000000000000
310
00000000000000000000000000000000000000000000000000000000000000000000000000000000000000000000000000000000000000000000000000000000000000000000000000000007000000070707070000000000000000000000070707070000000700000000000000000000000000000000000000000000000000
310
00000000000000000000000000000000000000000000000000000000000000000000000000000000000000000000000000000000000000000000000000000000000000000000000000000000000000000000000000000000000000000000000000000000000000000000000000000000000000000000000000000000000000
310
07000000070007000000000000000000000000000000070007000007000000000000000000000000000000000000000000000000000000000000000000000000000000000000000000000000000000000000000000000000000000000000000000000000000000000000000000000000000000000000000000000000000000
310
00000000000000000000000000000000000000000000000000000000000000000000000000000000000000000000000000000000000700000700070000000000000000000000000000000000070007000007000000000000000000000000000000000000000000000000000000000000000000000000000000000000000000
310
00000000000000000000000000000000000000000000000000000000000000000000000000000000000000000000000000000000000000000000000000000000000000000000000000000000000000000000000000000000000000000000000000000000000000000007000000070700000000000000000000000000000000
310
00000007070000000700000000000000000000000000000000000000000000000000000000000000000000000000000000000000000000000000000000000000000000000000000000000000000000000000000000000000000000000000000000000000000000000000000000000000000000000000000000000000000000
310
00000000000000000000000000000000000000000000000000000000000007000000070700000000000000000000000000000000000000000007070000070000000000000000000000000000000000000000000000000000000000000000000000000000000000000000000000000000000000000000000000000000000000
310
00000000000000000000000000000000000000000000000000000000000000000000000000000000000000000000000000000000000000000000000000000000000000000000000000000000000000000000000700000707000000000000000000000000000000000000000000000007000000070000000000000000000000
310
00000000000000000000000000000000000000000000000000000000000000000000000000000000000000000000000000000000000000000000000000000000000000000000000000000000000000000000000000000000000000000000000000000000000000000000000000000000000000000000000000000000000000
310
00000000000000000700000007070000000000000000000000000000000000000000000000070700000700000000000000000000000000000000000000000000000000000000000000000000000000000000000000000000000000000000000000000000000000000000000000000000000000000000000000000000000000
310
00000000000000000000000000000000000000000000000000000000000000000000000000000000000000000000000000000000000000000000000000070000070700000000000000000000000000000000000000000000000000070000000700000000000000000000000000000000000000000000000000000000000000
310
00000000000000000000000000000000000000000000000000000000000000000000000000000000000000000000000000000000000000000000000000000000000000000000000000000000000000000000000000000000000000000000000000000000000000000000000000000000000007000007070000000000000000
310
00000000000000000000000000000000000707000007000000000000000000000000000000000000000000000000000000000000000000000000000000000000000000000000000000000000000000000000000000000000000000000000000000000000000000000000000000000000000000000000000000000000000000
310
00000000000000000000000000000000000000000000000000000000000000000000000000000000070000070700000000000000000000000000000000000000000000000000070700000700000000000000000000000000000000000000000000000000000000000000000000000000000000000000000000000000000000
310
00000000000000000000000000000000000000000000000000000000000000000000000000000000000000000000000000000000000000000000000000000000000000000000000000000000000000000000000000000000000000000007000007070000000000000000000000000000000000000000000000000007070000
310
07000000000000000000000000000000000000000000000000000000000000000000000000000000000000000000000000000000000000000000000000000000000000000000000000000000000000000000000000000000000000000000000000000000000000000000000000000000000000000000000000000000000000
310
00000000000000000000000000000000000000070000070700000000000000000000000000000000000000000000000000000000000000000000000000000000000000000000000000000000000000000000000000000000000000000000000000000000000000000000000000000000000000000000000000000000000000
310
00000000000000000000000000000000000000000000000000000000000000000000000000000000000000000000000000000000000000000000000000000000000000000000000007000007070000000000000000000000000000000000000000000000000007070000070000000000000000000000000000000000000000
310
00000000000000000000000000000000000000000000000000000000000000000000000000000000000000000000000000000000000000000000000000000000000000000000000000000000000000000000000000000000000000000000000000000000000000000000000000000000000000000000000000000000000700
310
00070700000000000000000000000000000000000000000000000000070700000700000000000000000000000000000000000000000000000000000000000000000000000000000000000000000000000000000000000000000000000000000000000000000000000000000000000000000000000000000000000000000000
310
00000000000000000000000000000000000000000000000000000000000000000000000000000000000000000000000000000007000007070000000000000000000000000000000000000000000000000007070000070000000000000000000000000000000000000000000000000000000000000000000000000000000000
310
00000000000000000000000000000000000000000000000000000000000000000000000000000000000000000000000000000000000000000000000000000000000000000000000000000000000000000000000000000000000000000000000000000000000000000700000707000000000000000000000000000000000000
310
00000000000000070700000700000000000000000000000000000000000000000000000000000000000000000000000000000000000000000000000000000000000000000000000000000000000000000000000000000000000000000000000000000000000000000000000000000000000000000000000000000000000000
310
00000000000000000000000000000000000000000000000000000000000007000000070000000000000000000000000000000000000000000000000007000000070000000000000000000000000000000000000000000000000000000000000000000000000000000000000000000000000000000000000000000000000000
310
00000000000000000000000000000000000000000000000000000000000000000000000000000000000000000000000000000000000000000000000000000000000000000000000000000000000000000000000700000007070000000000000000000000000000000000000000000000070700000700000000000000000000
310
00000000000000000000000000000000000000000000000000000000000000000000000000000000000000000000000000000000000000000000000000000000000000000000000000000000000000000000000000000000000000000000000000000000000000000000000000000000000000000000000000000000000000
310
00000000000000000000070000000700000000000000000000000000000000000000000000000700000007000000000000000000000000000000000000000000000000000000000000000000000000000000000000000000000000000000000000000000000000000000000000000000000000000000000000000000000000
310
00000000000000000000000000000000000000000000000000000000000000000000000000000000000000000000000000000000000000000000000000000007000000000700000000000000000000000000000000000000000007000000070000000000000000000000000000000000000000000000000000000000000000
310
00000000000000000000000000000000000000000000000000000000000000000000000000000000000000000000000000000000000000000000000000000000000000000000000000000000000000000000000000000000000000000000000000000000000000000000000000000000000000000007000000070700000000
310
00000000000000000000000000000007070000000700000000000000000000000000000000000000000000000000000000000000000000000000000000000000000000000000000000000000000000000000000000000000000000000000000000000000000000000000000000000000000000000000000000000000000000
310
00000000000000000000000000000000000000000000000000000000000000000000000000000000000000000700000007070000000000000000000000000000000000070700000007000000000000000000000000000000000000000000000000000000000000000000000000000000000000000000000000000000000000
310
00000000000000000000000000000000000000000000000000000000000000000000000000000000000000000000000000000000000000000000000000000000000000000000000000000000000000000000000000000000000000000000000000070000000707070000000000000000000000000000000707000000070000
310
00000000000000000000000000000000000000000000000000000000000000000000000000000000000000000000000000000000000000000000000000000000000000000000000000000000000000000000000000000000000000000000000000000000000000000000000000000000000000000000000000000000000000
310
00000000000000000000000000000000000000000000000007000007000707070000000000000000000000070707000700000700000000000000000000000000000000000000000000000000000000000000000000000000000000000000000000000000000000000000000000000000000000000000000000000000000000
310
00000000000000000000000000000000000000000000000000000000000000000000000000000000000000000000000000000000000000000000000000000000000000000000000000000000000007000700000707070707070000000707070707070000070007000000000000000000000000000000000000000000000000
310
00000000000000000000000000000000000000000000000000000000000000000000000000000000000000000000000000000000000000000000000000000000000000000000000000000000000000000000000000000000000000000000000000000000000000000000000000000000000000000000000000000000000000
310
00000000000707000000000707070007070700070707000000000707000000000000000000000000000000000000000000000000000000000000000000000000000000000000000000000000000000000000000000000000000000000000000000000000000000000000000000000000000000000000000000000000000000
310
00000000000000000000000000000000000000000000000000000000000000000000000000000000000000000000000000000000000000000000000700000000000000070707070700000000000000070000000000000000000000000000000000000000000000000000000000000000000000000000000000000000000000
310
00000000000000000000000000000000000000000000000000000000000000000000000000000000000000000000000000000000000000000000000000000000000000000000000000000000000000000000000000000000000000000000000000000000000000000000000000000000070000000000000000000000000000
310
00000000000700000000000000000000000000000000000000000000000000000000000000000000000000000000000000000000000000000000000000000000000000000000000000000000000000000000000000000000000000000000000000000000000000000000000000000000000000000000000000000000000000
310
00000000000000000000000000000000000000000000000000000000000000000000000000000700000000000000000000000000000000000000070000000000000000000000000000000000000000000000000000000000000000000000000000000000000000000000000000000000000000000000000000000000000000
310
00000000000000000000000000000000000000000000000000000000000000000000000000000000000000000000000000000000000000000000000000000000000000000000000000000000000000000000000000000000000000070000000000000000000000000000000000000007000000000000000000000000000000
310
00000000000000000000000000000000000000000000000000000000000000000000000000000000000000000000000000000000000000000000000000000000000000000000000000000000000000000000000000000000000000000000000000000000000000000000000000000000000000000000000000000000000000
310
00000000000000000000000000000000000700000000000000000000000000000000000000070000000000000000000000000000000000000000000000000000000000000000000000000000000000000000000000000000000000000000000000000000000000000000000000000000000000000000000000000000000000
310
00000000000000000000000000000000000000000000000000000000000000000000000000000000000000000000000000000000000000000000000000000000000000000000070000000000000000000000000000000000000007000000000000000000000000000000000000000000000000000000000000000000000000
310
00000000000000000000000000000000000000000000000000000000000000000000000000000000000000000000000000000000000000000000000000000000000000000000000000000000000000000000000000000000000000000000000000000000000000000000000000000000000000000000000000000007000000
310
00000000000000000000000000000000070000000000000000000000000000000000000000000000000000000000000000000000000000000000000000000000000000000000000000000000000000000000000000000000000000000000000000000000000000000000000000000000000000000000000000000000000000
310
00000000000000000000000000000000000000000000000000000000000000000000000000000000000000000000000000070000000000000000000000000000000000000007000000000000000000000000000000000000000000000000000000000000000000000000000000000000000000000000000000000000000000
310
00000000000000000000000000000000000000000000000000000000000000000000000000000000000000000000000000000000000000000000000000000000000000000000000000000000000000000000000000000000000000000000000000000000000007000000000000000000000000000000000000000700000000
310
00000000000000000000000000000000000000000000000000000000000000000000000000000000000000000000000000000000000000000000000000000000000000000000000000000000000000000000000000000000000000000000000000000000000000000000000000000000000000000000000000000000000000
310
00000000000000000000000000000000000000000000000000000000070000000000000000000000000000000000000007000000000000000000000000000000000000000000000000000000000000000000000000000000000000000000000000000000000000000000000000000000000000000000000000000000000000
310
00000000000000000000000000000000000000000000000000000000000000000000000000000000000000000000000000000000000000000000000000000000000000000000000000000000000000000007000000000000000000000000000000000000000700000000000000000000000000000000000000000000000000
310
00000000000000000000000000000000000000000000000000000000000000000000000000000000000000000000000000000000000000000000000000000000000000000000000000000000000000000000000000000000000000000000000000000000000000000000000000000000000000000000000000000000000000
310
00000000000000070000000000000000000000000000000000000007000000000000000000000000000000000000000000000000000000000000000000000000000000000000000000000000000000000000000000000000000000000000000000000000000000000000000000000000000000000000000000000000000000
310
00000000000000000000000000000000000000000000000000000000000000000000000000000000000000000000000000000000000000000000000007000000000000000000000000000000000000000700000000000000000000000000000000000000000000000000000000000000000000000000000000000000000000
310
00000000000000000000000000000000000000000000000000000000000000000000000000000000000000000000000000000000000000000000000000000000000000000000000000000000000000000000000000000000000000000000000000000000000000000000000000000000000700000000000000000000000000
310
00000000000007000000000000000000000000000000000000000000000000000000000000000000000000000000000000000000000000000000000000000000000000000000000000000000000000000000000000000000000000000000000000000000000000000000000000000000000000000000000000000000000000
310
00000000000000000000000000000000000000000000000000000000000000000000000000000007000000000000000000000000000000000000000700000000000000000000000000000000000000000000000000000000000000000000000000000000000000000000000000000000000000000000000000000000000000
310
00000000000000000000000000000000000000000000000000000000000000000000000000000000000000000000000000000000000000000000000000000000000000000000000000000000000000000000000000000000000000000700000000000000000000000000000000000000070000000000000000000000000000
310
00000000000000000000000000000000000000000000000000000000000000000000000000000000000000000000000000000000000000000000000000000000000000000000000000000000000000000000000000000000000000000000000000000000000000000000000000000000000000000000000000000000000000
310
00000000000000000000000000000000000007000000000000000000000000000000000000000700000000000000000000000000000000000000000000000000000000000000000000000000000000000000000000000000000000000000000000000000000000000000000000000000000000000000000000000000000000
310
00000000000000000000000000000000000000000000000000000000000000000000000000000000000000000000000000000000000000000000000000000000000000000000000700000000000000000000000000000000000000070000000000000000000000000000000000000000000000000000000000000000000000
310
00000000000000000000000000000000000000000000000000000000000000000000000000000000000000000000000000000000000000000000000000000000000000000000000000000000000000000000000000000000000000000000000000000000000000000000000000000000000000000000000000000000070000
310
00000000000000000000000000000000000700000000000000000000000000000000000000000000000000000000000000000000000000000000000000000000000000000000000000000000000000000000000000000000000000000000000000000000000000000000000000000000000000000000000000000000000000
310
00000000000000000000000000000000000000000000000000000000000000000000000000000000000000000000000000000700000000000000000000000000000000000000070000000000000000000000000000000000000000000000000000000000000000000000000000000000000000000000000000000000000000
310
00000000000000000000000000000000000000000000000000000000000000000000000000000000000000000000000000000000000000000000000000000000000000000000000000000000000000000000000000000000000000000000000000000000000000070000000000000000000000000000000000000007000000
310
00000000000000000000000000000000000000000000000000000000000000000000000000000000000000000000000000000000000000000000000000000000000000000000000000000000000000000000000000000000000000000000000000000000000000000000000000000000000000000000000000000000000000
310
00000000000000000000000000000000000000000000000000000000000700000000000000000000000000000000000000070000000000000000000000000000000000000000000000000000000000000000000000000000000000000000000000000000000000000000000000000000000000000000000000000000000000
310
00000000000000000000000000000000000000000000000000000000000000000000000000000000000000000000000000000000000000000000000000000000000000000000000000000000000000000000070707070707070707070707070707070707070707000000000000000000000000000000000000000000000000
310
00000000000000000000000000000000000000000000000000000000000000000000000000000000000000000000000000000000000000000000000000000000000000000000000000000000000000000000000000000000000000000000000000000000000000000000000000000000000000000000000000000000000000
310
000000000000000000000000000000000000000000000000000000000000000000000000000000000000000000000000000000000000000000000000000000000000000000000000000000000000000000000000000000000000000000000000000000000000000000000000
  0
ENDSEC
  0
EOF
