  0
SECTION
  2
HEADER
  9
$ACADVER
  1
AC1015
  9
$ACADMAINTVER
 70
     6
  9
$DWGCODEPAGE
  3
ANSI_1252
  9
$INSBASE
 10
0.0
 20
0.0
 30
0.0
  9
$EXTMIN
 10
0.0036
 20
0.045
 30
0.0
  9
$EXTMAX
 10
69.9964
 20
171.955
 30
0.0
  9
$LIMMIN
 10
0.0
 20
0.0
  9
$LIMMAX
 10
12.0
 20
9.0
  9
$ORTHOMODE
 70
     0
  9
$REGENMODE
 70
     1
  9
$FILLMODE
 70
     1
  9
$QTEXTMODE
 70
     0
  9
$MIRRTEXT
 70
     1
  9
$LTSCALE
 40
1.0
  9
$ATTMODE
 70
     1
  9
$TEXTSIZE
 40
0.2
  9
$TRACEWID
 40
0.05
  9
$TEXTSTYLE
  7
Standard
  9
$CLAYER
  8
0
  9
$CELTYPE
  6
ByBlock
  9
$CECOLOR
 62
   256
  9
$CELTSCALE
 40
1.0
  9
$DISPSILH
 70
     0
  9
$DIMSCALE
 40
1.0
  9
$DIMASZ
 40
0.18
  9
$DIMEXO
 40
0.0625
  9
$DIMDLI
 40
0.38
  9
$DIMRND
 40
0.0
  9
$DIMDLE
 40
0.0
  9
$DIMEXE
 40
0.18
  9
$DIMTP
 40
0.0
  9
$DIMTM
 40
0.0
  9
$DIMTXT
 40
0.18
  9
$DIMCEN
 40
0.09
  9
$DIMTSZ
 40
0.0
  9
$DIMTOL
 70
     0
  9
$DIMLIM
 70
     0
  9
$DIMTIH
 70
     1
  9
$DIMTOH
 70
     1
  9
$DIMSE1
 70
     0
  9
$DIMSE2
 70
     0
  9
$DIMTAD
 70
     0
  9
$DIMZIN
 70
     0
  9
$DIMBLK
  1

  9
$DIMASO
 70
     1
  9
$DIMSHO
 70
     1
  9
$DIMPOST
  1

  9
$DIMAPOST
  1

  9
$DIMALT
 70
     0
  9
$DIMALTD
 70
     2
  9
$DIMALTF
 40
25.4
  9
$DIMLFAC
 40
1.0
  9
$DIMTOFL
 70
     0
  9
$DIMTVP
 40
0.0
  9
$DIMTIX
 70
     0
  9
$DIMSOXD
 70
     0
  9
$DIMSAH
 70
     0
  9
$DIMBLK1
  1

  9
$DIMBLK2
  1

  9
$DIMSTYLE
  2
Standard
  9
$DIMCLRD
 70
     0
  9
$DIMCLRE
 70
     0
  9
$DIMCLRT
 70
     0
  9
$DIMTFAC
 40
1.0
  9
$DIMGAP
 40
0.09
  9
$DIMJUST
 70
     0
  9
$DIMSD1
 70
     0
  9
$DIMSD2
 70
     0
  9
$DIMTOLJ
 70
     1
  9
$DIMTZIN
 70
     0
  9
$DIMALTZ
 70
     0
  9
$DIMALTTZ
 70
     0
  9
$DIMUPT
 70
     0
  9
$DIMDEC
 70
     4
  9
$DIMTDEC
 70
     4
  9
$DIMALTU
 70
     2
  9
$DIMALTTD
 70
     2
  9
$DIMTXSTY
  7
Standard
  9
$DIMAUNIT
 70
     0
  9
$DIMADEC
 70
     0
  9
$DIMALTRND
 40
0.0
  9
$DIMAZIN
 70
     0
  9
$DIMDSEP
 70
    46
  9
$DIMATFIT
 70
     3
  9
$DIMFRAC
 70
     0
  9
$DIMLDRBLK
  1

  9
$DIMLUNIT
 70
     2
  9
$DIMLWD
 70
    -2
  9
$DIMLWE
 70
    -2
  9
$DIMTMOVE
 70
     2
  9
$LUNITS
 70
     2
  9
$LUPREC
 70
     4
  9
$SKETCHINC
 40
0.1
  9
$FILLETRAD
 40
0.5
  9
$AUNITS
 70
     0
  9
$AUPREC
 70
     0
  9
$MENU
  1
.
  9
$ELEVATION
 40
0.0
  9
$PELEVATION
 40
0.0
  9
$THICKNESS
 40
0.0
  9
$LIMCHECK
 70
     0
  9
$CHAMFERA
 40
0.5
  9
$CHAMFERB
 40
0.5
  9
$CHAMFERC
 40
1.0
  9
$CHAMFERD
 40
0.0
  9
$SKPOLY
 70
     0
  9
$TDCREATE
 40
2456184.752138206
  9
$TDUCREATE
 40
2456184.668804873
  9
$TDUPDATE
 40
2456184.765089595
  9
$TDUUPDATE
 40
2456184.681756262
  9
$TDINDWG
 40
0.0127432523
  9
$TDUSRTIMER
 40
0.0127432523
  9
$USRTIMER
 70
     1
  9
$ANGBASE
 50
0.0
  9
$ANGDIR
 70
     0
  9
$PDMODE
 70
     0
  9
$PDSIZE
 40
0.0
  9
$PLINEWID
 40
0.0
  9
$SPLFRAME
 70
     0
  9
$SPLINETYPE
 70
     6
  9
$SPLINESEGS
 70
     8
  9
$HANDSEED
  5
184B
  9
$SURFTAB1
 70
     6
  9
$SURFTAB2
 70
     6
  9
$SURFTYPE
 70
     6
  9
$SURFU
 70
     6
  9
$SURFV
 70
     6
  9
$UCSBASE
  2

  9
$UCSNAME
  2

  9
$UCSORG
 10
0.0
 20
0.0
 30
0.0
  9
$UCSXDIR
 10
1.0
 20
0.0
 30
0.0
  9
$UCSYDIR
 10
0.0
 20
1.0
 30
0.0
  9
$UCSORTHOREF
  2

  9
$UCSORTHOVIEW
 70
     0
  9
$UCSORGTOP
 10
0.0
 20
0.0
 30
0.0
  9
$UCSORGBOTTOM
 10
0.0
 20
0.0
 30
0.0
  9
$UCSORGLEFT
 10
0.0
 20
0.0
 30
0.0
  9
$UCSORGRIGHT
 10
0.0
 20
0.0
 30
0.0
  9
$UCSORGFRONT
 10
0.0
 20
0.0
 30
0.0
  9
$UCSORGBACK
 10
0.0
 20
0.0
 30
0.0
  9
$PUCSBASE
  2

  9
$PUCSNAME
  2

  9
$PUCSORG
 10
0.0
 20
0.0
 30
0.0
  9
$PUCSXDIR
 10
1.0
 20
0.0
 30
0.0
  9
$PUCSYDIR
 10
0.0
 20
1.0
 30
0.0
  9
$PUCSORTHOREF
  2

  9
$PUCSORTHOVIEW
 70
     0
  9
$PUCSORGTOP
 10
0.0
 20
0.0
 30
0.0
  9
$PUCSORGBOTTOM
 10
0.0
 20
0.0
 30
0.0
  9
$PUCSORGLEFT
 10
0.0
 20
0.0
 30
0.0
  9
$PUCSORGRIGHT
 10
0.0
 20
0.0
 30
0.0
  9
$PUCSORGFRONT
 10
0.0
 20
0.0
 30
0.0
  9
$PUCSORGBACK
 10
0.0
 20
0.0
 30
0.0
  9
$USERI1
 70
     0
  9
$USERI2
 70
     0
  9
$USERI3
 70
     0
  9
$USERI4
 70
     0
  9
$USERI5
 70
     0
  9
$USERR1
 40
0.0
  9
$USERR2
 40
0.0
  9
$USERR3
 40
0.0
  9
$USERR4
 40
0.0
  9
$USERR5
 40
0.0
  9
$WORLDVIEW
 70
     1
  9
$SHADEDGE
 70
     3
  9
$SHADEDIF
 70
    70
  9
$TILEMODE
 70
     1
  9
$MAXACTVP
 70
    64
  9
$PINSBASE
 10
0.0
 20
0.0
 30
0.0
  9
$PLIMCHECK
 70
     0
  9
$PEXTMIN
 10
1.000000000000E+20
 20
1.000000000000E+20
 30
1.000000000000E+20
  9
$PEXTMAX
 10
-1.000000000000E+20
 20
-1.000000000000E+20
 30
-1.000000000000E+20
  9
$PLIMMIN
 10
0.0
 20
0.0
  9
$PLIMMAX
 10
12.0
 20
9.0
  9
$UNITMODE
 70
     0
  9
$VISRETAIN
 70
     1
  9
$PLINEGEN
 70
     0
  9
$PSLTSCALE
 70
     1
  9
$TREEDEPTH
 70
  3020
  9
$CMLSTYLE
  2
Standard
  9
$CMLJUST
 70
     0
  9
$CMLSCALE
 40
1.0
  9
$PROXYGRAPHICS
 70
     1
  9
$MEASUREMENT
 70
     0
  9
$CELWEIGHT
370
    -1
  9
$ENDCAPS
280
     0
  9
$JOINSTYLE
280
     0
  9
$LWDISPLAY
290
     0
  9
$INSUNITS
 70
     0
  9
$HYPERLINKBASE
  1

  9
$STYLESHEET
  1

  9
$XEDIT
290
     1
  9
$CEPSNTYPE
380
     0
  9
$PSTYLEMODE
290
     1
  9
$FINGERPRINTGUID
  2
{F04087E5-C3F1-4AB2-AFB3-646649EC4B17}
  9
$VERSIONGUID
  2
{FAEB1C32-E019-11D5-929B-00C0DF256EC4}
  9
$EXTNAMES
290
     1
  9
$PSVPSCALE
 40
0.0
  9
$OLESTARTUP
290
     0
  0
ENDSEC
  0
SECTION
  2
CLASSES
  0
CLASS
  1
ACDBDICTIONARYWDFLT
  2
AcDbDictionaryWithDefault
  3
ObjectDBX Classes
 90
        0
280
     0
281
     0
  0
CLASS
  1
SCALE
  2
AcDbScale
  3
ObjectDBX Classes
 90
     1153
280
     0
281
     0
  0
CLASS
  1
DICTIONARYVAR
  2
AcDbDictionaryVar
  3
ObjectDBX Classes
 90
        0
280
     0
281
     0
  0
CLASS
  1
ACDBPLACEHOLDER
  2
AcDbPlaceHolder
  3
ObjectDBX Classes
 90
        0
280
     0
281
     0
  0
CLASS
  1
LAYOUT
  2
AcDbLayout
  3
ObjectDBX Classes
 90
        0
280
     0
281
     0
  0
ENDSEC
  0
SECTION
  2
TABLES
  0
TABLE
  2
VPORT
  5
8
330
0
100
AcDbSymbolTable
 70
     1
  0
VPORT
  5
17F8
330
8
100
AcDbSymbolTableRecord
100
AcDbViewportTableRecord
  2
*Active
 70
     0
 10
0.0
 20
0.0
 11
1.0
 21
1.0
 12
34.9982
 22
85.9775
 13
0.0
 23
0.0
 14
0.5
 24
0.5
 15
0.5
 25
0.5
 16
0.0
 26
0.0
 36
1.0
 17
0.0
 27
0.0
 37
0.0
 40
175.3941
 41
1.863448275862
 42
50.0
 43
0.0
 44
0.0
 50
0.0
 51
0.0
 71
    16
 72
   100
 73
     1
 74
     3
 75
     0
 76
     0
 77
     0
 78
     0
281
     0
 65
     1
110
0.0
120
0.0
130
0.0
111
1.0
121
0.0
131
0.0
112
0.0
122
1.0
132
0.0
 79
     0
146
0.0
  0
ENDTAB
  0
TABLE
  2
LTYPE
  5
5
330
0
100
AcDbSymbolTable
 70
     1
  0
LTYPE
  5
14
330
5
100
AcDbSymbolTableRecord
100
AcDbLinetypeTableRecord
  2
ByBlock
 70
     0
  3

 72
    65
 73
     0
 40
0.0
  0
LTYPE
  5
15
330
5
100
AcDbSymbolTableRecord
100
AcDbLinetypeTableRecord
  2
ByLayer
 70
     0
  3

 72
    65
 73
     0
 40
0.0
  0
LTYPE
  5
16
330
5
100
AcDbSymbolTableRecord
100
AcDbLinetypeTableRecord
  2
Continuous
 70
     0
  3
Solid line
 72
    65
 73
     0
 40
0.0
  0
ENDTAB
  0
TABLE
  2
LAYER
  5
2
330
0
100
AcDbSymbolTable
 70
     1
  0
LAYER
  5
10
330
2
100
AcDbSymbolTableRecord
100
AcDbLayerTableRecord
  2
0
 70
     0
 62
     7
  6
Continuous
370
    -3
390
F
  0
ENDTAB
  0
TABLE
  2
STYLE
  5
3
330
0
100
AcDbSymbolTable
 70
     1
  0
STYLE
  5
11
330
3
100
AcDbSymbolTableRecord
100
AcDbTextStyleTableRecord
  2
Standard
 70
     0
 40
0.0
 41
1.0
 50
0.0
 71
     0
 42
0.2
  3
txt
  4

  0
ENDTAB
  0
TABLE
  2
VIEW
  5
6
330
0
100
AcDbSymbolTable
 70
     0
  0
ENDTAB
  0
TABLE
  2
UCS
  5
7
330
0
100
AcDbSymbolTable
 70
     0
  0
ENDTAB
  0
TABLE
  2
APPID
  5
9
330
0
100
AcDbSymbolTable
 70
     1
  0
APPID
  5
12
330
9
100
AcDbSymbolTableRecord
100
AcDbRegAppTableRecord
  2
ACAD
 70
     0
  0
ENDTAB
  0
TABLE
  2
DIMSTYLE
  5
A
330
0
100
AcDbSymbolTable
 70
     1
100
AcDbDimStyleTable
  0
DIMSTYLE
105
20
330
A
100
AcDbSymbolTableRecord
100
AcDbDimStyleTableRecord
  2
Standard
 70
     0
340
11
  0
ENDTAB
  0
TABLE
  2
BLOCK_RECORD
  5
1
330
0
100
AcDbSymbolTable
 70
     0
  0
BLOCK_RECORD
  5
1D
330
1
100
AcDbSymbolTableRecord
100
AcDbBlockTableRecord
  2
*Model_Space
340
1E
  0
BLOCK_RECORD
  5
1B
330
1
100
AcDbSymbolTableRecord
100
AcDbBlockTableRecord
  2
*Paper_Space
340
1C
  0
ENDTAB
  0
ENDSEC
  0
SECTION
  2
BLOCKS
  0
BLOCK
  5
17FB
330
1D
100
AcDbEntity
  8
0
100
AcDbBlockBegin
  2
*Model_Space
 70
     0
 10
0.0
 20
0.0
 30
0.0
  3
*Model_Space
  1
*Model_Space
  0
ENDBLK
  5
17FC
330
1D
100
AcDbEntity
  8
0
100
AcDbBlockEnd
  0
BLOCK
  5
17F9
330
1B
100
AcDbEntity
 67
     1
  8
0
100
AcDbBlockBegin
  2
*Paper_Space
 70
     0
 10
0.0
 20
0.0
 30
0.0
  3
*Paper_Space
  1
*Paper_Space
  0
ENDBLK
  5
17FA
330
1B
100
AcDbEntity
 67
     1
  8
0
100
AcDbBlockEnd
  0
ENDSEC
  0
SECTION
  2
ENTITIES
  0
LINE
  5
21
330
1D
100
AcDbEntity
  8
0
100
AcDbLine
 10
23.0817
 20
0.045
 30
0.0
 11
25.332
 21
0.045
 31
0.0
  0
LINE
  5
22
330
1D
100
AcDbEntity
  8
0
100
AcDbLine
 10
16.1329
 20
0.045
 30
0.0
 11
16.2666
 21
0.045
 31
0.0
  0
LINE
  5
23
330
1D
100
AcDbEntity
  8
0
100
AcDbLine
 10
18.4
 20
0.045
 30
0.0
 11
20.5845
 21
0.045
 31
0.0
  0
LINE
  5
24
330
1D
100
AcDbEntity
  8
0
100
AcDbLine
 10
11.0421
 20
0.045
 30
0.0
 11
12.4632
 21
0.045
 31
0.0
  0
LINE
  5
25
330
1D
100
AcDbEntity
  8
0
100
AcDbLine
 10
10.942
 20
0.045
 30
0.0
 11
11.0421
 21
0.045
 31
0.0
  0
LINE
  5
26
330
1D
100
AcDbEntity
  8
0
100
AcDbLine
 10
12.4632
 20
0.045
 30
0.0
 11
13.9429
 21
0.045
 31
0.0
  0
LINE
  5
27
330
1D
100
AcDbEntity
  8
0
100
AcDbLine
 10
7.43467
 20
0.045
 30
0.0
 11
9.08025
 21
0.045
 31
0.0
  0
LINE
  5
28
330
1D
100
AcDbEntity
  8
0
100
AcDbLine
 10
3.50548
 20
0.045
 30
0.0
 11
4.40628
 21
0.045
 31
0.0
  0
LINE
  5
29
330
1D
100
AcDbEntity
  8
0
100
AcDbLine
 10
3.45163
 20
0.045
 30
0.0
 11
3.50548
 21
0.045
 31
0.0
  0
LINE
  5
2A
330
1D
100
AcDbEntity
  8
0
100
AcDbLine
 10
4.40628
 20
0.045
 30
0.0
 11
5.76292
 21
0.045
 31
0.0
  0
LINE
  5
2B
330
1D
100
AcDbEntity
  8
0
100
AcDbLine
 10
0.0036
 20
0.045
 30
0.0
 11
0.610657
 21
10.82
 31
0.0
  0
LINE
  5
2C
330
1D
100
AcDbEntity
  8
0
100
AcDbLine
 10
1.91425
 20
0.045
 30
0.0
 11
2.60615
 21
0.045
 31
0.0
  0
LINE
  5
2D
330
1D
100
AcDbEntity
  8
0
100
AcDbLine
 10
2.65165
 20
0.045
 30
0.0
 11
3.45163
 21
0.045
 31
0.0
  0
LINE
  5
2E
330
1D
100
AcDbEntity
  8
0
100
AcDbLine
 10
5.83929
 20
0.045
 30
0.0
 11
7.34891
 21
0.045
 31
0.0
  0
LINE
  5
2F
330
1D
100
AcDbEntity
  8
0
100
AcDbLine
 10
5.76292
 20
0.045
 30
0.0
 11
5.83929
 21
0.045
 31
0.0
  0
LINE
  5
30
330
1D
100
AcDbEntity
  8
0
100
AcDbLine
 10
7.34891
 20
0.045
 30
0.0
 11
7.43467
 21
0.045
 31
0.0
  0
LINE
  5
31
330
1D
100
AcDbEntity
  8
0
100
AcDbLine
 10
9.08025
 20
0.045
 30
0.0
 11
9.17374
 21
0.045
 31
0.0
  0
LINE
  5
32
330
1D
100
AcDbEntity
  8
0
100
AcDbLine
 10
9.17374
 20
0.045
 30
0.0
 11
10.942
 21
0.045
 31
0.0
  0
LINE
  5
33
330
1D
100
AcDbEntity
  8
0
100
AcDbLine
 10
14.0703
 20
0.045
 30
0.0
 11
16.1329
 21
0.045
 31
0.0
  0
LINE
  5
34
330
1D
100
AcDbEntity
  8
0
100
AcDbLine
 10
13.9429
 20
0.045
 30
0.0
 11
14.0703
 21
0.045
 31
0.0
  0
LINE
  5
35
330
1D
100
AcDbEntity
  8
0
100
AcDbLine
 10
16.2666
 20
0.045
 30
0.0
 11
18.4
 21
0.045
 31
0.0
  0
LINE
  5
36
330
1D
100
AcDbEntity
  8
0
100
AcDbLine
 10
20.7222
 20
0.045
 30
0.0
 11
22.942
 21
0.045
 31
0.0
  0
LINE
  5
37
330
1D
100
AcDbEntity
  8
0
100
AcDbLine
 10
20.5845
 20
0.045
 30
0.0
 11
20.7222
 21
0.045
 31
0.0
  0
LINE
  5
38
330
1D
100
AcDbEntity
  8
0
100
AcDbLine
 10
22.942
 20
0.045
 30
0.0
 11
23.0817
 21
0.045
 31
0.0
  0
LINE
  5
39
330
1D
100
AcDbEntity
  8
0
100
AcDbLine
 10
25.4289
 20
0.045
 30
0.0
 11
27.6806
 21
0.045
 31
0.0
  0
LINE
  5
3A
330
1D
100
AcDbEntity
  8
0
100
AcDbLine
 10
23.6642
 20
0.045
 30
0.0
 11
24.0748
 21
0.045
 31
0.0
  0
LINE
  5
3B
330
1D
100
AcDbEntity
  8
0
100
AcDbLine
 10
24.7435
 20
0.045
 30
0.0
 11
25.2431
 21
0.045
 31
0.0
  0
LINE
  5
3C
330
1D
100
AcDbEntity
  8
0
100
AcDbLine
 10
26.0776
 20
0.045
 30
0.0
 11
26.4852
 21
0.045
 31
0.0
  0
LINE
  5
3D
330
1D
100
AcDbEntity
  8
0
100
AcDbLine
 10
25.2431
 20
0.045
 30
0.0
 11
26.0776
 21
0.045
 31
0.0
  0
LINE
  5
3E
330
1D
100
AcDbEntity
  8
0
100
AcDbLine
 10
27.157
 20
0.045
 30
0.0
 11
27.3173
 21
0.045
 31
0.0
  0
LINE
  5
3F
330
1D
100
AcDbEntity
  8
0
100
AcDbLine
 10
26.4852
 20
0.045
 30
0.0
 11
27.157
 21
0.045
 31
0.0
  0
LINE
  5
40
330
1D
100
AcDbEntity
  8
0
100
AcDbLine
 10
24.0748
 20
0.045
 30
0.0
 11
24.7435
 21
0.045
 31
0.0
  0
LINE
  5
41
330
1D
100
AcDbEntity
  8
0
100
AcDbLine
 10
25.332
 20
0.045
 30
0.0
 11
25.4289
 21
0.045
 31
0.0
  0
LINE
  5
42
330
1D
100
AcDbEntity
  8
0
100
AcDbLine
 10
27.7773
 20
0.045
 30
0.0
 11
30.0068
 21
0.045
 31
0.0
  0
LINE
  5
43
330
1D
100
AcDbEntity
  8
0
100
AcDbLine
 10
27.6806
 20
0.045
 30
0.0
 11
27.7773
 21
0.045
 31
0.0
  0
LINE
  5
44
330
1D
100
AcDbEntity
  8
0
100
AcDbLine
 10
23.4139
 20
0.045
 30
0.0
 11
23.6642
 21
0.045
 31
0.0
  0
LINE
  5
45
330
1D
100
AcDbEntity
  8
0
100
AcDbLine
 10
27.3173
 20
0.045
 30
0.0
 11
27.5693
 21
0.045
 31
0.0
  0
LINE
  5
46
330
1D
100
AcDbEntity
  8
0
100
AcDbLine
 10
23.2519
 20
0.045
 30
0.0
 11
23.4139
 21
0.045
 31
0.0
  0
LINE
  5
47
330
1D
100
AcDbEntity
  8
0
100
AcDbLine
 10
23.2519
 20
0.045
 30
0.0
 11
23.4962
 21
0.045
 31
0.0
  0
LINE
  5
48
330
1D
100
AcDbEntity
  8
0
100
AcDbLine
 10
0.00955
 20
0.045
 30
0.0
 11
0.083747
 21
0.045
 31
0.0
  0
LINE
  5
49
330
1D
100
AcDbEntity
  8
0
100
AcDbLine
 10
0.100018
 20
0.045
 30
0.0
 11
0.333409
 21
0.045
 31
0.0
  0
LINE
  5
4A
330
1D
100
AcDbEntity
  8
0
100
AcDbLine
 10
0.094607
 20
0.045
 30
0.0
 11
0.348621
 21
0.045
 31
0.0
  0
LINE
  5
4B
330
1D
100
AcDbEntity
  8
0
100
AcDbLine
 10
0.094607
 20
0.045
 30
0.0
 11
0.320739
 21
0.045
 31
0.0
  0
LINE
  5
4C
330
1D
100
AcDbEntity
  8
0
100
AcDbLine
 10
0.015365
 20
0.045
 30
0.0
 11
0.094607
 21
0.045
 31
0.0
  0
LINE
  5
4D
330
1D
100
AcDbEntity
  8
0
100
AcDbLine
 10
0.0036
 20
0.045
 30
0.0
 11
0.610657
 21
10.8196
 31
0.0
  0
LINE
  5
4E
330
1D
100
AcDbEntity
  8
0
100
AcDbLine
 10
0.720803
 20
0.045
 30
0.0
 11
1.23686
 21
0.045
 31
0.0
  0
LINE
  5
4F
330
1D
100
AcDbEntity
  8
0
100
AcDbLine
 10
0.348621
 20
0.045
 30
0.0
 11
0.720803
 21
0.045
 31
0.0
  0
LINE
  5
50
330
1D
100
AcDbEntity
  8
0
100
AcDbLine
 10
0.360044
 20
0.045
 30
0.0
 11
0.749761
 21
0.045
 31
0.0
  0
LINE
  5
51
330
1D
100
AcDbEntity
  8
0
100
AcDbLine
 10
1.28306
 20
0.045
 30
0.0
 11
1.93966
 21
0.045
 31
0.0
  0
LINE
  5
52
330
1D
100
AcDbEntity
  8
0
100
AcDbLine
 10
0.749761
 20
0.045
 30
0.0
 11
1.29154
 21
0.045
 31
0.0
  0
LINE
  5
53
330
1D
100
AcDbEntity
  8
0
100
AcDbLine
 10
1.29154
 20
0.045
 30
0.0
 11
1.87764
 21
0.045
 31
0.0
  0
LINE
  5
54
330
1D
100
AcDbEntity
  8
0
100
AcDbLine
 10
2.79734
 20
0.045
 30
0.0
 11
4.32653
 21
0.045
 31
0.0
  0
LINE
  5
55
330
1D
100
AcDbEntity
  8
0
100
AcDbLine
 10
2.73331
 20
0.045
 30
0.0
 11
2.79734
 21
0.045
 31
0.0
  0
LINE
  5
56
330
1D
100
AcDbEntity
  8
0
100
AcDbLine
 10
1.93966
 20
0.045
 30
0.0
 11
2.79734
 21
0.045
 31
0.0
  0
LINE
  5
57
330
1D
100
AcDbEntity
  8
0
100
AcDbLine
 10
1.93966
 20
0.045
 30
0.0
 11
2.73331
 21
0.045
 31
0.0
  0
LINE
  5
63
330
1D
100
AcDbEntity
  8
0
100
AcDbLine
 10
0.610657
 20
10.82
 30
0.0
 11
1.38688
 21
22.2777
 31
0.0
  0
LINE
  5
64
330
1D
100
AcDbEntity
  8
0
100
AcDbLine
 10
0.610657
 20
10.8196
 30
0.0
 11
1.38688
 21
22.2779
 31
0.0
  0
LINE
  5
65
330
1D
100
AcDbEntity
  8
0
100
AcDbLine
 10
1.293309488894
 20
82.950093731612
 30
0.0
 11
1.30021
 21
82.8862
 31
0.0
  0
LINE
  5
66
330
1D
100
AcDbEntity
  8
0
100
AcDbLine
 10
1.30021
 20
82.8862
 30
0.0
 11
1.46478
 21
82.0307
 31
0.0
  0
LINE
  5
67
330
1D
100
AcDbEntity
  8
0
100
AcDbLine
 10
1.30021
 20
82.8862
 30
0.0
 11
1.314537094623
 21
82.836116304403
 31
0.0
  0
LINE
  5
68
330
1D
100
AcDbEntity
  8
0
100
AcDbLine
 10
1.293646856751
 20
82.948282301679
 30
0.0
 11
1.30043
 21
82.8855
 31
0.0
  0
LINE
  5
69
330
1D
100
AcDbEntity
  8
0
100
AcDbLine
 10
1.277500241056
 20
83.096475908634
 30
0.0
 11
1.284954443686
 21
83.02745539481
 31
0.0
  0
LINE
  5
6A
330
1D
100
AcDbEntity
  8
0
100
AcDbLine
 10
1.277695560598
 20
83.095921685154
 30
0.0
 11
1.285215272925
 21
83.026321968539
 31
0.0
  0
LINE
  5
6C
330
1D
100
AcDbEntity
  8
0
100
AcDbLine
 10
1.30043
 20
82.8855
 30
0.0
 11
1.46469
 21
82.0299
 31
0.0
  0
LINE
  5
6D
330
1D
100
AcDbEntity
  8
0
100
AcDbLine
 10
1.25321
 20
83.1654
 30
0.0
 11
1.30043
 21
82.8855
 31
0.0
  0
LINE
  5
6E
330
1D
100
AcDbEntity
  8
0
100
AcDbLine
 10
1.376404616553
 20
82.450838990149
 30
0.0
 11
1.5214
 21
81.4132
 31
0.0
  0
LINE
  5
6F
330
1D
100
AcDbEntity
  8
0
100
AcDbLine
 10
1.376404616553
 20
82.450838990149
 30
0.0
 11
1.5214
 21
81.4132
 31
0.0
  0
LINE
  5
71
330
1D
100
AcDbEntity
  8
0
100
AcDbLine
 10
0.997922
 20
85.7241
 30
0.0
 11
1.25321
 21
83.1654
 31
0.0
  0
LINE
  5
72
330
1D
100
AcDbEntity
  8
0
100
AcDbLine
 10
0.997922
 20
85.7241
 30
0.0
 11
1.05268
 21
88.3341
 31
0.0
  0
LINE
  5
74
330
1D
100
AcDbEntity
  8
0
100
AcDbLine
 10
2.06376
 20
78.3174
 30
0.0
 11
2.93746
 21
74.2217
 31
0.0
  0
LINE
  5
75
330
1D
100
AcDbEntity
  8
0
100
AcDbLine
 10
1.7364
 20
80.1527
 30
0.0
 11
2.06376
 21
78.3174
 31
0.0
  0
LINE
  5
85
330
1D
100
AcDbEntity
  8
0
100
AcDbLine
 10
2.06397
 20
78.3176
 30
0.0
 11
2.93769
 21
74.221
 31
0.0
  0
LINE
  5
8B
330
1D
100
AcDbEntity
  8
0
100
AcDbLine
 10
2.93746
 20
74.2217
 30
0.0
 11
3.9452
 21
69.9455
 31
0.0
  0
LINE
  5
8D
330
1D
100
AcDbEntity
  8
0
100
AcDbLine
 10
2.93769
 20
74.221
 30
0.0
 11
3.94507
 21
69.946
 31
0.0
  0
LINE
  5
91
330
1D
100
AcDbEntity
  8
0
100
AcDbLine
 10
3.42968
 20
50.8456
 30
0.0
 11
3.73865
 21
54.7576
 31
0.0
  0
LINE
  5
92
330
1D
100
AcDbEntity
  8
0
100
AcDbLine
 10
2.70395
 20
42.2685
 30
0.0
 11
3.42968
 21
50.8456
 31
0.0
  0
LINE
  5
93
330
1D
100
AcDbEntity
  8
0
100
AcDbLine
 10
2.6797
 20
42.204
 30
0.0
 11
2.70395
 21
42.2685
 31
0.0
  0
LINE
  5
94
330
1D
100
AcDbEntity
  8
0
100
AcDbLine
 10
1.84738
 20
29.7369
 30
0.0
 11
2.6797
 21
42.204
 31
0.0
  0
LINE
  5
96
330
1D
100
AcDbEntity
  8
0
100
AcDbLine
 10
3.94507
 20
69.946
 30
0.0
 11
4.8651
 21
65.5775
 31
0.0
  0
LINE
  5
97
330
1D
100
AcDbEntity
  8
0
100
AcDbLine
 10
3.961
 20
58.6077
 30
0.0
 11
3.968168111552
 21
58.919894187219
 31
0.0
  0
LINE
  5
98
330
1D
100
AcDbEntity
  8
0
100
AcDbLine
 10
3.96773
 20
58.6724
 30
0.0
 11
3.976481612463
 21
63.616285189206
 31
0.0
  0
LINE
  5
9A
330
1D
100
AcDbEntity
  8
0
100
AcDbLine
 10
3.9452
 20
69.9455
 30
0.0
 11
4.86491
 21
65.578
 31
0.0
  0
LINE
  5
9B
330
1D
100
AcDbEntity
  8
0
100
AcDbLine
 10
3.73865
 20
54.7576
 30
0.0
 11
3.961
 21
58.6077
 31
0.0
  0
LINE
  5
A0
330
1D
100
AcDbEntity
  8
0
100
AcDbLine
 10
1.46469
 20
82.0299
 30
0.0
 11
1.84249
 21
80.6047
 31
0.0
  0
LINE
  5
A4
330
1D
100
AcDbEntity
  8
0
100
AcDbLine
 10
1.5214
 20
81.4132
 30
0.0
 11
1.7364
 21
80.1527
 31
0.0
  0
LINE
  5
AC
330
1D
100
AcDbEntity
  8
0
100
AcDbLine
 10
1.38688
 20
22.2777
 30
0.0
 11
1.84738
 21
29.7369
 31
0.0
  0
LINE
  5
AF
330
1D
100
AcDbEntity
  8
0
100
AcDbLine
 10
4.40769
 20
0.045
 30
0.0
 11
6.24655
 21
0.045
 31
0.0
  0
LINE
  5
B3
330
1D
100
AcDbEntity
  8
0
100
AcDbLine
 10
5.35942
 20
62.5102
 30
0.0
 11
5.70893
 21
59.3492
 31
0.0
  0
LINE
  5
B5
330
1D
100
AcDbEntity
  8
0
100
AcDbLine
 10
4.8651
 20
65.5775
 30
0.0
 11
5.35942
 21
62.5102
 31
0.0
  0
LINE
  5
B6
330
1D
100
AcDbEntity
  8
0
100
AcDbLine
 10
5.35949
 20
62.5105
 30
0.0
 11
5.70893
 21
59.3492
 31
0.0
  0
LINE
  5
B8
330
1D
100
AcDbEntity
  8
0
100
AcDbLine
 10
4.86491
 20
65.578
 30
0.0
 11
5.35949
 21
62.5105
 31
0.0
  0
LINE
  5
BB
330
1D
100
AcDbEntity
  8
0
100
AcDbLine
 10
6.24655
 20
0.045
 30
0.0
 11
8.36794
 21
0.045
 31
0.0
  0
LINE
  5
BD
330
1D
100
AcDbEntity
  8
0
100
AcDbLine
 10
5.64278
 20
48.225
 30
0.0
 11
5.71383
 21
49.1398
 31
0.0
  0
LINE
  5
C1
330
1D
100
AcDbEntity
  8
0
100
AcDbLine
 10
5.71383
 20
49.1398
 30
0.0
 11
5.86366
 21
51.6015
 31
0.0
  0
LINE
  5
C2
330
1D
100
AcDbEntity
  8
0
100
AcDbLine
 10
5.86366
 20
51.6015
 30
0.0
 11
5.92307
 21
54.2309
 31
0.0
  0
LINE
  5
C3
330
1D
100
AcDbEntity
  8
0
100
AcDbLine
 10
5.71384
 20
49.1401
 30
0.0
 11
5.8638
 21
51.6024
 31
0.0
  0
LINE
  5
C5
330
1D
100
AcDbEntity
  8
0
100
AcDbLine
 10
5.8638
 20
51.6024
 30
0.0
 11
5.92308
 21
54.2308
 31
0.0
  0
LINE
  5
C8
330
1D
100
AcDbEntity
  8
0
100
AcDbLine
 10
5.89967
 20
55.9745
 30
0.0
 11
5.92307
 21
54.2309
 31
0.0
  0
LINE
  5
C9
330
1D
100
AcDbEntity
  8
0
100
AcDbLine
 10
5.89964
 20
55.9737
 30
0.0
 11
5.92308
 21
54.2308
 31
0.0
  0
LINE
  5
CA
330
1D
100
AcDbEntity
  8
0
100
AcDbLine
 10
5.70893
 20
59.3492
 30
0.0
 11
5.89964
 21
55.9737
 31
0.0
  0
LINE
  5
CB
330
1D
100
AcDbEntity
  8
0
100
AcDbLine
 10
5.70893
 20
59.3492
 30
0.0
 11
5.89967
 21
55.9745
 31
0.0
  0
LINE
  5
D1
330
1D
100
AcDbEntity
  8
0
100
AcDbLine
 10
5.64256
 20
48.2246
 30
0.0
 11
5.7139
 21
49.1395
 31
0.0
  0
LINE
  5
E3
330
1D
100
AcDbEntity
  8
0
100
AcDbLine
 10
4.32653
 20
0.045
 30
0.0
 11
4.40769
 21
0.045
 31
0.0
  0
LINE
  5
E5
330
1D
100
AcDbEntity
  8
0
100
AcDbLine
 10
1.08347
 20
88.5744
 30
0.0
 11
1.40958
 21
91.0307
 31
0.0
  0
LINE
  5
E6
330
1D
100
AcDbEntity
  8
0
100
AcDbLine
 10
1.05268
 20
88.3341
 30
0.0
 11
1.08347
 21
88.5744
 31
0.0
  0
LINE
  5
E7
330
1D
100
AcDbEntity
  8
0
100
AcDbLine
 10
1.40958
 20
91.0307
 30
0.0
 11
2.27983
 21
94.1405
 31
0.0
  0
LINE
  5
E9
330
1D
100
AcDbEntity
  8
0
100
AcDbLine
 10
2.27983
 20
94.1405
 30
0.0
 11
3.05288
 21
96.2293
 31
0.0
  0
LINE
  5
FF
330
1D
100
AcDbEntity
  8
0
100
AcDbLine
 10
3.05288
 20
96.2293
 30
0.0
 11
4.23692
 21
99.1073
 31
0.0
  0
LINE
  5
118
330
1D
100
AcDbEntity
  8
0
100
AcDbLine
 10
5.32295
 20
96.1906
 30
0.0
 11
5.4495
 21
97.62
 31
0.0
  0
LINE
  5
119
330
1D
100
AcDbEntity
  8
0
100
AcDbLine
 10
5.32295
 20
96.1906
 30
0.0
 11
5.33334
 21
94.5803
 31
0.0
  0
LINE
  5
124
330
1D
100
AcDbEntity
  8
0
100
AcDbLine
 10
5.50889
 20
92.9254
 30
0.0
 11
5.6969
 21
91.8981
 31
0.0
  0
LINE
  5
125
330
1D
100
AcDbEntity
  8
0
100
AcDbLine
 10
5.33334
 20
94.5803
 30
0.0
 11
5.50889
 21
92.9254
 31
0.0
  0
LINE
  5
127
330
1D
100
AcDbEntity
  8
0
100
AcDbLine
 10
5.84373
 20
91.2534
 30
0.0
 11
6.21577
 21
89.9188
 31
0.0
  0
LINE
  5
12B
330
1D
100
AcDbEntity
  8
0
100
AcDbLine
 10
5.69678
 20
91.8982
 30
0.0
 11
5.84373
 21
91.2534
 31
0.0
  0
LINE
  5
12C
330
1D
100
AcDbEntity
  8
0
100
AcDbLine
 10
5.6969
 20
91.8981
 30
0.0
 11
5.84384
 21
91.2535
 31
0.0
  0
LINE
  5
130
330
1D
100
AcDbEntity
  8
0
100
AcDbLine
 10
5.84384
 20
91.2535
 30
0.0
 11
6.21568
 21
89.9187
 31
0.0
  0
LINE
  5
131
330
1D
100
AcDbEntity
  8
0
100
AcDbLine
 10
5.509
 20
92.9254
 30
0.0
 11
5.69678
 21
91.8982
 31
0.0
  0
LINE
  5
132
330
1D
100
AcDbEntity
  8
0
100
AcDbLine
 10
5.4495
 20
97.62
 30
0.0
 11
5.77055
 21
99.3285
 31
0.0
  0
LINE
  5
133
330
1D
100
AcDbEntity
  8
0
100
AcDbLine
 10
5.33323
 20
94.5803
 30
0.0
 11
5.509
 21
92.9254
 31
0.0
  0
LINE
  5
134
330
1D
100
AcDbEntity
  8
0
100
AcDbLine
 10
5.32298
 20
96.1907
 30
0.0
 11
5.44942
 21
97.62
 31
0.0
  0
LINE
  5
135
330
1D
100
AcDbEntity
  8
0
100
AcDbLine
 10
5.32298
 20
96.1907
 30
0.0
 11
5.33323
 21
94.5803
 31
0.0
  0
LINE
  5
136
330
1D
100
AcDbEntity
  8
0
100
AcDbLine
 10
5.44942
 20
97.62
 30
0.0
 11
5.77055
 21
99.3287
 31
0.0
  0
LINE
  5
137
330
1D
100
AcDbEntity
  8
0
100
AcDbLine
 10
6.65034
 20
88.6427
 30
0.0
 11
7.41962
 21
86.7616
 31
0.0
  0
LINE
  5
138
330
1D
100
AcDbEntity
  8
0
100
AcDbLine
 10
6.21577
 20
89.9188
 30
0.0
 11
6.65034
 21
88.6427
 31
0.0
  0
LINE
  5
139
330
1D
100
AcDbEntity
  8
0
100
AcDbLine
 10
6.21568
 20
89.9187
 30
0.0
 11
6.65037
 21
88.6429
 31
0.0
  0
LINE
  5
13A
330
1D
100
AcDbEntity
  8
0
100
AcDbLine
 10
6.65037
 20
88.6429
 30
0.0
 11
7.4197
 21
86.7615
 31
0.0
  0
LINE
  5
13B
330
1D
100
AcDbEntity
  8
0
100
AcDbLine
 10
6.17883
 20
94.82
 30
0.0
 11
6.34712
 21
93.1577
 31
0.0
  0
LINE
  5
13C
330
1D
100
AcDbEntity
  8
0
100
AcDbLine
 10
6.17859
 20
94.8197
 30
0.0
 11
6.34707
 21
93.1579
 31
0.0
  0
LINE
  5
141
330
1D
100
AcDbEntity
  8
0
100
AcDbLine
 10
6.34712
 20
93.1577
 30
0.0
 11
6.67284
 21
91.525
 31
0.0
  0
LINE
  5
142
330
1D
100
AcDbEntity
  8
0
100
AcDbLine
 10
6.34707
 20
93.1579
 30
0.0
 11
6.67283
 21
91.5247
 31
0.0
  0
LINE
  5
14B
330
1D
100
AcDbEntity
  8
0
100
AcDbLine
 10
6.67283
 20
91.5247
 30
0.0
 11
7.071
 21
90.1122
 31
0.0
  0
LINE
  5
14C
330
1D
100
AcDbEntity
  8
0
100
AcDbLine
 10
6.67278
 20
91.525
 30
0.0
 11
7.071
 21
90.1122
 31
0.0
  0
LINE
  5
14E
330
1D
100
AcDbEntity
  8
0
100
AcDbLine
 10
6.17503
 20
96.2186
 30
0.0
 11
6.17883
 21
94.82
 31
0.0
  0
LINE
  5
155
330
1D
100
AcDbEntity
  8
0
100
AcDbLine
 10
6.17473
 20
96.2189
 30
0.0
 11
6.17859
 21
94.8197
 31
0.0
  0
LINE
  5
158
330
1D
100
AcDbEntity
  8
0
100
AcDbLine
 10
4.23692
 20
99.1073
 30
0.0
 11
5.37613
 21
101.777
 31
0.0
  0
LINE
  5
166
330
1D
100
AcDbEntity
  8
0
100
AcDbLine
 10
5.77055
 20
99.3287
 30
0.0
 11
6.21937
 21
100.859
 31
0.0
  0
LINE
  5
167
330
1D
100
AcDbEntity
  8
0
100
AcDbLine
 10
5.77055
 20
99.3285
 30
0.0
 11
6.21964
 21
100.858
 31
0.0
  0
LINE
  5
168
330
1D
100
AcDbEntity
  8
0
100
AcDbLine
 10
6.21937
 20
100.859
 30
0.0
 11
6.78564
 21
102.291
 31
0.0
  0
LINE
  5
16A
330
1D
100
AcDbEntity
  8
0
100
AcDbLine
 10
6.21964
 20
100.858
 30
0.0
 11
6.78573
 21
102.291
 31
0.0
  0
LINE
  5
16F
330
1D
100
AcDbEntity
  8
0
100
AcDbLine
 10
6.43825934723
 20
103.58493811139
 30
0.0
 11
8.14287
 21
108.031
 31
0.0
  0
LINE
  5
170
330
1D
100
AcDbEntity
  8
0
100
AcDbLine
 10
6.43825934723
 20
103.58493811139
 30
0.0
 11
8.14287
 21
108.031
 31
0.0
  0
LINE
  5
17F
330
1D
100
AcDbEntity
  8
0
100
AcDbLine
 10
9.92038
 20
0.045
 30
0.0
 11
10.0128
 21
0.045
 31
0.0
  0
LINE
  5
180
330
1D
100
AcDbEntity
  8
0
100
AcDbLine
 10
8.4642
 20
0.045
 30
0.0
 11
9.92038
 21
0.045
 31
0.0
  0
LINE
  5
181
330
1D
100
AcDbEntity
  8
0
100
AcDbLine
 10
8.36794
 20
0.045
 30
0.0
 11
8.4642
 21
0.045
 31
0.0
  0
LINE
  5
182
330
1D
100
AcDbEntity
  8
0
100
AcDbLine
 10
23.4962
 20
0.045
 30
0.0
 11
23.6642
 21
0.045
 31
0.0
  0
LINE
  5
183
330
1D
100
AcDbEntity
  8
0
100
AcDbLine
 10
23.6642
 20
0.045
 30
0.0
 11
24.2918
 21
0.045
 31
0.0
  0
LINE
  5
184
330
1D
100
AcDbEntity
  8
0
100
AcDbLine
 10
13.2808
 20
0.045
 30
0.0
 11
14.9719
 21
0.045
 31
0.0
  0
LINE
  5
185
330
1D
100
AcDbEntity
  8
0
100
AcDbLine
 10
11.5579
 20
0.045
 30
0.0
 11
13.1802
 21
0.045
 31
0.0
  0
LINE
  5
186
330
1D
100
AcDbEntity
  8
0
100
AcDbLine
 10
14.9719
 20
0.045
 30
0.0
 11
16.7211
 21
0.045
 31
0.0
  0
LINE
  5
187
330
1D
100
AcDbEntity
  8
0
100
AcDbLine
 10
16.8281
 20
0.045
 30
0.0
 11
18.6245
 21
0.045
 31
0.0
  0
LINE
  5
188
330
1D
100
AcDbEntity
  8
0
100
AcDbLine
 10
16.7211
 20
0.045
 30
0.0
 11
16.8281
 21
0.045
 31
0.0
  0
LINE
  5
18A
330
1D
100
AcDbEntity
  8
0
100
AcDbLine
 10
13.1802
 20
0.045
 30
0.0
 11
13.2808
 21
0.045
 31
0.0
  0
LINE
  5
18B
330
1D
100
AcDbEntity
  8
0
100
AcDbLine
 10
18.7368
 20
0.045
 30
0.0
 11
20.9456
 21
0.045
 31
0.0
  0
LINE
  5
18C
330
1D
100
AcDbEntity
  8
0
100
AcDbLine
 10
20.9456
 20
0.045
 30
0.0
 11
21.0612
 21
0.045
 31
0.0
  0
LINE
  5
18D
330
1D
100
AcDbEntity
  8
0
100
AcDbLine
 10
23.3042
 20
0.045
 30
0.0
 11
24.9978
 21
0.045
 31
0.0
  0
LINE
  5
18E
330
1D
100
AcDbEntity
  8
0
100
AcDbLine
 10
21.0612
 20
0.045
 30
0.0
 11
23.3042
 21
0.045
 31
0.0
  0
LINE
  5
18F
330
1D
100
AcDbEntity
  8
0
100
AcDbLine
 10
18.6245
 20
0.045
 30
0.0
 11
18.7368
 21
0.045
 31
0.0
  0
LINE
  5
196
330
1D
100
AcDbEntity
  8
0
100
AcDbLine
 10
10.0128
 20
0.045
 30
0.0
 11
11.5579
 21
0.045
 31
0.0
  0
LINE
  5
197
330
1D
100
AcDbEntity
  8
0
100
AcDbLine
 10
25.5146
 20
0.045
 30
0.0
 11
26.0776
 21
0.045
 31
0.0
  0
LINE
  5
198
330
1D
100
AcDbEntity
  8
0
100
AcDbLine
 10
24.2918
 20
0.045
 30
0.0
 11
24.7435
 21
0.045
 31
0.0
  0
LINE
  5
199
330
1D
100
AcDbEntity
  8
0
100
AcDbLine
 10
25.115
 20
0.045
 30
0.0
 11
26.8093
 21
0.045
 31
0.0
  0
LINE
  5
19A
330
1D
100
AcDbEntity
  8
0
100
AcDbLine
 10
24.9978
 20
0.045
 30
0.0
 11
25.115
 21
0.045
 31
0.0
  0
LINE
  5
19B
330
1D
100
AcDbEntity
  8
0
100
AcDbLine
 10
24.7435
 20
0.045
 30
0.0
 11
25.5146
 21
0.045
 31
0.0
  0
LINE
  5
19C
330
1D
100
AcDbEntity
  8
0
100
AcDbLine
 10
26.7074
 20
0.045
 30
0.0
 11
27.157
 21
0.045
 31
0.0
  0
LINE
  5
19D
330
1D
100
AcDbEntity
  8
0
100
AcDbLine
 10
27.157
 20
0.045
 30
0.0
 11
27.4027
 21
0.045
 31
0.0
  0
LINE
  5
19E
330
1D
100
AcDbEntity
  8
0
100
AcDbLine
 10
26.8093
 20
0.045
 30
0.0
 11
28.4956
 21
0.045
 31
0.0
  0
LINE
  5
19F
330
1D
100
AcDbEntity
  8
0
100
AcDbLine
 10
28.6263
 20
0.045
 30
0.0
 11
30.2963
 21
0.045
 31
0.0
  0
LINE
  5
1A0
330
1D
100
AcDbEntity
  8
0
100
AcDbLine
 10
28.4956
 20
0.045
 30
0.0
 11
28.6263
 21
0.045
 31
0.0
  0
LINE
  5
1A1
330
1D
100
AcDbEntity
  8
0
100
AcDbLine
 10
26.0776
 20
0.045
 30
0.0
 11
26.7074
 21
0.045
 31
0.0
  0
LINE
  5
1B4
330
1D
100
AcDbEntity
  8
0
100
AcDbLine
 10
7.071
 20
90.1122
 30
0.0
 11
7.7255
 21
88.2946
 31
0.0
  0
LINE
  5
1B5
330
1D
100
AcDbEntity
  8
0
100
AcDbLine
 10
7.071
 20
90.1122
 30
0.0
 11
7.72574
 21
88.2946
 31
0.0
  0
LINE
  5
1BA
330
1D
100
AcDbEntity
  8
0
100
AcDbLine
 10
7.72574
 20
88.2946
 30
0.0
 11
8.52375
 21
86.4741
 31
0.0
  0
LINE
  5
1BB
330
1D
100
AcDbEntity
  8
0
100
AcDbLine
 10
7.7255
 20
88.2946
 30
0.0
 11
8.52375
 21
86.4741
 31
0.0
  0
LINE
  5
25B
330
1D
100
AcDbEntity
  8
0
100
AcDbLine
 10
28.4228
 20
67.4289
 30
0.0
 11
28.8605
 21
67.4552
 31
0.0
  0
LINE
  5
25E
330
1D
100
AcDbEntity
  8
0
100
AcDbLine
 10
28.8605
 20
67.4552
 30
0.0
 11
29.2919
 21
67.5318
 31
0.0
  0
LINE
  5
265
330
1D
100
AcDbEntity
  8
0
100
AcDbLine
 10
25.0431
 20
68.3063
 30
0.0
 11
25.8534
 21
67.9676
 31
0.0
  0
LINE
  5
29C
330
1D
100
AcDbEntity
  8
0
100
AcDbLine
 10
25.8534
 20
67.9676
 30
0.0
 11
26.6867
 21
67.69
 31
0.0
  0
LINE
  5
496
330
1D
100
AcDbEntity
  8
0
100
AcDbLine
 10
16.184
 20
76.1167
 30
0.0
 11
19.5277
 21
73.1228
 31
0.0
  0
LINE
  5
498
330
1D
100
AcDbEntity
  8
0
100
AcDbLine
 10
16.1843
 20
76.1166
 30
0.0
 11
19.5277
 21
73.1228
 31
0.0
  0
LINE
  5
5CA
330
1D
100
AcDbEntity
  8
0
100
AcDbLine
 10
19.5277
 20
73.1228
 30
0.0
 11
21.5173
 21
71.6147
 31
0.0
  0
LINE
  5
5CB
330
1D
100
AcDbEntity
  8
0
100
AcDbLine
 10
19.5277
 20
73.1228
 30
0.0
 11
21.5173
 21
71.615
 31
0.0
  0
LINE
  5
61C
330
1D
100
AcDbEntity
  8
0
100
AcDbLine
 10
21.5173
 20
71.615
 30
0.0
 11
22.9439
 21
70.6561
 31
0.0
  0
LINE
  5
61D
330
1D
100
AcDbEntity
  8
0
100
AcDbLine
 10
21.5173
 20
71.6147
 30
0.0
 11
22.9439
 21
70.6561
 31
0.0
  0
LINE
  5
61E
330
1D
100
AcDbEntity
  8
0
100
AcDbLine
 10
22.9439
 20
70.6561
 30
0.0
 11
24.366
 21
69.8178
 31
0.0
  0
LINE
  5
61F
330
1D
100
AcDbEntity
  8
0
100
AcDbLine
 10
22.9439
 20
70.6561
 30
0.0
 11
24.3664
 21
69.8176
 31
0.0
  0
LINE
  5
642
330
1D
100
AcDbEntity
  8
0
100
AcDbLine
 10
24.2538
 20
68.6915
 30
0.0
 11
25.0431
 21
68.3063
 31
0.0
  0
LINE
  5
64F
330
1D
100
AcDbEntity
  8
0
100
AcDbLine
 10
24.3664
 20
69.8176
 30
0.0
 11
25.582
 21
69.2164
 31
0.0
  0
LINE
  5
652
330
1D
100
AcDbEntity
  8
0
100
AcDbLine
 10
25.582
 20
69.2164
 30
0.0
 11
26.2552
 21
68.9414
 31
0.0
  0
LINE
  5
667
330
1D
100
AcDbEntity
  8
0
100
AcDbLine
 10
26.6867
 20
67.69
 30
0.0
 11
27.5446
 21
67.4991
 31
0.0
  0
LINE
  5
6A0
330
1D
100
AcDbEntity
  8
0
100
AcDbLine
 10
27.5446
 20
67.4991
 30
0.0
 11
28.4228
 21
67.4289
 31
0.0
  0
LINE
  5
6B7
330
1D
100
AcDbEntity
  8
0
100
AcDbLine
 10
29.2919
 20
67.5318
 30
0.0
 11
29.7097
 21
67.6627
 31
0.0
  0
LINE
  5
6C6
330
1D
100
AcDbEntity
  8
0
100
AcDbLine
 10
29.7097
 20
67.6627
 30
0.0
 11
30.1096
 21
67.8413
 31
0.0
  0
LINE
  5
6EF
330
1D
100
AcDbEntity
  8
0
100
AcDbLine
 10
26.2552
 20
68.9414
 30
0.0
 11
26.9301
 21
68.7192
 31
0.0
  0
LINE
  5
6F4
330
1D
100
AcDbEntity
  8
0
100
AcDbLine
 10
26.255
 20
68.9418
 30
0.0
 11
26.93
 21
68.7195
 31
0.0
  0
LINE
  5
701
330
1D
100
AcDbEntity
  8
0
100
AcDbLine
 10
26.9301
 20
68.7192
 30
0.0
 11
27.6072
 21
68.5639
 31
0.0
  0
LINE
  5
702
330
1D
100
AcDbEntity
  8
0
100
AcDbLine
 10
27.6072
 20
68.5639
 30
0.0
 11
28.3305
 21
68.4971
 31
0.0
  0
LINE
  5
705
330
1D
100
AcDbEntity
  8
0
100
AcDbLine
 10
28.9365
 20
68.5514
 30
0.0
 11
29.0631
 21
68.5789
 31
0.0
  0
LINE
  5
707
330
1D
100
AcDbEntity
  8
0
100
AcDbLine
 10
29.0631
 20
68.5789
 30
0.0
 11
29.4244
 21
68.6942
 31
0.0
  0
LINE
  5
709
330
1D
100
AcDbEntity
  8
0
100
AcDbLine
 10
28.9367
 20
68.5516
 30
0.0
 11
29.0628
 21
68.5789
 31
0.0
  0
LINE
  5
70B
330
1D
100
AcDbEntity
  8
0
100
AcDbLine
 10
29.4244
 20
68.6942
 30
0.0
 11
29.7551
 21
68.8468
 31
0.0
  0
LINE
  5
70D
330
1D
100
AcDbEntity
  8
0
100
AcDbLine
 10
29.7551
 20
68.8468
 30
0.0
 11
30.3462
 21
69.2273
 31
0.0
  0
LINE
  5
70E
330
1D
100
AcDbEntity
  8
0
100
AcDbLine
 10
29.7553
 20
68.8467
 30
0.0
 11
30.3464
 21
69.2272
 31
0.0
  0
LINE
  5
710
330
1D
100
AcDbEntity
  8
0
100
AcDbLine
 10
29.4242
 20
68.6946
 30
0.0
 11
29.7553
 21
68.8467
 31
0.0
  0
LINE
  5
711
330
1D
100
AcDbEntity
  8
0
100
AcDbLine
 10
29.0628
 20
68.5789
 30
0.0
 11
29.4242
 21
68.6946
 31
0.0
  0
LINE
  5
712
330
1D
100
AcDbEntity
  8
0
100
AcDbLine
 10
27.6072
 20
68.5636
 30
0.0
 11
28.3305
 21
68.4971
 31
0.0
  0
LINE
  5
713
330
1D
100
AcDbEntity
  8
0
100
AcDbLine
 10
28.3305
 20
68.4971
 30
0.0
 11
28.9367
 21
68.5516
 31
0.0
  0
LINE
  5
714
330
1D
100
AcDbEntity
  8
0
100
AcDbLine
 10
28.3305
 20
68.4971
 30
0.0
 11
28.9365
 21
68.5514
 31
0.0
  0
LINE
  5
715
330
1D
100
AcDbEntity
  8
0
100
AcDbLine
 10
26.93
 20
68.7195
 30
0.0
 11
27.6072
 21
68.5636
 31
0.0
  0
LINE
  5
A05
330
1D
100
AcDbEntity
  8
0
100
AcDbLine
 10
9.17873
 20
85.1753
 30
0.0
 11
10.3446
 21
83.19
 31
0.0
  0
LINE
  5
A06
330
1D
100
AcDbEntity
  8
0
100
AcDbLine
 10
9.17885
 20
85.1753
 30
0.0
 11
10.3448
 21
83.1899
 31
0.0
  0
LINE
  5
A3C
330
1D
100
AcDbEntity
  8
0
100
AcDbLine
 10
10.3446
 20
83.19
 30
0.0
 11
11.7028
 21
81.2173
 31
0.0
  0
LINE
  5
A3D
330
1D
100
AcDbEntity
  8
0
100
AcDbLine
 10
10.3448
 20
83.1899
 30
0.0
 11
11.7028
 21
81.2169
 31
0.0
  0
LINE
  5
A44
330
1D
100
AcDbEntity
  8
0
100
AcDbLine
 10
11.3996
 20
91.3196
 30
0.0
 11
12.4556
 21
88.6896
 31
0.0
  0
LINE
  5
A45
330
1D
100
AcDbEntity
  8
0
100
AcDbLine
 10
12.4556
 20
88.6896
 30
0.0
 11
14.2156
 21
86.3665
 31
0.0
  0
LINE
  5
A46
330
1D
100
AcDbEntity
  8
0
100
AcDbLine
 10
12.7196
 20
89.2569
 30
0.0
 11
14.4356
 21
87.0214
 31
0.0
  0
LINE
  5
B14
330
1D
100
AcDbEntity
  8
0
100
AcDbLine
 10
14.9981
 20
77.3394
 30
0.0
 11
16.184
 21
76.1167
 31
0.0
  0
LINE
  5
B1A
330
1D
100
AcDbEntity
  8
0
100
AcDbLine
 10
14.9982
 20
77.3397
 30
0.0
 11
16.1843
 21
76.1166
 31
0.0
  0
LINE
  5
B47
330
1D
100
AcDbEntity
  8
0
100
AcDbLine
 10
13.7077
 20
78.7877
 30
0.0
 11
14.9981
 21
77.3394
 31
0.0
  0
LINE
  5
B4B
330
1D
100
AcDbEntity
  8
0
100
AcDbLine
 10
14.2156
 20
86.3665
 30
0.0
 11
16.5476
 21
84.6132
 31
0.0
  0
LINE
  5
B4C
330
1D
100
AcDbEntity
  8
0
100
AcDbLine
 10
16.5476
 20
84.6132
 30
0.0
 11
19.1876
 21
83.5612
 31
0.0
  0
LINE
  5
B4D
330
1D
100
AcDbEntity
  8
0
100
AcDbLine
 10
19.1876
 20
83.5612
 30
0.0
 11
22.0036
 21
83.1667
 31
0.0
  0
LINE
  5
B4E
330
1D
100
AcDbEntity
  8
0
100
AcDbLine
 10
22.0036
 20
83.1667
 30
0.0
 11
24.8196
 21
83.5612
 31
0.0
  0
LINE
  5
B4F
330
1D
100
AcDbEntity
  8
0
100
AcDbLine
 10
22.0036
 20
83.8655
 30
0.0
 11
24.7756
 21
84.26
 31
0.0
  0
LINE
  5
B50
330
1D
100
AcDbEntity
  8
0
100
AcDbLine
 10
27.4596
 20
84.6132
 30
0.0
 11
29.7916
 21
86.3665
 31
0.0
  0
LINE
  5
B51
330
1D
100
AcDbEntity
  8
0
100
AcDbLine
 10
24.8196
 20
83.5612
 30
0.0
 11
27.4596
 21
84.6132
 31
0.0
  0
LINE
  5
B52
330
1D
100
AcDbEntity
  8
0
100
AcDbLine
 10
24.7756
 20
84.26
 30
0.0
 11
27.3276
 21
85.312
 31
0.0
  0
LINE
  5
B53
330
1D
100
AcDbEntity
  8
0
100
AcDbLine
 10
27.3276
 20
85.312
 30
0.0
 11
29.5716
 21
87.0214
 31
0.0
  0
LINE
  5
B54
330
1D
100
AcDbEntity
  8
0
100
AcDbLine
 10
19.2316
 20
84.26
 30
0.0
 11
22.0036
 21
83.8655
 31
0.0
  0
LINE
  5
B55
330
1D
100
AcDbEntity
  8
0
100
AcDbLine
 10
29.7916
 20
86.3665
 30
0.0
 11
31.5516
 21
88.6896
 31
0.0
  0
LINE
  5
B56
330
1D
100
AcDbEntity
  8
0
100
AcDbLine
 10
29.5716
 20
87.0214
 30
0.0
 11
31.2876
 21
89.2569
 31
0.0
  0
LINE
  5
B57
330
1D
100
AcDbEntity
  8
0
100
AcDbLine
 10
16.6796
 20
85.312
 30
0.0
 11
19.2316
 21
84.26
 31
0.0
  0
LINE
  5
B58
330
1D
100
AcDbEntity
  8
0
100
AcDbLine
 10
14.4356
 20
87.0214
 30
0.0
 11
16.6796
 21
85.312
 31
0.0
  0
LINE
  5
B5D
330
1D
100
AcDbEntity
  8
0
100
AcDbLine
 10
13.7078
 20
78.7875
 30
0.0
 11
14.9982
 21
77.3397
 31
0.0
  0
LINE
  5
B67
330
1D
100
AcDbEntity
  8
0
100
AcDbLine
 10
11.0036
 20
94.1249
 30
0.0
 11
11.0036
 21
94.3863
 31
0.0
  0
LINE
  5
B68
330
1D
100
AcDbEntity
  8
0
100
AcDbLine
 10
11.0036
 20
94.1249
 30
0.0
 11
11.3996
 21
91.3196
 31
0.0
  0
LINE
  5
B69
330
1D
100
AcDbEntity
  8
0
100
AcDbLine
 10
11.0036
 20
94.3863
 30
0.0
 11
11.0036
 21
94.5084
 31
0.0
  0
LINE
  5
B6A
330
1D
100
AcDbEntity
  8
0
100
AcDbLine
 10
11.0036
 20
94.3863
 30
0.0
 11
11.0036
 21
94.1249
 31
0.0
  0
LINE
  5
B6B
330
1D
100
AcDbEntity
  8
0
100
AcDbLine
 10
11.0036
 20
94.5084
 30
0.0
 11
11.0036
 21
94.3863
 31
0.0
  0
LINE
  5
B6C
330
1D
100
AcDbEntity
  8
0
100
AcDbLine
 10
11.0036
 20
94.5084
 30
0.0
 11
11.3996
 21
97.3136
 31
0.0
  0
LINE
  5
B6D
330
1D
100
AcDbEntity
  8
0
100
AcDbLine
 10
11.6636
 20
91.7992
 30
0.0
 11
12.7196
 21
89.2569
 31
0.0
  0
LINE
  5
B6E
330
1D
100
AcDbEntity
  8
0
100
AcDbLine
 10
11.2676
 20
94.5607
 30
0.0
 11
11.6636
 21
91.7992
 31
0.0
  0
LINE
  5
B6F
330
1D
100
AcDbEntity
  8
0
100
AcDbLine
 10
11.2676
 20
94.5607
 30
0.0
 11
11.6636
 21
97.3221
 31
0.0
  0
LINE
  5
B78
330
1D
100
AcDbEntity
  8
0
100
AcDbLine
 10
7.08058
 20
100.421
 30
0.0
 11
7.59374
 21
101.78
 31
0.0
  0
LINE
  5
B79
330
1D
100
AcDbEntity
  8
0
100
AcDbLine
 10
7.0807
 20
100.421
 30
0.0
 11
7.59396
 21
101.78
 31
0.0
  0
LINE
  5
B7B
330
1D
100
AcDbEntity
  8
0
100
AcDbLine
 10
7.59374
 20
101.78
 30
0.0
 11
8.23395
 21
103.099
 31
0.0
  0
LINE
  5
B7C
330
1D
100
AcDbEntity
  8
0
100
AcDbLine
 10
7.59396
 20
101.78
 30
0.0
 11
8.23418
 21
103.099
 31
0.0
  0
LINE
  5
B84
330
1D
100
AcDbEntity
  8
0
100
AcDbLine
 10
6.78564
 20
102.291
 30
0.0
 11
7.56908
 21
103.835
 31
0.0
  0
LINE
  5
B85
330
1D
100
AcDbEntity
  8
0
100
AcDbLine
 10
7.56906
 20
103.835
 30
0.0
 11
8.03984
 21
104.613
 31
0.0
  0
LINE
  5
B86
330
1D
100
AcDbEntity
  8
0
100
AcDbLine
 10
6.78573
 20
102.291
 30
0.0
 11
7.56906
 21
103.835
 31
0.0
  0
LINE
  5
B89
330
1D
100
AcDbEntity
  8
0
100
AcDbLine
 10
8.23395
 20
103.099
 30
0.0
 11
8.98688
 21
104.348
 31
0.0
  0
LINE
  5
B8A
330
1D
100
AcDbEntity
  8
0
100
AcDbLine
 10
8.03984
 20
104.613
 30
0.0
 11
8.58698
 21
105.415
 31
0.0
  0
LINE
  5
B8E
330
1D
100
AcDbEntity
  8
0
100
AcDbLine
 10
8.98688
 20
104.348
 30
0.0
 11
9.85446
 21
105.525
 31
0.0
  0
LINE
  5
B8F
330
1D
100
AcDbEntity
  8
0
100
AcDbLine
 10
8.98677
 20
104.348
 30
0.0
 11
9.85459
 21
105.525
 31
0.0
  0
LINE
  5
B91
330
1D
100
AcDbEntity
  8
0
100
AcDbLine
 10
8.58698
 20
105.415
 30
0.0
 11
9.32267
 21
106.354
 31
0.0
  0
LINE
  5
B95
330
1D
100
AcDbEntity
  8
0
100
AcDbLine
 10
8.23418
 20
103.099
 30
0.0
 11
8.98677
 21
104.348
 31
0.0
  0
LINE
  5
B97
330
1D
100
AcDbEntity
  8
0
100
AcDbLine
 10
8.03967
 20
104.613
 30
0.0
 11
8.58671
 21
105.415
 31
0.0
  0
LINE
  5
B98
330
1D
100
AcDbEntity
  8
0
100
AcDbLine
 10
8.58671
 20
105.415
 30
0.0
 11
9.32268
 21
106.354
 31
0.0
  0
LINE
  5
B99
330
1D
100
AcDbEntity
  8
0
100
AcDbLine
 10
7.56908
 20
103.835
 30
0.0
 11
8.03967
 21
104.613
 31
0.0
  0
LINE
  5
B9A
330
1D
100
AcDbEntity
  8
0
100
AcDbLine
 10
11.3996
 20
97.3136
 30
0.0
 11
12.4556
 21
99.9436
 31
0.0
  0
LINE
  5
B9B
330
1D
100
AcDbEntity
  8
0
100
AcDbLine
 10
12.4556
 20
99.9436
 30
0.0
 11
14.2156
 21
102.267
 31
0.0
  0
LINE
  5
B9C
330
1D
100
AcDbEntity
  8
0
100
AcDbLine
 10
12.7196
 20
99.8644
 30
0.0
 11
14.4356
 21
102.1
 31
0.0
  0
LINE
  5
B9D
330
1D
100
AcDbEntity
  8
0
100
AcDbLine
 10
11.6636
 20
97.3221
 30
0.0
 11
12.7196
 21
99.8644
 31
0.0
  0
LINE
  5
B9E
330
1D
100
AcDbEntity
  8
0
100
AcDbLine
 10
9.85459
 20
105.525
 30
0.0
 11
10.8283
 21
106.615
 31
0.0
  0
LINE
  5
B9F
330
1D
100
AcDbEntity
  8
0
100
AcDbLine
 10
9.85446
 20
105.525
 30
0.0
 11
10.8281
 21
106.615
 31
0.0
  0
LINE
  5
BA1
330
1D
100
AcDbEntity
  8
0
100
AcDbLine
 10
9.32267
 20
106.354
 30
0.0
 11
10.3711
 21
107.476
 31
0.0
  0
LINE
  5
BA5
330
1D
100
AcDbEntity
  8
0
100
AcDbLine
 10
8.14287
 20
108.031
 30
0.0
 11
9.88779
 21
111.815
 31
0.0
  0
LINE
  5
BA7
330
1D
100
AcDbEntity
  8
0
100
AcDbLine
 10
10.3711
 20
107.476
 30
0.0
 11
11.3147
 21
108.323
 31
0.0
  0
LINE
  5
BA8
330
1D
100
AcDbEntity
  8
0
100
AcDbLine
 10
9.88819
 20
111.815
 30
0.0
 11
11.3931
 21
115.024
 31
0.0
  0
LINE
  5
BA9
330
1D
100
AcDbEntity
  8
0
100
AcDbLine
 10
9.88779
 20
111.815
 30
0.0
 11
11.3928
 21
115.024
 31
0.0
  0
LINE
  5
BAE
330
1D
100
AcDbEntity
  8
0
100
AcDbLine
 10
10.3712
 20
107.476
 30
0.0
 11
11.3148
 21
108.323
 31
0.0
  0
LINE
  5
BAF
330
1D
100
AcDbEntity
  8
0
100
AcDbLine
 10
9.32268
 20
106.354
 30
0.0
 11
10.3712
 21
107.476
 31
0.0
  0
LINE
  5
BB4
330
1D
100
AcDbEntity
  8
0
100
AcDbLine
 10
10.8283
 20
106.615
 30
0.0
 11
11.9047
 21
107.614
 31
0.0
  0
LINE
  5
BB6
330
1D
100
AcDbEntity
  8
0
100
AcDbLine
 10
11.3147
 20
108.323
 30
0.0
 11
12.0915
 21
108.932
 31
0.0
  0
LINE
  5
BBB
330
1D
100
AcDbEntity
  8
0
100
AcDbLine
 10
11.3931
 20
115.024
 30
0.0
 11
12.2919
 21
116.87
 31
0.0
  0
LINE
  5
BBC
330
1D
100
AcDbEntity
  8
0
100
AcDbLine
 10
12.0915
 20
108.932
 30
0.0
 11
13.3187
 21
109.768
 31
0.0
  0
LINE
  5
BBD
330
1D
100
AcDbEntity
  8
0
100
AcDbLine
 10
11.3928
 20
115.024
 30
0.0
 11
12.2921
 21
116.87
 31
0.0
  0
LINE
  5
BBE
330
1D
100
AcDbEntity
  8
0
100
AcDbLine
 10
11.3148
 20
108.323
 30
0.0
 11
12.0915
 21
108.933
 31
0.0
  0
LINE
  5
BC2
330
1D
100
AcDbEntity
  8
0
100
AcDbLine
 10
13.3187
 20
109.768
 30
0.0
 11
14.6108
 21
110.5
 31
0.0
  0
LINE
  5
BCB
330
1D
100
AcDbEntity
  8
0
100
AcDbLine
 10
12.2919
 20
116.87
 30
0.0
 11
14.2221
 21
120.698
 31
0.0
  0
LINE
  5
BCD
330
1D
100
AcDbEntity
  8
0
100
AcDbLine
 10
12.2921
 20
116.87
 30
0.0
 11
14.2222
 21
120.698
 31
0.0
  0
LINE
  5
BCE
330
1D
100
AcDbEntity
  8
0
100
AcDbLine
 10
13.3186
 20
109.768
 30
0.0
 11
14.6108
 21
110.5
 31
0.0
  0
LINE
  5
BCF
330
1D
100
AcDbEntity
  8
0
100
AcDbLine
 10
12.0915
 20
108.933
 30
0.0
 11
13.3186
 21
109.768
 31
0.0
  0
LINE
  5
BD0
330
1D
100
AcDbEntity
  8
0
100
AcDbLine
 10
10.8281
 20
106.615
 30
0.0
 11
11.9049
 21
107.614
 31
0.0
  0
LINE
  5
BD4
330
1D
100
AcDbEntity
  8
0
100
AcDbLine
 10
14.2156
 20
102.267
 30
0.0
 11
16.5476
 21
104.02
 31
0.0
  0
LINE
  5
BD5
330
1D
100
AcDbEntity
  8
0
100
AcDbLine
 10
14.4356
 20
102.1
 30
0.0
 11
16.6796
 21
103.809
 31
0.0
  0
LINE
  5
BD6
330
1D
100
AcDbEntity
  8
0
100
AcDbLine
 10
16.5476
 20
104.02
 30
0.0
 11
19.1876
 21
105.072
 31
0.0
  0
LINE
  5
BD7
330
1D
100
AcDbEntity
  8
0
100
AcDbLine
 10
16.6796
 20
103.809
 30
0.0
 11
19.2316
 21
104.861
 31
0.0
  0
LINE
  5
BD9
330
1D
100
AcDbEntity
  8
0
100
AcDbLine
 10
14.8481
 20
109.596
 30
0.0
 11
15.7298
 21
110.026
 31
0.0
  0
LINE
  5
BDE
330
1D
100
AcDbEntity
  8
0
100
AcDbLine
 10
15.7298
 20
110.026
 30
0.0
 11
16.6312
 21
110.401
 31
0.0
  0
LINE
  5
BDF
330
1D
100
AcDbEntity
  8
0
100
AcDbLine
 10
14.8482
 20
109.596
 30
0.0
 11
15.7298
 21
110.026
 31
0.0
  0
LINE
  5
BE0
330
1D
100
AcDbEntity
  8
0
100
AcDbLine
 10
14.2221
 20
120.698
 30
0.0
 11
15.6864
 21
123.504
 31
0.0
  0
LINE
  5
BE2
330
1D
100
AcDbEntity
  8
0
100
AcDbLine
 10
14.2222
 20
120.698
 30
0.0
 11
15.6868
 21
123.503
 31
0.0
  0
LINE
  5
BE3
330
1D
100
AcDbEntity
  8
0
100
AcDbLine
 10
14.6108
 20
110.5
 30
0.0
 11
15.8475
 21
111.069
 31
0.0
  0
LINE
  5
BE6
330
1D
100
AcDbEntity
  8
0
100
AcDbLine
 10
17.0605
 20
111.513
 30
0.0
 11
18.2802
 21
111.857
 31
0.0
  0
LINE
  5
BEA
330
1D
100
AcDbEntity
  8
0
100
AcDbLine
 10
16.6312
 20
110.401
 30
0.0
 11
17.5642
 21
110.724
 31
0.0
  0
LINE
  5
BEB
330
1D
100
AcDbEntity
  8
0
100
AcDbLine
 10
16.6312
 20
110.401
 30
0.0
 11
17.5641
 21
110.724
 31
0.0
  0
LINE
  5
BEF
330
1D
100
AcDbEntity
  8
0
100
AcDbLine
 10
15.8475
 20
111.069
 30
0.0
 11
17.0605
 21
111.513
 31
0.0
  0
LINE
  5
BF2
330
1D
100
AcDbEntity
  8
0
100
AcDbLine
 10
13.9442
 20
109.084
 30
0.0
 11
14.8482
 21
109.596
 31
0.0
  0
LINE
  5
BF3
330
1D
100
AcDbEntity
  8
0
100
AcDbLine
 10
13.9442
 20
109.084
 30
0.0
 11
14.8481
 21
109.596
 31
0.0
  0
LINE
  5
BF6
330
1D
100
AcDbEntity
  8
0
100
AcDbLine
 10
17.5641
 20
110.724
 30
0.0
 11
18.5148
 21
110.987
 31
0.0
  0
LINE
  5
BF9
330
1D
100
AcDbEntity
  8
0
100
AcDbLine
 10
17.5642
 20
110.724
 30
0.0
 11
18.5145
 21
110.987
 31
0.0
  0
LINE
  5
BFB
330
1D
100
AcDbEntity
  8
0
100
AcDbLine
 10
19.1876
 20
105.072
 30
0.0
 11
22.0036
 21
105.467
 31
0.0
  0
LINE
  5
BFC
330
1D
100
AcDbEntity
  8
0
100
AcDbLine
 10
19.2316
 20
104.861
 30
0.0
 11
22.0036
 21
105.256
 31
0.0
  0
LINE
  5
BFD
330
1D
100
AcDbEntity
  8
0
100
AcDbLine
 10
18.5148
 20
110.987
 30
0.0
 11
20.1745
 21
111.301
 31
0.0
  0
LINE
  5
BFE
330
1D
100
AcDbEntity
  8
0
100
AcDbLine
 10
18.5145
 20
110.987
 30
0.0
 11
20.1745
 21
111.301
 31
0.0
  0
LINE
  5
BFF
330
1D
100
AcDbEntity
  8
0
100
AcDbLine
 10
18.2802
 20
111.857
 30
0.0
 11
19.5947
 21
112.126
 31
0.0
  0
LINE
  5
C00
330
1D
100
AcDbEntity
  8
0
100
AcDbLine
 10
19.5947
 20
112.126
 30
0.0
 11
20.5463
 21
112.255
 31
0.0
  0
LINE
  5
C01
330
1D
100
AcDbEntity
  8
0
100
AcDbLine
 10
19.5946
 20
112.127
 30
0.0
 11
20.5466
 21
112.255
 31
0.0
  0
LINE
  5
C05
330
1D
100
AcDbEntity
  8
0
100
AcDbLine
 10
20.1745
 20
111.301
 30
0.0
 11
21.122
 21
111.4
 31
0.0
  0
LINE
  5
C06
330
1D
100
AcDbEntity
  8
0
100
AcDbLine
 10
20.1745
 20
111.301
 30
0.0
 11
21.1222
 21
111.4
 31
0.0
  0
LINE
  5
C0D
330
1D
100
AcDbEntity
  8
0
100
AcDbLine
 10
15.6868
 20
123.503
 30
0.0
 11
21.1752
 21
133.535
 31
0.0
  0
LINE
  5
C0F
330
1D
100
AcDbEntity
  8
0
100
AcDbLine
 10
22.0036
 20
105.467
 30
0.0
 11
24.8196
 21
105.072
 31
0.0
  0
LINE
  5
C10
330
1D
100
AcDbEntity
  8
0
100
AcDbLine
 10
22.0036
 20
105.256
 30
0.0
 11
24.7756
 21
104.861
 31
0.0
  0
LINE
  5
C11
330
1D
100
AcDbEntity
  8
0
100
AcDbLine
 10
24.8196
 20
105.072
 30
0.0
 11
27.4596
 21
104.02
 31
0.0
  0
LINE
  5
C12
330
1D
100
AcDbEntity
  8
0
100
AcDbLine
 10
24.7756
 20
104.861
 30
0.0
 11
27.3276
 21
103.809
 31
0.0
  0
LINE
  5
C18
330
1D
100
AcDbEntity
  8
0
100
AcDbLine
 10
21.1222
 20
111.4
 30
0.0
 11
22.1133
 21
111.443
 31
0.0
  0
LINE
  5
C1A
330
1D
100
AcDbEntity
  8
0
100
AcDbLine
 10
22.1133
 20
111.443
 30
0.0
 11
23.4352
 21
111.41
 31
0.0
  0
LINE
  5
C22
330
1D
100
AcDbEntity
  8
0
100
AcDbLine
 10
24.3896
 20
111.319
 30
0.0
 11
25.335
 21
111.173
 31
0.0
  0
LINE
  5
C23
330
1D
100
AcDbEntity
  8
0
100
AcDbLine
 10
24.3896
 20
111.319
 30
0.0
 11
25.3352
 21
111.173
 31
0.0
  0
LINE
  5
C24
330
1D
100
AcDbEntity
  8
0
100
AcDbLine
 10
25.3352
 20
111.173
 30
0.0
 11
26.7701
 21
110.84
 31
0.0
  0
LINE
  5
C27
330
1D
100
AcDbEntity
  8
0
100
AcDbLine
 10
25.335
 20
111.173
 30
0.0
 11
26.77
 21
110.84
 31
0.0
  0
LINE
  5
C29
330
1D
100
AcDbEntity
  8
0
100
AcDbLine
 10
20.5466
 20
112.255
 30
0.0
 11
21.7068
 21
112.337
 31
0.0
  0
LINE
  5
C2A
330
1D
100
AcDbEntity
  8
0
100
AcDbLine
 10
24.545
 20
112.203
 30
0.0
 11
25.9707
 21
111.967
 31
0.0
  0
LINE
  5
C2B
330
1D
100
AcDbEntity
  8
0
100
AcDbLine
 10
24.5449
 20
112.203
 30
0.0
 11
25.9707
 21
111.967
 31
0.0
  0
LINE
  5
C2D
330
1D
100
AcDbEntity
  8
0
100
AcDbLine
 10
21.1752
 20
133.535
 30
0.0
 11
21.8459
 21
134.276
 31
0.0
  0
LINE
  5
C30
330
1D
100
AcDbEntity
  8
0
100
AcDbLine
 10
21.6121
 20
134.152
 30
0.0
 11
21.8794
 21
134.674
 31
0.0
  0
LINE
  5
C31
330
1D
100
AcDbEntity
  8
0
100
AcDbLine
 10
21.6122
 20
134.151
 30
0.0
 11
21.8794
 21
134.674
 31
0.0
  0
LINE
  5
C33
330
1D
100
AcDbEntity
  8
0
100
AcDbLine
 10
21.8456
 20
134.275
 30
0.0
 11
22.8807
 21
134.833
 31
0.0
  0
LINE
  5
C34
330
1D
100
AcDbEntity
  8
0
100
AcDbLine
 10
21.707
 20
112.337
 30
0.0
 11
23.1661
 21
112.325
 31
0.0
  0
LINE
  5
C39
330
1D
100
AcDbEntity
  8
0
100
AcDbLine
 10
23.1662
 20
112.326
 30
0.0
 11
24.545
 21
112.203
 31
0.0
  0
LINE
  5
C3C
330
1D
100
AcDbEntity
  8
0
100
AcDbLine
 10
21.5532
 20
134.426
 30
0.0
 11
21.6241
 21
134.772
 31
0.0
  0
LINE
  5
C3D
330
1D
100
AcDbEntity
  8
0
100
AcDbLine
 10
21.5532
 20
134.426
 30
0.0
 11
21.624
 21
134.772
 31
0.0
  0
LINE
  5
C40
330
1D
100
AcDbEntity
  8
0
100
AcDbLine
 10
21.624
 20
134.772
 30
0.0
 11
21.746
 21
135.097
 31
0.0
  0
LINE
  5
C41
330
1D
100
AcDbEntity
  8
0
100
AcDbLine
 10
21.8794
 20
134.674
 30
0.0
 11
22.29
 21
135.131
 31
0.0
  0
LINE
  5
C42
330
1D
100
AcDbEntity
  8
0
100
AcDbLine
 10
21.8794
 20
134.674
 30
0.0
 11
22.2903
 21
135.131
 31
0.0
  0
LINE
  5
C43
330
1D
100
AcDbEntity
  8
0
100
AcDbLine
 10
21.6241
 20
134.772
 30
0.0
 11
21.7459
 21
135.097
 31
0.0
  0
LINE
  5
C48
330
1D
100
AcDbEntity
  8
0
100
AcDbLine
 10
21.5335
 20
134.059
 30
0.0
 11
21.5532
 21
134.426
 31
0.0
  0
LINE
  5
C49
330
1D
100
AcDbEntity
  8
0
100
AcDbLine
 10
21.5335
 20
134.059
 30
0.0
 11
21.540137857743
 21
133.97791730732
 31
0.0
  0
LINE
  5
C4F
330
1D
100
AcDbEntity
  8
0
100
AcDbLine
 10
26.77
 20
110.84
 30
0.0
 11
28.1589
 21
110.38
 31
0.0
  0
LINE
  5
C50
330
1D
100
AcDbEntity
  8
0
100
AcDbLine
 10
27.4596
 20
104.02
 30
0.0
 11
29.7916
 21
102.267
 31
0.0
  0
LINE
  5
C51
330
1D
100
AcDbEntity
  8
0
100
AcDbLine
 10
27.3276
 20
103.809
 30
0.0
 11
29.5716
 21
102.1
 31
0.0
  0
LINE
  5
C57
330
1D
100
AcDbEntity
  8
0
100
AcDbLine
 10
26.7701
 20
110.84
 30
0.0
 11
28.1589
 21
110.38
 31
0.0
  0
LINE
  5
C5A
330
1D
100
AcDbEntity
  8
0
100
AcDbLine
 10
25.9707
 20
111.967
 30
0.0
 11
27.4055
 21
111.603
 31
0.0
  0
LINE
  5
C5B
330
1D
100
AcDbEntity
  8
0
100
AcDbLine
 10
28.3531
 20
111.284
 30
0.0
 11
29.2754
 21
110.907
 31
0.0
  0
LINE
  5
C5C
330
1D
100
AcDbEntity
  8
0
100
AcDbLine
 10
28.3533
 20
111.284
 30
0.0
 11
29.2752
 21
110.908
 31
0.0
  0
LINE
  5
C5D
330
1D
100
AcDbEntity
  8
0
100
AcDbLine
 10
27.4055
 20
111.603
 30
0.0
 11
28.3533
 21
111.284
 31
0.0
  0
LINE
  5
C5E
330
1D
100
AcDbEntity
  8
0
100
AcDbLine
 10
27.4055
 20
111.603
 30
0.0
 11
28.3531
 21
111.284
 31
0.0
  0
LINE
  5
C64
330
1D
100
AcDbEntity
  8
0
100
AcDbLine
 10
22.2903
 20
135.131
 30
0.0
 11
22.8418
 21
135.52
 31
0.0
  0
LINE
  5
C66
330
1D
100
AcDbEntity
  8
0
100
AcDbLine
 10
22.29
 20
135.131
 30
0.0
 11
22.8415
 21
135.52
 31
0.0
  0
LINE
  5
C69
330
1D
100
AcDbEntity
  8
0
100
AcDbLine
 10
21.746
 20
135.097
 30
0.0
 11
22.085095359809
 21
135.728668078657
 31
0.0
  0
LINE
  5
C6A
330
1D
100
AcDbEntity
  8
0
100
AcDbLine
 10
21.746
 20
135.097
 30
0.0
 11
22.085095359809
 21
135.728668078657
 31
0.0
  0
LINE
  5
C6D
330
1D
100
AcDbEntity
  8
0
100
AcDbLine
 10
22.8418
 20
135.52
 30
0.0
 11
23.5297
 21
135.837
 31
0.0
  0
LINE
  5
C6E
330
1D
100
AcDbEntity
  8
0
100
AcDbLine
 10
22.8415
 20
135.52
 30
0.0
 11
23.53
 21
135.837
 31
0.0
  0
LINE
  5
C76
330
1D
100
AcDbEntity
  8
0
100
AcDbLine
 10
24.2598
 20
135.198
 30
0.0
 11
25.9544
 21
135.362
 31
0.0
  0
LINE
  5
C7A
330
1D
100
AcDbEntity
  8
0
100
AcDbLine
 10
25.9544
 20
135.362
 30
0.0
 11
27.9317
 21
135.321
 31
0.0
  0
LINE
  5
C7C
330
1D
100
AcDbEntity
  8
0
100
AcDbLine
 10
25.9544
 20
135.362
 30
0.0
 11
27.9318
 21
135.321
 31
0.0
  0
LINE
  5
C7D
330
1D
100
AcDbEntity
  8
0
100
AcDbLine
 10
24.2594
 20
135.198
 30
0.0
 11
25.9544
 21
135.362
 31
0.0
  0
LINE
  5
C84
330
1D
100
AcDbEntity
  8
0
100
AcDbLine
 10
27.9318
 20
135.321
 30
0.0
 11
30.1511
 21
135.077
 31
0.0
  0
LINE
  5
C87
330
1D
100
AcDbEntity
  8
0
100
AcDbLine
 10
27.9317
 20
135.321
 30
0.0
 11
30.1513
 21
135.077
 31
0.0
  0
LINE
  5
C88
330
1D
100
AcDbEntity
  8
0
100
AcDbLine
 10
22.8807
 20
134.833
 30
0.0
 11
24.2598
 21
135.198
 31
0.0
  0
LINE
  5
C89
330
1D
100
AcDbEntity
  8
0
100
AcDbLine
 10
22.8807
 20
134.833
 30
0.0
 11
24.2594
 21
135.198
 31
0.0
  0
LINE
  5
C8C
330
1D
100
AcDbEntity
  8
0
100
AcDbLine
 10
23.5297
 20
135.837
 30
0.0
 11
24.3489
 21
136.079
 31
0.0
  0
LINE
  5
C8D
330
1D
100
AcDbEntity
  8
0
100
AcDbLine
 10
23.53
 20
135.837
 30
0.0
 11
24.3487
 21
136.079
 31
0.0
  0
LINE
  5
C8E
330
1D
100
AcDbEntity
  8
0
100
AcDbLine
 10
24.3489
 20
136.079
 30
0.0
 11
25.2923
 21
136.246
 31
0.0
  0
LINE
  5
C8F
330
1D
100
AcDbEntity
  8
0
100
AcDbLine
 10
24.3487
 20
136.079
 30
0.0
 11
25.2922
 21
136.246
 31
0.0
  0
LINE
  5
C9D
330
1D
100
AcDbEntity
  8
0
100
AcDbLine
 10
28.7931
 20
136.28
 30
0.0
 11
30.1531
 21
136.135
 31
0.0
  0
LINE
  5
C9E
330
1D
100
AcDbEntity
  8
0
100
AcDbLine
 10
26.3534
 20
136.335
 30
0.0
 11
27.5233
 21
136.347
 31
0.0
  0
LINE
  5
CA5
330
1D
100
AcDbEntity
  8
0
100
AcDbLine
 10
29.2754
 20
110.907
 30
0.0
 11
30.1648
 21
110.479
 31
0.0
  0
LINE
  5
CA6
330
1D
100
AcDbEntity
  8
0
100
AcDbLine
 10
29.7916
 20
102.267
 30
0.0
 11
31.5516
 21
99.9436
 31
0.0
  0
LINE
  5
CA7
330
1D
100
AcDbEntity
  8
0
100
AcDbLine
 10
29.5716
 20
102.1
 30
0.0
 11
31.2876
 21
99.8644
 31
0.0
  0
LINE
  5
CAA
330
1D
100
AcDbEntity
  8
0
100
AcDbLine
 10
29.4811
 20
109.803
 30
0.0
 11
30.7491
 21
109.104
 31
0.0
  0
LINE
  5
CAB
330
1D
100
AcDbEntity
  8
0
100
AcDbLine
 10
29.4811
 20
109.803
 30
0.0
 11
30.7489
 21
109.104
 31
0.0
  0
LINE
  5
CDE
330
1D
100
AcDbEntity
  8
0
100
AcDbLine
 10
26.0058
 20
143.458
 30
0.0
 11
29.167
 21
150.412
 31
0.0
  0
LINE
  5
CDF
330
1D
100
AcDbEntity
  8
0
100
AcDbLine
 10
27.5233
 20
136.347
 30
0.0
 11
28.7933
 21
136.279
 31
0.0
  0
LINE
  5
CE5
330
1D
100
AcDbEntity
  8
0
100
AcDbLine
 10
27.4027
 20
0.045
 30
0.0
 11
27.5693
 21
0.045
 31
0.0
  0
LINE
  5
CE6
330
1D
100
AcDbEntity
  8
0
100
AcDbLine
 10
30.1028
 20
0.045
 30
0.0
 11
32.2994
 21
0.045
 31
0.0
  0
LINE
  5
CE7
330
1D
100
AcDbEntity
  8
0
100
AcDbLine
 10
30.0068
 20
0.045
 30
0.0
 11
30.1028
 21
0.045
 31
0.0
  0
LINE
  5
CE8
330
1D
100
AcDbEntity
  8
0
100
AcDbLine
 10
32.3939
 20
0.045
 30
0.0
 11
34.529
 21
0.045
 31
0.0
  0
LINE
  5
CE9
330
1D
100
AcDbEntity
  8
0
100
AcDbLine
 10
34.644
 20
0.045
 30
0.0
 11
37.1887
 21
0.045
 31
0.0
  0
LINE
  5
CEA
330
1D
100
AcDbEntity
  8
0
100
AcDbLine
 10
32.2994
 20
0.045
 30
0.0
 11
32.3939
 21
0.045
 31
0.0
  0
LINE
  5
CEB
330
1D
100
AcDbEntity
  8
0
100
AcDbLine
 10
32.2617
 20
0.045
 30
0.0
 11
34.0563
 21
0.045
 31
0.0
  0
LINE
  5
CED
330
1D
100
AcDbEntity
  8
0
100
AcDbLine
 10
30.4242
 20
0.045
 30
0.0
 11
32.2617
 21
0.045
 31
0.0
  0
LINE
  5
CEE
330
1D
100
AcDbEntity
  8
0
100
AcDbLine
 10
30.2963
 20
0.045
 30
0.0
 11
30.4242
 21
0.045
 31
0.0
  0
LINE
  5
CF0
330
1D
100
AcDbEntity
  8
0
100
AcDbLine
 10
34.1787
 20
0.045
 30
0.0
 11
35.92
 21
0.045
 31
0.0
  0
LINE
  5
CF2
330
1D
100
AcDbEntity
  8
0
100
AcDbLine
 10
34.0563
 20
0.045
 30
0.0
 11
34.1787
 21
0.045
 31
0.0
  0
LINE
  5
CF7
330
1D
100
AcDbEntity
  8
0
100
AcDbLine
 10
35.92
 20
0.045
 30
0.0
 11
37.5968
 21
0.045
 31
0.0
  0
LINE
  5
CF8
330
1D
100
AcDbEntity
  8
0
100
AcDbLine
 10
34.529
 20
0.045
 30
0.0
 11
34.644
 21
0.045
 31
0.0
  0
LINE
  5
CF9
330
1D
100
AcDbEntity
  8
0
100
AcDbLine
 10
37.7117
 20
0.045
 30
0.0
 11
39.3153
 21
0.045
 31
0.0
  0
LINE
  5
CFA
330
1D
100
AcDbEntity
  8
0
100
AcDbLine
 10
37.5968
 20
0.045
 30
0.0
 11
37.7117
 21
0.045
 31
0.0
  0
LINE
  5
CFB
330
1D
100
AcDbEntity
  8
0
100
AcDbLine
 10
37.2987
 20
0.045
 30
0.0
 11
39.7008
 21
0.045
 31
0.0
  0
LINE
  5
CFC
330
1D
100
AcDbEntity
  8
0
100
AcDbLine
 10
37.1887
 20
0.045
 30
0.0
 11
37.2987
 21
0.045
 31
0.0
  0
LINE
  5
D02
330
1D
100
AcDbEntity
  8
0
100
AcDbLine
 10
30.1096
 20
67.8413
 30
0.0
 11
30.516470026514
 21
68.096427068734
 31
0.0
  0
LINE
  5
D12
330
1D
100
AcDbEntity
  8
0
100
AcDbLine
 10
30.3462
 20
69.2273
 30
0.0
 11
30.6278
 21
69.4541
 31
0.0
  0
LINE
  5
D13
330
1D
100
AcDbEntity
  8
0
100
AcDbLine
 10
30.3464
 20
69.2272
 30
0.0
 11
30.6278
 21
69.4538
 31
0.0
  0
LINE
  5
D19
330
1D
100
AcDbEntity
  8
0
100
AcDbLine
 10
30.1511
 20
135.077
 30
0.0
 11
32.5699
 21
134.633
 31
0.0
  0
LINE
  5
D1A
330
1D
100
AcDbEntity
  8
0
100
AcDbLine
 10
30.1648
 20
110.479
 30
0.0
 11
31.0269
 21
109.999
 31
0.0
  0
LINE
  5
D1B
330
1D
100
AcDbEntity
  8
0
100
AcDbLine
 10
30.1513
 20
135.077
 30
0.0
 11
32.5699
 21
134.633
 31
0.0
  0
LINE
  5
D1C
330
1D
100
AcDbEntity
  8
0
100
AcDbLine
 10
30.1649
 20
110.478
 30
0.0
 11
31.027
 21
109.999
 31
0.0
  0
LINE
  5
D2B
330
1D
100
AcDbEntity
  8
0
100
AcDbLine
 10
30.516470026514
 20
68.096427068734
 30
0.0
 11
30.8542
 21
68.3082
 31
0.0
  0
LINE
  5
D36
330
1D
100
AcDbEntity
  8
0
100
AcDbLine
 10
30.6278
 20
69.4541
 30
0.0
 11
31.1878
 21
69.9885
 31
0.0
  0
LINE
  5
D37
330
1D
100
AcDbEntity
  8
0
100
AcDbLine
 10
30.6278
 20
69.4538
 30
0.0
 11
31.1881
 21
69.9886
 31
0.0
  0
LINE
  5
D4D
330
1D
100
AcDbEntity
  8
0
100
AcDbLine
 10
30.8542
 20
68.3082
 30
0.0
 11
31.5243
 21
68.8726
 31
0.0
  0
LINE
  5
D4F
330
1D
100
AcDbEntity
  8
0
100
AcDbLine
 10
30.7489
 20
109.104
 30
0.0
 11
31.9222
 21
108.315
 31
0.0
  0
LINE
  5
D51
330
1D
100
AcDbEntity
  8
0
100
AcDbLine
 10
30.7491
 20
109.104
 30
0.0
 11
31.922
 21
108.316
 31
0.0
  0
LINE
  5
D9D
330
1D
100
AcDbEntity
  8
0
100
AcDbLine
 10
31.5243
 20
68.8726
 30
0.0
 11
32.132
 21
69.5026
 31
0.0
  0
LINE
  5
DCB
330
1D
100
AcDbEntity
  8
0
100
AcDbLine
 10
32.132
 20
69.5026
 30
0.0
 11
32.6906
 21
70.1759
 31
0.0
  0
LINE
  5
DFB
330
1D
100
AcDbEntity
  8
0
100
AcDbLine
 10
31.1881
 20
69.9886
 30
0.0
 11
31.9614
 21
70.8951
 31
0.0
  0
LINE
  5
DFD
330
1D
100
AcDbEntity
  8
0
100
AcDbLine
 10
31.027
 20
109.999
 30
0.0
 11
31.867
 21
109.468
 31
0.0
  0
LINE
  5
DFE
330
1D
100
AcDbEntity
  8
0
100
AcDbLine
 10
31.0269
 20
109.999
 30
0.0
 11
31.867
 21
109.468
 31
0.0
  0
LINE
  5
E00
330
1D
100
AcDbEntity
  8
0
100
AcDbLine
 10
31.2876
 20
89.2569
 30
0.0
 11
32.3436
 21
91.7992
 31
0.0
  0
LINE
  5
E01
330
1D
100
AcDbEntity
  8
0
100
AcDbLine
 10
31.2876
 20
99.8644
 30
0.0
 11
32.3436
 21
97.3221
 31
0.0
  0
LINE
  5
E16
330
1D
100
AcDbEntity
  8
0
100
AcDbLine
 10
31.9612
 20
70.8953
 30
0.0
 11
32.8171
 21
72.1085
 31
0.0
  0
LINE
  5
E17
330
1D
100
AcDbEntity
  8
0
100
AcDbLine
 10
31.9614
 20
70.8951
 30
0.0
 11
32.8171
 21
72.1085
 31
0.0
  0
LINE
  5
E19
330
1D
100
AcDbEntity
  8
0
100
AcDbLine
 10
31.5516
 20
88.6896
 30
0.0
 11
32.6076
 21
91.3196
 31
0.0
  0
LINE
  5
E1A
330
1D
100
AcDbEntity
  8
0
100
AcDbLine
 10
31.5516
 20
99.9436
 30
0.0
 11
32.6076
 21
97.3136
 31
0.0
  0
LINE
  5
E1C
330
1D
100
AcDbEntity
  8
0
100
AcDbLine
 10
32.3436
 20
91.7992
 30
0.0
 11
32.7396
 21
94.5607
 31
0.0
  0
LINE
  5
E1D
330
1D
100
AcDbEntity
  8
0
100
AcDbLine
 10
32.6076
 20
91.3196
 30
0.0
 11
33.0036
 21
94.1249
 31
0.0
  0
LINE
  5
E1E
330
1D
100
AcDbEntity
  8
0
100
AcDbLine
 10
32.6076
 20
97.3136
 30
0.0
 11
33.0036
 21
94.5084
 31
0.0
  0
LINE
  5
E1F
330
1D
100
AcDbEntity
  8
0
100
AcDbLine
 10
32.3436
 20
97.3221
 30
0.0
 11
32.7396
 21
94.5607
 31
0.0
  0
LINE
  5
E26
330
1D
100
AcDbEntity
  8
0
100
AcDbLine
 10
31.9222
 20
108.315
 30
0.0
 11
33.0245
 21
107.427
 31
0.0
  0
LINE
  5
E27
330
1D
100
AcDbEntity
  8
0
100
AcDbLine
 10
31.867
 20
109.468
 30
0.0
 11
32.657
 21
108.905
 31
0.0
  0
LINE
  5
E28
330
1D
100
AcDbEntity
  8
0
100
AcDbLine
 10
31.867
 20
109.468
 30
0.0
 11
32.6571
 21
108.906
 31
0.0
  0
LINE
  5
E29
330
1D
100
AcDbEntity
  8
0
100
AcDbLine
 10
31.922
 20
108.316
 30
0.0
 11
33.0243
 21
107.427
 31
0.0
  0
LINE
  5
E2B
330
1D
100
AcDbEntity
  8
0
100
AcDbLine
 10
32.6571
 20
108.906
 30
0.0
 11
33.9782
 21
107.806
 31
0.0
  0
LINE
  5
E2C
330
1D
100
AcDbEntity
  8
0
100
AcDbLine
 10
32.657
 20
108.905
 30
0.0
 11
33.9784
 21
107.806
 31
0.0
  0
LINE
  5
E5A
330
1D
100
AcDbEntity
  8
0
100
AcDbLine
 10
31.1878
 20
69.9885
 30
0.0
 11
31.9612
 21
70.8953
 31
0.0
  0
LINE
  5
E5F
330
1D
100
AcDbEntity
  8
0
100
AcDbLine
 10
35.29
 20
61.4141
 30
0.0
 11
35.4748
 21
63.9153
 31
0.0
  0
LINE
  5
E60
330
1D
100
AcDbEntity
  8
0
100
AcDbLine
 10
35.29
 20
61.4141
 30
0.0
 11
35.351
 21
60.1363
 31
0.0
  0
LINE
  5
E74
330
1D
100
AcDbEntity
  8
0
100
AcDbLine
 10
35.351
 20
60.1363
 30
0.0
 11
35.5103
 21
58.8345
 31
0.0
  0
LINE
  5
E75
330
1D
100
AcDbEntity
  8
0
100
AcDbLine
 10
35.29
 20
61.4144
 30
0.0
 11
35.4746
 21
63.9158
 31
0.0
  0
LINE
  5
E76
330
1D
100
AcDbEntity
  8
0
100
AcDbLine
 10
35.29
 20
61.4144
 30
0.0
 11
35.3511
 21
60.1367
 31
0.0
  0
LINE
  5
EA7
330
1D
100
AcDbEntity
  8
0
100
AcDbLine
 10
33.0036
 20
94.1249
 30
0.0
 11
33.0036
 21
94.3863
 31
0.0
  0
LINE
  5
EA8
330
1D
100
AcDbEntity
  8
0
100
AcDbLine
 10
33.0036
 20
94.3863
 30
0.0
 11
33.0036
 21
94.5084
 31
0.0
  0
LINE
  5
EA9
330
1D
100
AcDbEntity
  8
0
100
AcDbLine
 10
33.0036
 20
94.3863
 30
0.0
 11
33.0036
 21
94.1249
 31
0.0
  0
LINE
  5
EAA
330
1D
100
AcDbEntity
  8
0
100
AcDbLine
 10
33.0036
 20
94.5084
 30
0.0
 11
33.0036
 21
94.3863
 31
0.0
  0
LINE
  5
EAB
330
1D
100
AcDbEntity
  8
0
100
AcDbLine
 10
33.0245
 20
107.427
 30
0.0
 11
33.6632
 21
106.834
 31
0.0
  0
LINE
  5
EB1
330
1D
100
AcDbEntity
  8
0
100
AcDbLine
 10
33.0243
 20
107.427
 30
0.0
 11
33.6632
 21
106.834
 31
0.0
  0
LINE
  5
EC8
330
1D
100
AcDbEntity
  8
0
100
AcDbLine
 10
33.6632
 20
106.834
 30
0.0
 11
34.4628
 21
105.992
 31
0.0
  0
LINE
  5
EC9
330
1D
100
AcDbEntity
  8
0
100
AcDbLine
 10
33.6632
 20
106.834
 30
0.0
 11
34.4626
 21
105.993
 31
0.0
  0
LINE
  5
F56
330
1D
100
AcDbEntity
  8
0
100
AcDbLine
 10
34.6053
 20
75.1597
 30
0.0
 11
35.5577
 21
77.2283
 31
0.0
  0
LINE
  5
F5B
330
1D
100
AcDbEntity
  8
0
100
AcDbLine
 10
34.4626
 20
105.993
 30
0.0
 11
35.0343
 21
105.309
 31
0.0
  0
LINE
  5
F5E
330
1D
100
AcDbEntity
  8
0
100
AcDbLine
 10
34.4628
 20
105.992
 30
0.0
 11
35.0341
 21
105.309
 31
0.0
  0
LINE
  5
F7D
330
1D
100
AcDbEntity
  8
0
100
AcDbLine
 10
35.0256
 20
106.759
 30
0.0
 11
36.0071
 21
105.586
 31
0.0
  0
LINE
  5
F82
330
1D
100
AcDbEntity
  8
0
100
AcDbLine
 10
33.9782
 20
107.806
 30
0.0
 11
35.0257
 21
106.759
 31
0.0
  0
LINE
  5
F83
330
1D
100
AcDbEntity
  8
0
100
AcDbLine
 10
33.9784
 20
107.806
 30
0.0
 11
35.0256
 21
106.759
 31
0.0
  0
LINE
  5
F8B
330
1D
100
AcDbEntity
  8
0
100
AcDbLine
 10
35.0343
 20
105.309
 30
0.0
 11
35.5654
 21
104.596
 31
0.0
  0
LINE
  5
FA4
330
1D
100
AcDbEntity
  8
0
100
AcDbLine
 10
35.0341
 20
105.309
 30
0.0
 11
35.5652
 21
104.597
 31
0.0
  0
LINE
  5
FB5
330
1D
100
AcDbEntity
  8
0
100
AcDbLine
 10
35.1384
 20
133.999
 30
0.0
 11
37.8068
 21
133.187
 31
0.0
  0
LINE
  5
FB6
330
1D
100
AcDbEntity
  8
0
100
AcDbLine
 10
35.0257
 20
106.759
 30
0.0
 11
36.0073
 21
105.586
 31
0.0
  0
LINE
  5
FCD
330
1D
100
AcDbEntity
  8
0
100
AcDbLine
 10
35.7507
 20
57.5554
 30
0.0
 11
36.0693
 21
56.2473
 31
0.0
  0
LINE
  5
FCE
330
1D
100
AcDbEntity
  8
0
100
AcDbLine
 10
35.7505
 20
57.555
 30
0.0
 11
36.0693
 21
56.2469
 31
0.0
  0
LINE
  5
FD5
330
1D
100
AcDbEntity
  8
0
100
AcDbLine
 10
35.5103
 20
58.8345
 30
0.0
 11
35.7507
 21
57.5554
 31
0.0
  0
LINE
  5
FD6
330
1D
100
AcDbEntity
  8
0
100
AcDbLine
 10
35.4748
 20
63.9153
 30
0.0
 11
36.0666
 21
66.3801
 31
0.0
  0
LINE
  5
FEB
330
1D
100
AcDbEntity
  8
0
100
AcDbLine
 10
35.5103
 20
58.8339
 30
0.0
 11
35.7505
 21
57.555
 31
0.0
  0
LINE
  5
FEC
330
1D
100
AcDbEntity
  8
0
100
AcDbLine
 10
35.4746
 20
63.9158
 30
0.0
 11
36.0667
 21
66.3804
 31
0.0
  0
LINE
  5
100C
330
1D
100
AcDbEntity
  8
0
100
AcDbLine
 10
36.0693
 20
56.2473
 30
0.0
 11
36.4573
 21
54.9065
 31
0.0
  0
LINE
  5
100D
330
1D
100
AcDbEntity
  8
0
100
AcDbLine
 10
36.0666
 20
66.3801
 30
0.0
 11
37.0295
 21
68.8567
 31
0.0
  0
LINE
  5
100E
330
1D
100
AcDbEntity
  8
0
100
AcDbLine
 10
36.0693
 20
56.2469
 30
0.0
 11
36.4573
 21
54.907
 31
0.0
  0
LINE
  5
1013
330
1D
100
AcDbEntity
  8
0
100
AcDbLine
 10
36.0667
 20
66.3804
 30
0.0
 11
37.0296
 21
68.8572
 31
0.0
  0
LINE
  5
1015
330
1D
100
AcDbEntity
  8
0
100
AcDbLine
 10
35.5577
 20
77.228
 30
0.0
 11
36.3123
 21
79.0576
 31
0.0
  0
LINE
  5
1016
330
1D
100
AcDbEntity
  8
0
100
AcDbLine
 10
35.5577
 20
77.2283
 30
0.0
 11
36.3126
 21
79.0576
 31
0.0
  0
LINE
  5
1051
330
1D
100
AcDbEntity
  8
0
100
AcDbLine
 10
36.4573
 20
54.9065
 30
0.0
 11
36.9044
 21
53.532
 31
0.0
  0
LINE
  5
1052
330
1D
100
AcDbEntity
  8
0
100
AcDbLine
 10
37.0295
 20
68.8567
 30
0.0
 11
37.6283
 21
70.1178
 31
0.0
  0
LINE
  5
1053
330
1D
100
AcDbEntity
  8
0
100
AcDbLine
 10
36.9044
 20
53.532
 30
0.0
 11
37.6266
 21
51.4891
 31
0.0
  0
LINE
  5
1054
330
1D
100
AcDbEntity
  8
0
100
AcDbLine
 10
36.9045
 20
53.5316
 30
0.0
 11
37.6265
 21
51.4889
 31
0.0
  0
LINE
  5
1055
330
1D
100
AcDbEntity
  8
0
100
AcDbLine
 10
36.4573
 20
54.907
 30
0.0
 11
36.9045
 21
53.5316
 31
0.0
  0
LINE
  5
1056
330
1D
100
AcDbEntity
  8
0
100
AcDbLine
 10
37.0296
 20
68.8572
 30
0.0
 11
37.6283
 21
70.1171
 31
0.0
  0
LINE
  5
1057
330
1D
100
AcDbEntity
  8
0
100
AcDbLine
 10
37.6283
 20
70.1178
 30
0.0
 11
38.2878
 21
71.403
 31
0.0
  0
LINE
  5
1058
330
1D
100
AcDbEntity
  8
0
100
AcDbLine
 10
37.6266
 20
51.4891
 30
0.0
 11
38.403
 21
49.367
 31
0.0
  0
LINE
  5
1059
330
1D
100
AcDbEntity
  8
0
100
AcDbLine
 10
38.2878
 20
71.403
 30
0.0
 11
39.3556
 21
73.3966
 31
0.0
  0
LINE
  5
105A
330
1D
100
AcDbEntity
  8
0
100
AcDbLine
 10
37.6283
 20
70.1171
 30
0.0
 11
38.2878
 21
71.4032
 31
0.0
  0
LINE
  5
105D
330
1D
100
AcDbEntity
  8
0
100
AcDbLine
 10
38.2878
 20
71.4032
 30
0.0
 11
39.3556
 21
73.3966
 31
0.0
  0
LINE
  5
105E
330
1D
100
AcDbEntity
  8
0
100
AcDbLine
 10
37.6265
 20
51.4889
 30
0.0
 11
38.403
 21
49.3666
 31
0.0
  0
LINE
  5
1060
330
1D
100
AcDbEntity
  8
0
100
AcDbLine
 10
38.403
 20
49.3666
 30
0.0
 11
39.1856
 21
47.162
 31
0.0
  0
LINE
  5
10B3
330
1D
100
AcDbEntity
  8
0
100
AcDbLine
 10
36.3123
 20
79.0576
 30
0.0
 11
37.0679
 21
81.2249
 31
0.0
  0
LINE
  5
114B
330
1D
100
AcDbEntity
  8
0
100
AcDbLine
 10
36.4549
 20
103.178
 30
0.0
 11
37.0953
 21
101.88
 31
0.0
  0
LINE
  5
1150
330
1D
100
AcDbEntity
  8
0
100
AcDbLine
 10
36.0073
 20
105.586
 30
0.0
 11
36.9628
 21
104.187
 31
0.0
  0
LINE
  5
1153
330
1D
100
AcDbEntity
  8
0
100
AcDbLine
 10
35.5654
 20
104.596
 30
0.0
 11
36.4549
 21
103.178
 31
0.0
  0
LINE
  5
1154
330
1D
100
AcDbEntity
  8
0
100
AcDbLine
 10
36.4548
 20
103.178
 30
0.0
 11
37.0955
 21
101.88
 31
0.0
  0
LINE
  5
1155
330
1D
100
AcDbEntity
  8
0
100
AcDbLine
 10
35.5652
 20
104.597
 30
0.0
 11
36.4548
 21
103.178
 31
0.0
  0
LINE
  5
1170
330
1D
100
AcDbEntity
  8
0
100
AcDbLine
 10
37.0679
 20
81.2249
 30
0.0
 11
37.5788
 21
83.095
 31
0.0
  0
LINE
  5
1177
330
1D
100
AcDbEntity
  8
0
100
AcDbLine
 10
37.5788
 20
83.095
 30
0.0
 11
38.0807
 21
85.7024
 31
0.0
  0
LINE
  5
1179
330
1D
100
AcDbEntity
  8
0
100
AcDbLine
 10
37.5789
 20
83.0952
 30
0.0
 11
38.0807
 21
85.7024
 31
0.0
  0
LINE
  5
1184
330
1D
100
AcDbEntity
  8
0
100
AcDbLine
 10
37.0953
 20
101.88
 30
0.0
 11
37.6043
 21
100.573
 31
0.0
  0
LINE
  5
1185
330
1D
100
AcDbEntity
  8
0
100
AcDbLine
 10
36.9628
 20
104.187
 30
0.0
 11
37.6426
 21
102.953
 31
0.0
  0
LINE
  5
1186
330
1D
100
AcDbEntity
  8
0
100
AcDbLine
 10
36.9626
 20
104.187
 30
0.0
 11
37.6424
 21
102.953
 31
0.0
  0
LINE
  5
1187
330
1D
100
AcDbEntity
  8
0
100
AcDbLine
 10
37.0955
 20
101.88
 30
0.0
 11
37.6043
 21
100.573
 31
0.0
  0
LINE
  5
1188
330
1D
100
AcDbEntity
  8
0
100
AcDbLine
 10
37.6426
 20
102.953
 30
0.0
 11
38.2159
 21
101.657
 31
0.0
  0
LINE
  5
1189
330
1D
100
AcDbEntity
  8
0
100
AcDbLine
 10
37.6424
 20
102.953
 30
0.0
 11
38.216
 21
101.657
 31
0.0
  0
LINE
  5
118C
330
1D
100
AcDbEntity
  8
0
100
AcDbLine
 10
37.6043
 20
100.573
 30
0.0
 11
38.0179
 21
99.1956
 31
0.0
  0
LINE
  5
118D
330
1D
100
AcDbEntity
  8
0
100
AcDbLine
 10
37.6043
 20
100.573
 30
0.0
 11
38.0176
 21
99.1958
 31
0.0
  0
LINE
  5
119D
330
1D
100
AcDbEntity
  8
0
100
AcDbLine
 10
38.0176
 20
99.1958
 30
0.0
 11
38.2896
 21
97.994
 31
0.0
  0
LINE
  5
119F
330
1D
100
AcDbEntity
  8
0
100
AcDbLine
 10
38.0178
 20
99.1957
 30
0.0
 11
38.2894
 21
97.9942
 31
0.0
  0
LINE
  5
11B4
330
1D
100
AcDbEntity
  8
0
100
AcDbLine
 10
38.0808
 20
85.7026
 30
0.0
 11
38.4594
 21
88.0082
 31
0.0
  0
LINE
  5
11E5
330
1D
100
AcDbEntity
  8
0
100
AcDbLine
 10
37.8064
 20
133.187
 30
0.0
 11
40.5188
 21
132.212
 31
0.0
  0
LINE
  5
11E7
330
1D
100
AcDbEntity
  8
0
100
AcDbLine
 10
37.8068
 20
133.187
 30
0.0
 11
40.5185
 21
132.212
 31
0.0
  0
LINE
  5
11EE
330
1D
100
AcDbEntity
  8
0
100
AcDbLine
 10
38.2159
 20
101.657
 30
0.0
 11
38.7004
 21
100.259
 31
0.0
  0
LINE
  5
11EF
330
1D
100
AcDbEntity
  8
0
100
AcDbLine
 10
38.216
 20
101.657
 30
0.0
 11
38.7004
 21
100.259
 31
0.0
  0
LINE
  5
1225
330
1D
100
AcDbEntity
  8
0
100
AcDbLine
 10
38.2896
 20
97.994
 30
0.0
 11
38.529
 21
96.5116
 31
0.0
  0
LINE
  5
1237
330
1D
100
AcDbEntity
  8
0
100
AcDbLine
 10
35.3511
 20
60.1367
 30
0.0
 11
35.5103
 21
58.8339
 31
0.0
  0
LINE
  5
123E
330
1D
100
AcDbEntity
  8
0
100
AcDbLine
 10
37.9119
 20
134.308
 30
0.0
 11
39.5713
 21
133.741
 31
0.0
  0
LINE
  5
1240
330
1D
100
AcDbEntity
  8
0
100
AcDbLine
 10
37.9122
 20
134.308
 30
0.0
 11
39.5709
 21
133.741
 31
0.0
  0
LINE
  5
1243
330
1D
100
AcDbEntity
  8
0
100
AcDbLine
 10
35.1386
 20
133.999
 30
0.0
 11
37.8064
 21
133.187
 31
0.0
  0
LINE
  5
124B
330
1D
100
AcDbEntity
  8
0
100
AcDbLine
 10
34.6638
 20
135.25
 30
0.0
 11
36.272
 21
134.812
 31
0.0
  0
LINE
  5
124F
330
1D
100
AcDbEntity
  8
0
100
AcDbLine
 10
36.272
 20
134.812
 30
0.0
 11
37.9119
 21
134.308
 31
0.0
  0
LINE
  5
1250
330
1D
100
AcDbEntity
  8
0
100
AcDbLine
 10
36.2723
 20
134.812
 30
0.0
 11
37.9122
 21
134.308
 31
0.0
  0
LINE
  5
1254
330
1D
100
AcDbEntity
  8
0
100
AcDbLine
 10
34.6641
 20
135.249
 30
0.0
 11
36.2723
 21
134.812
 31
0.0
  0
LINE
  5
1255
330
1D
100
AcDbEntity
  8
0
100
AcDbLine
 10
32.5699
 20
134.633
 30
0.0
 11
35.1386
 21
133.999
 31
0.0
  0
LINE
  5
1256
330
1D
100
AcDbEntity
  8
0
100
AcDbLine
 10
32.5699
 20
134.633
 30
0.0
 11
35.1384
 21
133.999
 31
0.0
  0
LINE
  5
12A2
330
1D
100
AcDbEntity
  8
0
100
AcDbLine
 10
39.4207
 20
0.045
 30
0.0
 11
40.9421
 21
0.045
 31
0.0
  0
LINE
  5
12A3
330
1D
100
AcDbEntity
  8
0
100
AcDbLine
 10
39.3153
 20
0.045
 30
0.0
 11
39.4207
 21
0.045
 31
0.0
  0
LINE
  5
12A6
330
1D
100
AcDbEntity
  8
0
100
AcDbLine
 10
39.3556
 20
73.3966
 30
0.0
 11
40.4574
 21
75.4945
 31
0.0
  0
LINE
  5
12A7
330
1D
100
AcDbEntity
  8
0
100
AcDbLine
 10
39.3556
 20
73.3966
 30
0.0
 11
40.4572
 21
75.4948
 31
0.0
  0
LINE
  5
12DE
330
1D
100
AcDbEntity
  8
0
100
AcDbLine
 10
39.8047
 20
0.045
 30
0.0
 11
42.0309
 21
0.045
 31
0.0
  0
LINE
  5
12E5
330
1D
100
AcDbEntity
  8
0
100
AcDbLine
 10
40.4572
 20
75.4948
 30
0.0
 11
40.9962
 21
76.5932
 31
0.0
  0
LINE
  5
12EC
330
1D
100
AcDbEntity
  8
0
100
AcDbLine
 10
39.7008
 20
0.045
 30
0.0
 11
39.8047
 21
0.045
 31
0.0
  0
LINE
  5
1394
330
1D
100
AcDbEntity
  8
0
100
AcDbLine
 10
38.4594
 20
88.0082
 30
0.0
 11
38.6477
 21
89.74
 31
0.0
  0
LINE
  5
1397
330
1D
100
AcDbEntity
  8
0
100
AcDbLine
 10
38.529
 20
96.5116
 30
0.0
 11
38.7154
 21
94.4601
 31
0.0
  0
LINE
  5
1399
330
1D
100
AcDbEntity
  8
0
100
AcDbLine
 10
38.4597
 20
88.0082
 30
0.0
 11
38.6476
 21
89.7402
 31
0.0
  0
LINE
  5
139A
330
1D
100
AcDbEntity
  8
0
100
AcDbLine
 10
38.6477
 20
89.74
 30
0.0
 11
38.7659
 21
92.2449
 31
0.0
  0
LINE
  5
139B
330
1D
100
AcDbEntity
  8
0
100
AcDbLine
 10
38.7154
 20
94.4601
 30
0.0
 11
38.7659
 21
92.2449
 31
0.0
  0
LINE
  5
13A0
330
1D
100
AcDbEntity
  8
0
100
AcDbLine
 10
38.7156
 20
94.4599
 30
0.0
 11
38.7659
 21
92.2451
 31
0.0
  0
LINE
  5
13A1
330
1D
100
AcDbEntity
  8
0
100
AcDbLine
 10
38.6476
 20
89.7402
 30
0.0
 11
38.7659
 21
92.2451
 31
0.0
  0
LINE
  5
13A2
330
1D
100
AcDbEntity
  8
0
100
AcDbLine
 10
38.9532
 20
99.3476
 30
0.0
 11
39.2681
 21
97.8957
 31
0.0
  0
LINE
  5
13A9
330
1D
100
AcDbEntity
  8
0
100
AcDbLine
 10
38.7004
 20
100.259
 30
0.0
 11
38.9532
 21
99.3476
 31
0.0
  0
LINE
  5
13AA
330
1D
100
AcDbEntity
  8
0
100
AcDbLine
 10
38.7004
 20
100.259
 30
0.0
 11
38.9531
 21
99.3476
 31
0.0
  0
LINE
  5
13B0
330
1D
100
AcDbEntity
  8
0
100
AcDbLine
 10
39.2681
 20
97.8959
 30
0.0
 11
39.485
 21
96.4978
 31
0.0
  0
LINE
  5
13B1
330
1D
100
AcDbEntity
  8
0
100
AcDbLine
 10
39.2681
 20
97.8957
 30
0.0
 11
39.485
 21
96.4975
 31
0.0
  0
LINE
  5
1513
330
1D
100
AcDbEntity
  8
0
100
AcDbLine
 10
39.485
 20
96.4978
 30
0.0
 11
39.6642
 21
94.6449
 31
0.0
  0
LINE
  5
1514
330
1D
100
AcDbEntity
  8
0
100
AcDbLine
 10
39.485
 20
96.4975
 30
0.0
 11
39.6643
 21
94.6448
 31
0.0
  0
LINE
  5
151F
330
1D
100
AcDbEntity
  8
0
100
AcDbLine
 10
39.6642
 20
94.6449
 30
0.0
 11
39.7304
 21
93.1565
 31
0.0
  0
LINE
  5
1526
330
1D
100
AcDbEntity
  8
0
100
AcDbLine
 10
39.6643
 20
94.6448
 30
0.0
 11
39.7303
 21
93.1567
 31
0.0
  0
LINE
  5
1553
330
1D
100
AcDbEntity
  8
0
100
AcDbLine
 10
40.9962
 20
76.5932
 30
0.0
 11
41.5124
 21
77.7304
 31
0.0
  0
LINE
  5
1554
330
1D
100
AcDbEntity
  8
0
100
AcDbLine
 10
40.9421
 20
0.045
 30
0.0
 11
42.6596
 21
0.045
 31
0.0
  0
LINE
  5
1565
330
1D
100
AcDbEntity
  8
0
100
AcDbLine
 10
39.5709
 20
133.741
 30
0.0
 11
41.2362
 21
133.117
 31
0.0
  0
LINE
  5
1569
330
1D
100
AcDbEntity
  8
0
100
AcDbLine
 10
40.5185
 20
132.212
 30
0.0
 11
43.2189
 21
131.096
 31
0.0
  0
LINE
  5
156F
330
1D
100
AcDbEntity
  8
0
100
AcDbLine
 10
40.5188
 20
132.212
 30
0.0
 11
43.2188
 21
131.096
 31
0.0
  0
LINE
  5
1573
330
1D
100
AcDbEntity
  8
0
100
AcDbLine
 10
39.5713
 20
133.741
 30
0.0
 11
41.2362
 21
133.117
 31
0.0
  0
LINE
  5
1575
330
1D
100
AcDbEntity
  8
0
100
AcDbLine
 10
38.403
 20
49.367
 30
0.0
 11
39.1856
 21
47.1618
 31
0.0
  0
LINE
  5
1577
330
1D
100
AcDbEntity
  8
0
100
AcDbLine
 10
31.5922
 20
135.914
 30
0.0
 11
33.0999
 21
135.618
 31
0.0
  0
LINE
  5
157E
330
1D
100
AcDbEntity
  8
0
100
AcDbLine
 10
33.0999
 20
135.618
 30
0.0
 11
34.6641
 21
135.249
 31
0.0
  0
LINE
  5
157F
330
1D
100
AcDbEntity
  8
0
100
AcDbLine
 10
33.0999
 20
135.618
 30
0.0
 11
34.6638
 21
135.25
 31
0.0
  0
LINE
  5
1588
330
1D
100
AcDbEntity
  8
0
100
AcDbLine
 10
41.5124
 20
77.7304
 30
0.0
 11
41.9933
 21
78.9102
 31
0.0
  0
LINE
  5
1598
330
1D
100
AcDbEntity
  8
0
100
AcDbLine
 10
42.1275
 20
0.045
 30
0.0
 11
44.1436
 21
0.045
 31
0.0
  0
LINE
  5
15A1
330
1D
100
AcDbEntity
  8
0
100
AcDbLine
 10
41.9932
 20
78.9102
 30
0.0
 11
42.7401
 21
80.8055
 31
0.0
  0
LINE
  5
15A4
330
1D
100
AcDbEntity
  8
0
100
AcDbLine
 10
42.0309
 20
0.045
 30
0.0
 11
42.1275
 21
0.045
 31
0.0
  0
LINE
  5
15AB
330
1D
100
AcDbEntity
  8
0
100
AcDbLine
 10
41.2362
 20
133.117
 30
0.0
 11
42.8943
 21
132.44
 31
0.0
  0
LINE
  5
15BF
330
1D
100
AcDbEntity
  8
0
100
AcDbLine
 10
30.1531
 20
136.135
 30
0.0
 11
31.5922
 21
135.914
 31
0.0
  0
LINE
  5
15C0
330
1D
100
AcDbEntity
  8
0
100
AcDbLine
 10
44.2315
 20
0.045
 30
0.0
 11
45.6569
 21
0.045
 31
0.0
  0
LINE
  5
15C1
330
1D
100
AcDbEntity
  8
0
100
AcDbLine
 10
44.1436
 20
0.045
 30
0.0
 11
44.2315
 21
0.045
 31
0.0
  0
LINE
  5
15C2
330
1D
100
AcDbEntity
  8
0
100
AcDbLine
 10
45.6569
 20
0.045
 30
0.0
 11
45.7349
 21
0.045
 31
0.0
  0
LINE
  5
15C3
330
1D
100
AcDbEntity
  8
0
100
AcDbLine
 10
47.0529
 20
0.045
 30
0.0
 11
48.2555
 21
0.045
 31
0.0
  0
LINE
  5
15C4
330
1D
100
AcDbEntity
  8
0
100
AcDbLine
 10
46.9934
 20
0.045
 30
0.0
 11
47.0529
 21
0.045
 31
0.0
  0
LINE
  5
15C5
330
1D
100
AcDbEntity
  8
0
100
AcDbLine
 10
45.7349
 20
0.045
 30
0.0
 11
46.9934
 21
0.045
 31
0.0
  0
LINE
  5
15C6
330
1D
100
AcDbEntity
  8
0
100
AcDbLine
 10
49.3059
 20
0.045
 30
0.0
 11
50.0164
 21
0.045
 31
0.0
  0
LINE
  5
15C7
330
1D
100
AcDbEntity
  8
0
100
AcDbLine
 10
48.3052
 20
0.045
 30
0.0
 11
49.2664
 21
0.045
 31
0.0
  0
LINE
  5
15C8
330
1D
100
AcDbEntity
  8
0
100
AcDbLine
 10
42.7544
 20
0.045
 30
0.0
 11
44.3303
 21
0.045
 31
0.0
  0
LINE
  5
15C9
330
1D
100
AcDbEntity
  8
0
100
AcDbLine
 10
44.3303
 20
0.045
 30
0.0
 11
44.4159
 21
0.045
 31
0.0
  0
LINE
  5
15CA
330
1D
100
AcDbEntity
  8
0
100
AcDbLine
 10
42.6596
 20
0.045
 30
0.0
 11
42.7544
 21
0.045
 31
0.0
  0
LINE
  5
15CB
330
1D
100
AcDbEntity
  8
0
100
AcDbLine
 10
47.7191
 20
0.045
 30
0.0
 11
48.543
 21
0.045
 31
0.0
  0
LINE
  5
15CC
330
1D
100
AcDbEntity
  8
0
100
AcDbLine
 10
46.7649
 20
0.045
 30
0.0
 11
47.7191
 21
0.045
 31
0.0
  0
LINE
  5
15CD
330
1D
100
AcDbEntity
  8
0
100
AcDbLine
 10
49.8789
 20
0.045
 30
0.0
 11
50.4845
 21
0.045
 31
0.0
  0
LINE
  5
15CE
330
1D
100
AcDbEntity
  8
0
100
AcDbLine
 10
50.0451
 20
0.045
 30
0.0
 11
50.5007
 21
0.045
 31
0.0
  0
LINE
  5
15CF
330
1D
100
AcDbEntity
  8
0
100
AcDbLine
 10
49.2874
 20
0.045
 30
0.0
 11
49.8389
 21
0.045
 31
0.0
  0
LINE
  5
15D0
330
1D
100
AcDbEntity
  8
0
100
AcDbLine
 10
48.5989
 20
0.045
 30
0.0
 11
49.2874
 21
0.045
 31
0.0
  0
LINE
  5
15D1
330
1D
100
AcDbEntity
  8
0
100
AcDbLine
 10
48.543
 20
0.045
 30
0.0
 11
48.5989
 21
0.045
 31
0.0
  0
LINE
  5
15D2
330
1D
100
AcDbEntity
  8
0
100
AcDbLine
 10
45.6146
 20
0.045
 30
0.0
 11
46.6936
 21
0.045
 31
0.0
  0
LINE
  5
15D3
330
1D
100
AcDbEntity
  8
0
100
AcDbLine
 10
49.6331
 20
13.1313
 30
0.0
 11
50.7275
 21
0.045
 31
0.0
  0
LINE
  5
15D4
330
1D
100
AcDbEntity
  8
0
100
AcDbLine
 10
46.6936
 20
0.045
 30
0.0
 11
46.7649
 21
0.045
 31
0.0
  0
LINE
  5
15D5
330
1D
100
AcDbEntity
  8
0
100
AcDbLine
 10
44.4159
 20
0.045
 30
0.0
 11
45.6146
 21
0.045
 31
0.0
  0
LINE
  5
15D6
330
1D
100
AcDbEntity
  8
0
100
AcDbLine
 10
50.5179
 20
0.045
 30
0.0
 11
50.7275
 21
0.045
 31
0.0
  0
LINE
  5
15F1
330
1D
100
AcDbEntity
  8
0
100
AcDbLine
 10
47.5991
 20
61.4316
 30
0.0
 11
47.8961
 21
45.8867
 31
0.0
  0
LINE
  5
15F2
330
1D
100
AcDbEntity
  8
0
100
AcDbLine
 10
47.8961
 20
45.8867
 30
0.0
 11
48.5141
 21
30.3567
 31
0.0
  0
LINE
  5
15F3
330
1D
100
AcDbEntity
  8
0
100
AcDbLine
 10
47.8961
 20
45.8864
 30
0.0
 11
48.5141
 21
30.3567
 31
0.0
  0
LINE
  5
15F4
330
1D
100
AcDbEntity
  8
0
100
AcDbLine
 10
48.5141
 20
30.3567
 30
0.0
 11
49.6331
 21
13.1316
 31
0.0
  0
LINE
  5
15F5
330
1D
100
AcDbEntity
  8
0
100
AcDbLine
 10
48.5141
 20
30.3567
 30
0.0
 11
49.6331
 21
13.1313
 31
0.0
  0
LINE
  5
15F6
330
1D
100
AcDbEntity
  8
0
100
AcDbLine
 10
47.5991
 20
61.432
 30
0.0
 11
47.8961
 21
45.8864
 31
0.0
  0
LINE
  5
15F7
330
1D
100
AcDbEntity
  8
0
100
AcDbLine
 10
47.591883297926
 20
68.709792329975
 30
0.0
 11
47.5991
 21
61.4316
 31
0.0
  0
LINE
  5
15FC
330
1D
100
AcDbEntity
  8
0
100
AcDbLine
 10
48.0972
 20
78.0589
 30
0.0
 11
48.7846
 21
83.4792
 31
0.0
  0
LINE
  5
1603
330
1D
100
AcDbEntity
  8
0
100
AcDbLine
 10
49.6331
 20
13.1316
 30
0.0
 11
50.7275
 21
0.045
 31
0.0
  0
LINE
  5
1604
330
1D
100
AcDbEntity
  8
0
100
AcDbLine
 10
50.5235
 20
0.045
 30
0.0
 11
50.7275
 21
0.045
 31
0.0
  0
LINE
  5
1605
330
1D
100
AcDbEntity
  8
0
100
AcDbLine
 10
42.5807
 20
96.7114
 30
0.0
 11
43.061
 21
94.4188
 31
0.0
  0
LINE
  5
160C
330
1D
100
AcDbEntity
  8
0
100
AcDbLine
 10
42.5807
 20
96.7117
 30
0.0
 11
43.0609
 21
94.4192
 31
0.0
  0
LINE
  5
160E
330
1D
100
AcDbEntity
  8
0
100
AcDbLine
 10
42.7401
 20
80.8055
 30
0.0
 11
43.2897
 21
82.7256
 31
0.0
  0
LINE
  5
1612
330
1D
100
AcDbEntity
  8
0
100
AcDbLine
 10
43.2897
 20
82.7256
 30
0.0
 11
43.606
 21
84.8821
 31
0.0
  0
LINE
  5
1615
330
1D
100
AcDbEntity
  8
0
100
AcDbLine
 10
43.061
 20
94.4188
 30
0.0
 11
43.53
 21
91.699
 31
0.0
  0
LINE
  5
1616
330
1D
100
AcDbEntity
  8
0
100
AcDbLine
 10
43.0609
 20
94.4192
 30
0.0
 11
43.53
 21
91.699
 31
0.0
  0
LINE
  5
1619
330
1D
100
AcDbEntity
  8
0
100
AcDbLine
 10
43.606
 20
84.8821
 30
0.0
 11
43.7504
 21
86.3853
 31
0.0
  0
LINE
  5
161A
330
1D
100
AcDbEntity
  8
0
100
AcDbLine
 10
43.53
 20
91.699
 30
0.0
 11
43.7683
 21
89.1589
 31
0.0
  0
LINE
  5
161B
330
1D
100
AcDbEntity
  8
0
100
AcDbLine
 10
43.53
 20
91.699
 30
0.0
 11
43.7682
 21
89.1586
 31
0.0
  0
LINE
  5
161F
330
1D
100
AcDbEntity
  8
0
100
AcDbLine
 10
43.7682
 20
89.1586
 30
0.0
 11
43.7982
 21
87.8775
 31
0.0
  0
LINE
  5
1620
330
1D
100
AcDbEntity
  8
0
100
AcDbLine
 10
43.7504
 20
86.3853
 30
0.0
 11
43.7982
 21
87.8777
 31
0.0
  0
LINE
  5
1621
330
1D
100
AcDbEntity
  8
0
100
AcDbLine
 10
43.7504
 20
86.3853
 30
0.0
 11
43.7982
 21
87.8775
 31
0.0
  0
LINE
  5
1623
330
1D
100
AcDbEntity
  8
0
100
AcDbLine
 10
43.7683
 20
89.1589
 30
0.0
 11
43.7982
 21
87.8777
 31
0.0
  0
LINE
  5
1635
330
1D
100
AcDbEntity
  8
0
100
AcDbLine
 10
48.7846
 20
83.4792
 30
0.0
 11
49.8331
 21
89.033
 31
0.0
  0
LINE
  5
164A
330
1D
100
AcDbEntity
  8
0
100
AcDbLine
 10
49.8331
 20
89.033
 30
0.0
 11
51.1753
 21
94.3415
 31
0.0
  0
LINE
  5
164B
330
1D
100
AcDbEntity
  8
0
100
AcDbLine
 10
51.1753
 20
94.3415
 30
0.0
 11
51.2644
 21
94.6006
 31
0.0
  0
LINE
  5
164C
330
1D
100
AcDbEntity
  8
0
100
AcDbLine
 10
51.2644
 20
94.6006
 30
0.0
 11
52.8373
 21
99.7757
 31
0.0
  0
LINE
  5
164E
330
1D
100
AcDbEntity
  8
0
100
AcDbLine
 10
52.8373
 20
99.7757
 30
0.0
 11
53.5306
 21
101.71
 31
0.0
  0
LINE
  5
164F
330
1D
100
AcDbEntity
  8
0
100
AcDbLine
 10
54.9807
 20
105.687
 30
0.0
 11
56.0176
 21
108.686
 31
0.0
  0
LINE
  5
1650
330
1D
100
AcDbEntity
  8
0
100
AcDbLine
 10
53.5306
 20
101.71
 30
0.0
 11
54.9807
 21
105.687
 31
0.0
  0
LINE
  5
1659
330
1D
100
AcDbEntity
  8
0
100
AcDbLine
 10
56.0176
 20
108.686
 30
0.0
 11
56.8965
 21
111.326
 31
0.0
  0
LINE
  5
165A
330
1D
100
AcDbEntity
  8
0
100
AcDbLine
 10
56.0177
 20
108.686
 30
0.0
 11
56.8965
 21
111.326
 31
0.0
  0
LINE
  5
165B
330
1D
100
AcDbEntity
  8
0
100
AcDbLine
 10
54.9807
 20
105.688
 30
0.0
 11
56.0177
 21
108.686
 31
0.0
  0
LINE
  5
1669
330
1D
100
AcDbEntity
  8
0
100
AcDbLine
 10
56.2843
 20
122.775
 30
0.0
 11
57.4905
 21
121.405
 31
0.0
  0
LINE
  5
1671
330
1D
100
AcDbEntity
  8
0
100
AcDbLine
 10
43.2189
 20
131.096
 30
0.0
 11
45.8511
 21
129.86
 31
0.0
  0
LINE
  5
1672
330
1D
100
AcDbEntity
  8
0
100
AcDbLine
 10
43.2188
 20
131.096
 30
0.0
 11
45.8511
 21
129.86
 31
0.0
  0
LINE
  5
1678
330
1D
100
AcDbEntity
  8
0
100
AcDbLine
 10
46.2624
 20
130.886
 30
0.0
 11
47.8788
 21
130.048
 31
0.0
  0
LINE
  5
167B
330
1D
100
AcDbEntity
  8
0
100
AcDbLine
 10
47.8788
 20
130.048
 30
0.0
 11
49.432
 21
129.179
 31
0.0
  0
LINE
  5
167C
330
1D
100
AcDbEntity
  8
0
100
AcDbLine
 10
47.8788
 20
130.048
 30
0.0
 11
49.4318
 21
129.179
 31
0.0
  0
LINE
  5
1682
330
1D
100
AcDbEntity
  8
0
100
AcDbLine
 10
45.8511
 20
129.86
 30
0.0
 11
47.8849
 21
128.796
 31
0.0
  0
LINE
  5
1683
330
1D
100
AcDbEntity
  8
0
100
AcDbLine
 10
45.8511
 20
129.86
 30
0.0
 11
47.8848
 21
128.796
 31
0.0
  0
LINE
  5
1686
330
1D
100
AcDbEntity
  8
0
100
AcDbLine
 10
44.5965
 20
131.685
 30
0.0
 11
46.2624
 21
130.886
 31
0.0
  0
LINE
  5
168A
330
1D
100
AcDbEntity
  8
0
100
AcDbLine
 10
52.9
 20
125.641
 30
0.0
 11
54.7437
 21
124.197
 31
0.0
  0
LINE
  5
168F
330
1D
100
AcDbEntity
  8
0
100
AcDbLine
 10
49.3744
 20
127.947
 30
0.0
 11
50.791
 21
127.077
 31
0.0
  0
LINE
  5
1693
330
1D
100
AcDbEntity
  8
0
100
AcDbLine
 10
50.7908
 20
127.077
 30
0.0
 11
52.8998
 21
125.641
 31
0.0
  0
LINE
  5
1694
330
1D
100
AcDbEntity
  8
0
100
AcDbLine
 10
52.2966
 20
127.375
 30
0.0
 11
53.5844
 21
126.456
 31
0.0
  0
LINE
  5
1695
330
1D
100
AcDbEntity
  8
0
100
AcDbLine
 10
52.2966
 20
127.375
 30
0.0
 11
53.5842
 21
126.456
 31
0.0
  0
LINE
  5
169C
330
1D
100
AcDbEntity
  8
0
100
AcDbLine
 10
54.7437
 20
124.197
 30
0.0
 11
56.2843
 21
122.775
 31
0.0
  0
LINE
  5
169E
330
1D
100
AcDbEntity
  8
0
100
AcDbLine
 10
53.5842
 20
126.456
 30
0.0
 11
54.7607
 21
125.536
 31
0.0
  0
LINE
  5
169F
330
1D
100
AcDbEntity
  8
0
100
AcDbLine
 10
53.5844
 20
126.456
 30
0.0
 11
54.7607
 21
125.536
 31
0.0
  0
LINE
  5
16A0
330
1D
100
AcDbEntity
  8
0
100
AcDbLine
 10
55.8155
 20
124.623
 30
0.0
 11
56.7408
 21
123.723
 31
0.0
  0
LINE
  5
16A3
330
1D
100
AcDbEntity
  8
0
100
AcDbLine
 10
54.7607
 20
125.536
 30
0.0
 11
55.8157
 21
124.623
 31
0.0
  0
LINE
  5
16A8
330
1D
100
AcDbEntity
  8
0
100
AcDbLine
 10
54.7435
 20
124.197
 30
0.0
 11
56.2843
 21
122.775
 31
0.0
  0
LINE
  5
16AA
330
1D
100
AcDbEntity
  8
0
100
AcDbLine
 10
49.4318
 20
129.179
 30
0.0
 11
50.9087
 21
128.285
 31
0.0
  0
LINE
  5
16AC
330
1D
100
AcDbEntity
  8
0
100
AcDbLine
 10
49.432
 20
129.179
 30
0.0
 11
50.9087
 21
128.285
 31
0.0
  0
LINE
  5
16AE
330
1D
100
AcDbEntity
  8
0
100
AcDbLine
 10
50.9087
 20
128.285
 30
0.0
 11
52.2966
 21
127.375
 31
0.0
  0
LINE
  5
16BA
330
1D
100
AcDbEntity
  8
0
100
AcDbLine
 10
49.3745
 20
127.947
 30
0.0
 11
50.791
 21
127.077
 31
0.0
  0
LINE
  5
16BB
330
1D
100
AcDbEntity
  8
0
100
AcDbLine
 10
47.8848
 20
128.796
 30
0.0
 11
49.3745
 21
127.947
 31
0.0
  0
LINE
  5
16BC
330
1D
100
AcDbEntity
  8
0
100
AcDbLine
 10
47.8848
 20
128.796
 30
0.0
 11
49.3744
 21
127.947
 31
0.0
  0
LINE
  5
16C9
330
1D
100
AcDbEntity
  8
0
100
AcDbLine
 10
42.8943
 20
132.44
 30
0.0
 11
44.5965
 21
131.685
 31
0.0
  0
LINE
  5
16D0
330
1D
100
AcDbEntity
  8
0
100
AcDbLine
 10
42.8942
 20
132.44
 30
0.0
 11
44.5965
 21
131.685
 31
0.0
  0
LINE
  5
16D3
330
1D
100
AcDbEntity
  8
0
100
AcDbLine
 10
56.8965
 20
111.326
 30
0.0
 11
58.6085
 21
116.963
 31
0.0
  0
LINE
  5
16D6
330
1D
100
AcDbEntity
  8
0
100
AcDbLine
 10
58.6085
 20
116.963
 30
0.0
 11
58.9025
 21
117.871
 31
0.0
  0
LINE
  5
16D9
330
1D
100
AcDbEntity
  8
0
100
AcDbLine
 10
58.899725178646
 20
117.9035164764
 30
0.0
 11
59.2162
 21
118.354
 31
0.0
  0
LINE
  5
16DA
330
1D
100
AcDbEntity
  8
0
100
AcDbLine
 10
59.0631
 20
118.402
 30
0.0
 11
59.2073
 21
119.017
 31
0.0
  0
LINE
  5
16DB
330
1D
100
AcDbEntity
  8
0
100
AcDbLine
 10
59.0631
 20
118.402
 30
0.0
 11
59.2071
 21
119.017
 31
0.0
  0
LINE
  5
16DC
330
1D
100
AcDbEntity
  8
0
100
AcDbLine
 10
58.890429110773
 20
118.012451551148
 30
0.0
 11
59.0631
 21
118.402
 31
0.0
  0
LINE
  5
16DD
330
1D
100
AcDbEntity
  8
0
100
AcDbLine
 10
57.4905
 20
121.405
 30
0.0
 11
58.3385
 21
120.114
 31
0.0
  0
LINE
  5
16DE
330
1D
100
AcDbEntity
  8
0
100
AcDbLine
 10
57.4905
 20
121.405
 30
0.0
 11
58.3387
 21
120.114
 31
0.0
  0
LINE
  5
16E0
330
1D
100
AcDbEntity
  8
0
100
AcDbLine
 10
58.3387
 20
120.114
 30
0.0
 11
58.8123
 21
118.928
 31
0.0
  0
LINE
  5
16E1
330
1D
100
AcDbEntity
  8
0
100
AcDbLine
 10
58.3385
 20
120.114
 30
0.0
 11
58.8122
 21
118.928
 31
0.0
  0
LINE
  5
16E4
330
1D
100
AcDbEntity
  8
0
100
AcDbLine
 10
58.1706
 20
121.997
 30
0.0
 11
58.6638
 21
121.185
 31
0.0
  0
LINE
  5
16E5
330
1D
100
AcDbEntity
  8
0
100
AcDbLine
 10
58.1706
 20
121.997
 30
0.0
 11
58.6635
 21
121.185
 31
0.0
  0
LINE
  5
16E6
330
1D
100
AcDbEntity
  8
0
100
AcDbLine
 10
58.8123
 20
118.928
 30
0.0
 11
58.9025
 21
117.871
 31
0.0
  0
LINE
  5
16E7
330
1D
100
AcDbEntity
  8
0
100
AcDbLine
 10
58.8122
 20
118.928
 30
0.0
 11
58.9025
 21
117.871
 31
0.0
  0
LINE
  5
16E8
330
1D
100
AcDbEntity
  8
0
100
AcDbLine
 10
58.6635
 20
121.185
 30
0.0
 11
59.0025
 21
120.416
 31
0.0
  0
LINE
  5
16E9
330
1D
100
AcDbEntity
  8
0
100
AcDbLine
 10
58.6638
 20
121.185
 30
0.0
 11
59.0027
 21
120.416
 31
0.0
  0
LINE
  5
16EA
330
1D
100
AcDbEntity
  8
0
100
AcDbLine
 10
59.0027
 20
120.416
 30
0.0
 11
59.1847
 21
119.696
 31
0.0
  0
LINE
  5
16EB
330
1D
100
AcDbEntity
  8
0
100
AcDbLine
 10
59.0025
 20
120.416
 30
0.0
 11
59.1847
 21
119.696
 31
0.0
  0
LINE
  5
16EF
330
1D
100
AcDbEntity
  8
0
100
AcDbLine
 10
59.2162
 20
118.354
 30
0.0
 11
59.4189
 21
118.646
 31
0.0
  0
LINE
  5
16F0
330
1D
100
AcDbEntity
  8
0
100
AcDbLine
 10
59.5707
 20
118.96
 30
0.0
 11
60.8785
 21
123.216
 31
0.0
  0
LINE
  5
16F1
330
1D
100
AcDbEntity
  8
0
100
AcDbLine
 10
59.4189
 20
118.646
 30
0.0
 11
59.5707
 21
118.96
 31
0.0
  0
LINE
  5
16F2
330
1D
100
AcDbEntity
  8
0
100
AcDbLine
 10
59.1847
 20
119.696
 30
0.0
 11
59.2073
 21
119.017
 31
0.0
  0
LINE
  5
16F3
330
1D
100
AcDbEntity
  8
0
100
AcDbLine
 10
59.1847
 20
119.696
 30
0.0
 11
59.2071
 21
119.017
 31
0.0
  0
LINE
  5
16FA
330
1D
100
AcDbEntity
  8
0
100
AcDbLine
 10
56.7408
 20
123.723
 30
0.0
 11
57.5279
 21
122.846
 31
0.0
  0
LINE
  5
16FB
330
1D
100
AcDbEntity
  8
0
100
AcDbLine
 10
57.5279
 20
122.846
 30
0.0
 11
58.1706
 21
121.997
 31
0.0
  0
LINE
  5
1703
330
1D
100
AcDbEntity
  8
0
100
AcDbLine
 10
60.8785
 20
123.216
 30
0.0
 11
62.2635
 21
127.752
 31
0.0
  0
LINE
  5
1705
330
1D
100
AcDbEntity
  8
0
100
AcDbLine
 10
62.2635
 20
127.752
 30
0.0
 11
63.6876
 21
132.523
 31
0.0
  0
LINE
  5
1711
330
1D
100
AcDbEntity
  8
0
100
AcDbLine
 10
63.6876
 20
132.523
 30
0.0
 11
65.4741
 21
138.45
 31
0.0
  0
LINE
  5
1712
330
1D
100
AcDbEntity
  8
0
100
AcDbLine
 10
65.4741
 20
138.45
 30
0.0
 11
66.5266
 21
141.942
 31
0.0
  0
LINE
  5
1713
330
1D
100
AcDbEntity
  8
0
100
AcDbLine
 10
66.5266
 20
141.942
 30
0.0
 11
67.6483
 21
145.664
 31
0.0
  0
LINE
  5
171D
330
1D
100
AcDbEntity
  8
0
100
AcDbLine
 10
31.2581
 20
155.678
 30
0.0
 11
32.6211
 21
159.379
 31
0.0
  0
LINE
  5
1723
330
1D
100
AcDbEntity
  8
0
100
AcDbLine
 10
35.695511249327
 20
169.279190374063
 30
0.0
 11
35.7279
 21
169.412
 31
0.0
  0
LINE
  5
1724
330
1D
100
AcDbEntity
  8
0
100
AcDbLine
 10
35.7278
 20
169.412
 30
0.0
 11
35.8206
 21
169.682
 31
0.0
  0
LINE
  5
1726
330
1D
100
AcDbEntity
  8
0
100
AcDbLine
 10
35.695511249327
 20
169.279190374063
 30
0.0
 11
35.7279
 21
169.412
 31
0.0
  0
LINE
  5
1727
330
1D
100
AcDbEntity
  8
0
100
AcDbLine
 10
35.8886
 20
169.911
 30
0.0
 11
36.0192
 21
170.207
 31
0.0
  0
LINE
  5
1729
330
1D
100
AcDbEntity
  8
0
100
AcDbLine
 10
35.8206
 20
169.682
 30
0.0
 11
35.8886
 21
169.911
 31
0.0
  0
LINE
  5
172C
330
1D
100
AcDbEntity
  8
0
100
AcDbLine
 10
36.1322
 20
170.429
 30
0.0
 11
36.4195
 21
170.986
 31
0.0
  0
LINE
  5
172D
330
1D
100
AcDbEntity
  8
0
100
AcDbLine
 10
36.0192
 20
170.207
 30
0.0
 11
36.1322
 21
170.429
 31
0.0
  0
LINE
  5
172F
330
1D
100
AcDbEntity
  8
0
100
AcDbLine
 10
36.4195
 20
170.986
 30
0.0
 11
36.5764
 21
171.189
 31
0.0
  0
LINE
  5
1736
330
1D
100
AcDbEntity
  8
0
100
AcDbLine
 10
36.5764
 20
171.189
 30
0.0
 11
36.8417
 21
171.41
 31
0.0
  0
LINE
  5
1737
330
1D
100
AcDbEntity
  8
0
100
AcDbLine
 10
36.8417
 20
171.41
 30
0.0
 11
37.0748
 21
171.535
 31
0.0
  0
LINE
  5
173C
330
1D
100
AcDbEntity
  8
0
100
AcDbLine
 10
37.437923809524
 20
171.648476190476
 30
0.0
 11
37.9388
 21
171.805
 31
0.0
  0
LINE
  5
173E
330
1D
100
AcDbEntity
  8
0
100
AcDbLine
 10
37.0748
 20
171.535
 30
0.0
 11
37.3612
 21
171.634
 31
0.0
  0
LINE
  5
1755
330
1D
100
AcDbEntity
  8
0
100
AcDbLine
 10
48.4162
 20
169.0
 30
0.0
 11
51.025
 21
167.929
 31
0.0
  0
LINE
  5
175B
330
1D
100
AcDbEntity
  8
0
100
AcDbLine
 10
68.8147
 20
149.544
 30
0.0
 11
69.9432
 21
153.245
 31
0.0
  0
LINE
  5
1763
330
1D
100
AcDbEntity
  8
0
100
AcDbLine
 10
68.6907
 20
149.124
 30
0.0
 11
68.8147
 21
149.544
 31
0.0
  0
LINE
  5
1764
330
1D
100
AcDbEntity
  8
0
100
AcDbLine
 10
67.6483
 20
145.664
 30
0.0
 11
68.6907
 21
149.124
 31
0.0
  0
LINE
  5
1770
330
1D
100
AcDbEntity
  8
0
100
AcDbLine
 10
62.5013
 20
161.974
 30
0.0
 11
65.6231
 21
159.778
 31
0.0
  0
LINE
  5
1771
330
1D
100
AcDbEntity
  8
0
100
AcDbLine
 10
67.3548
 20
158.174
 30
0.0
 11
67.8388
 21
157.683
 31
0.0
  0
LINE
  5
1772
330
1D
100
AcDbEntity
  8
0
100
AcDbLine
 10
65.6231
 20
159.778
 30
0.0
 11
66.8246
 21
158.672
 31
0.0
  0
LINE
  5
1774
330
1D
100
AcDbEntity
  8
0
100
AcDbLine
 10
66.8246
 20
158.672
 30
0.0
 11
67.3548
 21
158.175
 31
0.0
  0
LINE
  5
1775
330
1D
100
AcDbEntity
  8
0
100
AcDbLine
 10
66.8246
 20
158.672
 30
0.0
 11
67.3548
 21
158.174
 31
0.0
  0
LINE
  5
178F
330
1D
100
AcDbEntity
  8
0
100
AcDbLine
 10
53.336038679693
 20
166.889809223415
 30
0.0
 11
53.5403
 21
166.8
 31
0.0
  0
LINE
  5
1790
330
1D
100
AcDbEntity
  8
0
100
AcDbLine
 10
53.5403
 20
166.8
 30
0.0
 11
53.672665608471
 21
166.738440229633
 31
0.0
  0
LINE
  5
1791
330
1D
100
AcDbEntity
  8
0
100
AcDbLine
 10
53.5403
 20
166.8
 30
0.0
 11
55.2059
 21
166.049
 31
0.0
  0
LINE
  5
1798
330
1D
100
AcDbEntity
  8
0
100
AcDbLine
 10
51.025
 20
167.929
 30
0.0
 11
53.5403
 21
166.8
 31
0.0
  0
LINE
  5
179C
330
1D
100
AcDbEntity
  8
0
100
AcDbLine
 10
53.328711264506
 20
166.893104097857
 30
0.0
 11
53.5405
 21
166.8
 31
0.0
  0
LINE
  5
179F
330
1D
100
AcDbEntity
  8
0
100
AcDbLine
 10
53.5405
 20
166.8
 30
0.0
 11
53.678195016438
 21
166.735953854217
 31
0.0
  0
LINE
  5
17A0
330
1D
100
AcDbEntity
  8
0
100
AcDbLine
 10
55.2059
 20
166.049
 30
0.0
 11
56.4728
 21
165.43
 31
0.0
  0
LINE
  5
17A1
330
1D
100
AcDbEntity
  8
0
100
AcDbLine
 10
56.4728
 20
165.43
 30
0.0
 11
57.5458
 21
164.881
 31
0.0
  0
LINE
  5
17B0
330
1D
100
AcDbEntity
  8
0
100
AcDbLine
 10
57.5458
 20
164.881
 30
0.0
 11
58.6235
 21
164.299
 31
0.0
  0
LINE
  5
17B2
330
1D
100
AcDbEntity
  8
0
100
AcDbLine
 10
67.8388
 20
157.683
 30
0.0
 11
68.8801
 21
156.523
 31
0.0
  0
LINE
  5
17C6
330
1D
100
AcDbEntity
  8
0
100
AcDbLine
 10
43.2376
 20
170.881
 30
0.0
 11
44.0757
 21
170.599
 31
0.0
  0
LINE
  5
17CC
330
1D
100
AcDbEntity
  8
0
100
AcDbLine
 10
43.2375
 20
170.881
 30
0.0
 11
44.0756
 21
170.599
 31
0.0
  0
LINE
  5
17CD
330
1D
100
AcDbEntity
  8
0
100
AcDbLine
 10
44.0757
 20
170.599
 30
0.0
 11
45.7331
 21
170.028
 31
0.0
  0
LINE
  5
17CE
330
1D
100
AcDbEntity
  8
0
100
AcDbLine
 10
45.7331
 20
170.028
 30
0.0
 11
48.4162
 21
169.0
 31
0.0
  0
LINE
  5
17D2
330
1D
100
AcDbEntity
  8
0
100
AcDbLine
 10
69.4609
 20
155.433
 30
0.0
 11
69.6779
 21
155.015
 31
0.0
  0
LINE
  5
17D4
330
1D
100
AcDbEntity
  8
0
100
AcDbLine
 10
69.9432
 20
153.245
 30
0.0
 11
69.9959
 21
153.558
 31
0.0
  0
LINE
  5
17D5
330
1D
100
AcDbEntity
  8
0
100
AcDbLine
 10
69.9446
 20
154.243
 30
0.0
 11
69.9964
 21
153.891
 31
0.0
  0
LINE
  5
17D6
330
1D
100
AcDbEntity
  8
0
100
AcDbLine
 10
69.9959
 20
153.558
 30
0.0
 11
69.9964
 21
153.891
 31
0.0
  0
LINE
  5
17D7
330
1D
100
AcDbEntity
  8
0
100
AcDbLine
 10
69.8405
 20
154.613
 30
0.0
 11
69.9445
 21
154.244
 31
0.0
  0
LINE
  5
17D8
330
1D
100
AcDbEntity
  8
0
100
AcDbLine
 10
69.8405
 20
154.614
 30
0.0
 11
69.9446
 21
154.243
 31
0.0
  0
LINE
  5
17D9
330
1D
100
AcDbEntity
  8
0
100
AcDbLine
 10
69.9445
 20
154.244
 30
0.0
 11
69.9964
 21
153.891
 31
0.0
  0
LINE
  5
17DA
330
1D
100
AcDbEntity
  8
0
100
AcDbLine
 10
69.6779
 20
155.015
 30
0.0
 11
69.8405
 21
154.614
 31
0.0
  0
LINE
  5
17DB
330
1D
100
AcDbEntity
  8
0
100
AcDbLine
 10
69.6779
 20
155.015
 30
0.0
 11
69.8405
 21
154.613
 31
0.0
  0
LINE
  5
17E1
330
1D
100
AcDbEntity
  8
0
100
AcDbLine
 10
39.4027
 20
171.843
 30
0.0
 11
39.7217
 21
171.798
 31
0.0
  0
LINE
  5
17E3
330
1D
100
AcDbEntity
  8
0
100
AcDbLine
 10
41.781
 20
171.326
 30
0.0
 11
43.2376
 21
170.881
 31
0.0
  0
LINE
  5
17E4
330
1D
100
AcDbEntity
  8
0
100
AcDbLine
 10
39.7216
 20
171.798
 30
0.0
 11
40.6527
 21
171.615
 31
0.0
  0
LINE
  5
17E5
330
1D
100
AcDbEntity
  8
0
100
AcDbLine
 10
39.7217
 20
171.798
 30
0.0
 11
40.6527
 21
171.615
 31
0.0
  0
LINE
  5
17E8
330
1D
100
AcDbEntity
  8
0
100
AcDbLine
 10
40.6527
 20
171.615
 30
0.0
 11
41.7807
 21
171.326
 31
0.0
  0
LINE
  5
17E9
330
1D
100
AcDbEntity
  8
0
100
AcDbLine
 10
40.6527
 20
171.615
 30
0.0
 11
41.781
 21
171.326
 31
0.0
  0
LINE
  5
17EA
330
1D
100
AcDbEntity
  8
0
100
AcDbLine
 10
41.7807
 20
171.326
 30
0.0
 11
43.2375
 21
170.881
 31
0.0
  0
LINE
  5
17EB
330
1D
100
AcDbEntity
  8
0
100
AcDbLine
 10
39.403
 20
171.843
 30
0.0
 11
39.7216
 21
171.798
 31
0.0
  0
LINE
  5
17EE
330
1D
100
AcDbEntity
  8
0
100
AcDbLine
 10
38.4356
 20
171.955
 30
0.0
 11
39.4027
 21
171.843
 31
0.0
  0
LINE
  5
17EF
330
1D
100
AcDbEntity
  8
0
100
AcDbLine
 10
37.9388
 20
171.805
 30
0.0
 11
38.4356
 21
171.955
 31
0.0
  0
LINE
  5
181F
330
1D
100
AcDbEntity
  8
0
100
AcDbLine
 10
35.695511249327
 20
169.279190374063
 30
0.0
 11
32.6211
 21
159.379
 31
0.0
  0
LINE
  5
1820
330
1D
100
AcDbEntity
  8
0
100
AcDbLine
 10
58.6235
 20
164.299
 30
0.0
 11
62.5013
 21
161.974
 31
0.0
  0
LINE
  5
1821
330
1D
100
AcDbEntity
  8
0
100
AcDbLine
 10
68.8801
 20
156.523
 30
0.0
 11
69.4609
 21
155.433
 31
0.0
  0
LINE
  5
1822
330
1D
100
AcDbEntity
  8
0
100
AcDbLine
 10
29.167
 20
150.412
 30
0.0
 11
31.2581
 21
155.678
 31
0.0
  0
LINE
  5
1823
330
1D
100
AcDbEntity
  8
0
100
AcDbLine
 10
22.085095359809
 20
135.728668078657
 30
0.0
 11
26.0058
 21
143.458
 31
0.0
  0
LINE
  5
1824
330
1D
100
AcDbEntity
  8
0
100
AcDbLine
 10
25.2922
 20
136.246
 30
0.0
 11
26.3534
 21
136.335
 31
0.0
  0
LINE
  5
1825
330
1D
100
AcDbEntity
  8
0
100
AcDbLine
 10
48.0972
 20
78.0589
 30
0.0
 11
47.591883297926
 21
68.709792329975
 31
0.0
  0
LINE
  5
1826
330
1D
100
AcDbEntity
  8
0
100
AcDbLine
 10
3.976481612463
 20
63.616285189206
 30
0.0
 11
2.937828825905
 21
74.220410867058
 31
0.0
  0
LINE
  5
182C
330
1D
100
AcDbEntity
  8
0
100
AcDbLine
 10
24.2538
 20
68.6915
 30
0.0
 11
21.2493
 21
70.5405
 31
0.0
  0
LINE
  5
182D
330
1D
100
AcDbEntity
  8
0
100
AcDbLine
 10
13.7078
 20
78.7875
 30
0.0
 11
11.7028
 21
81.2169
 31
0.0
  0
LINE
  5
182E
330
1D
100
AcDbEntity
  8
0
100
AcDbLine
 10
9.17885
 20
85.1753
 30
0.0
 11
8.52375
 21
86.4741
 31
0.0
  0
LINE
  5
182F
330
1D
100
AcDbEntity
  8
0
100
AcDbLine
 10
21.2493
 20
70.5405
 30
0.0
 11
18.375541856052
 21
72.684473093168
 31
0.0
  0
LINE
  5
1830
330
1D
100
AcDbEntity
  8
0
100
AcDbLine
 10
18.375541856052
 20
72.684473093168
 30
0.0
 11
15.861004074529
 21
74.947557096539
 31
0.0
  0
LINE
  5
1831
330
1D
100
AcDbEntity
  8
0
100
AcDbLine
 10
15.861004074529
 20
74.947557096539
 30
0.0
 11
13.296175537376
 21
77.562676389323
 31
0.0
  0
LINE
  5
1832
330
1D
100
AcDbEntity
  8
0
100
AcDbLine
 10
13.296175537376
 20
77.562676389323
 30
0.0
 11
10.882219267114
 21
80.529830971521
 31
0.0
  0
LINE
  5
1833
330
1D
100
AcDbEntity
  8
0
100
AcDbLine
 10
10.882219267114
 20
80.529830971521
 30
0.0
 11
8.870589041895
 21
83.647857820609
 31
0.0
  0
LINE
  5
1834
330
1D
100
AcDbEntity
  8
0
100
AcDbLine
 10
8.870589041895
 20
83.647857820609
 30
0.0
 11
7.4197
 21
86.7615
 31
0.0
  0
LINE
  5
1835
330
1D
100
AcDbEntity
  8
0
100
AcDbLine
 10
5.37613
 20
101.777
 30
0.0
 11
6.43825934723
 21
103.58493811139
 31
0.0
  0
LINE
  5
1836
330
1D
100
AcDbEntity
  8
0
100
AcDbLine
 10
32.8171
 20
72.1085
 30
0.0
 11
33.632443892391
 21
73.43127404292
 31
0.0
  0
LINE
  5
1837
330
1D
100
AcDbEntity
  8
0
100
AcDbLine
 10
33.632443892391
 20
73.43127404292
 30
0.0
 11
34.6053
 21
75.1597
 31
0.0
  0
LINE
  5
1838
330
1D
100
AcDbEntity
  8
0
100
AcDbLine
 10
32.6906
 20
70.1759
 30
0.0
 11
34.161828325386
 21
72.333291515228
 31
0.0
  0
LINE
  5
1839
330
1D
100
AcDbEntity
  8
0
100
AcDbLine
 10
34.161828325386
 20
72.333291515228
 30
0.0
 11
35.495092823298
 21
74.823359033387
 31
0.0
  0
LINE
  5
183A
330
1D
100
AcDbEntity
  8
0
100
AcDbLine
 10
35.495092823298
 20
74.823359033387
 30
0.0
 11
36.691109505248
 21
77.568315352618
 31
0.0
  0
LINE
  5
183B
330
1D
100
AcDbEntity
  8
0
100
AcDbLine
 10
36.691109505248
 20
77.568315352618
 30
0.0
 11
37.917193112695
 21
81.045302324581
 31
0.0
  0
LINE
  5
183C
330
1D
100
AcDbEntity
  8
0
100
AcDbLine
 10
37.917193112695
 20
81.045302324581
 30
0.0
 11
38.600740292569
 21
83.722528779086
 31
0.0
  0
LINE
  5
183D
330
1D
100
AcDbEntity
  8
0
100
AcDbLine
 10
38.600740292569
 20
83.722528779086
 30
0.0
 11
38.970995015
 21
85.830132583697
 31
0.0
  0
LINE
  5
183E
330
1D
100
AcDbEntity
  8
0
100
AcDbLine
 10
38.970995015
 20
85.830132583697
 30
0.0
 11
39.37128843186
 21
88.57566925442
 31
0.0
  0
LINE
  5
183F
330
1D
100
AcDbEntity
  8
0
100
AcDbLine
 10
39.37128843186
 20
88.57566925442
 30
0.0
 11
39.732576705378
 21
92.06076184587
 31
0.0
  0
LINE
  5
1840
330
1D
100
AcDbEntity
  8
0
100
AcDbLine
 10
39.732576705378
 20
92.06076184587
 30
0.0
 11
39.7303
 21
93.1567
 31
0.0
  0
LINE
  5
1841
330
1D
100
AcDbEntity
  8
0
100
AcDbLine
 10
28.1589
 20
110.38
 30
0.0
 11
29.4811
 21
109.803
 31
0.0
  0
LINE
  5
1842
330
1D
100
AcDbEntity
  8
0
100
AcDbLine
 10
23.4352
 20
111.41
 30
0.0
 11
24.3896
 21
111.319
 31
0.0
  0
LINE
  5
1843
330
1D
100
AcDbEntity
  8
0
100
AcDbLine
 10
11.9049
 20
107.614
 30
0.0
 11
13.9442
 21
109.084
 31
0.0
  0
LINE
  5
1844
330
1D
100
AcDbEntity
  8
0
100
AcDbLine
 10
6.17473
 20
96.2189
 30
0.0
 11
6.17473
 21
97.323098390035
 31
0.0
  0
LINE
  5
1845
330
1D
100
AcDbEntity
  8
0
100
AcDbLine
 10
6.17473
 20
97.323098390035
 30
0.0
 11
6.445127321893
 21
98.60973021186
 31
0.0
  0
LINE
  5
1846
330
1D
100
AcDbEntity
  8
0
100
AcDbLine
 10
6.445127321893
 20
98.60973021186
 30
0.0
 11
7.0807
 21
100.421
 31
0.0
  0
ENDSEC
  0
SECTION
  2
OBJECTS
  0
DICTIONARY
  5
C
330
0
100
AcDbDictionary
281
     1
  3
ACAD_GROUP
350
D
  3
ACAD_LAYOUT
350
1A
  3
ACAD_MLEADERSTYLE
350
1829
  3
ACAD_MLINESTYLE
350
17
  3
ACAD_PLOTSETTINGS
350
19
  3
ACAD_PLOTSTYLENAME
350
E
  3
ACAD_SCALELIST
350
17FD
  3
AcDbVariableDictionary
350
1827
  3
DWGPROPS
350
184A
  0
DICTIONARY
  5
D
102
{ACAD_REACTORS
330
C
102
}
330
C
100
AcDbDictionary
281
     1
  0
DICTIONARY
  5
1A
102
{ACAD_REACTORS
330
C
102
}
330
C
100
AcDbDictionary
281
     1
  3
Layout1
350
1C
  3
Model
350
1E
  0
DICTIONARY
  5
1829
102
{ACAD_REACTORS
330
C
102
}
330
C
100
AcDbDictionary
281
     1
  0
DICTIONARY
  5
17
102
{ACAD_REACTORS
330
C
102
}
330
C
100
AcDbDictionary
281
     1
  3
Standard
350
18
  0
DICTIONARY
  5
19
102
{ACAD_REACTORS
330
C
102
}
330
C
100
AcDbDictionary
281
     1
  0
ACDBDICTIONARYWDFLT
  5
E
102
{ACAD_REACTORS
330
C
102
}
330
C
100
AcDbDictionary
281
     1
  3
Normal
350
F
100
AcDbDictionaryWithDefault
340
F
  0
DICTIONARY
  5
17FD
102
{ACAD_REACTORS
330
C
102
}
330
C
100
AcDbDictionary
281
     1
  3
A0
350
17FE
  3
A1
350
17FF
  3
A2
350
1800
  3
A3
350
1801
  3
A4
350
1802
  3
A5
350
1803
  3
A6
350
1804
  3
A7
350
1805
  3
A8
350
1806
  3
A9
350
1807
  3
B0
350
1808
  3
B1
350
1809
  3
B2
350
180A
  3
B3
350
180B
  3
B4
350
180C
  3
B5
350
180D
  3
B6
350
180E
  3
B7
350
180F
  3
B8
350
1810
  3
B9
350
1811
  3
C0
350
1812
  3
C1
350
1813
  3
C2
350
1814
  3
C3
350
1815
  3
C4
350
1816
  3
C5
350
1817
  3
C6
350
1818
  3
C7
350
1819
  3
C8
350
181A
  3
C9
350
181B
  3
D0
350
181C
  3
D1
350
181D
  3
D2
350
181E
  0
DICTIONARY
  5
1827
102
{ACAD_REACTORS
330
C
102
}
330
C
100
AcDbDictionary
281
     1
  3
CANNOSCALE
350
1848
  0
XRECORD
  5
184A
102
{ACAD_REACTORS
330
C
102
}
330
C
100
AcDbXrecord
280
     1
  1
DWGPROPS COOKIE
  2

  3

  4

  6

  7

  8
MARTIN
  9

300
=
301
=
302
=
303
=
304
=
305
=
306
=
307
=
308
=
309
=
 40
0.0
 41
2456184.668804873
 42
2456184.681756262
  1

 90
        0
  0
LAYOUT
  5
1C
102
{ACAD_REACTORS
330
1A
102
}
330
1A
100
AcDbPlotSettings
  1

  2
none_device
  4

  6

 40
0.0
 41
0.0
 42
0.0
 43
0.0
 44
0.0
 45
0.0
 46
0.0
 47
0.0
 48
0.0
 49
0.0
140
0.0
141
0.0
142
1.0
143
1.0
 70
   688
 72
     0
 73
     0
 74
     5
  7

 75
    16
147
1.0
148
0.0
149
0.0
100
AcDbLayout
  1
Layout1
 70
     1
 71
     1
 10
0.0
 20
0.0
 11
12.0
 21
9.0
 12
0.0
 22
0.0
 32
0.0
 14
1.000000000000E+20
 24
1.000000000000E+20
 34
1.000000000000E+20
 15
-1.000000000000E+20
 25
-1.000000000000E+20
 35
-1.000000000000E+20
146
0.0
 13
0.0
 23
0.0
 33
0.0
 16
1.0
 26
0.0
 36
0.0
 17
0.0
 27
1.0
 37
0.0
 76
     0
330
1B
  0
LAYOUT
  5
1E
102
{ACAD_REACTORS
330
1A
102
}
330
1A
100
AcDbPlotSettings
  1

  2
none_device
  4

  6

 40
0.0
 41
0.0
 42
0.0
 43
0.0
 44
0.0
 45
0.0
 46
0.0
 47
0.0
 48
0.0
 49
0.0
140
0.0
141
0.0
142
1.0
143
1.0
 70
  1712
 72
     0
 73
     0
 74
     0
  7

 75
     0
147
1.0
148
0.0
149
0.0
100
AcDbLayout
  1
Model
 70
     1
 71
     0
 10
0.0
 20
0.0
 11
12.0
 21
9.0
 12
0.0
 22
0.0
 32
0.0
 14
0.0036
 24
0.045
 34
0.0
 15
69.9964
 25
171.955
 35
0.0
146
0.0
 13
0.0
 23
0.0
 33
0.0
 16
1.0
 26
0.0
 36
0.0
 17
0.0
 27
1.0
 37
0.0
 76
     0
330
1D
331
17F8
  0
MLINESTYLE
  5
18
102
{ACAD_REACTORS
330
17
102
}
330
17
100
AcDbMlineStyle
  2
Standard
 70
     0
  3

 62
   256
 51
90.0
 52
90.0
 71
     2
 49
0.5
 62
   256
  6
BYLAYER
 49
-0.5
 62
   256
  6
BYLAYER
  0
ACDBPLACEHOLDER
  5
F
102
{ACAD_REACTORS
330
E
102
}
330
E
  0
SCALE
  5
17FE
102
{ACAD_REACTORS
330
17FD
102
}
330
17FD
100
AcDbScale
 70
     0
300
1:1
140
1.0
141
1.0
290
     1
  0
SCALE
  5
17FF
102
{ACAD_REACTORS
330
17FD
102
}
330
17FD
100
AcDbScale
 70
     0
300
1:2
140
1.0
141
2.0
290
     0
  0
SCALE
  5
1800
102
{ACAD_REACTORS
330
17FD
102
}
330
17FD
100
AcDbScale
 70
     0
300
1:4
140
1.0
141
4.0
290
     0
  0
SCALE
  5
1801
102
{ACAD_REACTORS
330
17FD
102
}
330
17FD
100
AcDbScale
 70
     0
300
1:5
140
1.0
141
5.0
290
     0
  0
SCALE
  5
1802
102
{ACAD_REACTORS
330
17FD
102
}
330
17FD
100
AcDbScale
 70
     0
300
1:8
140
1.0
141
8.0
290
     0
  0
SCALE
  5
1803
102
{ACAD_REACTORS
330
17FD
102
}
330
17FD
100
AcDbScale
 70
     0
300
1:10
140
1.0
141
10.0
290
     0
  0
SCALE
  5
1804
102
{ACAD_REACTORS
330
17FD
102
}
330
17FD
100
AcDbScale
 70
     0
300
1:16
140
1.0
141
16.0
290
     0
  0
SCALE
  5
1805
102
{ACAD_REACTORS
330
17FD
102
}
330
17FD
100
AcDbScale
 70
     0
300
1:20
140
1.0
141
20.0
290
     0
  0
SCALE
  5
1806
102
{ACAD_REACTORS
330
17FD
102
}
330
17FD
100
AcDbScale
 70
     0
300
1:30
140
1.0
141
30.0
290
     0
  0
SCALE
  5
1807
102
{ACAD_REACTORS
330
17FD
102
}
330
17FD
100
AcDbScale
 70
     0
300
1:40
140
1.0
141
40.0
290
     0
  0
SCALE
  5
1808
102
{ACAD_REACTORS
330
17FD
102
}
330
17FD
100
AcDbScale
 70
     0
300
1:50
140
1.0
141
50.0
290
     0
  0
SCALE
  5
1809
102
{ACAD_REACTORS
330
17FD
102
}
330
17FD
100
AcDbScale
 70
     0
300
1:100
140
1.0
141
100.0
290
     0
  0
SCALE
  5
180A
102
{ACAD_REACTORS
330
17FD
102
}
330
17FD
100
AcDbScale
 70
     0
300
2:1
140
2.0
141
1.0
290
     0
  0
SCALE
  5
180B
102
{ACAD_REACTORS
330
17FD
102
}
330
17FD
100
AcDbScale
 70
     0
300
4:1
140
4.0
141
1.0
290
     0
  0
SCALE
  5
180C
102
{ACAD_REACTORS
330
17FD
102
}
330
17FD
100
AcDbScale
 70
     0
300
8:1
140
8.0
141
1.0
290
     0
  0
SCALE
  5
180D
102
{ACAD_REACTORS
330
17FD
102
}
330
17FD
100
AcDbScale
 70
     0
300
10:1
140
10.0
141
1.0
290
     0
  0
SCALE
  5
180E
102
{ACAD_REACTORS
330
17FD
102
}
330
17FD
100
AcDbScale
 70
     0
300
100:1
140
100.0
141
1.0
290
     0
  0
SCALE
  5
180F
102
{ACAD_REACTORS
330
17FD
102
}
330
17FD
100
AcDbScale
 70
     0
300
1/128" = 1'-0"
140
0.0078125
141
12.0
290
     0
  0
SCALE
  5
1810
102
{ACAD_REACTORS
330
17FD
102
}
330
17FD
100
AcDbScale
 70
     0
300
1/64" = 1'-0"
140
0.015625
141
12.0
290
     0
  0
SCALE
  5
1811
102
{ACAD_REACTORS
330
17FD
102
}
330
17FD
100
AcDbScale
 70
     0
300
1/32" = 1'-0"
140
0.03125
141
12.0
290
     0
  0
SCALE
  5
1812
102
{ACAD_REACTORS
330
17FD
102
}
330
17FD
100
AcDbScale
 70
     0
300
1/16" = 1'-0"
140
0.0625
141
12.0
290
     0
  0
SCALE
  5
1813
102
{ACAD_REACTORS
330
17FD
102
}
330
17FD
100
AcDbScale
 70
     0
300
3/32" = 1'-0"
140
0.09375
141
12.0
290
     0
  0
SCALE
  5
1814
102
{ACAD_REACTORS
330
17FD
102
}
330
17FD
100
AcDbScale
 70
     0
300
1/8" = 1'-0"
140
0.125
141
12.0
290
     0
  0
SCALE
  5
1815
102
{ACAD_REACTORS
330
17FD
102
}
330
17FD
100
AcDbScale
 70
     0
300
3/16" = 1'-0"
140
0.1875
141
12.0
290
     0
  0
SCALE
  5
1816
102
{ACAD_REACTORS
330
17FD
102
}
330
17FD
100
AcDbScale
 70
     0
300
1/4" = 1'-0"
140
0.25
141
12.0
290
     0
  0
SCALE
  5
1817
102
{ACAD_REACTORS
330
17FD
102
}
330
17FD
100
AcDbScale
 70
     0
300
3/8" = 1'-0"
140
0.375
141
12.0
290
     0
  0
SCALE
  5
1818
102
{ACAD_REACTORS
330
17FD
102
}
330
17FD
100
AcDbScale
 70
     0
300
1/2" = 1'-0"
140
0.5
141
12.0
290
     0
  0
SCALE
  5
1819
102
{ACAD_REACTORS
330
17FD
102
}
330
17FD
100
AcDbScale
 70
     0
300
3/4" = 1'-0"
140
0.75
141
12.0
290
     0
  0
SCALE
  5
181A
102
{ACAD_REACTORS
330
17FD
102
}
330
17FD
100
AcDbScale
 70
     0
300
1" = 1'-0"
140
1.0
141
12.0
290
     0
  0
SCALE
  5
181B
102
{ACAD_REACTORS
330
17FD
102
}
330
17FD
100
AcDbScale
 70
     0
300
1-1/2" = 1'-0"
140
1.5
141
12.0
290
     0
  0
SCALE
  5
181C
102
{ACAD_REACTORS
330
17FD
102
}
330
17FD
100
AcDbScale
 70
     0
300
3" = 1'-0"
140
3.0
141
12.0
290
     0
  0
SCALE
  5
181D
102
{ACAD_REACTORS
330
17FD
102
}
330
17FD
100
AcDbScale
 70
     0
300
6" = 1'-0"
140
6.0
141
12.0
290
     0
  0
SCALE
  5
181E
102
{ACAD_REACTORS
330
17FD
102
}
330
17FD
100
AcDbScale
 70
     0
300
1'-0" = 1'-0"
140
12.0
141
12.0
290
     0
  0
DICTIONARYVAR
  5
1848
102
{ACAD_REACTORS
330
1827
102
}
330
1827
100
DictionaryVariables
280
     0
  1
1:1
  0
ENDSEC
  0
SECTION
  2
THUMBNAILIMAGE
 90
    16364
310
28000000B40000005500000001000800000000000000000000000000000000000000000000000000FFFFFF000000FF0000FFFF0000FF0000FFFF0000FF000000FF00FF000000000080808000C0C0C0000000FF007F7FFF000000A5005252A50000007F003F3F7F0000004C0026264C000000260013132600003FFF007F9FFF
310
000029A5005267A500001F7F003F4F7F0000134C00262F4C000009260013172600007FFF007FBFFF000052A500527CA500003F7F003F5F7F0000264C0026394C0000132600131C260000BFFF007FDFFF00007CA5005291A500005F7F003F6F7F0000394C0026424C00001C26001321260000FFFF007FFFFF0000A5A50052A5
310
A500007F7F003F7F7F00004C4C00264C4C00002626001326260000FFBF007FFFDF0000A57C0052A59100007F5F003F7F6F00004C3900264C420000261C001326210000FF7F007FFFBF0000A5520052A57C00007F3F003F7F5F00004C2600264C39000026130013261C0000FF3F007FFF9F0000A5290052A56700007F1F003F
310
7F4F00004C1300264C2F00002609001326170000FF00007FFF7F0000A5000052A55200007F00003F7F3F00004C0000264C260000260000132613003FFF00009FFF7F0029A5000067A552001F7F00004F7F3F00134C00002F4C260009260000172613007FFF0000BFFF7F0052A500007CA552003F7F00005F7F3F00264C0000
310
394C2600132600001C261300BFFF0000DFFF7F007CA5000091A552005F7F00006F7F3F00394C0000424C26001C26000021261300FFFF0000FFFF7F00A5A50000A5A552007F7F00007F7F3F004C4C00004C4C26002626000026261300FFBF0000FFDF7F00A57C0000A59152007F5F00007F6F3F004C3900004C422600261C00
310
0026211300FF7F0000FFBF7F00A5520000A57C52007F3F00007F5F3F004C2600004C39260026130000261C1300FF3F0000FF9F7F00A5290000A56752007F1F00007F4F3F004C1300004C2F26002609000026171300FF000000FF7F7F00A5000000A55252007F0000007F3F3F004C0000004C2626002600000026131300FF00
310
3F00FF7F9F00A5002900A55267007F001F007F3F4F004C0013004C262F002600090026131700FF007F00FF7FBF00A5005200A5527C007F003F007F3F5F004C0026004C2639002600130026131C00FF00BF00FF7FDF00A5007C00A55291007F005F007F3F6F004C0039004C26420026001C0026132100FF00FF00FF7FFF00A5
310
00A500A552A5007F007F007F3F7F004C004C004C264C002600260026132600BF00FF00DF7FFF007C00A5009152A5005F007F006F3F7F0039004C0042264C001C002600211326007F00FF00BF7FFF005200A5007C52A5003F007F005F3F7F0026004C0039264C00130026001C1326003F00FF009F7FFF002900A5006752A500
310
1F007F004F3F7F0013004C002F264C000900260017132600000000002D2D2D005B5B5B0089898900B7B7B700B3B3B30000000000000000000000000000000000000000000000000000000000000000000000000000000000000000000000000000000000000000000000000000000000000000000000000000070707070707
310
07070707070707070707070707070707070707070000000000000000000000000000000000000000000000000000000000000000000000000000000000000000000000000000000000000000000000000000000000000000000000000000000000000000000000000000000000000000000000000000000000000000000000
310
00000000000000000000000000000000000000000000000000000000000000000000000000000000000000000000000700000000000000000000000000000000000000000000000007000000000000000000000000000000000000000000000000000000000000000000000000000000000000000000000000000000000000
310
00000000000000000000000000000000000000000000000000000000000000000000000000000000000000000000000000000000000000000000000000000000000000000000000000000000000000000000000000000000000000000000000000000000070000000000000000000000000000000000000000000000000700
310
00000000000000000000000000000000000000000000000000000000000000000000000000000000000000000000000000000000000000000000000000000000000000000000000000000000000000000000000000000000000000000000000000000000000000000000000000000000000000000000000000000000000000
310
00000000000000000000000000000000000000000000000000000700000000000000000000000000000000000000000000000700000000000000000000000000000000000000000000000000000000000000000000000000000000000000000000000000000000000000000000000000000000000000000000000000000000
310
00000000000000000000000000000000000000000000000000000000000000000000000000000000000000000000000000000000000000000000000000000000000000000000000000000000000000070000000000000000000000000000000000000000000000070000000000000000000000000000000000000000000000
310
00000000000000000000000000000000000000000000000000000000000000000000000000000000000000000000000000000000000000000000000000000000000000000000000000000000000000000000000000000000000000000000000000000000000000000000000000000000000000000000000000000000000000
310
00000000000700000000000000000000000000000000000000000000000700000000000000000000000000000000000000000000000000000000000000000000000000000000000000000000000000000000000000000000000000000000000000000000000000000000000000000000000000000000000000000000000000
310
00000000000000000000000000000000000000000000000000000000000000000000000000000000000000000000000000000000000000000000070000000000000000000000000000000000000000000000070000000000000000000000000000000000000000000000000000000000000000000000000000000000000000
310
00000000000000000000000000000000000000000000000000000000000000000000000000000000000000000000000000000000000000000000000000000000000000000000000000000000000000000000000000000000000000000000000000000000000000000000000000000007000000000000000000000000000000
310
00000000000000000700000000000000000000000000000000000000000000000000000000000000000000000000000000000000000000000000000000000000000000000000000000000000000000000000000000000000000000000000000000000000000000000000000000000000000000000000000000000000000000
310
00000000000000000000000000000000000000000000000000000000000000000000000000070000000000000000000000000000000000000000000000070000000000000000000000000000000000000000000000000000000000000000000000000000000000000000000000000000000000000000000000000000000000
310
00000000000000000000000000000000000000000000000000000000000000000000000000000000000000000000000000000000000000000000000000000000000000000000000000000000000000000000000000000000000000070000000000000000000000000000000000000000000007000000000000000000000000
310
00000000000000000000000000000000000000000000000000000000000000000000000000000000000000000000000000000000000000000000000000000000000000000000000000000000000000000000000000000000000000000000000000000000000000000000000000000000000000000000000000000000000000
310
00000000000000000000000000000000000700000000000000000000000000000000000000000000070000000000000000000000000000000000000000000000000000000000000000000000000000000000000000000000000000000000000000000000000000000000000000000000000000000000000000000000000000
310
00000000000000000000000000000000000000000000000000000000000000000000000000000000000000000000000000000000000000000000000000000000000000000000070000000000000000000000000000000000000000000007000000000000000000000000000000000000000000000000000000000000000000
310
00000000000000000000000000000000000000000000000000000000000000000000000000000000000000000000000000000000000000000000000000000000000000000000000000000000000000000000000000000000000000000000000000000000000000000000000000000000000000000000000000000007000000
310
00000000000000000000000000000000000000070000000000000000000000000000000000000000000000000000000000000000000000000000000000000000000000000000000000000000000000000000000000000000000000000000000000000000000000000000000000000000000000000000000000000000000000
310
00000000000000000000000000000000000000000000000000000000000000000000000000000000000000000000000000070000000000000000000000000000000000000000000007000000000000000000000000000000000000000000000000000000000000000000000000000000000000000000000000000000000000
310
00000000000000000000000000000000000000000000000000000000000000000000000000000000000000000000000000000000000000000000000000000000000000000000000000000000000000000000000000000000000000000000000000000000000007000000000000000000000000000000000000000000000700
310
00000000000000000000000000000000000000000000000000000000000000000000000000000000000000000000000000000000000000000000000000000000000000000000000000000000000000000000000000000000000000000000000000000000000000000000000000000000000000000000000000000000000000
310
00000000000000000000000000000000000000000000000000000000070000000000000000000000000000000000000000000007000000000000000000000000000000000000000000000000000000000000000000000000000000000000000000000000000000000000000000000000000000000000000000000000000000
310
00000000000000000000000000000000000000000000000000000000000000000000000000000000000000000000000000000000000000000000000000000000000000000000000000000000000000000007000000000000000000000000000000000000000000000700000000000000000000000000000000000000000000
310
00000000000000000000000000000000000000000000000000000000000000000000000000000000000000000000000000000000000000000000000000000000000000000000000000000000000000000000000000000000000000000000000000000000000000000000000000000000000000000000000000000000000000
310
00000000000000070000000000000000000000000000000000000000000007000000000000000000000000000000000000000000000000000000000000000000000000000000000000000000000000000000000000000000000000000000000000000000000000000000000000000000000000000000000000000000000000
310
00000000000000000000000000000000000000000000000000000000000000000000000000000000000000000000000000000000000000000000000007000000000000000000000000000000000000000000000700000000000000000000000000000000000000000000000000000000000000000000000000000000000000
310
00000000000000000000000000000000000000000000000000000000000000000000000000000000000000000000000000000000000000000000000000000000000000000000000000000000000000000000000000000000000000000000000000000000000000000000000000000000000700000000000000000000000000
310
00000000000000000700000000000000000000000000000000000000000000000000000000000000000000000000000000000000000000000000000000000000000000000000000000000000000000000000000000000000000000000000000000000000000000000000000000000000000000000000000000000000000000
310
00000000000000000000000000000000000000000000000000000000000000000000000000000007000000000000000000000000000000000000000000070000000000000000000000000000000000000000000000000000000000000000000000000000000000000000000000000000000000000000000000000000000000
310
00000000000000000000000000000000000000000000000000000000000000000000000000000000000000000000000000000000000000000000000000000000000000000000000000000000000000000000000000000000000000000700000000000000000000000000000000000000000007000000000000000000000000
310
00000000000000000000000000000000000000000000000000000000000000000000000000000000000000000000000000000000000000000000000000000000000000000000000000000000000000000000000000000000000000000000000000000000000000000000000000000000000000000000000000000000000000
310
00000000000000000000000000000000000007000000000000000000000000000000000000000000070000000000000000000000000000000000000000000000000000000000000000000000000000000000000000000000000000000000000000000000000000000000000000000000000000000000000000000000000000
310
00000000000000000000000000000000000000000000000000000000000000000000000000000000000000000000000000000000000000000000000000000000000000000000000007070000000000000000000000000000000000000007000000000000000000000000000000000000000000000000000000000000000000
310
00000000000000000000000000000000000000000000000000000000000000000000000000000000000000000000000000000000000000000000000000000000000000000000000000000000000000000000000000000000000000000000000000000000000000000000000000000000000000000000000000000000000707
310
00000000000000000000000000000007000000070000000000000000000000000000000000000000000000000000000000000000000000000000000000000000000000000000000000000000000000000000000000000000000000000000000000000000000000000000000000000000000000000000000000000000000000
310
00000000000000000000000000000000000000000000000000000000000000000000000000000000000000000000000000000007070000000000000000000000000000070000000007000000000000000000000000000000000000000000000000000000000000000000000000000000000000000000000000000000000000
310
00000000000000000000000000000000000000000000000000000000000000000000000000000000000000000000000000000000000000000000000000000000000000000000000000000000000000000000000000000000000000000000000000000000000000000700000000000000000000000000000007000000000700
310
00000000000000000000000000000000000000000000000000000000000000000000000000000000000000000000000000000000000000000000000000000000000000000000000000000000000000000000000000000000000000000000000000000000000000000000000000000000000000000000000000000000000000
310
00000000000000000000000000000000000000000000000000000000000007070000000000000000000000000000070000000007000000000000000000000000000000000000000000000000000000000000000000000000000000000000000000000000000000000000000000000000000000000000000000000000000000
310
00000000000000000000000000000000000000000000000000000000000000000000000000000000000000000000000000000000000000000000000000000000000000000000000000000000000000000000000707000000000000000000000000000700000000000700000000000000000000000000000000000000000000
310
00000000000000000000000000000000000000000000000000000000000000000000000000000000000000000000000000000000000000000000000000000000000000000000000000000000000000000000000000000000000000000000000000000000000000000000000000000000000000000000000000000000000000
310
00000000000000000007070000000000000000000000000007000000000007000000000000000000000000000000000000000000000000000000000000000000000000000000000000000000000000000000000000000000000000000000000000000000000000000000000000000000000000000000000000000000000000
310
00000000000000000000000000000000000000000000000000000000000000000000000000000000000000000000000000000000000000000000000000000707000000000000000000000000000700000000000700000000000000000000000000000000000000000000000000000000000000000000000000000000000000
310
00000000000000000000000000000000000000000000000000000000000000000000000000000000000000000000000000000000000000000000000000000000000000000000000000000000000000000000000000000000000000000000000000000000000000000000000000000000000000070000000000000000000000
310
00000007000000000007000000000000000000000000000000000000000000000000000000000000000000000000000000000000000000000000000000000000000000000000000000000000000000000000000000000000000000000000000000000000000000000000000000000000000000000000000000000000000000
310
00000000000000000000000000000000000000000000000000000000000000000000000000000000000700000000000000000000000000000007000000000700000000000000000000000000000000000000000000000000000000000000000000000000000000000000000000000000000000000000000000000000000000
310
00000000000000000000000000000000000000000000000000000000000000000000000000000000000000000000000000000000000000000000000000000000000000000000000000000000000000000000000000000000000000000000070000000000000000000707070700000700000000070000000000000000000000
310
00000000000000000000000000000000000000000000000000000000000000000000000000000000000000000000000000000000000000000000000000000000000000000000000000000000000000000000000000000000000000000000000000000000000000000000000000000000000000000000000000000000000000
310
00000000000000000000000000000000000000070700000000000000070707000007070007070000000700000000000000000000000000000000000000000000000000000000000000000000000000000000000000000000000000000000000000000000000000000000000000000000000000000000000000000000000000
310
00000000000000000000000000000000000000000000000000000000000000000000000000000000000000000000000000000000000000000000000000000000000000000000000007000000000000000707000000000007070007000000070000000000000000000000000000000000000000000000000000000000000000
310
00000000000000000000000000000000000000000000000000000000000000000000000000000000000000000000000000000000000000000000000000000000000000000000000000000000000000000000000000000000000000000000000000000000000000000000000000000000000000000000000000000000000700
310
00000000000707000000000000000700000700000700000000000000000000000000000000000000000000000000000000000000000000000000000000000000000000000000000000000000000000000000000000000000000000000000000000000000000000000000000000000000000000000000000000000000000000
310
00000000000000000000000000000000000000000000000000000000000000000000000000000000000000000000000000000007000000000707070000000000000000070700070000070000000000000000000000000000000000000000000000000000000000000000000000000000000000000000000000000000000000
310
00000000000000000000000000000000000000000000000000000000000000000000000000000000000000000000000000000000000000000000000000000000000000000000000000000000000000000000000000000000000000000000000000000000000000000700000007000700000000000000000000070007000007
310
00000000000000000000000000000000000000000000000000000000000000000000000000000000000000000000000000000000000000000000000000000000000000000000000000000000000000000000000000000000000000000000000000000000000000000000000000000000000000000000000000000000000000
310
00000000000000000000000000000000000000000000000000000000000007000000070000000000000000000000000700000700070000000000000000000000000000000000000000000000000000000000000000000000000000000000000000000000000000000000000000000000000000000000000000000000000000
310
00000000000000000000000000000000000000000000000000000000000000000000000000000000000000000000000000000000000000000000000000000000000000000000000000000000000000000000000700000707000000070707070000000000070700070000070000000000000000000000000000000000000000
310
00000000000000000000000000000000000000000000000000000000000000000000000000000000000000000000000000000000000000000000000000000000000000000000000000000000000000000000000000000000000000000000000000000000000000000000000000000000000000000000000000000000000000
310
00000000000000000007000007000000070707000707000000000707000700000700000000000000000000000000000000000000000000000000000000000000000000000000000000000000000000000000000000000000000000000000000000000000000000000000000000000000000000000000000000000000000000
310
00000000000000000000000000000000000000000000000000000000000000000000000000000000000000000000000000000000000000000000000000000700000000000700000000000007000000000700070000070000000000000000000000000000000000000000000000000000000000000000000000000000000000
310
00000000000000000000000000000000000000000000000000000000000000000000000000000000000000000000000000000000000000000000000000000000000000000000000000000000000000000000000000000000000000000000000000000000000000000000000000000000000000070007070007000000000000
310
00000700000007000700000700000000000000000000000000000000000000000000000000000000000000000000000000000000000000000000000000000000000000000000000000000000000000000000000000000000000000000000000000000000000000000000000000000000000000000000000000000000000000
310
00000000000000000000000000000000000000000000000000000000000000000000000000000000000700070000070000000000000000000700000700070000070000000000000000000000000000000000000000000000000000000000000000000000000000000000000000000000000000000000000000000000000000
310
00000000000000000000000000000000000000000000000000000000000000000000000000000000000000000000000000000000000000000000000000000000000000000000000000000000000000000000000000000000000000000000070007000700000000000000000000070000000007000000070000000000000000
310
00000000000000000000000000000000000000000000000000000000000000000000000000000000000000000000000000000000000000000000000000000000000000000000000000000000000000000000000000000000000000000000000000000000000000000000000000000000000000000000000000000000000000
310
00000000000000000000000000000000000000000007070007000000000000000000000700000700070000000700000000000000000000000000000000000000000000000000000000000000000000000000000000000000000000000000000000000000000000000000000000000000000000000000000000000000000000
310
00000000000000000000000000000000000000000000000000000000000000000000000000000000000000000000000000000000000000000000000000000000000000000000000000000707000007000000000000000000070000070007000000070000000000000000000000000000000000000000000000000000000000
310
00000000000000000000000000000000000000000000000000000000000000000000000000000000000000000000000000000000000000000000000000000000000000000000000000000000000000000000000000000000000000000000000000000000000000000000000000000000000000000000000000000000000000
310
07070000070000000000000000070000070700000000000007000000000000000000000000000000000000000000000000000000000000000000000000000000000000000000000000000000000000000000000000000000000000000000000000000000000000000000000000000000000000000000000000000000000000
310
00000000000000000000000000000000000000000000000000000000000000000000000000000000000000000000000000000000000007070000070000000000000700000007070000000000000700000000000000000000000000000000000000000000000000000000000000000000000000000000000000000000000000
310
00000000000000000000000000000000000000000000000000000000000000000000000000000000000000000000000000000000000000000000000000000000000000000000000000000000000000000000000000000000000000000000000000000000000000000000000707000000070000000007000000000700000000
310
00000007000000000000000000000000000000000000000000000000000000000000000000000000000000000000000000000000000000000000000000000000000000000000000000000000000000000000000000000000000000000000000000000000000000000000000000000000000000000000000000000000000000
310
00000000000000000000000000000000000000000000000000000000000000000007070700000007070707000000000700000000000000000007000000000000000000000000000000000000000000000000000000000000000000000000000000000000000000000000000000000000000000000000000000000000000000
310
00000000000000000000000000000000000000000000000000000000000000000000000000000000000000000000000000000000000000000000000000000000000000000000000000000000000000000000000000000007070700000000000000000007070000000000000000000700000000000000000000000000000000
310
00000000000000000000000000000000000000000000000000000000000000000000000000000000000000000000000000000000000000000000000000000000000000000000000000000000000000000000000000000000000000000000000000000000000000000000000000000000000000000000000000000000000000
310
00000000000000000000000000070007070707000000000707070000000000000000000007000000000000000000000000000000000000000000000000000000000000000000000000000000000000000000000000000000000000000000000000000000000000000000000000000000000000000000000000000000000000
310
00000000000000000000000000000000000000000000000000000000000000000000000000000000000000000000000000000000000000000000000000000000000000070000070707070707070000000000000000000000000007000000000000000000000000000000000000000000000000000000000000000000000000
310
00000000000000000000000000000000000000000000000000000000000000000000000000000000000000000000000000000000000000000000000000000000000000000000000000000000000000000000000000000000000000000000000000000000000000000000000000000000000000000000000007000000000000
310
00000000000000000000000000000000070000000000000000000000000000000000000000000000000000000000000000000000000000000000000000000000000000000000000000000000000000000000000000000000000000000000000000000000000000000000000000000000000000000000000000000000000000
310
00000000000000000000000000000000000000000000000000000000000000000000000000000000000000000000000700000000000000000000000000000000000000000007000000000000000000000000000000000000000000000000000000000000000000000000000000000000000000000000000000000000000000
310
00000000000000000000000000000000000000000000000000000000000000000000000000000000000000000000000000000000000000000000000000000000000000000000000000000000000000000000000000000000000000000000000000000000070000000000000000000000000000000000000000000707000000
310
00000000000000000000000000000000000000000000000000000000000000000000000000000000000000000000000000000000000000000000000000000000000000000000000000000000000000000000000000000000000000000000000000000000000000000000000000000000000000000000000000000000000000
310
00000000000000000000000000000000000000000000000000000007000000000000000000000000000000000000000007070000000000000000000000000000000000000000000000000000000000000000000000000000000000000000000000000000000000000000000000000000000000000000000000000000000000
310
00000000000000000000000000000000000000000000000000000000000000000000000000000000000000000000000000000000000000000000000000000000000000000000000000000000000000000700000000000000000000000000000000000000070700070000000000000000000000000000000000000000000000
310
00000000000000000000000000000000000000000000000000000000000000000000000000000000000000000000000000000000000000000000000000000000000000000000000000000000000000000000000000000000000000000000000000000000000000000000000000000000000000000000000000000000000000
310
00000000000000070000000000000000000000000000000000000707000700000000000000000000000000000000000000000000000000000000000000000000000000000000000000000000000000000000000000000000000000000000000000000000000000000000000000000000000000000000000000000000000000
310
00000000000000000000000000000000000000000000000000000000000000000000000000000000000000000000000000000000000000000000000007000000000000000000000000000000000707070000070000000000000000000000000000000000000000000000000000000000000000000000000000000000000000
310
00000000000000000000000000000000000000000000000000000000000000000000000000000000000000000000000000000000000000000000000000000000000000000000000000000000000000000000000000000000000000000000000000000000000000000000000000000000000007000000000000000000000000
310
00070707000000000700000000000000000000000000000000000000000000000000000000000000000000000000000000000000000000000000000000000000000000000000000000000000000000000000000000000000000000000000000000000000000000000000000000000000000000000000000000000000000000
310
00000000000000000000000000000000000000000000000000000000000000000000000000000000070000000000000000000000070707000000000000070000000000000000000000000000000000000000000000000000000000000000000000000000000000000000000000000000000000000000000000000000000000
310
00000000000000000000000000000000000000000000000000000000000000000000000000000000000000000000000000000000000000000000000000000000000000000000000000000000000000000000000000000000000000000000070000000000000007070707070000000000000000070000000000000000000000
310
00000000000000000000000000000000000000000000000000000000000000000000000000000000000000000000000000000000000000000000000000000000000000000000000000000000000000000000000000000000000000000000000000000000000000000000000000000000000000000000000000000000000000
310
00000000000000000000000000000000000000000707070707070707070700000000000000000000000700000000000000000000000000000000000000000000000000000000000000000000000000000000000000000000000000000000000000000000000000000000000000000000000000000000000000000000000000
310
00000000000000000000000000000000000000000000000000000000000000000000000000000000000000000000000000000000000000000000000000000000000000000000000000000707070707070000000000000000000000000000000700000000000000000000000000000000000000000000000000000000000000
310
00000000000000000000000000000000000000000000000000000000000000000000000000000000000000000000000000000000000000000000000000000000000000000000000000000000000000000000000000000000000000000000000000000000000000000000000000000000000000000000000000000000000000
310
00070000000000000000000000000000000000000007000000000000000000000000000000000000000000000000000000000000000000000000000000000000000000000000000000000000000000000000000000000000000000000000000000000000000000000000000000000000000000000000000000000000000000
310
00000000000000000000000000000000000000000000000000000000000000000000000000000000000000000000000000000000000007000000000000000000000000000000000000000700000000000000000000000000000000000000000000000000000000000000000000000000000000000000000000000000000000
310
00000000000000000000000000000000000000000000000000000000000000000000000000000000000000000000000000000000000000000000000000000000000000000000000000000000000000000000000000000000000000000000000000000000000000000000000007000000000000000000000000000000000000
310
07000000000000000000000000000000000000000000000000000000000000000000000000000000000000000000000000000000000000000000000000000000000000000000000000000000000000000000000000000000000000000000000000000000000000000000000000000000000000000000000000000000000000
310
00000000000000000000000000000000000000000000000000000000000000000000070000000000000000000000000000000000000007000000000000000000000000000000000000000000000000000000000000000000000000000000000000000000000000000000000000000000000000000000000000000000000000
310
00000000000000000000000000000000000000000000000000000000000000000000000000000000000000000000000000000000000000000000000000000000000000000000000000000000000000000000000000000007000000000000000000000000000000000000000700000000000000000000000000000000000000
310
00000000000000000000000000000000000000000000000000000000000000000000000000000000000000000000000000000000000000000000000000000000000000000000000000000000000000000000000000000000000000000000000000000000000000000000000000000000000000000000000000000000000000
310
00000000000000000000000000000700000000000000000000000000000000000007000000000000000000000000000000000000000000000000000000000000000000000000000000000000000000000000000000000000000000000000000000000000000000000000000000000000000000000000000000000000000000
310
00000000000000000000000000000000000000000000000000000000000000000000000000000000000000000000000000000000000000000000000000000000000000070000000000000000000000000000000000000700000000000000000000000000000000000000000000000000000000000000000000000000000000
310
00000000000000000000000000000000000000000000000000000000000000000000000000000000000000000000000000000000000000000000000000000000000000000000000000000000000000000000000000000000000000000000000000000000000000000000000000000000000000000000000007000000000000
310
00000000000000000000000000070000000000000000000000000000000000000000000000000000000000000000000000000000000000000000000000000000000000000000000000000000000000000000000000000000000000000000000000000000000000000000000000000000000000000000000000000000000000
310
00000000000000000000000000000000000000000000000000000000000000000000000000000000000000000000000700000000000000000000000000000000000007000000000000000000000000000000000000000000000000000000000000000000000000000000000000000000000000000000000000000000000000
310
00000000000000000000000000000000000000000000000000000000000000000000000000000000000000000000000000000000000000000000000000000000000000000000000000000000000000000000000000000000000000000000000000000000070000000000000000000000000000000000070000000000000000
310
00000000000000000000000000000000000000000000000000000000000000000000000000000000000000000000000000000000000000000000000000000000000000000000000000000000000000000000000000000000000000000000000000000000000000000000000000000000000000000000000000000000000000
310
00000000000000000000000000000000000000000000000000000000000000000000000000000000000000070000000000000000000000000000000000000000000000000000000000000000000000000000000000000000000000000000000000000000000000000000000000000000000000000000000000000000000000
310
00000000000000000000000000000000000000000000000000000000000000000000000000000000000000000000000000000000000000000000000000000000000000000000000000000000000000000700000000000000000000000000070700000000000000000000000000000000000000000000000000000000000000
310
00000000000000000000000000000000000000000000000000000000000000000000000000000000000000000000000000000000000000000000000000000000000000000000000000000000000000000000000000000000000000000000000000000000000000000000000000000000000000000000000000000000000000
310
00000000000007000000000000000000000007070000000000000000000000000000000000000000000000000000000000000000000000000000000000000000000000000000000000000000000000000000000000000000000000000000000000000000000000000000000000000000000000000000000000000000000000
310
00000000000000000000000000000000000000000000000000000000000000000000000000000000000000000000000000000000000000000000000007000000000000000000070700000000000000000000000000000000000000000000000000000000000000000000000000000000000000000000000000000000000000
310
00000000000000000000000000000000000000000000000000000000000000000000000000000000000000000000000000000000000000000000000000000000000000000000000000000000000000000000000000000000000000000000000000000000000000000000000000000000000700000000000000070700000000
310
00000000000000000000000000000000000000000000000000000000000000000000000000000000000000000000000000000000000000000000000000000000000000000000000000000000000000000000000000000000000000000000000000000000000000000000000000000000000000000000000000000000000000
310
00000000000000000000000000000000000000000000000000000000000000000000000000000007070000000707070000000000000000000000000000000000000000000000000000000000000000000000000000000000000000000000000000000000000000000000000000000000000000000000000000000000000000
310
00000000000000000000000000000000000000000000000000000000000000000000000000000000000000000000000000000000000000000000000000000000000000000000000000000000000000000000000000000000000000000007070707000000000000000000000000000000000000000000000000000000000000
310
00000000000000000000000000000000000000000000000000000000000000000000000000000000000000000000000000000000000000000000000000000000000000000000000000000000000000000000000000000000000000000000000000000000000000000000000000000000000000000000000000000000000000
310
000000000000000000000000000000000000000000000000000000000000000000000000000000000000000000000000000000000000000000000000000000000000000000000000000000000000000000000000000000000000000000000000000000000000000000000000
  0
ENDSEC
  0
EOF
