  0
SECTION
  2
HEADER
  9
$ACADVER
  1
AC1015
  9
$ACADMAINTVER
 70
    13
  9
$DWGCODEPAGE
  3
ANSI_1252
  9
$INSBASE
 10
0.0
 20
0.0
 30
0.0
  9
$EXTMIN
 10
0.249999999999997
 20
-0.14525
 30
0.0
  9
$EXTMAX
 10
87.75
 20
161.15025
 30
0.0
  9
$LIMMIN
 10
0.0
 20
0.0
  9
$LIMMAX
 10
12.0
 20
9.0
  9
$ORTHOMODE
 70
     0
  9
$REGENMODE
 70
     1
  9
$FILLMODE
 70
     1
  9
$QTEXTMODE
 70
     0
  9
$MIRRTEXT
 70
     1
  9
$LTSCALE
 40
1.0
  9
$ATTMODE
 70
     1
  9
$TEXTSIZE
 40
0.2
  9
$TRACEWID
 40
0.05
  9
$TEXTSTYLE
  7
Standard
  9
$CLAYER
  8
0
  9
$CELTYPE
  6
Continuous
  9
$CECOLOR
 62
   256
  9
$CELTSCALE
 40
1.0
  9
$DISPSILH
 70
     0
  9
$DIMSCALE
 40
1.0
  9
$DIMASZ
 40
0.18
  9
$DIMEXO
 40
0.0625
  9
$DIMDLI
 40
0.38
  9
$DIMRND
 40
0.0
  9
$DIMDLE
 40
0.0
  9
$DIMEXE
 40
0.18
  9
$DIMTP
 40
0.0
  9
$DIMTM
 40
0.0
  9
$DIMTXT
 40
0.18
  9
$DIMCEN
 40
0.09
  9
$DIMTSZ
 40
0.0
  9
$DIMTOL
 70
     0
  9
$DIMLIM
 70
     0
  9
$DIMTIH
 70
     1
  9
$DIMTOH
 70
     1
  9
$DIMSE1
 70
     0
  9
$DIMSE2
 70
     0
  9
$DIMTAD
 70
     0
  9
$DIMZIN
 70
     0
  9
$DIMBLK
  1

  9
$DIMASO
 70
     1
  9
$DIMSHO
 70
     1
  9
$DIMPOST
  1

  9
$DIMAPOST
  1

  9
$DIMALT
 70
     0
  9
$DIMALTD
 70
     2
  9
$DIMALTF
 40
25.4
  9
$DIMLFAC
 40
1.0
  9
$DIMTOFL
 70
     0
  9
$DIMTVP
 40
0.0
  9
$DIMTIX
 70
     0
  9
$DIMSOXD
 70
     0
  9
$DIMSAH
 70
     0
  9
$DIMBLK1
  1

  9
$DIMBLK2
  1

  9
$DIMSTYLE
  2
Standard
  9
$DIMCLRD
 70
     0
  9
$DIMCLRE
 70
     0
  9
$DIMCLRT
 70
     0
  9
$DIMTFAC
 40
1.0
  9
$DIMGAP
 40
0.09
  9
$DIMJUST
 70
     0
  9
$DIMSD1
 70
     0
  9
$DIMSD2
 70
     0
  9
$DIMTOLJ
 70
     1
  9
$DIMTZIN
 70
     0
  9
$DIMALTZ
 70
     0
  9
$DIMALTTZ
 70
     0
  9
$DIMUPT
 70
     0
  9
$DIMDEC
 70
     4
  9
$DIMTDEC
 70
     4
  9
$DIMALTU
 70
     2
  9
$DIMALTTD
 70
     2
  9
$DIMTXSTY
  7
Standard
  9
$DIMAUNIT
 70
     0
  9
$DIMADEC
 70
     0
  9
$DIMALTRND
 40
0.0
  9
$DIMAZIN
 70
     0
  9
$DIMDSEP
 70
    46
  9
$DIMATFIT
 70
     3
  9
$DIMFRAC
 70
     0
  9
$DIMLDRBLK
  1

  9
$DIMLUNIT
 70
     2
  9
$DIMLWD
 70
    -2
  9
$DIMLWE
 70
    -2
  9
$DIMTMOVE
 70
     0
  9
$LUNITS
 70
     2
  9
$LUPREC
 70
     4
  9
$SKETCHINC
 40
0.1
  9
$FILLETRAD
 40
0.0
  9
$AUNITS
 70
     0
  9
$AUPREC
 70
     0
  9
$MENU
  1
.
  9
$ELEVATION
 40
0.0
  9
$PELEVATION
 40
0.0
  9
$THICKNESS
 40
0.0
  9
$LIMCHECK
 70
     0
  9
$CHAMFERA
 40
0.0
  9
$CHAMFERB
 40
0.0
  9
$CHAMFERC
 40
0.0
  9
$CHAMFERD
 40
0.0
  9
$SKPOLY
 70
     0
  9
$TDCREATE
 40
2455509.961686551
  9
$TDUCREATE
 40
2455509.920019884
  9
$TDUPDATE
 40
2455509.971097905
  9
$TDUUPDATE
 40
2455509.929431238
  9
$TDINDWG
 40
0.0094115394
  9
$TDUSRTIMER
 40
0.0094115394
  9
$USRTIMER
 70
     1
  9
$ANGBASE
 50
0.0
  9
$ANGDIR
 70
     0
  9
$PDMODE
 70
     0
  9
$PDSIZE
 40
0.0
  9
$PLINEWID
 40
0.0
  9
$SPLFRAME
 70
     0
  9
$SPLINETYPE
 70
     6
  9
$SPLINESEGS
 70
     8
  9
$HANDSEED
  5
2A9
  9
$SURFTAB1
 70
     6
  9
$SURFTAB2
 70
     6
  9
$SURFTYPE
 70
     6
  9
$SURFU
 70
     6
  9
$SURFV
 70
     6
  9
$UCSBASE
  2

  9
$UCSNAME
  2

  9
$UCSORG
 10
0.0
 20
0.0
 30
0.0
  9
$UCSXDIR
 10
1.0
 20
0.0
 30
0.0
  9
$UCSYDIR
 10
0.0
 20
1.0
 30
0.0
  9
$UCSORTHOREF
  2

  9
$UCSORTHOVIEW
 70
     1
  9
$UCSORGTOP
 10
0.0
 20
0.0
 30
0.0
  9
$UCSORGBOTTOM
 10
0.0
 20
0.0
 30
0.0
  9
$UCSORGLEFT
 10
0.0
 20
0.0
 30
0.0
  9
$UCSORGRIGHT
 10
0.0
 20
0.0
 30
0.0
  9
$UCSORGFRONT
 10
0.0
 20
0.0
 30
0.0
  9
$UCSORGBACK
 10
0.0
 20
0.0
 30
0.0
  9
$PUCSBASE
  2

  9
$PUCSNAME
  2

  9
$PUCSORG
 10
0.0
 20
0.0
 30
0.0
  9
$PUCSXDIR
 10
1.0
 20
0.0
 30
0.0
  9
$PUCSYDIR
 10
0.0
 20
1.0
 30
0.0
  9
$PUCSORTHOREF
  2

  9
$PUCSORTHOVIEW
 70
     0
  9
$PUCSORGTOP
 10
0.0
 20
0.0
 30
0.0
  9
$PUCSORGBOTTOM
 10
0.0
 20
0.0
 30
0.0
  9
$PUCSORGLEFT
 10
0.0
 20
0.0
 30
0.0
  9
$PUCSORGRIGHT
 10
0.0
 20
0.0
 30
0.0
  9
$PUCSORGFRONT
 10
0.0
 20
0.0
 30
0.0
  9
$PUCSORGBACK
 10
0.0
 20
0.0
 30
0.0
  9
$USERI1
 70
     0
  9
$USERI2
 70
     0
  9
$USERI3
 70
     0
  9
$USERI4
 70
     0
  9
$USERI5
 70
     0
  9
$USERR1
 40
0.0
  9
$USERR2
 40
0.0
  9
$USERR3
 40
0.0
  9
$USERR4
 40
0.0
  9
$USERR5
 40
0.0
  9
$WORLDVIEW
 70
     1
  9
$SHADEDGE
 70
     3
  9
$SHADEDIF
 70
    70
  9
$TILEMODE
 70
     1
  9
$MAXACTVP
 70
    64
  9
$PINSBASE
 10
0.0
 20
0.0
 30
0.0
  9
$PLIMCHECK
 70
     0
  9
$PEXTMIN
 10
1.000000000000000E+20
 20
1.000000000000000E+20
 30
1.000000000000000E+20
  9
$PEXTMAX
 10
-1.000000000000000E+20
 20
-1.000000000000000E+20
 30
-1.000000000000000E+20
  9
$PLIMMIN
 10
0.0
 20
0.0
  9
$PLIMMAX
 10
12.0
 20
9.0
  9
$UNITMODE
 70
     0
  9
$VISRETAIN
 70
     1
  9
$PLINEGEN
 70
     0
  9
$PSLTSCALE
 70
     1
  9
$TREEDEPTH
 70
  3020
  9
$CMLSTYLE
  2
Standard
  9
$CMLJUST
 70
     0
  9
$CMLSCALE
 40
1.0
  9
$PROXYGRAPHICS
 70
     1
  9
$MEASUREMENT
 70
     0
  9
$CELWEIGHT
370
    -1
  9
$ENDCAPS
280
     0
  9
$JOINSTYLE
280
     0
  9
$LWDISPLAY
290
     0
  9
$INSUNITS
 70
     0
  9
$HYPERLINKBASE
  1

  9
$STYLESHEET
  1

  9
$XEDIT
290
     1
  9
$CEPSNTYPE
380
     0
  9
$PSTYLEMODE
290
     1
  9
$FINGERPRINTGUID
  2
{0B5E629C-A753-4AB3-8FBC-7AE3BD47771C}
  9
$VERSIONGUID
  2
{CD54D132-8D6E-405B-A3AF-D05A04188903}
  9
$EXTNAMES
290
     1
  9
$PSVPSCALE
 40
0.0
  9
$OLESTARTUP
290
     0
  0
ENDSEC
  0
SECTION
  2
CLASSES
  0
CLASS
  1
ACDBDICTIONARYWDFLT
  2
AcDbDictionaryWithDefault
  3
AutoCAD 2000
 90
        0
280
     0
281
     0
  0
CLASS
  1
ACDBPLACEHOLDER
  2
AcDbPlaceHolder
  3
AutoCAD 2000
 90
        0
280
     0
281
     0
  0
CLASS
  1
LAYOUT
  2
AcDbLayout
  3
AutoCAD 2000
 90
        0
280
     0
281
     0
  0
CLASS
  1
DICTIONARYVAR
  2
AcDbDictionaryVar
  3
AutoCAD 2000
 90
        0
280
     0
281
     0
  0
ENDSEC
  0
SECTION
  2
TABLES
  0
TABLE
  2
VPORT
  5
8
330
0
100
AcDbSymbolTable
 70
     3
  0
VPORT
  5
2A8
330
8
100
AcDbSymbolTableRecord
100
AcDbViewportTableRecord
  2
*Active
 70
     0
 10
0.0
 20
0.0
 11
1.0
 21
1.0
 12
44.0
 22
80.5025
 13
0.0
 23
0.0
 14
1.0
 24
1.0
 15
0.0
 25
0.0
 16
0.0
 26
0.0
 36
1.0
 17
0.0
 27
0.0
 37
0.0
 40
162.3865631341601
 41
2.073363431151241
 42
50.0
 43
0.0
 44
0.0
 50
0.0
 51
0.0
 71
     0
 72
   100
 73
     1
 74
     3
 75
     0
 76
     0
 77
     0
 78
     0
281
     0
 65
     1
110
0.0
120
0.0
130
0.0
111
1.0
121
0.0
131
0.0
112
0.0
122
1.0
132
0.0
 79
     1
146
0.0
  0
ENDTAB
  0
TABLE
  2
LTYPE
  5
5
330
0
100
AcDbSymbolTable
 70
     1
  0
LTYPE
  5
13
330
5
100
AcDbSymbolTableRecord
100
AcDbLinetypeTableRecord
  2
ByBlock
 70
     0
  3

 72
    65
 73
     0
 40
0.0
  0
LTYPE
  5
14
330
5
100
AcDbSymbolTableRecord
100
AcDbLinetypeTableRecord
  2
ByLayer
 70
     0
  3

 72
    65
 73
     0
 40
0.0
  0
LTYPE
  5
15
330
5
100
AcDbSymbolTableRecord
100
AcDbLinetypeTableRecord
  2
Continuous
 70
     0
  3
Solid line
 72
    65
 73
     0
 40
0.0
  0
ENDTAB
  0
TABLE
  2
LAYER
  5
2
330
0
100
AcDbSymbolTable
 70
     1
  0
LAYER
  5
10
330
2
100
AcDbSymbolTableRecord
100
AcDbLayerTableRecord
  2
0
 70
     0
 62
     7
  6
Continuous
370
    -3
390
F
  0
ENDTAB
  0
TABLE
  2
STYLE
  5
3
330
0
100
AcDbSymbolTable
 70
     1
  0
STYLE
  5
11
330
3
100
AcDbSymbolTableRecord
100
AcDbTextStyleTableRecord
  2
Standard
 70
     0
 40
0.0
 41
1.0
 50
0.0
 71
     0
 42
0.2
  3
txt
  4

  0
ENDTAB
  0
TABLE
  2
VIEW
  5
6
330
0
100
AcDbSymbolTable
 70
     0
  0
ENDTAB
  0
TABLE
  2
UCS
  5
7
330
0
100
AcDbSymbolTable
 70
     0
  0
ENDTAB
  0
TABLE
  2
APPID
  5
9
330
0
100
AcDbSymbolTable
 70
     1
  0
APPID
  5
12
330
9
100
AcDbSymbolTableRecord
100
AcDbRegAppTableRecord
  2
ACAD
 70
     0
  0
ENDTAB
  0
TABLE
  2
DIMSTYLE
  5
A
330
0
100
AcDbSymbolTable
 70
     1
100
AcDbDimStyleTable
 71
     0
  0
DIMSTYLE
105
28F
330
A
100
AcDbSymbolTableRecord
100
AcDbDimStyleTableRecord
  2
Standard
 70
     0
340
11
  0
ENDTAB
  0
TABLE
  2
BLOCK_RECORD
  5
1
330
0
100
AcDbSymbolTable
 70
     0
  0
BLOCK_RECORD
  5
1E
330
1
100
AcDbSymbolTableRecord
100
AcDbBlockTableRecord
  2
*Model_Space
340
21
  0
BLOCK_RECORD
  5
1A
330
1
100
AcDbSymbolTableRecord
100
AcDbBlockTableRecord
  2
*Paper_Space
340
1D
  0
ENDTAB
  0
ENDSEC
  0
SECTION
  2
BLOCKS
  0
BLOCK
  5
1F
330
1E
100
AcDbEntity
  8
0
100
AcDbBlockBegin
  2
*Model_Space
 70
     0
 10
0.0
 20
0.0
 30
0.0
  3
*Model_Space
  1

  0
ENDBLK
  5
20
330
1E
100
AcDbEntity
  8
0
100
AcDbBlockEnd
  0
BLOCK
  5
1B
330
1A
100
AcDbEntity
 67
     1
  8
0
100
AcDbBlockBegin
  2
*Paper_Space
 70
     0
 10
0.0
 20
0.0
 30
0.0
  3
*Paper_Space
  1

  0
ENDBLK
  5
1C
330
1A
100
AcDbEntity
 67
     1
  8
0
100
AcDbBlockEnd
  0
ENDSEC
  0
SECTION
  2
ENTITIES
  0
LINE
  5
23
330
1E
100
AcDbEntity
  8
0
100
AcDbLine
 10
3.7
 20
92.12425000000001
 30
0.0
 11
7.75
 21
86.79925
 31
0.0
  0
LINE
  5
24
330
1E
100
AcDbEntity
  8
0
100
AcDbLine
 10
10.9075
 20
27.14535
 30
0.0
 11
11.02999999999999
 21
26.89265
 31
0.0
  0
LINE
  5
25
330
1E
100
AcDbEntity
  8
0
100
AcDbLine
 10
11.2356
 20
10.82335
 30
0.0
 11
11.334
 21
10.71805
 31
0.0
  0
LINE
  5
26
330
1E
100
AcDbEntity
  8
0
100
AcDbLine
 10
11.2356
 20
10.82335
 30
0.0
 11
11.2407
 21
22.04064999999999
 31
0.0
  0
LINE
  5
27
330
1E
100
AcDbEntity
  8
0
100
AcDbLine
 10
11.2356
 20
10.82335
 30
0.0
 11
12.0067
 21
10.93865
 31
0.0
  0
LINE
  5
28
330
1E
100
AcDbEntity
  8
0
100
AcDbLine
 10
11.2695
 20
0.5839499999999991
 30
0.0
 11
11.3002
 21
10.33285
 31
0.0
  0
LINE
  5
29
330
1E
100
AcDbEntity
  8
0
100
AcDbLine
 10
11.2695
 20
0.5839499999999991
 30
0.0
 11
11.3726
 21
0.487649999999996
 31
0.0
  0
LINE
  5
2B
330
1E
100
AcDbEntity
  8
0
100
AcDbLine
 10
11.3002
 20
10.33285
 30
0.0
 11
12.6066
 21
10.53144999999999
 31
0.0
  0
LINE
  5
2E
330
1E
100
AcDbEntity
  8
0
100
AcDbLine
 10
11.3726
 20
0.487649999999996
 30
0.0
 11
11.9188
 21
0.246949999999991
 31
0.0
  0
LINE
  5
30
330
1E
100
AcDbEntity
  8
0
100
AcDbLine
 10
11.334
 20
10.71805
 30
0.0
 11
11.7521
 21
10.64375
 31
0.0
  0
LINE
  5
31
330
1E
100
AcDbEntity
  8
0
100
AcDbLine
 10
11.2407
 20
22.04064999999999
 30
0.0
 11
11.6632
 21
24.60024999999999
 31
0.0
  0
LINE
  5
32
330
1E
100
AcDbEntity
  8
0
100
AcDbLine
 10
11.23639999999999
 20
26.81335
 30
0.0
 11
12.34539999999999
 21
26.68945
 31
0.0
  0
LINE
  5
35
330
1E
100
AcDbEntity
  8
0
100
AcDbLine
 10
11.9188
 20
0.246949999999991
 30
0.0
 11
12.4977
 21
0.166649999999987
 31
0.0
  0
LINE
  5
37
330
1E
100
AcDbEntity
  8
0
100
AcDbLine
 10
11.9021
 20
0.326149999999995
 30
0.0
 11
12.9414
 21
0.499649999999994
 31
0.0
  0
LINE
  5
39
330
1E
100
AcDbEntity
  8
0
100
AcDbLine
 10
11.7521
 20
10.64375
 30
0.0
 11
12.5281
 21
10.57355
 31
0.0
  0
LINE
  5
3A
330
1E
100
AcDbEntity
  8
0
100
AcDbLine
 10
11.6632
 20
24.60024999999999
 30
0.0
 11
12.3858
 21
26.61625
 31
0.0
  0
LINE
  5
3B
330
1E
100
AcDbEntity
  8
0
100
AcDbLine
 10
12.0067
 20
10.93865
 30
0.0
 11
13.2474
 21
11.02894999999999
 31
0.0
  0
LINE
  5
3C
330
1E
100
AcDbEntity
  8
0
100
AcDbLine
 10
12.4977
 20
0.166649999999987
 30
0.0
 11
13.5202
 21
0.081449999999997
 31
0.0
  0
LINE
  5
3D
330
1E
100
AcDbEntity
  8
0
100
AcDbLine
 10
13.5202
 20
0.081449999999997
 30
0.0
 11
16.0999
 21
-0.0299500000000041
 31
0.0
  0
LINE
  5
3E
330
1E
100
AcDbEntity
  8
0
100
AcDbLine
 10
12.9414
 20
0.499649999999994
 30
0.0
 11
14.6041
 21
0.5909500000000029
 31
0.0
  0
LINE
  5
40
330
1E
100
AcDbEntity
  8
0
100
AcDbLine
 10
18.2094
 20
-0.0720499999999989
 30
0.0
 11
29.71379999999999
 21
-0.14525
 31
0.0
  0
LINE
  5
41
330
1E
100
AcDbEntity
  8
0
100
AcDbLine
 10
16.0999
 20
-0.0299500000000041
 30
0.0
 11
18.2094
 21
-0.0720499999999989
 31
0.0
  0
LINE
  5
42
330
1E
100
AcDbEntity
  8
0
100
AcDbLine
 10
14.6041
 20
0.5909500000000029
 30
0.0
 11
16.4353
 21
0.6621499999999951
 31
0.0
  0
LINE
  5
44
330
1E
100
AcDbEntity
  8
0
100
AcDbLine
 10
16.4353
 20
0.6621499999999951
 30
0.0
 11
19.1841
 21
0.7183499999999949
 31
0.0
  0
LINE
  5
45
330
1E
100
AcDbEntity
  8
0
100
AcDbLine
 10
19.1841
 20
0.7183499999999949
 30
0.0
 11
23.6158
 21
0.74235
 31
0.0
  0
LINE
  5
4F
330
1E
100
AcDbEntity
  8
0
100
AcDbLine
 10
12.6066
 20
10.53144999999999
 30
0.0
 11
16.7466
 21
10.67185
 31
0.0
  0
LINE
  5
51
330
1E
100
AcDbEntity
  8
0
100
AcDbLine
 10
23.6158
 20
0.74235
 30
0.0
 11
25.75
 21
0.7835499999999921
 31
0.0
  0
LINE
  5
53
330
1E
100
AcDbEntity
  8
0
100
AcDbLine
 10
16.7466
 20
10.67185
 30
0.0
 11
18.8016
 21
10.73804999999999
 31
0.0
  0
LINE
  5
57
330
1E
100
AcDbEntity
  8
0
100
AcDbLine
 10
18.8016
 20
10.73804999999999
 30
0.0
 11
23.59269999999999
 21
10.81835
 31
0.0
  0
LINE
  5
59
330
1E
100
AcDbEntity
  8
0
100
AcDbLine
 10
12.5281
 20
10.57355
 30
0.0
 11
12.99693129179909
 21
10.54418047633999
 31
0.0
  0
LINE
  5
5F
330
1E
100
AcDbEntity
  8
0
100
AcDbLine
 10
25.75
 20
0.7835499999999921
 30
0.0
 11
27.8842
 21
0.74235
 31
0.0
  0
LINE
  5
64
330
1E
100
AcDbEntity
  8
0
100
AcDbLine
 10
29.71379999999999
 20
-0.14525
 30
0.0
 11
33.2906
 21
-0.0720499999999989
 31
0.0
  0
LINE
  5
65
330
1E
100
AcDbEntity
  8
0
100
AcDbLine
 10
27.8842
 20
0.74235
 30
0.0
 11
32.3159
 21
0.7183499999999949
 31
0.0
  0
LINE
  5
66
330
1E
100
AcDbEntity
  8
0
100
AcDbLine
 10
33.2906
 20
-0.0720499999999989
 30
0.0
 11
35.4001
 21
-0.0299500000000041
 31
0.0
  0
LINE
  5
67
330
1E
100
AcDbEntity
  8
0
100
AcDbLine
 10
35.4001
 20
-0.0299500000000041
 30
0.0
 11
37.9799
 21
0.081449999999997
 31
0.0
  0
LINE
  5
69
330
1E
100
AcDbEntity
  8
0
100
AcDbLine
 10
36.89589999999999
 20
0.5909500000000029
 30
0.0
 11
38.55859999999999
 21
0.499649999999994
 31
0.0
  0
LINE
  5
6A
330
1E
100
AcDbEntity
  8
0
100
AcDbLine
 10
35.0647
 20
0.6621499999999951
 30
0.0
 11
36.89589999999999
 21
0.5909500000000029
 31
0.0
  0
LINE
  5
6E
330
1E
100
AcDbEntity
  8
0
100
AcDbLine
 10
32.3159
 20
0.7183499999999949
 30
0.0
 11
35.0647
 21
0.6621499999999951
 31
0.0
  0
LINE
  5
6F
330
1E
100
AcDbEntity
  8
0
100
AcDbLine
 10
37.9799
 20
0.081449999999997
 30
0.0
 11
39.0023
 21
0.166649999999987
 31
0.0
  0
LINE
  5
75
330
1E
100
AcDbEntity
  8
0
100
AcDbLine
 10
39.0023
 20
0.166649999999987
 30
0.0
 11
39.5812
 21
0.246949999999991
 31
0.0
  0
LINE
  5
78
330
1E
100
AcDbEntity
  8
0
100
AcDbLine
 10
39.5812
 20
0.246949999999991
 30
0.0
 11
40.12739999999999
 21
0.487649999999996
 31
0.0
  0
LINE
  5
7A
330
1E
100
AcDbEntity
  8
0
100
AcDbLine
 10
38.55859999999999
 20
0.499649999999994
 30
0.0
 11
39.5979
 21
0.326149999999995
 31
0.0
  0
LINE
  5
7C
330
1E
100
AcDbEntity
  8
0
100
AcDbLine
 10
38.8934
 20
10.53144999999999
 30
0.0
 11
40.1998
 21
10.33285
 31
0.0
  0
LINE
  5
7D
330
1E
100
AcDbEntity
  8
0
100
AcDbLine
 10
38.50303908644109
 20
10.54418144244019
 30
0.0
 11
38.9719
 21
10.57355
 31
0.0
  0
LINE
  5
85
330
1E
100
AcDbEntity
  8
0
100
AcDbLine
 10
34.7534
 20
10.67185
 30
0.0
 11
38.8934
 21
10.53144999999999
 31
0.0
  0
LINE
  5
87
330
1E
100
AcDbEntity
  8
0
100
AcDbLine
 10
38.9719
 20
10.57355
 30
0.0
 11
39.7479
 21
10.64375
 31
0.0
  0
LINE
  5
88
330
1E
100
AcDbEntity
  8
0
100
AcDbLine
 10
40.12739999999999
 20
0.487649999999996
 30
0.0
 11
40.2305
 21
0.5839499999999991
 31
0.0
  0
LINE
  5
89
330
1E
100
AcDbEntity
  8
0
100
AcDbLine
 10
40.1998
 20
10.33285
 30
0.0
 11
40.2305
 21
0.5839499999999991
 31
0.0
  0
LINE
  5
8D
330
1E
100
AcDbEntity
  8
0
100
AcDbLine
 10
39.7479
 20
10.64375
 30
0.0
 11
40.16599999999999
 21
10.71805
 31
0.0
  0
LINE
  5
8E
330
1E
100
AcDbEntity
  8
0
100
AcDbLine
 10
32.6984
 20
10.73804999999999
 30
0.0
 11
34.7534
 21
10.67185
 31
0.0
  0
LINE
  5
90
330
1E
100
AcDbEntity
  8
0
100
AcDbLine
 10
27.90729999999999
 20
10.81835
 30
0.0
 11
32.6984
 21
10.73804999999999
 31
0.0
  0
LINE
  5
91
330
1E
100
AcDbEntity
  8
0
100
AcDbLine
 10
40.16599999999999
 20
10.71805
 30
0.0
 11
40.2644
 21
10.82335
 31
0.0
  0
LINE
  5
97
330
1E
100
AcDbEntity
  8
0
100
AcDbLine
 10
13.2474
 20
11.02894999999999
 30
0.0
 11
14.5294
 21
11.09015
 31
0.0
  0
LINE
  5
99
330
1E
100
AcDbEntity
  8
0
100
AcDbLine
 10
14.5294
 20
11.09015
 30
0.0
 11
16.0374
 21
11.14424999999999
 31
0.0
  0
LINE
  5
9A
330
1E
100
AcDbEntity
  8
0
100
AcDbLine
 10
16.0374
 20
11.14424999999999
 30
0.0
 11
18.4127
 21
11.20245
 31
0.0
  0
LINE
  5
9D
330
1E
100
AcDbEntity
  8
0
100
AcDbLine
 10
25.75
 20
10.83435
 30
0.0
 11
27.90729999999999
 21
10.81835
 31
0.0
  0
LINE
  5
A0
330
1E
100
AcDbEntity
  8
0
100
AcDbLine
 10
39.49329999999999
 20
10.93865
 30
0.0
 11
40.2644
 21
10.82335
 31
0.0
  0
LINE
  5
A1
330
1E
100
AcDbEntity
  8
0
100
AcDbLine
 10
38.2525
 20
11.02894999999999
 30
0.0
 11
39.49329999999999
 21
10.93865
 31
0.0
  0
LINE
  5
A2
330
1E
100
AcDbEntity
  8
0
100
AcDbLine
 10
36.9706
 20
11.09015
 30
0.0
 11
38.2525
 21
11.02894999999999
 31
0.0
  0
LINE
  5
A3
330
1E
100
AcDbEntity
  8
0
100
AcDbLine
 10
35.4626
 20
11.14424999999999
 30
0.0
 11
36.9706
 21
11.09015
 31
0.0
  0
LINE
  5
A5
330
1E
100
AcDbEntity
  8
0
100
AcDbLine
 10
33.0873
 20
11.20245
 30
0.0
 11
35.4626
 21
11.14424999999999
 31
0.0
  0
LINE
  5
A8
330
1E
100
AcDbEntity
  8
0
100
AcDbLine
 10
30.4037
 20
11.24454999999999
 30
0.0
 11
33.0873
 21
11.20245
 31
0.0
  0
LINE
  5
AA
330
1E
100
AcDbEntity
  8
0
100
AcDbLine
 10
18.4127
 20
11.20245
 30
0.0
 11
21.0963
 21
11.24454999999999
 31
0.0
  0
LINE
  5
AB
330
1E
100
AcDbEntity
  8
0
100
AcDbLine
 10
25.75
 20
11.26964999999999
 30
0.0
 11
28.2556
 21
11.26265
 31
0.0
  0
LINE
  5
AC
330
1E
100
AcDbEntity
  8
0
100
AcDbLine
 10
28.2556
 20
11.26265
 30
0.0
 11
30.4037
 21
11.24454999999999
 31
0.0
  0
LINE
  5
AD
330
1E
100
AcDbEntity
  8
0
100
AcDbLine
 10
39.11419999999999
 20
26.61625
 30
0.0
 11
39.83679999999999
 21
24.60024999999999
 31
0.0
  0
LINE
  5
AE
330
1E
100
AcDbEntity
  8
0
100
AcDbLine
 10
40.2593
 20
22.04064999999999
 30
0.0
 11
40.2644
 21
10.82335
 31
0.0
  0
LINE
  5
AF
330
1E
100
AcDbEntity
  8
0
100
AcDbLine
 10
39.83679999999999
 20
24.60024999999999
 30
0.0
 11
40.2593
 21
22.04064999999999
 31
0.0
  0
LINE
  5
B0
330
1E
100
AcDbEntity
  8
0
100
AcDbLine
 10
39.57319082857699
 20
26.7455217453368
 30
0.0
 11
40.26359999999999
 21
26.81335
 31
0.0
  0
LINE
  5
B1
330
1E
100
AcDbEntity
  8
0
100
AcDbLine
 10
39.1546
 20
26.68945
 30
0.0
 11
39.57319082857722
 21
26.74552174533681
 31
0.0
  0
LINE
  5
B2
330
1E
100
AcDbEntity
  8
0
100
AcDbLine
 10
39.07765921060679
 20
26.68452944474839
 30
0.0
 11
39.1546
 21
26.68945
 31
0.0
  0
LINE
  5
B4
330
1E
100
AcDbEntity
  8
0
100
AcDbLine
 10
40.46999999999999
 20
26.89265
 30
0.0
 11
40.5925
 21
27.14535
 31
0.0
  0
LINE
  5
B5
330
1E
100
AcDbEntity
  8
0
100
AcDbLine
 10
40.26359999999999
 20
26.81335
 30
0.0
 11
40.46999999999999
 21
26.89265
 31
0.0
  0
LINE
  5
B6
330
1E
100
AcDbEntity
  8
0
100
AcDbLine
 10
23.2444
 20
11.26265
 30
0.0
 11
25.75
 21
11.26964999999999
 31
0.0
  0
LINE
  5
B7
330
1E
100
AcDbEntity
  8
0
100
AcDbLine
 10
21.0963
 20
11.24454999999999
 30
0.0
 11
23.2444
 21
11.26265
 31
0.0
  0
LINE
  5
B8
330
1E
100
AcDbEntity
  8
0
100
AcDbLine
 10
12.3858
 20
26.61625
 30
0.0
 11
12.6057371035798
 21
27.0272204131026
 31
0.0
  0
LINE
  5
B9
330
1E
100
AcDbEntity
  8
0
100
AcDbLine
 10
12.3858
 20
26.61625
 30
0.0
 11
12.6057371035798
 21
27.0272204131026
 31
0.0
  0
LINE
  5
BB
330
1E
100
AcDbEntity
  8
0
100
AcDbLine
 10
23.59269999999999
 20
10.81835
 30
0.0
 11
25.75
 21
10.83435
 31
0.0
  0
LINE
  5
BC
330
1E
100
AcDbEntity
  8
0
100
AcDbLine
 10
12.34539999999999
 20
26.68945
 30
0.0
 11
12.42234078939319
 21
26.68452944474839
 31
0.0
  0
LINE
  5
BD
330
1E
100
AcDbEntity
  8
0
100
AcDbLine
 10
38.8942628964202
 20
27.0272204131026
 30
0.0
 11
39.11419999999999
 21
26.61625
 31
0.0
  0
LINE
  5
C2
330
1E
100
AcDbEntity
  8
0
100
AcDbLine
 10
40.5925
 20
27.14535
 30
0.0
 11
42.10659999999999
 21
78.58825
 31
0.0
  0
LINE
  5
C3
330
1E
100
AcDbEntity
  8
0
100
AcDbLine
 10
31.4494
 20
27.28775
 30
0.0
 11
34.7521
 21
27.19625
 31
0.0
  0
LINE
  5
C4
330
1E
100
AcDbEntity
  8
0
100
AcDbLine
 10
34.7521
 20
27.19625
 30
0.0
 11
38.8942628964202
 21
27.0272204131026
 31
0.0
  0
LINE
  5
C6
330
1E
100
AcDbEntity
  8
0
100
AcDbLine
 10
16.7479
 20
27.19625
 30
0.0
 11
20.05059999999999
 21
27.28775
 31
0.0
  0
LINE
  5
C7
330
1E
100
AcDbEntity
  8
0
100
AcDbLine
 10
12.6057371035798
 20
27.0272204131026
 30
0.0
 11
16.7479
 21
27.19625
 31
0.0
  0
LINE
  5
CC
330
1E
100
AcDbEntity
  8
0
100
AcDbLine
 10
27.9714
 20
27.29975
 30
0.0
 11
31.4494
 21
27.28775
 31
0.0
  0
LINE
  5
CD
330
1E
100
AcDbEntity
  8
0
100
AcDbLine
 10
20.05059999999999
 20
27.28775
 30
0.0
 11
23.5286
 21
27.29975
 31
0.0
  0
LINE
  5
CE
330
1E
100
AcDbEntity
  8
0
100
AcDbLine
 10
11.02999999999999
 20
26.89265
 30
0.0
 11
11.23639999999999
 21
26.81335
 31
0.0
  0
LINE
  5
D2
330
1E
100
AcDbEntity
  8
0
100
AcDbLine
 10
9.39338
 20
78.58825
 30
0.0
 11
10.9075
 21
27.14535
 31
0.0
  0
LINE
  5
DB
330
1E
100
AcDbEntity
  8
0
100
AcDbLine
 10
42.10659999999999
 20
78.58825
 30
0.0
 11
42.5754
 21
94.54625
 31
0.0
  0
LINE
  5
DC
330
1E
100
AcDbEntity
  8
0
100
AcDbLine
 10
25.75
 20
27.32325
 30
0.0
 11
27.9714
 21
27.29975
 31
0.0
  0
LINE
  5
DE
330
1E
100
AcDbEntity
  8
0
100
AcDbLine
 10
23.5286
 20
27.29975
 30
0.0
 11
25.75
 21
27.32325
 31
0.0
  0
LINE
  5
DF
330
1E
100
AcDbEntity
  8
0
100
AcDbLine
 10
43.75
 20
86.79925
 30
0.0
 11
47.8
 21
92.12425000000001
 31
0.0
  0
LINE
  5
E1
330
1E
100
AcDbEntity
  8
0
100
AcDbLine
 10
42.3157702694261
 20
85.7084273880142
 30
0.0
 11
43.75
 21
86.79925
 31
0.0
  0
LINE
  5
E2
330
1E
100
AcDbEntity
  8
0
100
AcDbLine
 10
45.64119999999999
 20
93.29625
 30
0.0
 11
46.05414128822149
 21
94.29925
 31
0.0
  0
LINE
  5
E3
330
1E
100
AcDbEntity
  8
0
100
AcDbLine
 10
42.4181963988765
 20
89.1950233218257
 30
0.0
 11
45.64119999999999
 21
93.29625
 31
0.0
  0
LINE
  5
E5
330
1E
100
AcDbEntity
  8
0
100
AcDbLine
 10
47.8
 20
92.12425000000001
 30
0.0
 11
48.7018292682927
 21
94.29925
 31
0.0
  0
LINE
  5
E6
330
1E
100
AcDbEntity
  8
0
100
AcDbLine
 10
42.5681438526131
 20
94.29925
 30
0.0
 11
50.1731
 21
94.29925
 31
0.0
  0
LINE
  5
E7
330
1E
100
AcDbEntity
  8
0
100
AcDbLine
 10
50.1731
 20
94.29925
 30
0.0
 11
50.55769999999999
 21
94.54925000000001
 31
0.0
  0
LINE
  5
E8
330
1E
100
AcDbEntity
  8
0
100
AcDbLine
 10
42.5681438526131
 20
94.29925
 30
0.0
 11
50.1731
 21
94.29925
 31
0.0
  0
LINE
  5
EA
330
1E
100
AcDbEntity
  8
0
100
AcDbLine
 10
7.75
 20
86.79925
 30
0.0
 11
9.184218401094698
 21
85.7084360048012
 31
0.0
  0
LINE
  5
EB
330
1E
100
AcDbEntity
  8
0
100
AcDbLine
 10
7.75
 20
86.79925
 30
0.0
 11
9.184218401094698
 21
85.7084360048012
 31
0.0
  0
LINE
  5
EC
330
1E
100
AcDbEntity
  8
0
100
AcDbLine
 10
5.85876
 20
93.29625
 30
0.0
 11
9.081796831073811
 21
89.1950254804473
 31
0.0
  0
LINE
  5
ED
330
1E
100
AcDbEntity
  8
0
100
AcDbLine
 10
42.5754
 20
94.54625
 30
0.0
 11
43.0013
 21
106.6512499999999
 31
0.0
  0
LINE
  5
EE
330
1E
100
AcDbEntity
  8
0
100
AcDbLine
 10
8.924599999999999
 20
94.54625
 30
0.0
 11
9.39338
 21
78.58825
 31
0.0
  0
LINE
  5
EF
330
1E
100
AcDbEntity
  8
0
100
AcDbLine
 10
50.55769999999999
 20
96.79925
 30
0.0
 11
50.55769999999999
 21
99.44925000000001
 31
0.0
  0
LINE
  5
F0
330
1E
100
AcDbEntity
  8
0
100
AcDbLine
 10
50.55769999999999
 20
96.79925
 30
0.0
 11
50.55769999999999
 21
95.14924999999999
 31
0.0
  0
LINE
  5
F1
330
1E
100
AcDbEntity
  8
0
100
AcDbLine
 10
50.55769999999999
 20
95.14924999999999
 30
0.0
 11
50.55769999999999
 21
96.79925
 31
0.0
  0
LINE
  5
F2
330
1E
100
AcDbEntity
  8
0
100
AcDbLine
 10
50.55769999999999
 20
95.14924999999999
 30
0.0
 11
50.55769999999999
 21
94.54925000000001
 31
0.0
  0
LINE
  5
F3
330
1E
100
AcDbEntity
  8
0
100
AcDbLine
 10
50.75
 20
97.24925
 30
0.0
 11
50.75
 21
99.79925000000001
 31
0.0
  0
LINE
  5
F4
330
1E
100
AcDbEntity
  8
0
100
AcDbLine
 10
50.75
 20
97.24925
 30
0.0
 11
50.75
 21
95.64925
 31
0.0
  0
LINE
  5
F5
330
1E
100
AcDbEntity
  8
0
100
AcDbLine
 10
50.75
 20
95.64925
 30
0.0
 11
50.75
 21
97.24925
 31
0.0
  0
LINE
  5
F6
330
1E
100
AcDbEntity
  8
0
100
AcDbLine
 10
50.75
 20
95.64925
 30
0.0
 11
50.75
 21
95.04925
 31
0.0
  0
LINE
  5
F7
330
1E
100
AcDbEntity
  8
0
100
AcDbLine
 10
50.75
 20
95.04925
 30
0.0
 11
50.75
 21
95.64925
 31
0.0
  0
LINE
  5
F8
330
1E
100
AcDbEntity
  8
0
100
AcDbLine
 10
50.55769999999999
 20
94.54925000000001
 30
0.0
 11
50.75
 21
95.04925
 31
0.0
  0
LINE
  5
F9
330
1E
100
AcDbEntity
  8
0
100
AcDbLine
 10
50.55769999999999
 20
94.54925000000001
 30
0.0
 11
50.55769999999999
 21
95.14924999999999
 31
0.0
  0
LINE
  5
FA
330
1E
100
AcDbEntity
  8
0
100
AcDbLine
 10
1.149999999999999
 20
98.27424999999999
 30
0.0
 11
3.7
 21
92.12425000000001
 31
0.0
  0
LINE
  5
FB
330
1E
100
AcDbEntity
  8
0
100
AcDbLine
 10
50.75
 20
95.29925
 30
0.0
 11
51.75
 21
95.29925
 31
0.0
  0
LINE
  5
FC
330
1E
100
AcDbEntity
  8
0
100
AcDbLine
 10
51.75
 20
94.38425
 30
0.0
 11
68.75
 21
94.38425
 31
0.0
  0
LINE
  5
FD
330
1E
100
AcDbEntity
  8
0
100
AcDbLine
 10
51.75
 20
94.38425
 30
0.0
 11
51.75
 21
95.29925
 31
0.0
  0
LINE
  5
FE
330
1E
100
AcDbEntity
  8
0
100
AcDbLine
 10
51.75
 20
94.55724999999999
 30
0.0
 11
51.75
 21
94.38425
 31
0.0
  0
LINE
  5
FF
330
1E
100
AcDbEntity
  8
0
100
AcDbLine
 10
0.249999999999997
 20
104.79925
 30
0.0
 11
1.149999999999999
 21
98.27424999999999
 31
0.0
  0
LINE
  5
100
330
1E
100
AcDbEntity
  8
0
100
AcDbLine
 10
0.249999999999997
 20
104.79925
 30
0.0
 11
0.249999999999997
 21
117.7992499999999
 31
0.0
  0
LINE
  5
103
330
1E
100
AcDbEntity
  8
0
100
AcDbLine
 10
2.75
 20
104.79925
 30
0.0
 11
3.58325
 21
98.82325000000001
 31
0.0
  0
LINE
  5
104
330
1E
100
AcDbEntity
  8
0
100
AcDbLine
 10
3.58325
 20
98.82325000000001
 30
0.0
 11
5.85876
 21
93.29625
 31
0.0
  0
LINE
  5
105
330
1E
100
AcDbEntity
  8
0
100
AcDbLine
 10
50.75
 20
99.79925000000001
 30
0.0
 11
50.75
 21
107.09925
 31
0.0
  0
LINE
  5
106
330
1E
100
AcDbEntity
  8
0
100
AcDbLine
 10
50.75
 20
99.79925000000001
 30
0.0
 11
50.75
 21
97.24925
 31
0.0
  0
LINE
  5
107
330
1E
100
AcDbEntity
  8
0
100
AcDbLine
 10
50.55769999999999
 20
99.44925000000001
 30
0.0
 11
50.55769999999999
 21
102.94925
 31
0.0
  0
LINE
  5
108
330
1E
100
AcDbEntity
  8
0
100
AcDbLine
 10
50.55769999999999
 20
99.44925000000001
 30
0.0
 11
50.55769999999999
 21
96.79925
 31
0.0
  0
LINE
  5
109
330
1E
100
AcDbEntity
  8
0
100
AcDbLine
 10
50.75
 20
107.09925
 30
0.0
 11
50.75
 21
99.79925000000001
 31
0.0
  0
LINE
  5
10A
330
1E
100
AcDbEntity
  8
0
100
AcDbLine
 10
50.55769999999999
 20
102.94925
 30
0.0
 11
50.55769999999999
 21
106.99925
 31
0.0
  0
LINE
  5
10B
330
1E
100
AcDbEntity
  8
0
100
AcDbLine
 10
50.55769999999999
 20
102.94925
 30
0.0
 11
50.55769999999999
 21
99.44925000000001
 31
0.0
  0
LINE
  5
110
330
1E
100
AcDbEntity
  8
0
100
AcDbLine
 10
8.498669999999998
 20
106.6512499999999
 30
0.0
 11
8.924599999999999
 21
94.54625
 31
0.0
  0
LINE
  5
111
330
1E
100
AcDbEntity
  8
0
100
AcDbLine
 10
50.75
 20
107.09925
 30
0.0
 11
50.75
 21
111.29925
 31
0.0
  0
LINE
  5
112
330
1E
100
AcDbEntity
  8
0
100
AcDbLine
 10
50.55769999999999
 20
106.99925
 30
0.0
 11
50.55769999999999
 21
111.29925
 31
0.0
  0
LINE
  5
113
330
1E
100
AcDbEntity
  8
0
100
AcDbLine
 10
50.55769999999999
 20
106.99925
 30
0.0
 11
50.55769999999999
 21
102.94925
 31
0.0
  0
LINE
  5
114
330
1E
100
AcDbEntity
  8
0
100
AcDbLine
 10
50.75
 20
111.29925
 30
0.0
 11
50.75
 21
115.49925
 31
0.0
  0
LINE
  5
115
330
1E
100
AcDbEntity
  8
0
100
AcDbLine
 10
50.75
 20
111.29925
 30
0.0
 11
50.75
 21
107.09925
 31
0.0
  0
LINE
  5
117
330
1E
100
AcDbEntity
  8
0
100
AcDbLine
 10
43.0013
 20
106.6512499999999
 30
0.0
 11
43.3968
 21
113.76025
 31
0.0
  0
LINE
  5
118
330
1E
100
AcDbEntity
  8
0
100
AcDbLine
 10
8.103239999999999
 20
113.76025
 30
0.0
 11
8.498669999999998
 21
106.6512499999999
 31
0.0
  0
LINE
  5
119
330
1E
100
AcDbEntity
  8
0
100
AcDbLine
 10
8.103239999999999
 20
113.76025
 30
0.0
 11
8.498669999999998
 21
106.6512499999999
 31
0.0
  0
LINE
  5
11A
330
1E
100
AcDbEntity
  8
0
100
AcDbLine
 10
50.55769999999999
 20
111.29925
 30
0.0
 11
50.55769999999999
 21
115.5992499999999
 31
0.0
  0
LINE
  5
11B
330
1E
100
AcDbEntity
  8
0
100
AcDbLine
 10
50.55769999999999
 20
111.29925
 30
0.0
 11
50.55769999999999
 21
106.99925
 31
0.0
  0
LINE
  5
11F
330
1E
100
AcDbEntity
  8
0
100
AcDbLine
 10
51.75
 20
109.81425
 30
0.0
 11
51.75
 21
105.38225
 31
0.0
  0
LINE
  5
120
330
1E
100
AcDbEntity
  8
0
100
AcDbLine
 10
51.75
 20
105.38225
 30
0.0
 11
51.75
 21
101.56525
 31
0.0
  0
LINE
  5
121
330
1E
100
AcDbEntity
  8
0
100
AcDbLine
 10
51.75
 20
101.56525
 30
0.0
 11
51.75
 21
98.31625
 31
0.0
  0
LINE
  5
122
330
1E
100
AcDbEntity
  8
0
100
AcDbLine
 10
51.75
 20
98.31625
 30
0.0
 11
51.75
 21
95.9122499999999
 31
0.0
  0
LINE
  5
123
330
1E
100
AcDbEntity
  8
0
100
AcDbLine
 10
51.75
 20
95.9122499999999
 30
0.0
 11
51.75
 21
94.55724999999999
 31
0.0
  0
LINE
  5
124
330
1E
100
AcDbEntity
  8
0
100
AcDbLine
 10
0.249999999999997
 20
117.7992499999999
 30
0.0
 11
1.149999999999999
 21
124.32425
 31
0.0
  0
LINE
  5
125
330
1E
100
AcDbEntity
  8
0
100
AcDbLine
 10
0.249999999999997
 20
117.7992499999999
 30
0.0
 11
0.249999999999997
 21
104.79925
 31
0.0
  0
LINE
  5
126
330
1E
100
AcDbEntity
  8
0
100
AcDbLine
 10
2.75
 20
117.7992499999999
 30
0.0
 11
3.58325
 21
123.77525
 31
0.0
  0
LINE
  5
127
330
1E
100
AcDbEntity
  8
0
100
AcDbLine
 10
2.75
 20
117.7992499999999
 30
0.0
 11
2.75
 21
104.79925
 31
0.0
  0
LINE
  5
128
330
1E
100
AcDbEntity
  8
0
100
AcDbLine
 10
50.75
 20
115.49925
 30
0.0
 11
50.75
 21
119.39925
 31
0.0
  0
LINE
  5
129
330
1E
100
AcDbEntity
  8
0
100
AcDbLine
 10
50.75
 20
115.49925
 30
0.0
 11
50.75
 21
111.29925
 31
0.0
  0
LINE
  5
133
330
1E
100
AcDbEntity
  8
0
100
AcDbLine
 10
50.75
 20
119.39925
 30
0.0
 11
50.75
 21
122.79925
 31
0.0
  0
LINE
  5
134
330
1E
100
AcDbEntity
  8
0
100
AcDbLine
 10
50.75
 20
119.39925
 30
0.0
 11
50.75
 21
115.49925
 31
0.0
  0
LINE
  5
135
330
1E
100
AcDbEntity
  8
0
100
AcDbLine
 10
50.55769999999999
 20
119.6492499999999
 30
0.0
 11
50.55769999999999
 21
123.1492499999999
 31
0.0
  0
LINE
  5
136
330
1E
100
AcDbEntity
  8
0
100
AcDbLine
 10
50.55769999999999
 20
119.6492499999999
 30
0.0
 11
50.55769999999999
 21
115.5992499999999
 31
0.0
  0
LINE
  5
137
330
1E
100
AcDbEntity
  8
0
100
AcDbLine
 10
50.55769999999999
 20
115.5992499999999
 30
0.0
 11
50.55769999999999
 21
119.6492499999999
 31
0.0
  0
LINE
  5
138
330
1E
100
AcDbEntity
  8
0
100
AcDbLine
 10
50.55769999999999
 20
115.5992499999999
 30
0.0
 11
50.55769999999999
 21
111.29925
 31
0.0
  0
LINE
  5
13B
330
1E
100
AcDbEntity
  8
0
100
AcDbLine
 10
51.75
 20
114.25125
 30
0.0
 11
53.8221
 21
118.5172499999999
 31
0.0
  0
LINE
  5
13C
330
1E
100
AcDbEntity
  8
0
100
AcDbLine
 10
51.75
 20
114.25125
 30
0.0
 11
51.75
 21
109.81425
 31
0.0
  0
LINE
  5
13D
330
1E
100
AcDbEntity
  8
0
100
AcDbLine
 10
56.1454
 20
94.38425
 30
0.0
 11
56.1454
 21
94.33424999999999
 31
0.0
  0
LINE
  5
13E
330
1E
100
AcDbEntity
  8
0
100
AcDbLine
 10
56.1454
 20
94.33424999999999
 30
0.0
 11
56.1454
 21
94.38425
 31
0.0
  0
LINE
  5
13F
330
1E
100
AcDbEntity
  8
0
100
AcDbLine
 10
56.1454
 20
94.33424999999999
 30
0.0
 11
56.62485205479459
 21
94.38425
 31
0.0
  0
LINE
  5
140
330
1E
100
AcDbEntity
  8
0
100
AcDbLine
 10
55.4454
 20
96.65525
 30
0.0
 11
56.1454
 21
96.48725
 31
0.0
  0
LINE
  5
141
330
1E
100
AcDbEntity
  8
0
100
AcDbLine
 10
55.1454
 20
97.04725000000001
 30
0.0
 11
55.4454
 21
97.44025
 31
0.0
  0
LINE
  5
142
330
1E
100
AcDbEntity
  8
0
100
AcDbLine
 10
55.1454
 20
97.04725000000001
 30
0.0
 11
55.4454
 21
96.65525
 31
0.0
  0
LINE
  5
143
330
1E
100
AcDbEntity
  8
0
100
AcDbLine
 10
56.8454
 20
96.65525
 30
0.0
 11
57.1454
 21
97.04725000000001
 31
0.0
  0
LINE
  5
144
330
1E
100
AcDbEntity
  8
0
100
AcDbLine
 10
56.1454
 20
96.48725
 30
0.0
 11
56.8454
 21
96.65525
 31
0.0
  0
LINE
  5
145
330
1E
100
AcDbEntity
  8
0
100
AcDbLine
 10
55.4454
 20
97.44025
 30
0.0
 11
56.1454
 21
97.60825
 31
0.0
  0
LINE
  5
146
330
1E
100
AcDbEntity
  8
0
100
AcDbLine
 10
56.1454
 20
97.60825
 30
0.0
 11
56.8454
 21
97.44025
 31
0.0
  0
LINE
  5
147
330
1E
100
AcDbEntity
  8
0
100
AcDbLine
 10
56.8454
 20
97.44025
 30
0.0
 11
57.1454
 21
97.04725000000001
 31
0.0
  0
LINE
  5
148
330
1E
100
AcDbEntity
  8
0
100
AcDbLine
 10
55.6659479452054
 20
94.38425
 30
0.0
 11
56.1454
 21
94.33424999999999
 31
0.0
  0
LINE
  5
149
330
1E
100
AcDbEntity
  8
0
100
AcDbLine
 10
53.8221
 20
118.5172499999999
 30
0.0
 11
55.8105
 21
122.31525
 31
0.0
  0
LINE
  5
14A
330
1E
100
AcDbEntity
  8
0
100
AcDbLine
 10
50.75
 20
122.79925
 30
0.0
 11
50.75
 21
119.39925
 31
0.0
  0
LINE
  5
14B
330
1E
100
AcDbEntity
  8
0
100
AcDbLine
 10
50.75
 20
122.79925
 30
0.0
 11
50.75
 21
127.54925
 31
0.0
  0
LINE
  5
14C
330
1E
100
AcDbEntity
  8
0
100
AcDbLine
 10
50.55769999999999
 20
123.1492499999999
 30
0.0
 11
50.55769999999999
 21
119.6492499999999
 31
0.0
  0
LINE
  5
14D
330
1E
100
AcDbEntity
  8
0
100
AcDbLine
 10
50.55769999999999
 20
123.1492499999999
 30
0.0
 11
50.55769999999999
 21
125.79925
 31
0.0
  0
LINE
  5
14E
330
1E
100
AcDbEntity
  8
0
100
AcDbLine
 10
50.75
 20
127.54925
 30
0.0
 11
50.75
 21
122.79925
 31
0.0
  0
LINE
  5
14F
330
1E
100
AcDbEntity
  8
0
100
AcDbLine
 10
50.55769999999999
 20
125.79925
 30
0.0
 11
50.55769999999999
 21
127.44925
 31
0.0
  0
LINE
  5
150
330
1E
100
AcDbEntity
  8
0
100
AcDbLine
 10
50.55769999999999
 20
125.79925
 30
0.0
 11
50.55769999999999
 21
123.1492499999999
 31
0.0
  0
LINE
  5
151
330
1E
100
AcDbEntity
  8
0
100
AcDbLine
 10
1.149999999999999
 20
124.32425
 30
0.0
 11
3.7
 21
130.47425
 31
0.0
  0
LINE
  5
152
330
1E
100
AcDbEntity
  8
0
100
AcDbLine
 10
3.58325
 20
123.77525
 30
0.0
 11
5.85876
 21
129.3022499999999
 31
0.0
  0
LINE
  5
153
330
1E
100
AcDbEntity
  8
0
100
AcDbLine
 10
57.25
 20
126.79925
 30
0.0
 11
58.1052635146714
 21
126.371618242664
 31
0.0
  0
LINE
  5
154
330
1E
100
AcDbEntity
  8
0
100
AcDbLine
 10
55.8105
 20
122.31525
 30
0.0
 11
57.4176
 21
125.2422499999999
 31
0.0
  0
LINE
  5
155
330
1E
100
AcDbEntity
  8
0
100
AcDbLine
 10
57.4176
 20
125.2422499999999
 30
0.0
 11
58.6433
 21
127.2552499999999
 31
0.0
  0
LINE
  5
156
330
1E
100
AcDbEntity
  8
0
100
AcDbLine
 10
50.55769999999999
 20
127.44925
 30
0.0
 11
50.55769999999999
 21
128.04925
 31
0.0
  0
LINE
  5
157
330
1E
100
AcDbEntity
  8
0
100
AcDbLine
 10
50.55769999999999
 20
127.44925
 30
0.0
 11
50.55769999999999
 21
125.79925
 31
0.0
  0
LINE
  5
158
330
1E
100
AcDbEntity
  8
0
100
AcDbLine
 10
39.7471179321486
 20
128.2992499999999
 30
0.0
 11
50.1731
 21
128.2992499999999
 31
0.0
  0
LINE
  5
159
330
1E
100
AcDbEntity
  8
0
100
AcDbLine
 10
50.55769999999999
 20
128.04925
 30
0.0
 11
50.75
 21
127.54925
 31
0.0
  0
LINE
  5
15A
330
1E
100
AcDbEntity
  8
0
100
AcDbLine
 10
50.55769999999999
 20
128.04925
 30
0.0
 11
50.55769999999999
 21
127.44925
 31
0.0
  0
LINE
  5
15B
330
1E
100
AcDbEntity
  8
0
100
AcDbLine
 10
45.64119999999999
 20
129.3022499999999
 30
0.0
 11
46.05414128822149
 21
128.2992499999999
 31
0.0
  0
LINE
  5
15C
330
1E
100
AcDbEntity
  8
0
100
AcDbLine
 10
50.1731
 20
128.2992499999999
 30
0.0
 11
50.55769999999999
 21
128.04925
 31
0.0
  0
LINE
  5
15D
330
1E
100
AcDbEntity
  8
0
100
AcDbLine
 10
39.7471179321486
 20
128.2992499999999
 30
0.0
 11
50.1731
 21
128.2992499999999
 31
0.0
  0
LINE
  5
15F
330
1E
100
AcDbEntity
  8
0
100
AcDbLine
 10
3.7
 20
130.47425
 30
0.0
 11
7.75
 21
135.7992499999999
 31
0.0
  0
LINE
  5
161
330
1E
100
AcDbEntity
  8
0
100
AcDbLine
 10
7.75
 20
135.7992499999999
 30
0.0
 11
13.075
 21
139.84925
 31
0.0
  0
LINE
  5
166
330
1E
100
AcDbEntity
  8
0
100
AcDbLine
 10
27.75
 20
135.518
 30
0.0
 11
27.75
 21
138.35425
 31
0.0
  0
LINE
  5
167
330
1E
100
AcDbEntity
  8
0
100
AcDbLine
 10
23.75
 20
135.129111111111
 30
0.0
 11
23.75
 21
138.35425
 31
0.0
  0
LINE
  5
168
330
1E
100
AcDbEntity
  8
0
100
AcDbLine
 10
41.95
 20
133.9992499999999
 30
0.0
 11
45.64119999999999
 21
129.3022499999999
 31
0.0
  0
LINE
  5
16A
330
1E
100
AcDbEntity
  8
0
100
AcDbLine
 10
37.2526
 20
137.6902499999999
 30
0.0
 11
41.95
 21
133.9992499999999
 31
0.0
  0
LINE
  5
16B
330
1E
100
AcDbEntity
  8
0
100
AcDbLine
 10
43.75
 20
135.7992499999999
 30
0.0
 11
47.8
 21
130.47425
 31
0.0
  0
LINE
  5
16C
330
1E
100
AcDbEntity
  8
0
100
AcDbLine
 10
47.8
 20
130.47425
 30
0.0
 11
48.7018292682927
 21
128.2992499999999
 31
0.0
  0
LINE
  5
16D
330
1E
100
AcDbEntity
  8
0
100
AcDbLine
 10
13.075
 20
139.84925
 30
0.0
 11
19.225
 21
142.3992499999999
 31
0.0
  0
LINE
  5
16E
330
1E
100
AcDbEntity
  8
0
100
AcDbLine
 10
19.225
 20
142.3992499999999
 30
0.0
 11
23.75
 21
143.0233879310339
 31
0.0
  0
LINE
  5
16F
330
1E
100
AcDbEntity
  8
0
100
AcDbLine
 10
23.75
 20
138.95425
 30
0.0
 11
23.75
 21
138.35425
 31
0.0
  0
LINE
  5
170
330
1E
100
AcDbEntity
  8
0
100
AcDbLine
 10
23.75
 20
138.95425
 30
0.0
 11
23.75
 21
139.90725
 31
0.0
  0
LINE
  5
171
330
1E
100
AcDbEntity
  8
0
100
AcDbLine
 10
23.75
 20
138.35425
 30
0.0
 11
23.75
 21
138.95425
 31
0.0
  0
LINE
  5
172
330
1E
100
AcDbEntity
  8
0
100
AcDbLine
 10
23.75
 20
138.35425
 30
0.0
 11
23.75
 21
135.129111111111
 31
0.0
  0
LINE
  5
173
330
1E
100
AcDbEntity
  8
0
100
AcDbLine
 10
27.75
 20
139.90725
 30
0.0
 11
27.75
 21
138.95425
 31
0.0
  0
LINE
  5
174
330
1E
100
AcDbEntity
  8
0
100
AcDbLine
 10
27.75
 20
139.90725
 30
0.0
 11
27.75
 21
141.15025
 31
0.0
  0
LINE
  5
175
330
1E
100
AcDbEntity
  8
0
100
AcDbLine
 10
27.75
 20
138.95425
 30
0.0
 11
27.75
 21
138.35425
 31
0.0
  0
LINE
  5
176
330
1E
100
AcDbEntity
  8
0
100
AcDbLine
 10
27.75
 20
138.95425
 30
0.0
 11
27.75
 21
139.90725
 31
0.0
  0
LINE
  5
177
330
1E
100
AcDbEntity
  8
0
100
AcDbLine
 10
27.75
 20
138.35425
 30
0.0
 11
27.75
 21
135.518
 31
0.0
  0
LINE
  5
178
330
1E
100
AcDbEntity
  8
0
100
AcDbLine
 10
27.75
 20
138.35425
 30
0.0
 11
27.75
 21
138.95425
 31
0.0
  0
LINE
  5
179
330
1E
100
AcDbEntity
  8
0
100
AcDbLine
 10
23.75
 20
139.90725
 30
0.0
 11
23.75
 21
141.15025
 31
0.0
  0
LINE
  5
17A
330
1E
100
AcDbEntity
  8
0
100
AcDbLine
 10
23.75
 20
139.90725
 30
0.0
 11
23.75
 21
138.95425
 31
0.0
  0
LINE
  5
17B
330
1E
100
AcDbEntity
  8
0
100
AcDbLine
 10
27.75
 20
141.15025
 30
0.0
 11
27.75
 21
142.59725
 31
0.0
  0
LINE
  5
17C
330
1E
100
AcDbEntity
  8
0
100
AcDbLine
 10
27.75
 20
141.15025
 30
0.0
 11
27.75
 21
139.90725
 31
0.0
  0
LINE
  5
17D
330
1E
100
AcDbEntity
  8
0
100
AcDbLine
 10
27.75
 20
142.59725
 30
0.0
 11
27.75
 21
141.15025
 31
0.0
  0
LINE
  5
17E
330
1E
100
AcDbEntity
  8
0
100
AcDbLine
 10
27.75
 20
142.59725
 30
0.0
 11
27.75
 21
144.15025
 31
0.0
  0
LINE
  5
17F
330
1E
100
AcDbEntity
  8
0
100
AcDbLine
 10
23.75
 20
142.59725
 30
0.0
 11
23.75
 21
144.15025
 31
0.0
  0
LINE
  5
180
330
1E
100
AcDbEntity
  8
0
100
AcDbLine
 10
23.75
 20
142.59725
 30
0.0
 11
23.75
 21
141.15025
 31
0.0
  0
LINE
  5
181
330
1E
100
AcDbEntity
  8
0
100
AcDbLine
 10
23.75
 20
141.15025
 30
0.0
 11
23.75
 21
139.90725
 31
0.0
  0
LINE
  5
182
330
1E
100
AcDbEntity
  8
0
100
AcDbLine
 10
23.75
 20
141.15025
 30
0.0
 11
23.75
 21
142.59725
 31
0.0
  0
LINE
  5
183
330
1E
100
AcDbEntity
  8
0
100
AcDbLine
 10
27.75
 20
140.520472871103
 30
0.0
 11
31.7261
 21
139.96625
 31
0.0
  0
LINE
  5
184
330
1E
100
AcDbEntity
  8
0
100
AcDbLine
 10
31.7261
 20
139.96625
 30
0.0
 11
37.2526
 21
137.6902499999999
 31
0.0
  0
LINE
  5
186
330
1E
100
AcDbEntity
  8
0
100
AcDbLine
 10
38.42499999999999
 20
139.84925
 30
0.0
 11
43.75
 21
135.7992499999999
 31
0.0
  0
LINE
  5
187
330
1E
100
AcDbEntity
  8
0
100
AcDbLine
 10
32.275
 20
142.3992499999999
 30
0.0
 11
38.42499999999999
 21
139.84925
 31
0.0
  0
LINE
  5
189
330
1E
100
AcDbEntity
  8
0
100
AcDbLine
 10
21.846
 20
161.15025
 30
0.0
 11
21.98999999999999
 21
161.15025
 31
0.0
  0
LINE
  5
18D
330
1E
100
AcDbEntity
  8
0
100
AcDbLine
 10
21.75
 20
160.90025
 30
0.0
 11
21.846
 21
161.15025
 31
0.0
  0
LINE
  5
18E
330
1E
100
AcDbEntity
  8
0
100
AcDbLine
 10
21.75
 20
160.90025
 30
0.0
 11
21.75
 21
149.1502499999999
 31
0.0
  0
LINE
  5
190
330
1E
100
AcDbEntity
  8
0
100
AcDbLine
 10
21.75
 20
149.1502499999999
 30
0.0
 11
23.75
 21
146.1502499999999
 31
0.0
  0
LINE
  5
191
330
1E
100
AcDbEntity
  8
0
100
AcDbLine
 10
21.75
 20
149.1502499999999
 30
0.0
 11
21.75
 21
160.90025
 31
0.0
  0
LINE
  5
192
330
1E
100
AcDbEntity
  8
0
100
AcDbLine
 10
23.75
 20
144.15025
 30
0.0
 11
23.75
 21
146.1502499999999
 31
0.0
  0
LINE
  5
193
330
1E
100
AcDbEntity
  8
0
100
AcDbLine
 10
23.75
 20
144.15025
 30
0.0
 11
23.75
 21
142.59725
 31
0.0
  0
LINE
  5
19A
330
1E
100
AcDbEntity
  8
0
100
AcDbLine
 10
25.75
 20
146.1502499999999
 30
0.0
 11
26.27
 21
146.1502499999999
 31
0.0
  0
LINE
  5
19E
330
1E
100
AcDbEntity
  8
0
100
AcDbLine
 10
26.27
 20
146.1502499999999
 30
0.0
 11
26.75
 21
146.1502499999999
 31
0.0
  0
LINE
  5
1A0
330
1E
100
AcDbEntity
  8
0
100
AcDbLine
 10
26.75
 20
146.1502499999999
 30
0.0
 11
27.14999999999999
 21
146.1502499999999
 31
0.0
  0
LINE
  5
1A1
330
1E
100
AcDbEntity
  8
0
100
AcDbLine
 10
27.75
 20
144.15025
 30
0.0
 11
27.75
 21
146.1502499999999
 31
0.0
  0
LINE
  5
1A2
330
1E
100
AcDbEntity
  8
0
100
AcDbLine
 10
27.75
 20
144.15025
 30
0.0
 11
27.75
 21
142.59725
 31
0.0
  0
LINE
  5
1A4
330
1E
100
AcDbEntity
  8
0
100
AcDbLine
 10
27.14999999999999
 20
146.1502499999999
 30
0.0
 11
27.46999999999999
 21
146.1502499999999
 31
0.0
  0
LINE
  5
1A7
330
1E
100
AcDbEntity
  8
0
100
AcDbLine
 10
27.46999999999999
 20
146.1502499999999
 30
0.0
 11
27.67
 21
146.1502499999999
 31
0.0
  0
LINE
  5
1A9
330
1E
100
AcDbEntity
  8
0
100
AcDbLine
 10
27.75
 20
146.1502499999999
 30
0.0
 11
29.75
 21
149.1502499999999
 31
0.0
  0
LINE
  5
1AA
330
1E
100
AcDbEntity
  8
0
100
AcDbLine
 10
27.75
 20
146.1502499999999
 30
0.0
 11
27.75
 21
144.15025
 31
0.0
  0
LINE
  5
1AC
330
1E
100
AcDbEntity
  8
0
100
AcDbLine
 10
27.67
 20
146.1502499999999
 30
0.0
 11
27.75
 21
146.1502499999999
 31
0.0
  0
LINE
  5
1AE
330
1E
100
AcDbEntity
  8
0
100
AcDbLine
 10
25.23
 20
146.1502499999999
 30
0.0
 11
25.75
 21
146.1502499999999
 31
0.0
  0
LINE
  5
1B0
330
1E
100
AcDbEntity
  8
0
100
AcDbLine
 10
24.75
 20
146.1502499999999
 30
0.0
 11
25.23
 21
146.1502499999999
 31
0.0
  0
LINE
  5
1B2
330
1E
100
AcDbEntity
  8
0
100
AcDbLine
 10
24.35
 20
146.1502499999999
 30
0.0
 11
24.75
 21
146.1502499999999
 31
0.0
  0
LINE
  5
1B3
330
1E
100
AcDbEntity
  8
0
100
AcDbLine
 10
24.03
 20
146.1502499999999
 30
0.0
 11
24.35
 21
146.1502499999999
 31
0.0
  0
LINE
  5
1B4
330
1E
100
AcDbEntity
  8
0
100
AcDbLine
 10
23.83
 20
146.1502499999999
 30
0.0
 11
24.03
 21
146.1502499999999
 31
0.0
  0
LINE
  5
1B5
330
1E
100
AcDbEntity
  8
0
100
AcDbLine
 10
21.98999999999999
 20
161.15025
 30
0.0
 11
22.374
 21
161.15025
 31
0.0
  0
LINE
  5
1BA
330
1E
100
AcDbEntity
  8
0
100
AcDbLine
 10
29.75
 20
149.1502499999999
 30
0.0
 11
29.75
 21
160.90025
 31
0.0
  0
LINE
  5
1CA
330
1E
100
AcDbEntity
  8
0
100
AcDbLine
 10
22.374
 20
161.15025
 30
0.0
 11
22.998
 21
161.15025
 31
0.0
  0
LINE
  5
1CB
330
1E
100
AcDbEntity
  8
0
100
AcDbLine
 10
22.998
 20
161.15025
 30
0.0
 11
23.814
 21
161.15025
 31
0.0
  0
LINE
  5
1CC
330
1E
100
AcDbEntity
  8
0
100
AcDbLine
 10
23.814
 20
161.15025
 30
0.0
 11
24.74199999999999
 21
161.15025
 31
0.0
  0
LINE
  5
1D1
330
1E
100
AcDbEntity
  8
0
100
AcDbLine
 10
25.75
 20
161.15025
 30
0.0
 11
26.758
 21
161.15025
 31
0.0
  0
LINE
  5
1D2
330
1E
100
AcDbEntity
  8
0
100
AcDbLine
 10
29.75
 20
160.90025
 30
0.0
 11
29.75
 21
149.1502499999999
 31
0.0
  0
LINE
  5
1DB
330
1E
100
AcDbEntity
  8
0
100
AcDbLine
 10
29.654
 20
161.15025
 30
0.0
 11
29.75
 21
160.90025
 31
0.0
  0
LINE
  5
1DD
330
1E
100
AcDbEntity
  8
0
100
AcDbLine
 10
29.51
 20
161.15025
 30
0.0
 11
29.654
 21
161.15025
 31
0.0
  0
LINE
  5
1DF
330
1E
100
AcDbEntity
  8
0
100
AcDbLine
 10
29.12599999999999
 20
161.15025
 30
0.0
 11
29.51
 21
161.15025
 31
0.0
  0
LINE
  5
1E1
330
1E
100
AcDbEntity
  8
0
100
AcDbLine
 10
28.502
 20
161.15025
 30
0.0
 11
29.12599999999999
 21
161.15025
 31
0.0
  0
LINE
  5
1E3
330
1E
100
AcDbEntity
  8
0
100
AcDbLine
 10
27.686
 20
161.15025
 30
0.0
 11
28.502
 21
161.15025
 31
0.0
  0
LINE
  5
1E5
330
1E
100
AcDbEntity
  8
0
100
AcDbLine
 10
26.758
 20
161.15025
 30
0.0
 11
27.686
 21
161.15025
 31
0.0
  0
LINE
  5
1EB
330
1E
100
AcDbEntity
  8
0
100
AcDbLine
 10
24.74199999999999
 20
161.15025
 30
0.0
 11
25.75
 21
161.15025
 31
0.0
  0
LINE
  5
1F1
330
1E
100
AcDbEntity
  8
0
100
AcDbLine
 10
23.75
 20
146.1502499999999
 30
0.0
 11
23.83
 21
146.1502499999999
 31
0.0
  0
LINE
  5
1F2
330
1E
100
AcDbEntity
  8
0
100
AcDbLine
 10
23.75
 20
146.1502499999999
 30
0.0
 11
23.75
 21
144.15025
 31
0.0
  0
LINE
  5
1F4
330
1E
100
AcDbEntity
  8
0
100
AcDbLine
 10
27.75
 20
143.0233879310339
 30
0.0
 11
32.275
 21
142.3992499999999
 31
0.0
  0
LINE
  5
1F5
330
1E
100
AcDbEntity
  8
0
100
AcDbLine
 10
19.7739
 20
139.96625
 30
0.0
 11
23.75
 21
140.520472871103
 31
0.0
  0
LINE
  5
1F6
330
1E
100
AcDbEntity
  8
0
100
AcDbLine
 10
14.2474
 20
137.6902499999999
 30
0.0
 11
19.7739
 21
139.96625
 31
0.0
  0
LINE
  5
1F7
330
1E
100
AcDbEntity
  8
0
100
AcDbLine
 10
9.55
 20
133.9992499999999
 30
0.0
 11
14.2474
 21
137.6902499999999
 31
0.0
  0
LINE
  5
1F8
330
1E
100
AcDbEntity
  8
0
100
AcDbLine
 10
5.85876
 20
129.3022499999999
 30
0.0
 11
9.55
 21
133.9992499999999
 31
0.0
  0
LINE
  5
1F9
330
1E
100
AcDbEntity
  8
0
100
AcDbLine
 10
55.25
 20
127.2992499999999
 30
0.0
 11
57.25
 21
126.79925
 31
0.0
  0
LINE
  5
1FA
330
1E
100
AcDbEntity
  8
0
100
AcDbLine
 10
50.75
 20
127.2992499999999
 30
0.0
 11
55.25
 21
127.2992499999999
 31
0.0
  0
LINE
  5
1FB
330
1E
100
AcDbEntity
  8
0
100
AcDbLine
 10
58.6433
 20
127.2552499999999
 30
0.0
 11
59.4468
 21
128.21725
 31
0.0
  0
LINE
  5
1FC
330
1E
100
AcDbEntity
  8
0
100
AcDbLine
 10
75.52150000000001
 20
89.43425000000001
 30
0.0
 11
75.6722
 21
88.52225
 31
0.0
  0
LINE
  5
1FD
330
1E
100
AcDbEntity
  8
0
100
AcDbLine
 10
75.0695
 20
90.55525000000001
 30
0.0
 11
75.30049665541199
 21
90.00600952389049
 31
0.0
  0
LINE
  5
1FE
330
1E
100
AcDbEntity
  8
0
100
AcDbLine
 10
74.5744
 20
91.30025000000001
 30
0.0
 11
75.0695
 21
90.55525000000001
 31
0.0
  0
LINE
  5
1FF
330
1E
100
AcDbEntity
  8
0
100
AcDbLine
 10
73.9717
 20
92.07125000000001
 30
0.0
 11
74.5744
 21
91.30025000000001
 31
0.0
  0
LINE
  5
200
330
1E
100
AcDbEntity
  8
0
100
AcDbLine
 10
73.28079999999999
 20
92.68525
 30
0.0
 11
73.9717
 21
92.07125000000001
 31
0.0
  0
LINE
  5
201
330
1E
100
AcDbEntity
  8
0
100
AcDbLine
 10
71.6233
 20
93.74025000000001
 30
0.0
 11
72.4628
 21
93.33724999999999
 31
0.0
  0
LINE
  5
202
330
1E
100
AcDbEntity
  8
0
100
AcDbLine
 10
72.4628
 20
93.33724999999999
 30
0.0
 11
73.28079999999999
 21
92.68525
 31
0.0
  0
LINE
  5
203
330
1E
100
AcDbEntity
  8
0
100
AcDbLine
 10
70.6978
 20
94.07925
 30
0.0
 11
71.6233
 21
93.74025000000001
 31
0.0
  0
LINE
  5
204
330
1E
100
AcDbEntity
  8
0
100
AcDbLine
 10
69.75069999999999
 20
94.29125
 30
0.0
 11
70.6978
 21
94.07925
 31
0.0
  0
LINE
  5
205
330
1E
100
AcDbEntity
  8
0
100
AcDbLine
 10
68.75
 20
94.38425
 30
0.0
 11
69.75069999999999
 21
94.29125
 31
0.0
  0
LINE
  5
206
330
1E
100
AcDbEntity
  8
0
100
AcDbLine
 10
75.1771
 20
90.32524999999999
 30
0.0
 11
75.52150000000001
 21
89.43425000000001
 31
0.0
  0
LINE
  5
207
330
1E
100
AcDbEntity
  8
0
100
AcDbLine
 10
75.6722
 20
88.52225
 30
0.0
 11
75.75
 21
87.66424999999999
 31
0.0
  0
LINE
  5
20B
330
1E
100
AcDbEntity
  8
0
100
AcDbLine
 10
82.4337
 20
27.94855
 30
0.0
 11
86.05
 21
27.94954999999999
 31
0.0
  0
LINE
  5
20C
330
1E
100
AcDbEntity
  8
0
100
AcDbLine
 10
86.05
 20
27.94954999999999
 30
0.0
 11
87.05
 21
28.44805
 31
0.0
  0
LINE
  5
20F
330
1E
100
AcDbEntity
  8
0
100
AcDbLine
 10
81.41490000000001
 20
28.40675
 30
0.0
 11
82.4337
 21
27.94855
 31
0.0
  0
LINE
  5
212
330
1E
100
AcDbEntity
  8
0
100
AcDbLine
 10
87.05
 20
28.44805
 30
0.0
 11
87.55
 21
29.44435
 31
0.0
  0
LINE
  5
217
330
1E
100
AcDbEntity
  8
0
100
AcDbLine
 10
80.87609999999999
 20
29.38295
 30
0.0
 11
81.41490000000001
 21
28.40675
 31
0.0
  0
LINE
  5
21A
330
1E
100
AcDbEntity
  8
0
100
AcDbLine
 10
80.86119999999999
 20
29.45315
 30
0.0
 11
80.87609999999999
 21
29.38295
 31
0.0
  0
LINE
  5
21E
330
1E
100
AcDbEntity
  8
0
100
AcDbLine
 10
87.55
 20
29.44435
 30
0.0
 11
87.75
 21
30.93955
 31
0.0
  0
LINE
  5
224
330
1E
100
AcDbEntity
  8
0
100
AcDbLine
 10
80.60970000000001
 20
30.83735
 30
0.0
 11
80.86119999999999
 21
29.45315
 31
0.0
  0
LINE
  5
225
330
1E
100
AcDbEntity
  8
0
100
AcDbLine
 10
80.578
 20
31.43645
 30
0.0
 11
80.59409999999999
 21
31.08684999999999
 31
0.0
  0
LINE
  5
226
330
1E
100
AcDbEntity
  8
0
100
AcDbLine
 10
80.59409999999999
 20
31.08684999999999
 30
0.0
 11
80.60970000000001
 21
30.83735
 31
0.0
  0
LINE
  5
22B
330
1E
100
AcDbEntity
  8
0
100
AcDbLine
 10
80.4939
 20
33.44424999999999
 30
0.0
 11
80.578
 21
31.43645
 31
0.0
  0
LINE
  5
22E
330
1E
100
AcDbEntity
  8
0
100
AcDbLine
 10
80.41299999999999
 20
35.38045
 30
0.0
 11
80.4939
 21
33.44424999999999
 31
0.0
  0
LINE
  5
22F
330
1E
100
AcDbEntity
  8
0
100
AcDbLine
 10
80.40689999999999
 20
35.87514999999999
 30
0.0
 11
80.41299999999999
 21
35.38045
 31
0.0
  0
LINE
  5
243
330
1E
100
AcDbEntity
  8
0
100
AcDbLine
 10
80.3992
 20
36.49375
 30
0.0
 11
80.40689999999999
 21
35.87514999999999
 31
0.0
  0
LINE
  5
244
330
1E
100
AcDbEntity
  8
0
100
AcDbLine
 10
75.75
 20
87.66424999999999
 30
0.0
 11
80.3992
 21
36.49375
 31
0.0
  0
LINE
  5
249
330
1E
100
AcDbEntity
  8
0
100
AcDbLine
 10
87.75
 20
30.93955
 30
0.0
 11
87.75
 21
87.66424999999999
 31
0.0
  0
LINE
  5
24A
330
1E
100
AcDbEntity
  8
0
100
AcDbLine
 10
87.75
 20
87.66424999999999
 30
0.0
 11
87.75
 21
30.93955
 31
0.0
  0
LINE
  5
24B
330
1E
100
AcDbEntity
  8
0
100
AcDbLine
 10
87.75
 20
89.43625
 30
0.0
 11
87.75
 21
91.05124999999999
 31
0.0
  0
LINE
  5
24C
330
1E
100
AcDbEntity
  8
0
100
AcDbLine
 10
87.75
 20
89.43625
 30
0.0
 11
87.75
 21
87.66424999999999
 31
0.0
  0
LINE
  5
24D
330
1E
100
AcDbEntity
  8
0
100
AcDbLine
 10
87.75
 20
87.66424999999999
 30
0.0
 11
87.75
 21
89.43625
 31
0.0
  0
LINE
  5
259
330
1E
100
AcDbEntity
  8
0
100
AcDbLine
 10
78.86
 20
127.88725
 30
0.0
 11
80.83499999999999
 21
126.9592499999999
 31
0.0
  0
LINE
  5
25A
330
1E
100
AcDbEntity
  8
0
100
AcDbLine
 10
80.83499999999999
 20
126.9592499999999
 30
0.0
 11
82.4657
 21
125.6522499999999
 31
0.0
  0
LINE
  5
25E
330
1E
100
AcDbEntity
  8
0
100
AcDbLine
 10
82.4657
 20
125.6522499999999
 30
0.0
 11
82.6987
 21
125.40025
 31
0.0
  0
LINE
  5
261
330
1E
100
AcDbEntity
  8
0
100
AcDbLine
 10
82.6987
 20
125.40025
 30
0.0
 11
84.0802
 21
123.77625
 31
0.0
  0
LINE
  5
264
330
1E
100
AcDbEntity
  8
0
100
AcDbLine
 10
84.0802
 20
123.77625
 30
0.0
 11
85.17329999999999
 21
122.04625
 31
0.0
  0
LINE
  5
265
330
1E
100
AcDbEntity
  8
0
100
AcDbLine
 10
85.17329999999999
 20
122.04625
 30
0.0
 11
85.9797
 21
120.42125
 31
0.0
  0
LINE
  5
268
330
1E
100
AcDbEntity
  8
0
100
AcDbLine
 10
85.9797
 20
120.42125
 30
0.0
 11
86.6069
 21
118.7262499999999
 31
0.0
  0
LINE
  5
26C
330
1E
100
AcDbEntity
  8
0
100
AcDbLine
 10
86.6069
 20
118.7262499999999
 30
0.0
 11
87.05490000000001
 21
117.15425
 31
0.0
  0
LINE
  5
26D
330
1E
100
AcDbEntity
  8
0
100
AcDbLine
 10
87.3595
 20
115.67125
 30
0.0
 11
87.61039999999999
 21
114.15325
 31
0.0
  0
LINE
  5
26E
330
1E
100
AcDbEntity
  8
0
100
AcDbLine
 10
87.05490000000001
 20
117.15425
 30
0.0
 11
87.3595
 21
115.67125
 31
0.0
  0
LINE
  5
26F
330
1E
100
AcDbEntity
  8
0
100
AcDbLine
 10
87.61039999999999
 20
114.15325
 30
0.0
 11
87.71790000000001
 21
112.70525
 31
0.0
  0
LINE
  5
272
330
1E
100
AcDbEntity
  8
0
100
AcDbLine
 10
87.75
 20
91.05124999999999
 30
0.0
 11
87.75
 21
92.87325
 31
0.0
  0
LINE
  5
273
330
1E
100
AcDbEntity
  8
0
100
AcDbLine
 10
87.75
 20
91.05124999999999
 30
0.0
 11
87.75
 21
89.43625
 31
0.0
  0
LINE
  5
274
330
1E
100
AcDbEntity
  8
0
100
AcDbLine
 10
87.75
 20
92.87325
 30
0.0
 11
87.75
 21
94.76425
 31
0.0
  0
LINE
  5
275
330
1E
100
AcDbEntity
  8
0
100
AcDbLine
 10
87.75
 20
92.87325
 30
0.0
 11
87.75
 21
91.05124999999999
 31
0.0
  0
LINE
  5
276
330
1E
100
AcDbEntity
  8
0
100
AcDbLine
 10
87.75
 20
94.76425
 30
0.0
 11
87.75
 21
96.71425000000001
 31
0.0
  0
LINE
  5
277
330
1E
100
AcDbEntity
  8
0
100
AcDbLine
 10
87.75
 20
94.76425
 30
0.0
 11
87.75
 21
92.87325
 31
0.0
  0
LINE
  5
278
330
1E
100
AcDbEntity
  8
0
100
AcDbLine
 10
87.75
 20
96.71425000000001
 30
0.0
 11
87.75
 21
98.89025
 31
0.0
  0
LINE
  5
279
330
1E
100
AcDbEntity
  8
0
100
AcDbLine
 10
87.75
 20
96.71425000000001
 30
0.0
 11
87.75
 21
94.76425
 31
0.0
  0
LINE
  5
27A
330
1E
100
AcDbEntity
  8
0
100
AcDbLine
 10
87.75
 20
98.89025
 30
0.0
 11
87.75
 21
101.3432499999999
 31
0.0
  0
LINE
  5
27B
330
1E
100
AcDbEntity
  8
0
100
AcDbLine
 10
87.75
 20
98.89025
 30
0.0
 11
87.75
 21
96.71425000000001
 31
0.0
  0
LINE
  5
27C
330
1E
100
AcDbEntity
  8
0
100
AcDbLine
 10
87.75
 20
101.3432499999999
 30
0.0
 11
87.75
 21
103.88325
 31
0.0
  0
LINE
  5
27D
330
1E
100
AcDbEntity
  8
0
100
AcDbLine
 10
87.75
 20
101.3432499999999
 30
0.0
 11
87.75
 21
98.89025
 31
0.0
  0
LINE
  5
27E
330
1E
100
AcDbEntity
  8
0
100
AcDbLine
 10
87.75
 20
108.8372499999999
 30
0.0
 11
87.75
 21
111.29925
 31
0.0
  0
LINE
  5
27F
330
1E
100
AcDbEntity
  8
0
100
AcDbLine
 10
87.75
 20
108.8372499999999
 30
0.0
 11
87.75
 21
106.4732499999999
 31
0.0
  0
LINE
  5
280
330
1E
100
AcDbEntity
  8
0
100
AcDbLine
 10
87.75
 20
103.88325
 30
0.0
 11
87.75
 21
106.4732499999999
 31
0.0
  0
LINE
  5
281
330
1E
100
AcDbEntity
  8
0
100
AcDbLine
 10
87.75
 20
103.88325
 30
0.0
 11
87.75
 21
101.3432499999999
 31
0.0
  0
LINE
  5
282
330
1E
100
AcDbEntity
  8
0
100
AcDbLine
 10
87.75
 20
106.4732499999999
 30
0.0
 11
87.75
 21
108.8372499999999
 31
0.0
  0
LINE
  5
283
330
1E
100
AcDbEntity
  8
0
100
AcDbLine
 10
87.75
 20
106.4732499999999
 30
0.0
 11
87.75
 21
103.88325
 31
0.0
  0
LINE
  5
284
330
1E
100
AcDbEntity
  8
0
100
AcDbLine
 10
87.75
 20
111.29925
 30
0.0
 11
87.75
 21
108.8372499999999
 31
0.0
  0
LINE
  5
285
330
1E
100
AcDbEntity
  8
0
100
AcDbLine
 10
87.71790000000001
 20
112.70525
 30
0.0
 11
87.75
 21
111.29925
 31
0.0
  0
LINE
  5
28D
330
1E
100
AcDbEntity
  8
0
100
AcDbLine
 10
76.75
 20
128.2142499999999
 30
0.0
 11
78.86
 21
127.88725
 31
0.0
  0
LINE
  5
28E
330
1E
100
AcDbEntity
  8
0
100
AcDbLine
 10
59.4468
 20
128.21725
 30
0.0
 11
76.75
 21
128.2142499999999
 31
0.0
  0
LINE
  5
293
330
1E
100
AcDbEntity
  8
0
  6
Continuous
100
AcDbLine
 10
8.103239999999999
 20
113.76025
 30
0.0
 11
8.224827638026113
 21
118.0906732801817
 31
0.0
  0
LINE
  5
294
330
1E
100
AcDbEntity
  8
0
  6
Continuous
100
AcDbLine
 10
8.224827638026113
 20
118.0906732801817
 30
0.0
 11
9.023799939117907
 21
123.7372505677137
 31
0.0
  0
LINE
  5
295
330
1E
100
AcDbEntity
  8
0
  6
Continuous
100
AcDbLine
 10
9.023799939117907
 20
123.7372505677137
 30
0.0
 11
10.79295244357331
 21
126.8742377396218
 31
0.0
  0
LINE
  5
296
330
1E
100
AcDbEntity
  8
0
  6
Continuous
100
AcDbLine
 10
10.79295244357331
 20
126.8742377396218
 30
0.0
 11
13.18986934684835
 21
129.7260445688907
 31
0.0
  0
LINE
  5
297
330
1E
100
AcDbEntity
  8
0
  6
Continuous
100
AcDbLine
 10
13.18986934684835
 20
129.7260445688907
 30
0.0
 11
16.04334117880443
 21
131.7793452288581
 31
0.0
  0
LINE
  5
298
330
1E
100
AcDbEntity
  8
0
  6
Continuous
100
AcDbLine
 10
16.04334117880443
 20
131.7793452288581
 30
0.0
 11
19.69578531185232
 21
133.661537532003
 31
0.0
  0
LINE
  5
299
330
1E
100
AcDbEntity
  8
0
  6
Continuous
100
AcDbLine
 10
19.69578531185232
 20
133.661537532003
 30
0.0
 11
23.23409110469651
 21
134.5741156871212
 31
0.0
  0
LINE
  5
29A
330
1E
100
AcDbEntity
  8
0
  6
Continuous
100
AcDbLine
 10
23.23409110469651
 20
134.5741156871212
 30
0.0
 11
25.85928547231208
 21
134.9163327788636
 31
0.0
  0
LINE
  5
29B
330
1E
100
AcDbEntity
  8
0
  6
Continuous
100
AcDbLine
 10
25.85928547231208
 20
134.9163327788636
 30
0.0
 11
28.99810433067716
 21
134.631152058127
 31
0.0
  0
LINE
  5
29C
330
1E
100
AcDbEntity
  8
0
  6
Continuous
100
AcDbLine
 10
28.99810433067716
 20
134.631152058127
 30
0.0
 11
32.53641012352136
 21
133.661537532003
 31
0.0
  0
LINE
  5
29D
330
1E
100
AcDbEntity
  8
0
  6
Continuous
100
AcDbLine
 10
32.53641012352136
 20
133.661537532003
 30
0.0
 11
35.27574283134049
 21
132.2356343064172
 31
0.0
  0
LINE
  5
29E
330
1E
100
AcDbEntity
  8
0
  6
Continuous
100
AcDbLine
 10
35.27574283134049
 20
132.2356343064172
 30
0.0
 11
37.90093719895605
 21
130.2393696393582
 31
0.0
  0
LINE
  5
29F
330
1E
100
AcDbEntity
  8
0
  6
Continuous
100
AcDbLine
 10
37.90093719895605
 20
130.2393696393582
 30
0.0
 11
39.61302014134309
 21
128.1290326083851
 31
0.0
  0
LINE
  5
2A0
330
1E
100
AcDbEntity
  8
0
  6
Continuous
100
AcDbLine
 10
39.61302014134309
 20
128.1290326083851
 30
0.0
 11
41.6104508940723
 21
124.8209370796544
 31
0.0
  0
LINE
  5
2A1
330
1E
100
AcDbEntity
  8
0
  6
Continuous
100
AcDbLine
 10
41.6104508940723
 20
124.8209370796544
 30
0.0
 11
42.35235363309562
 21
122.3113473421279
 31
0.0
  0
LINE
  5
2A2
330
1E
100
AcDbEntity
  8
0
  6
Continuous
100
AcDbLine
 10
42.35235363309562
 20
122.3113473421279
 30
0.0
 11
43.09425637211882
 21
118.0906732801817
 31
0.0
  0
LINE
  5
2A3
330
1E
100
AcDbEntity
  8
0
  6
Continuous
100
AcDbLine
 10
43.09425637211882
 20
118.0906732801817
 30
0.0
 11
43.3968
 21
113.76025
 31
0.0
  0
ENDSEC
  0
SECTION
  2
OBJECTS
  0
DICTIONARY
  5
C
330
0
100
AcDbDictionary
281
     1
  3
ACAD_GROUP
350
D
  3
ACAD_LAYOUT
350
19
  3
ACAD_MLINESTYLE
350
16
  3
ACAD_PLOTSETTINGS
350
18
  3
ACAD_PLOTSTYLENAME
350
E
  3
AcDbVariableDictionary
350
2A6
  0
DICTIONARY
  5
D
102
{ACAD_REACTORS
330
C
102
}
330
C
100
AcDbDictionary
281
     1
  0
DICTIONARY
  5
19
102
{ACAD_REACTORS
330
C
102
}
330
C
100
AcDbDictionary
281
     1
  3
Layout1
350
1D
  3
Model
350
21
  0
DICTIONARY
  5
16
102
{ACAD_REACTORS
330
C
102
}
330
C
100
AcDbDictionary
281
     1
  3
Standard
350
17
  0
DICTIONARY
  5
18
102
{ACAD_REACTORS
330
C
102
}
330
C
100
AcDbDictionary
281
     1
  0
ACDBDICTIONARYWDFLT
  5
E
102
{ACAD_REACTORS
330
C
102
}
330
C
100
AcDbDictionary
281
     1
  3
Normal
350
F
100
AcDbDictionaryWithDefault
340
F
  0
DICTIONARY
  5
2A6
102
{ACAD_REACTORS
330
C
102
}
330
C
100
AcDbDictionary
281
     1
  3
DIMASSOC
350
2A7
  0
LAYOUT
  5
1D
102
{ACAD_REACTORS
330
19
102
}
330
19
100
AcDbPlotSettings
  1

  2
C:\Programme\AutoCAD LT 2002 Deu\plotters\DWF ePlot (optimized for plotting).pc3
  4

  6

 40
0.0
 41
0.0
 42
0.0
 43
0.0
 44
0.0
 45
0.0
 46
0.0
 47
0.0
 48
0.0
 49
0.0
140
0.0
141
0.0
142
1.0
143
1.0
 70
   688
 72
     0
 73
     0
 74
     5
  7

 75
    16
147
1.0
148
0.0
149
0.0
100
AcDbLayout
  1
Layout1
 70
     1
 71
     1
 10
0.0
 20
0.0
 11
12.0
 21
9.0
 12
0.0
 22
0.0
 32
0.0
 14
1.000000000000000E+20
 24
1.000000000000000E+20
 34
1.000000000000000E+20
 15
-1.000000000000000E+20
 25
-1.000000000000000E+20
 35
-1.000000000000000E+20
146
0.0
 13
0.0
 23
0.0
 33
0.0
 16
1.0
 26
0.0
 36
0.0
 17
0.0
 27
1.0
 37
0.0
 76
     0
330
1A
  0
LAYOUT
  5
21
102
{ACAD_REACTORS
330
19
102
}
330
19
100
AcDbPlotSettings
  1

  2
C:\Programme\AutoCAD LT 2002 Deu\plotters\DWF ePlot (optimized for plotting).pc3
  4

  6

 40
0.0
 41
0.0
 42
0.0
 43
0.0
 44
0.0
 45
0.0
 46
0.0
 47
0.0
 48
0.0
 49
0.0
140
0.0
141
0.0
142
1.0
143
1.0
 70
  1712
 72
     0
 73
     0
 74
     0
  7

 75
     0
147
1.0
148
0.0
149
0.0
100
AcDbLayout
  1
Model
 70
     1
 71
     0
 10
0.0
 20
0.0
 11
12.0
 21
9.0
 12
0.0
 22
0.0
 32
0.0
 14
0.0
 24
0.0
 34
0.0
 15
0.0
 25
0.0
 35
0.0
146
0.0
 13
0.0
 23
0.0
 33
0.0
 16
1.0
 26
0.0
 36
0.0
 17
0.0
 27
1.0
 37
0.0
 76
     0
330
1E
  0
MLINESTYLE
  5
17
102
{ACAD_REACTORS
330
16
102
}
330
16
100
AcDbMlineStyle
  2
STANDARD
 70
     0
  3

 62
   256
 51
90.0
 52
90.0
 71
     2
 49
0.5
 62
   256
  6
BYLAYER
 49
-0.5
 62
   256
  6
BYLAYER
  0
ACDBPLACEHOLDER
  5
F
102
{ACAD_REACTORS
330
E
102
}
330
E
  0
DICTIONARYVAR
  5
2A7
102
{ACAD_REACTORS
330
2A6
102
}
330
2A6
100
DictionaryVariables
280
     0
  1
1
  0
ENDSEC
  0
EOF
