  0
SECTION
  2
HEADER
  9
$ACADVER
  1
AC1015
  9
$ACADMAINTVER
 70
    13
  9
$DWGCODEPAGE
  3
ANSI_1252
  9
$INSBASE
 10
0.0
 20
0.0
 30
0.0
  9
$EXTMIN
 10
0.2500000000001137
 20
0.000000000000038
 30
0.0
  9
$EXTMAX
 10
310.7500000000001
 20
998.14
 30
0.0
  9
$LIMMIN
 10
0.0
 20
0.0
  9
$LIMMAX
 10
12.0
 20
9.0
  9
$ORTHOMODE
 70
     0
  9
$REGENMODE
 70
     1
  9
$FILLMODE
 70
     1
  9
$QTEXTMODE
 70
     0
  9
$MIRRTEXT
 70
     1
  9
$LTSCALE
 40
1.0
  9
$ATTMODE
 70
     1
  9
$TEXTSIZE
 40
0.2
  9
$TRACEWID
 40
0.05
  9
$TEXTSTYLE
  7
Standard
  9
$CLAYER
  8
0
  9
$CELTYPE
  6
Continuous
  9
$CECOLOR
 62
   256
  9
$CELTSCALE
 40
1.0
  9
$DISPSILH
 70
     0
  9
$DIMSCALE
 40
1.0
  9
$DIMASZ
 40
0.18
  9
$DIMEXO
 40
0.0625
  9
$DIMDLI
 40
0.38
  9
$DIMRND
 40
0.0
  9
$DIMDLE
 40
0.0
  9
$DIMEXE
 40
0.18
  9
$DIMTP
 40
0.0
  9
$DIMTM
 40
0.0
  9
$DIMTXT
 40
0.18
  9
$DIMCEN
 40
0.09
  9
$DIMTSZ
 40
0.0
  9
$DIMTOL
 70
     0
  9
$DIMLIM
 70
     0
  9
$DIMTIH
 70
     1
  9
$DIMTOH
 70
     1
  9
$DIMSE1
 70
     0
  9
$DIMSE2
 70
     0
  9
$DIMTAD
 70
     0
  9
$DIMZIN
 70
     0
  9
$DIMBLK
  1

  9
$DIMASO
 70
     1
  9
$DIMSHO
 70
     1
  9
$DIMPOST
  1

  9
$DIMAPOST
  1

  9
$DIMALT
 70
     0
  9
$DIMALTD
 70
     2
  9
$DIMALTF
 40
25.4
  9
$DIMLFAC
 40
1.0
  9
$DIMTOFL
 70
     0
  9
$DIMTVP
 40
0.0
  9
$DIMTIX
 70
     0
  9
$DIMSOXD
 70
     0
  9
$DIMSAH
 70
     0
  9
$DIMBLK1
  1

  9
$DIMBLK2
  1

  9
$DIMSTYLE
  2
Standard
  9
$DIMCLRD
 70
     0
  9
$DIMCLRE
 70
     0
  9
$DIMCLRT
 70
     0
  9
$DIMTFAC
 40
1.0
  9
$DIMGAP
 40
0.09
  9
$DIMJUST
 70
     0
  9
$DIMSD1
 70
     0
  9
$DIMSD2
 70
     0
  9
$DIMTOLJ
 70
     1
  9
$DIMTZIN
 70
     0
  9
$DIMALTZ
 70
     0
  9
$DIMALTTZ
 70
     0
  9
$DIMUPT
 70
     0
  9
$DIMDEC
 70
     4
  9
$DIMTDEC
 70
     4
  9
$DIMALTU
 70
     2
  9
$DIMALTTD
 70
     2
  9
$DIMTXSTY
  7
Standard
  9
$DIMAUNIT
 70
     0
  9
$DIMADEC
 70
     0
  9
$DIMALTRND
 40
0.0
  9
$DIMAZIN
 70
     0
  9
$DIMDSEP
 70
    46
  9
$DIMATFIT
 70
     3
  9
$DIMFRAC
 70
     0
  9
$DIMLDRBLK
  1

  9
$DIMLUNIT
 70
     2
  9
$DIMLWD
 70
    -2
  9
$DIMLWE
 70
    -2
  9
$DIMTMOVE
 70
     0
  9
$LUNITS
 70
     2
  9
$LUPREC
 70
     4
  9
$SKETCHINC
 40
0.1
  9
$FILLETRAD
 40
0.0
  9
$AUNITS
 70
     0
  9
$AUPREC
 70
     0
  9
$MENU
  1
.
  9
$ELEVATION
 40
0.0
  9
$PELEVATION
 40
0.0
  9
$THICKNESS
 40
0.0
  9
$LIMCHECK
 70
     0
  9
$CHAMFERA
 40
0.0
  9
$CHAMFERB
 40
0.0
  9
$CHAMFERC
 40
0.0
  9
$CHAMFERD
 40
0.0
  9
$SKPOLY
 70
     0
  9
$TDCREATE
 40
2456021.588943194
  9
$TDUCREATE
 40
2456021.505609861
  9
$TDUPDATE
 40
2456021.591097963
  9
$TDUUPDATE
 40
2456021.507764629
  9
$TDINDWG
 40
0.0011516204
  9
$TDUSRTIMER
 40
0.0011516204
  9
$USRTIMER
 70
     1
  9
$ANGBASE
 50
0.0
  9
$ANGDIR
 70
     0
  9
$PDMODE
 70
     0
  9
$PDSIZE
 40
0.0
  9
$PLINEWID
 40
0.0
  9
$SPLFRAME
 70
     0
  9
$SPLINETYPE
 70
     6
  9
$SPLINESEGS
 70
     8
  9
$HANDSEED
  5
D7F
  9
$SURFTAB1
 70
     6
  9
$SURFTAB2
 70
     6
  9
$SURFTYPE
 70
     6
  9
$SURFU
 70
     6
  9
$SURFV
 70
     6
  9
$UCSBASE
  2

  9
$UCSNAME
  2

  9
$UCSORG
 10
0.0
 20
0.0
 30
0.0
  9
$UCSXDIR
 10
1.0
 20
0.0
 30
0.0
  9
$UCSYDIR
 10
0.0
 20
1.0
 30
0.0
  9
$UCSORTHOREF
  2

  9
$UCSORTHOVIEW
 70
     1
  9
$UCSORGTOP
 10
0.0
 20
0.0
 30
0.0
  9
$UCSORGBOTTOM
 10
0.0
 20
0.0
 30
0.0
  9
$UCSORGLEFT
 10
0.0
 20
0.0
 30
0.0
  9
$UCSORGRIGHT
 10
0.0
 20
0.0
 30
0.0
  9
$UCSORGFRONT
 10
0.0
 20
0.0
 30
0.0
  9
$UCSORGBACK
 10
0.0
 20
0.0
 30
0.0
  9
$PUCSBASE
  2

  9
$PUCSNAME
  2

  9
$PUCSORG
 10
0.0
 20
0.0
 30
0.0
  9
$PUCSXDIR
 10
1.0
 20
0.0
 30
0.0
  9
$PUCSYDIR
 10
0.0
 20
1.0
 30
0.0
  9
$PUCSORTHOREF
  2

  9
$PUCSORTHOVIEW
 70
     0
  9
$PUCSORGTOP
 10
0.0
 20
0.0
 30
0.0
  9
$PUCSORGBOTTOM
 10
0.0
 20
0.0
 30
0.0
  9
$PUCSORGLEFT
 10
0.0
 20
0.0
 30
0.0
  9
$PUCSORGRIGHT
 10
0.0
 20
0.0
 30
0.0
  9
$PUCSORGFRONT
 10
0.0
 20
0.0
 30
0.0
  9
$PUCSORGBACK
 10
0.0
 20
0.0
 30
0.0
  9
$USERI1
 70
     0
  9
$USERI2
 70
     0
  9
$USERI3
 70
     0
  9
$USERI4
 70
     0
  9
$USERI5
 70
     0
  9
$USERR1
 40
0.0
  9
$USERR2
 40
0.0
  9
$USERR3
 40
0.0
  9
$USERR4
 40
0.0
  9
$USERR5
 40
0.0
  9
$WORLDVIEW
 70
     1
  9
$SHADEDGE
 70
     3
  9
$SHADEDIF
 70
    70
  9
$TILEMODE
 70
     1
  9
$MAXACTVP
 70
    64
  9
$PINSBASE
 10
0.0
 20
0.0
 30
0.0
  9
$PLIMCHECK
 70
     0
  9
$PEXTMIN
 10
1.000000000000000E+20
 20
1.000000000000000E+20
 30
1.000000000000000E+20
  9
$PEXTMAX
 10
-1.000000000000000E+20
 20
-1.000000000000000E+20
 30
-1.000000000000000E+20
  9
$PLIMMIN
 10
0.0
 20
0.0
  9
$PLIMMAX
 10
12.0
 20
9.0
  9
$UNITMODE
 70
     0
  9
$VISRETAIN
 70
     1
  9
$PLINEGEN
 70
     0
  9
$PSLTSCALE
 70
     1
  9
$TREEDEPTH
 70
  3020
  9
$CMLSTYLE
  2
Standard
  9
$CMLJUST
 70
     0
  9
$CMLSCALE
 40
1.0
  9
$PROXYGRAPHICS
 70
     1
  9
$MEASUREMENT
 70
     0
  9
$CELWEIGHT
370
    -1
  9
$ENDCAPS
280
     0
  9
$JOINSTYLE
280
     0
  9
$LWDISPLAY
290
     0
  9
$INSUNITS
 70
     0
  9
$HYPERLINKBASE
  1

  9
$STYLESHEET
  1

  9
$XEDIT
290
     1
  9
$CEPSNTYPE
380
     0
  9
$PSTYLEMODE
290
     1
  9
$FINGERPRINTGUID
  2
{571642DD-4E70-46E7-9D53-240C21BDBDCB}
  9
$VERSIONGUID
  2
{1302E8DB-E923-4C0B-9A5B-4091E1BF1AE2}
  9
$EXTNAMES
290
     1
  9
$PSVPSCALE
 40
0.0
  9
$OLESTARTUP
290
     0
  0
ENDSEC
  0
SECTION
  2
CLASSES
  0
CLASS
  1
ACDBDICTIONARYWDFLT
  2
AcDbDictionaryWithDefault
  3
AutoCAD 2000
 90
        0
280
     0
281
     0
  0
CLASS
  1
ACDBPLACEHOLDER
  2
AcDbPlaceHolder
  3
AutoCAD 2000
 90
        0
280
     0
281
     0
  0
CLASS
  1
LAYOUT
  2
AcDbLayout
  3
AutoCAD 2000
 90
        0
280
     0
281
     0
  0
CLASS
  1
DICTIONARYVAR
  2
AcDbDictionaryVar
  3
AutoCAD 2000
 90
        0
280
     0
281
     0
  0
ENDSEC
  0
SECTION
  2
TABLES
  0
TABLE
  2
VPORT
  5
8
330
0
100
AcDbSymbolTable
 70
     5
  0
VPORT
  5
D7E
330
8
100
AcDbSymbolTableRecord
100
AcDbViewportTableRecord
  2
*Active
 70
     0
 10
0.0
 20
0.0
 11
1.0
 21
1.0
 12
155.5000000000001
 22
499.07
 13
0.0
 23
0.0
 14
1.0
 24
1.0
 15
0.0
 25
0.0
 16
0.0
 26
0.0
 36
1.0
 17
0.0
 27
0.0
 37
0.0
 40
1006.527731092437
 41
2.221598877980364
 42
50.0
 43
0.0
 44
0.0
 50
0.0
 51
0.0
 71
     0
 72
   100
 73
     1
 74
     3
 75
     0
 76
     0
 77
     0
 78
     0
281
     0
 65
     1
110
0.0
120
0.0
130
0.0
111
1.0
121
0.0
131
0.0
112
0.0
122
1.0
132
0.0
 79
     1
146
0.0
  0
ENDTAB
  0
TABLE
  2
LTYPE
  5
5
330
0
100
AcDbSymbolTable
 70
     1
  0
LTYPE
  5
13
330
5
100
AcDbSymbolTableRecord
100
AcDbLinetypeTableRecord
  2
ByBlock
 70
     0
  3

 72
    65
 73
     0
 40
0.0
  0
LTYPE
  5
14
330
5
100
AcDbSymbolTableRecord
100
AcDbLinetypeTableRecord
  2
ByLayer
 70
     0
  3

 72
    65
 73
     0
 40
0.0
  0
LTYPE
  5
15
330
5
100
AcDbSymbolTableRecord
100
AcDbLinetypeTableRecord
  2
Continuous
 70
     0
  3
Solid line
 72
    65
 73
     0
 40
0.0
  0
ENDTAB
  0
TABLE
  2
LAYER
  5
2
330
0
100
AcDbSymbolTable
 70
     1
  0
LAYER
  5
10
330
2
100
AcDbSymbolTableRecord
100
AcDbLayerTableRecord
  2
0
 70
     0
 62
     7
  6
Continuous
370
    -3
390
F
  0
ENDTAB
  0
TABLE
  2
STYLE
  5
3
330
0
100
AcDbSymbolTable
 70
     1
  0
STYLE
  5
11
330
3
100
AcDbSymbolTableRecord
100
AcDbTextStyleTableRecord
  2
Standard
 70
     0
 40
0.0
 41
1.0
 50
0.0
 71
     0
 42
0.2
  3
txt
  4

  0
ENDTAB
  0
TABLE
  2
VIEW
  5
6
330
0
100
AcDbSymbolTable
 70
     0
  0
ENDTAB
  0
TABLE
  2
UCS
  5
7
330
0
100
AcDbSymbolTable
 70
     0
  0
ENDTAB
  0
TABLE
  2
APPID
  5
9
330
0
100
AcDbSymbolTable
 70
     1
  0
APPID
  5
12
330
9
100
AcDbSymbolTableRecord
100
AcDbRegAppTableRecord
  2
ACAD
 70
     0
  0
ENDTAB
  0
TABLE
  2
DIMSTYLE
  5
A
330
0
100
AcDbSymbolTable
 70
     1
100
AcDbDimStyleTable
 71
     0
  0
DIMSTYLE
105
54A
330
A
100
AcDbSymbolTableRecord
100
AcDbDimStyleTableRecord
  2
Standard
 70
     0
340
11
  0
ENDTAB
  0
TABLE
  2
BLOCK_RECORD
  5
1
330
0
100
AcDbSymbolTable
 70
     0
  0
BLOCK_RECORD
  5
1E
330
1
100
AcDbSymbolTableRecord
100
AcDbBlockTableRecord
  2
*Model_Space
340
21
  0
BLOCK_RECORD
  5
1A
330
1
100
AcDbSymbolTableRecord
100
AcDbBlockTableRecord
  2
*Paper_Space
340
1D
  0
ENDTAB
  0
ENDSEC
  0
SECTION
  2
BLOCKS
  0
BLOCK
  5
1F
330
1E
100
AcDbEntity
  8
0
100
AcDbBlockBegin
  2
*Model_Space
 70
     0
 10
0.0
 20
0.0
 30
0.0
  3
*Model_Space
  1

  0
ENDBLK
  5
20
330
1E
100
AcDbEntity
  8
0
100
AcDbBlockEnd
  0
BLOCK
  5
1B
330
1A
100
AcDbEntity
 67
     1
  8
0
100
AcDbBlockBegin
  2
*Paper_Space
 70
     0
 10
0.0
 20
0.0
 30
0.0
  3
*Paper_Space
  1

  0
ENDBLK
  5
1C
330
1A
100
AcDbEntity
 67
     1
  8
0
100
AcDbBlockEnd
  0
ENDSEC
  0
SECTION
  2
ENTITIES
  0
LINE
  5
34
330
1E
100
AcDbEntity
  8
0
100
AcDbLine
 10
161.3439999999999
 20
0.0000000000000455
 30
0.0
 11
161.803
 21
0.0000000000000455
 31
0.0
  0
LINE
  5
35
330
1E
100
AcDbEntity
  8
0
100
AcDbLine
 10
160.956
 20
0.0000000000000456
 30
0.0
 11
161.3439999999999
 21
0.0000000000000455
 31
0.0
  0
LINE
  5
36
330
1E
100
AcDbEntity
  8
0
100
AcDbLine
 10
160.6729999999999
 20
0.0000000000000456
 30
0.0
 11
160.956
 21
0.0000000000000456
 31
0.0
  0
LINE
  5
37
330
1E
100
AcDbEntity
  8
0
100
AcDbLine
 10
160.426
 20
0.0000000000000456
 30
0.0
 11
160.6729999999999
 21
0.0000000000000456
 31
0.0
  0
LINE
  5
38
330
1E
100
AcDbEntity
  8
0
100
AcDbLine
 10
160.3209999999999
 20
0.0000000000000456
 30
0.0
 11
160.426
 21
0.0000000000000456
 31
0.0
  0
LINE
  5
39
330
1E
100
AcDbEntity
  8
0
100
AcDbLine
 10
161.4149999999999
 20
13.89289999999999
 30
0.0
 11
161.874
 21
13.89289999999999
 31
0.0
  0
LINE
  5
3A
330
1E
100
AcDbEntity
  8
0
100
AcDbLine
 10
161.027
 20
13.89289999999999
 30
0.0
 11
161.4149999999999
 21
13.89289999999999
 31
0.0
  0
LINE
  5
3B
330
1E
100
AcDbEntity
  8
0
100
AcDbLine
 10
160.7439999999999
 20
13.89289999999999
 30
0.0
 11
161.027
 21
13.89289999999999
 31
0.0
  0
LINE
  5
3C
330
1E
100
AcDbEntity
  8
0
100
AcDbLine
 10
160.532
 20
13.89289999999999
 30
0.0
 11
160.7439999999999
 21
13.89289999999999
 31
0.0
  0
LINE
  5
3D
330
1E
100
AcDbEntity
  8
0
100
AcDbLine
 10
160.3909999999999
 20
13.89289999999999
 30
0.0
 11
160.532
 21
13.89289999999999
 31
0.0
  0
LINE
  5
3E
330
1E
100
AcDbEntity
  8
0
100
AcDbLine
 10
161.626
 20
14.0
 30
0.0
 11
162.05
 21
14.0
 31
0.0
  0
LINE
  5
3F
330
1E
100
AcDbEntity
  8
0
100
AcDbLine
 10
161.2729999999999
 20
14.0
 30
0.0
 11
161.626
 21
14.0
 31
0.0
  0
LINE
  5
40
330
1E
100
AcDbEntity
  8
0
100
AcDbLine
 10
160.991
 20
14.0
 30
0.0
 11
161.2729999999999
 21
14.0
 31
0.0
  0
LINE
  5
41
330
1E
100
AcDbEntity
  8
0
100
AcDbLine
 10
160.779
 20
14.0
 30
0.0
 11
160.991
 21
14.0
 31
0.0
  0
LINE
  5
42
330
1E
100
AcDbEntity
  8
0
100
AcDbLine
 10
160.638
 20
14.0
 30
0.0
 11
160.779
 21
14.0
 31
0.0
  0
LINE
  5
43
330
1E
100
AcDbEntity
  8
0
100
AcDbLine
 10
160.3559999999999
 20
13.89289999999999
 30
0.0
 11
160.6029999999999
 21
14.0
 31
0.0
  0
LINE
  5
44
330
1E
100
AcDbEntity
  8
0
100
AcDbLine
 10
160.25
 20
13.6429
 30
0.0
 11
160.25
 21
0.000000000000045
 31
0.0
  0
LINE
  5
45
330
1E
100
AcDbEntity
  8
0
100
AcDbLine
 10
160.25
 20
13.6429
 30
0.0
 11
160.3559999999999
 21
13.89289999999999
 31
0.0
  0
LINE
  5
46
330
1E
100
AcDbEntity
  8
0
100
AcDbLine
 10
160.25
 20
0.0000000000000456
 30
0.0
 11
160.3209999999999
 21
0.0000000000000456
 31
0.0
  0
LINE
  5
47
330
1E
100
AcDbEntity
  8
0
100
AcDbLine
 10
160.25
 20
0.0000000000000456
 30
0.0
 11
160.25
 21
13.6429
 31
0.0
  0
LINE
  5
48
330
1E
100
AcDbEntity
  8
0
100
AcDbLine
 10
161.874
 20
13.89289999999999
 30
0.0
 11
162.368
 21
13.89289999999999
 31
0.0
  0
LINE
  5
49
330
1E
100
AcDbEntity
  8
0
100
AcDbLine
 10
162.05
 20
14.0
 30
0.0
 11
162.5439999999999
 21
14.0
 31
0.0
  0
LINE
  5
4A
330
1E
100
AcDbEntity
  8
0
100
AcDbLine
 10
162.5439999999999
 20
14.0
 30
0.0
 11
163.0739999999999
 21
14.0
 31
0.0
  0
LINE
  5
4B
330
1E
100
AcDbEntity
  8
0
100
AcDbLine
 10
162.368
 20
13.89289999999999
 30
0.0
 11
162.932
 21
13.89289999999999
 31
0.0
  0
LINE
  5
4C
330
1E
100
AcDbEntity
  8
0
100
AcDbLine
 10
161.803
 20
0.0000000000000455
 30
0.0
 11
162.3319999999999
 21
0.0000000000000455
 31
0.0
  0
LINE
  5
4D
330
1E
100
AcDbEntity
  8
0
100
AcDbLine
 10
162.3319999999999
 20
0.0000000000000455
 30
0.0
 11
162.897
 21
0.0000000000000454
 31
0.0
  0
LINE
  5
4E
330
1E
100
AcDbEntity
  8
0
100
AcDbLine
 10
162.932
 20
13.89289999999999
 30
0.0
 11
163.532
 21
13.89289999999999
 31
0.0
  0
LINE
  5
4F
330
1E
100
AcDbEntity
  8
0
100
AcDbLine
 10
163.0739999999999
 20
14.0
 30
0.0
 11
163.673
 21
14.0
 31
0.0
  0
LINE
  5
50
330
1E
100
AcDbEntity
  8
0
100
AcDbLine
 10
163.673
 20
14.0
 30
0.0
 11
164.273
 21
14.0
 31
0.0
  0
LINE
  5
51
330
1E
100
AcDbEntity
  8
0
100
AcDbLine
 10
163.532
 20
13.89289999999999
 30
0.0
 11
164.203
 21
13.89289999999999
 31
0.0
  0
LINE
  5
52
330
1E
100
AcDbEntity
  8
0
100
AcDbLine
 10
162.897
 20
0.0000000000000454
 30
0.0
 11
163.532
 21
0.0000000000000454
 31
0.0
  0
LINE
  5
53
330
1E
100
AcDbEntity
  8
0
100
AcDbLine
 10
163.532
 20
0.0000000000000454
 30
0.0
 11
164.168
 21
0.0000000000000454
 31
0.0
  0
LINE
  5
54
330
1E
100
AcDbEntity
  8
0
100
AcDbLine
 10
164.203
 20
13.89289999999999
 30
0.0
 11
164.8379999999999
 21
13.89289999999999
 31
0.0
  0
LINE
  5
55
330
1E
100
AcDbEntity
  8
0
100
AcDbLine
 10
164.8379999999999
 20
13.89289999999999
 30
0.0
 11
165.544
 21
13.89289999999999
 31
0.0
  0
LINE
  5
56
330
1E
100
AcDbEntity
  8
0
100
AcDbLine
 10
164.273
 20
14.0
 30
0.0
 11
164.909
 21
14.0
 31
0.0
  0
LINE
  5
57
330
1E
100
AcDbEntity
  8
0
100
AcDbLine
 10
164.909
 20
14.0
 30
0.0
 11
165.544
 21
14.0
 31
0.0
  0
LINE
  5
58
330
1E
100
AcDbEntity
  8
0
100
AcDbLine
 10
165.544
 20
14.0
 30
0.0
 11
222.25
 21
14.0
 31
0.0
  0
LINE
  5
59
330
1E
100
AcDbEntity
  8
0
100
AcDbLine
 10
165.544
 20
13.89289999999999
 30
0.0
 11
222.25
 21
13.89289999999999
 31
0.0
  0
LINE
  5
5A
330
1E
100
AcDbEntity
  8
0
100
AcDbLine
 10
164.168
 20
0.0000000000000454
 30
0.0
 11
164.8379999999999
 21
0.0000000000000453
 31
0.0
  0
LINE
  5
5B
330
1E
100
AcDbEntity
  8
0
100
AcDbLine
 10
164.8379999999999
 20
0.0000000000000453
 30
0.0
 11
165.544
 21
0.0000000000000453
 31
0.0
  0
LINE
  5
5C
330
1E
100
AcDbEntity
  8
0
100
AcDbLine
 10
165.544
 20
0.0000000000000453
 30
0.0
 11
222.25
 21
0.0000000000000418
 31
0.0
  0
LINE
  5
A3
330
1E
100
AcDbEntity
  8
0
100
AcDbLine
 10
199.2499999999999
 20
14.0
 30
0.0
 11
199.2499999999999
 21
624.1399999999999
 31
0.0
  0
LINE
  5
A4
330
1E
100
AcDbEntity
  8
0
100
AcDbLine
 10
199.2499999999999
 20
14.0
 30
0.0
 11
199.2499999999999
 21
624.1399999999999
 31
0.0
  0
LINE
  5
F9
330
1E
100
AcDbEntity
  8
0
100
AcDbLine
 10
222.25
 20
14.0
 30
0.0
 11
278.9559999999999
 21
14.0
 31
0.0
  0
LINE
  5
FB
330
1E
100
AcDbEntity
  8
0
100
AcDbLine
 10
222.25
 20
13.89289999999999
 30
0.0
 11
278.9559999999999
 21
13.89289999999999
 31
0.0
  0
LINE
  5
FC
330
1E
100
AcDbEntity
  8
0
100
AcDbLine
 10
222.25
 20
0.0000000000000418
 30
0.0
 11
278.9559999999999
 21
0.0000000000000383
 31
0.0
  0
LINE
  5
1BB
330
1E
100
AcDbEntity
  8
0
100
AcDbLine
 10
244.936
 20
624.84
 30
0.0
 11
245.25
 21
624.1399999999999
 31
0.0
  0
LINE
  5
1BC
330
1E
100
AcDbEntity
  8
0
100
AcDbLine
 10
282.697
 20
0.0000000000000381
 30
0.0
 11
283.1559999999999
 21
0.0000000000000381
 31
0.0
  0
LINE
  5
1BD
330
1E
100
AcDbEntity
  8
0
100
AcDbLine
 10
283.1559999999999
 20
0.0000000000000381
 30
0.0
 11
283.544
 21
0.0000000000000381
 31
0.0
  0
LINE
  5
1BE
330
1E
100
AcDbEntity
  8
0
100
AcDbLine
 10
283.544
 20
0.0000000000000381
 30
0.0
 11
283.8269999999999
 21
0.000000000000038
 31
0.0
  0
LINE
  5
1BF
330
1E
100
AcDbEntity
  8
0
100
AcDbLine
 10
283.8269999999999
 20
0.000000000000038
 30
0.0
 11
284.0729999999999
 21
0.000000000000038
 31
0.0
  0
LINE
  5
1C0
330
1E
100
AcDbEntity
  8
0
100
AcDbLine
 10
284.179
 20
0.000000000000038
 30
0.0
 11
284.25
 21
0.000000000000038
 31
0.0
  0
LINE
  5
1C1
330
1E
100
AcDbEntity
  8
0
100
AcDbLine
 10
284.0729999999999
 20
0.000000000000038
 30
0.0
 11
284.179
 21
0.000000000000038
 31
0.0
  0
LINE
  5
1C2
330
1E
100
AcDbEntity
  8
0
100
AcDbLine
 10
284.25
 20
0.000000000000038
 30
0.0
 11
284.25
 21
13.6429
 31
0.0
  0
LINE
  5
1C3
330
1E
100
AcDbEntity
  8
0
100
AcDbLine
 10
282.168
 20
0.0000000000000381
 30
0.0
 11
282.697
 21
0.0000000000000381
 31
0.0
  0
LINE
  5
1C4
330
1E
100
AcDbEntity
  8
0
100
AcDbLine
 10
281.6029999999999
 20
0.0000000000000382
 30
0.0
 11
282.168
 21
0.0000000000000381
 31
0.0
  0
LINE
  5
1C5
330
1E
100
AcDbEntity
  8
0
100
AcDbLine
 10
280.968
 20
0.0000000000000382
 30
0.0
 11
281.6029999999999
 21
0.0000000000000382
 31
0.0
  0
LINE
  5
1C6
330
1E
100
AcDbEntity
  8
0
100
AcDbLine
 10
280.3319999999999
 20
0.0000000000000383
 30
0.0
 11
280.968
 21
0.0000000000000382
 31
0.0
  0
LINE
  5
1C7
330
1E
100
AcDbEntity
  8
0
100
AcDbLine
 10
279.662
 20
0.0000000000000383
 30
0.0
 11
280.3319999999999
 21
0.0000000000000383
 31
0.0
  0
LINE
  5
1C8
330
1E
100
AcDbEntity
  8
0
100
AcDbLine
 10
245.25
 20
14.0
 30
0.0
 11
245.25
 21
624.1399999999999
 31
0.0
  0
LINE
  5
1C9
330
1E
100
AcDbEntity
  8
0
100
AcDbLine
 10
245.25
 20
14.0
 30
0.0
 11
245.25
 21
624.1399999999999
 31
0.0
  0
LINE
  5
1E0
330
1E
100
AcDbEntity
  8
0
100
AcDbLine
 10
278.9559999999999
 20
14.0
 30
0.0
 11
279.591
 21
14.0
 31
0.0
  0
LINE
  5
1E1
330
1E
100
AcDbEntity
  8
0
100
AcDbLine
 10
282.6259999999999
 20
13.89289999999999
 30
0.0
 11
283.0849999999999
 21
13.89289999999999
 31
0.0
  0
LINE
  5
1E2
330
1E
100
AcDbEntity
  8
0
100
AcDbLine
 10
283.0849999999999
 20
13.89289999999999
 30
0.0
 11
283.474
 21
13.89289999999999
 31
0.0
  0
LINE
  5
1E3
330
1E
100
AcDbEntity
  8
0
100
AcDbLine
 10
283.474
 20
13.89289999999999
 30
0.0
 11
283.7559999999999
 21
13.89289999999999
 31
0.0
  0
LINE
  5
1E4
330
1E
100
AcDbEntity
  8
0
100
AcDbLine
 10
283.7559999999999
 20
13.89289999999999
 30
0.0
 11
283.968
 21
13.89289999999999
 31
0.0
  0
LINE
  5
1E5
330
1E
100
AcDbEntity
  8
0
100
AcDbLine
 10
283.968
 20
13.89289999999999
 30
0.0
 11
284.109
 21
13.89289999999999
 31
0.0
  0
LINE
  5
1E6
330
1E
100
AcDbEntity
  8
0
100
AcDbLine
 10
284.144
 20
13.89289999999999
 30
0.0
 11
284.25
 21
13.6429
 31
0.0
  0
LINE
  5
1E7
330
1E
100
AcDbEntity
  8
0
100
AcDbLine
 10
284.25
 20
13.6429
 30
0.0
 11
284.25
 21
0.0000000000000381
 31
0.0
  0
LINE
  5
1E8
330
1E
100
AcDbEntity
  8
0
100
AcDbLine
 10
282.132
 20
13.89289999999999
 30
0.0
 11
282.6259999999999
 21
13.89289999999999
 31
0.0
  0
LINE
  5
1E9
330
1E
100
AcDbEntity
  8
0
100
AcDbLine
 10
281.568
 20
13.89289999999999
 30
0.0
 11
282.132
 21
13.89289999999999
 31
0.0
  0
LINE
  5
1EA
330
1E
100
AcDbEntity
  8
0
100
AcDbLine
 10
280.968
 20
13.89289999999999
 30
0.0
 11
281.568
 21
13.89289999999999
 31
0.0
  0
LINE
  5
1EB
330
1E
100
AcDbEntity
  8
0
100
AcDbLine
 10
280.297
 20
13.89289999999999
 30
0.0
 11
280.968
 21
13.89289999999999
 31
0.0
  0
LINE
  5
1ED
330
1E
100
AcDbEntity
  8
0
100
AcDbLine
 10
282.45
 20
14.0
 30
0.0
 11
282.874
 21
14.0
 31
0.0
  0
LINE
  5
1EE
330
1E
100
AcDbEntity
  8
0
100
AcDbLine
 10
282.874
 20
14.0
 30
0.0
 11
283.227
 21
14.0
 31
0.0
  0
LINE
  5
1EF
330
1E
100
AcDbEntity
  8
0
100
AcDbLine
 10
283.227
 20
14.0
 30
0.0
 11
283.509
 21
14.0
 31
0.0
  0
LINE
  5
1F0
330
1E
100
AcDbEntity
  8
0
100
AcDbLine
 10
283.509
 20
14.0
 30
0.0
 11
283.721
 21
14.0
 31
0.0
  0
LINE
  5
1F1
330
1E
100
AcDbEntity
  8
0
100
AcDbLine
 10
283.721
 20
14.0
 30
0.0
 11
283.862
 21
14.0
 31
0.0
  0
LINE
  5
1F2
330
1E
100
AcDbEntity
  8
0
100
AcDbLine
 10
283.8969999999999
 20
14.0
 30
0.0
 11
284.144
 21
13.89289999999999
 31
0.0
  0
LINE
  5
1F3
330
1E
100
AcDbEntity
  8
0
100
AcDbLine
 10
281.9559999999999
 20
14.0
 30
0.0
 11
282.45
 21
14.0
 31
0.0
  0
LINE
  5
1F4
330
1E
100
AcDbEntity
  8
0
100
AcDbLine
 10
281.427
 20
14.0
 30
0.0
 11
281.9559999999999
 21
14.0
 31
0.0
  0
LINE
  5
1F5
330
1E
100
AcDbEntity
  8
0
100
AcDbLine
 10
280.8269999999999
 20
14.0
 30
0.0
 11
281.427
 21
14.0
 31
0.0
  0
LINE
  5
258
330
1E
100
AcDbEntity
  8
0
100
AcDbLine
 10
280.227
 20
14.0
 30
0.0
 11
280.8269999999999
 21
14.0
 31
0.0
  0
LINE
  5
259
330
1E
100
AcDbEntity
  8
0
100
AcDbLine
 10
279.591
 20
14.0
 30
0.0
 11
280.227
 21
14.0
 31
0.0
  0
LINE
  5
25A
330
1E
100
AcDbEntity
  8
0
100
AcDbLine
 10
279.662
 20
13.89289999999999
 30
0.0
 11
280.297
 21
13.89289999999999
 31
0.0
  0
LINE
  5
25B
330
1E
100
AcDbEntity
  8
0
100
AcDbLine
 10
278.9559999999999
 20
13.89289999999999
 30
0.0
 11
279.662
 21
13.89289999999999
 31
0.0
  0
LINE
  5
25C
330
1E
100
AcDbEntity
  8
0
100
AcDbLine
 10
278.9559999999999
 20
0.0000000000000383
 30
0.0
 11
279.662
 21
0.0000000000000383
 31
0.0
  0
LINE
  5
960
330
1E
100
AcDbEntity
  8
0
100
AcDbLine
 10
22.09637543752626
 20
884.3324492450575
 30
0.0
 11
24.88020869890067
 21
884.1899999999998
 31
0.0
  0
LINE
  5
961
330
1E
100
AcDbEntity
  8
0
100
AcDbLine
 10
18.61300124313231
 20
884.8587313688673
 30
0.0
 11
22.09637543752626
 21
884.3324492450575
 31
0.0
  0
LINE
  5
962
330
1E
100
AcDbEntity
  8
0
100
AcDbLine
 10
13.59045502548553
 20
886.3971018411985
 30
0.0
 11
18.61300124313231
 21
884.8587313688673
 31
0.0
  0
LINE
  5
963
330
1E
100
AcDbEntity
  8
0
100
AcDbLine
 10
9.256488237374583
 20
888.0569224662441
 30
0.0
 11
13.59045502548553
 21
886.3971018411985
 31
0.0
  0
LINE
  5
964
330
1E
100
AcDbEntity
  8
0
100
AcDbLine
 10
6.097145896463302
 20
889.4333556590531
 30
0.0
 11
9.256488237374583
 21
888.0569224662441
 31
0.0
  0
LINE
  5
965
330
1E
100
AcDbEntity
  8
0
100
AcDbLine
 10
3.90574000000015
 20
890.7379999999999
 30
0.0
 11
6.097145896463302
 21
889.4333556590531
 31
0.0
  0
LINE
  5
966
330
1E
100
AcDbEntity
  8
0
100
AcDbLine
 10
192.2209999999999
 20
877.1109999999998
 30
0.0
 11
196.035
 21
872.14
 31
0.0
  0
LINE
  5
967
330
1E
100
AcDbEntity
  8
0
100
AcDbLine
 10
198.4320000000001
 20
866.3519999999998
 30
0.0
 11
199.2499999999999
 21
860.1399999999999
 31
0.0
  0
LINE
  5
968
330
1E
100
AcDbEntity
  8
0
100
AcDbLine
 10
196.035
 20
872.14
 30
0.0
 11
198.4320000000001
 21
866.3519999999998
 31
0.0
  0
LINE
  5
969
330
1E
100
AcDbEntity
  8
0
100
AcDbLine
 10
244.9500000000001
 20
896.84
 30
0.0
 11
245.2500000000001
 21
896.1399999999999
 31
0.0
  0
LINE
  5
96A
330
1E
100
AcDbEntity
  8
0
100
AcDbLine
 10
244.2499999999999
 20
897.14
 30
0.0
 11
244.9500000000001
 21
896.84
 31
0.0
  0
LINE
  5
96B
330
1E
100
AcDbEntity
  8
0
100
AcDbLine
 10
310.2500000000001
 20
908.14
 30
0.0
 11
310.7500000000001
 21
908.14
 31
0.0
  0
LINE
  5
96C
330
1E
100
AcDbEntity
  8
0
100
AcDbLine
 10
310.2500000000001
 20
908.14
 30
0.0
 11
310.2500000000001
 21
912.94
 31
0.0
  0
LINE
  5
96D
330
1E
100
AcDbEntity
  8
0
100
AcDbLine
 10
310.2500000000001
 20
914.9399999999991
 30
0.0
 11
310.7500000000001
 21
914.9399999999991
 31
0.0
  0
LINE
  5
96E
330
1E
100
AcDbEntity
  8
0
100
AcDbLine
 10
310.2500000000001
 20
914.9399999999991
 30
0.0
 11
310.2500000000001
 21
919.74
 31
0.0
  0
LINE
  5
96F
330
1E
100
AcDbEntity
  8
0
100
AcDbLine
 10
310.7500000000001
 20
914.439999999999
 30
0.0
 11
310.7500000000001
 21
913.439999999999
 31
0.0
  0
LINE
  5
970
330
1E
100
AcDbEntity
  8
0
100
AcDbLine
 10
310.7500000000001
 20
914.439999999999
 30
0.0
 11
310.7500000000001
 21
914.9399999999991
 31
0.0
  0
LINE
  5
971
330
1E
100
AcDbEntity
  8
0
100
AcDbLine
 10
310.7500000000001
 20
914.9399999999991
 30
0.0
 11
310.7500000000001
 21
914.439999999999
 31
0.0
  0
LINE
  5
972
330
1E
100
AcDbEntity
  8
0
100
AcDbLine
 10
310.7500000000001
 20
921.2399999999989
 30
0.0
 11
310.7500000000001
 21
920.2399999999999
 31
0.0
  0
LINE
  5
973
330
1E
100
AcDbEntity
  8
0
100
AcDbLine
 10
310.7500000000001
 20
921.2399999999989
 30
0.0
 11
310.7500000000001
 21
921.7399999999999
 31
0.0
  0
LINE
  5
974
330
1E
100
AcDbEntity
  8
0
100
AcDbLine
 10
310.7500000000001
 20
921.7399999999999
 30
0.0
 11
310.7500000000001
 21
921.2399999999989
 31
0.0
  0
LINE
  5
975
330
1E
100
AcDbEntity
  8
0
100
AcDbLine
 10
310.7500000000001
 20
928.04
 30
0.0
 11
310.7500000000001
 21
928.54
 31
0.0
  0
LINE
  5
976
330
1E
100
AcDbEntity
  8
0
100
AcDbLine
 10
310.7500000000001
 20
928.04
 30
0.0
 11
310.7500000000001
 21
927.04
 31
0.0
  0
LINE
  5
977
330
1E
100
AcDbEntity
  8
0
100
AcDbLine
 10
310.7500000000001
 20
928.54
 30
0.0
 11
310.7500000000001
 21
928.04
 31
0.0
  0
LINE
  5
978
330
1E
100
AcDbEntity
  8
0
100
AcDbLine
 10
310.7500000000001
 20
934.8399999999999
 30
0.0
 11
310.7500000000001
 21
933.84
 31
0.0
  0
LINE
  5
979
330
1E
100
AcDbEntity
  8
0
100
AcDbLine
 10
310.7500000000001
 20
934.8399999999999
 30
0.0
 11
310.7500000000001
 21
935.34
 31
0.0
  0
LINE
  5
97A
330
1E
100
AcDbEntity
  8
0
100
AcDbLine
 10
310.7500000000001
 20
935.34
 30
0.0
 11
310.7500000000001
 21
934.8399999999999
 31
0.0
  0
LINE
  5
97B
330
1E
100
AcDbEntity
  8
0
100
AcDbLine
 10
310.7500000000001
 20
941.6399999999999
 30
0.0
 11
310.7500000000001
 21
942.14
 31
0.0
  0
LINE
  5
97C
330
1E
100
AcDbEntity
  8
0
100
AcDbLine
 10
310.7500000000001
 20
941.6399999999999
 30
0.0
 11
310.7500000000001
 21
940.639999999999
 31
0.0
  0
LINE
  5
97D
330
1E
100
AcDbEntity
  8
0
100
AcDbLine
 10
310.7500000000001
 20
942.14
 30
0.0
 11
310.7500000000001
 21
941.6399999999999
 31
0.0
  0
LINE
  5
97E
330
1E
100
AcDbEntity
  8
0
100
AcDbLine
 10
310.7500000000001
 20
948.4399999999999
 30
0.0
 11
310.7500000000001
 21
948.939999999999
 31
0.0
  0
LINE
  5
97F
330
1E
100
AcDbEntity
  8
0
100
AcDbLine
 10
310.7500000000001
 20
948.4399999999999
 30
0.0
 11
310.7500000000001
 21
947.439999999999
 31
0.0
  0
LINE
  5
980
330
1E
100
AcDbEntity
  8
0
100
AcDbLine
 10
310.7500000000001
 20
948.939999999999
 30
0.0
 11
310.7500000000001
 21
948.4399999999999
 31
0.0
  0
LINE
  5
981
330
1E
100
AcDbEntity
  8
0
100
AcDbLine
 10
310.7500000000001
 20
955.2399999999998
 30
0.0
 11
310.7500000000001
 21
954.239999999999
 31
0.0
  0
LINE
  5
982
330
1E
100
AcDbEntity
  8
0
100
AcDbLine
 10
310.7500000000001
 20
955.2399999999998
 30
0.0
 11
310.7500000000001
 21
955.739999999999
 31
0.0
  0
LINE
  5
983
330
1E
100
AcDbEntity
  8
0
100
AcDbLine
 10
310.7500000000001
 20
955.739999999999
 30
0.0
 11
310.7500000000001
 21
955.2399999999998
 31
0.0
  0
LINE
  5
984
330
1E
100
AcDbEntity
  8
0
100
AcDbLine
 10
310.7500000000001
 20
960.5400000000001
 30
0.0
 11
310.7500000000001
 21
961.04
 31
0.0
  0
LINE
  5
985
330
1E
100
AcDbEntity
  8
0
100
AcDbLine
 10
310.7500000000001
 20
961.04
 30
0.0
 11
310.7500000000001
 21
962.0400000000001
 31
0.0
  0
LINE
  5
986
330
1E
100
AcDbEntity
  8
0
100
AcDbLine
 10
310.7500000000001
 20
961.04
 30
0.0
 11
310.7500000000001
 21
960.5400000000001
 31
0.0
  0
LINE
  5
987
330
1E
100
AcDbEntity
  8
0
100
AcDbLine
 10
310.7500000000001
 20
967.8399999999999
 30
0.0
 11
310.7500000000001
 21
968.8399999999999
 31
0.0
  0
LINE
  5
988
330
1E
100
AcDbEntity
  8
0
100
AcDbLine
 10
310.7500000000001
 20
967.8399999999999
 30
0.0
 11
310.7500000000001
 21
967.34
 31
0.0
  0
LINE
  5
989
330
1E
100
AcDbEntity
  8
0
100
AcDbLine
 10
310.7500000000001
 20
968.8399999999999
 30
0.0
 11
310.7500000000001
 21
969.34
 31
0.0
  0
LINE
  5
98A
330
1E
100
AcDbEntity
  8
0
100
AcDbLine
 10
310.7500000000001
 20
968.8399999999999
 30
0.0
 11
310.7500000000001
 21
967.8399999999999
 31
0.0
  0
LINE
  5
98B
330
1E
100
AcDbEntity
  8
0
100
AcDbLine
 10
310.7500000000001
 20
969.34
 30
0.0
 11
310.7500000000001
 21
968.8399999999999
 31
0.0
  0
LINE
  5
98C
330
1E
100
AcDbEntity
  8
0
100
AcDbLine
 10
310.7500000000001
 20
975.6399999999999
 30
0.0
 11
310.7500000000001
 21
976.14
 31
0.0
  0
LINE
  5
98D
330
1E
100
AcDbEntity
  8
0
100
AcDbLine
 10
310.7500000000001
 20
975.6399999999999
 30
0.0
 11
310.7500000000001
 21
974.6399999999999
 31
0.0
  0
LINE
  5
98E
330
1E
100
AcDbEntity
  8
0
100
AcDbLine
 10
310.7500000000001
 20
976.14
 30
0.0
 11
310.7500000000001
 21
975.6399999999999
 31
0.0
  0
LINE
  5
98F
330
1E
100
AcDbEntity
  8
0
100
AcDbLine
 10
310.7500000000001
 20
974.6399999999999
 30
0.0
 11
310.7500000000001
 21
974.14
 31
0.0
  0
LINE
  5
990
330
1E
100
AcDbEntity
  8
0
100
AcDbLine
 10
310.7500000000001
 20
974.6399999999999
 30
0.0
 11
310.7500000000001
 21
975.6399999999999
 31
0.0
  0
LINE
  5
991
330
1E
100
AcDbEntity
  8
0
100
AcDbLine
 10
310.7500000000001
 20
974.14
 30
0.0
 11
310.7500000000001
 21
974.6399999999999
 31
0.0
  0
LINE
  5
992
330
1E
100
AcDbEntity
  8
0
100
AcDbLine
 10
310.7500000000001
 20
967.34
 30
0.0
 11
310.7500000000001
 21
967.8399999999999
 31
0.0
  0
LINE
  5
993
330
1E
100
AcDbEntity
  8
0
100
AcDbLine
 10
310.7500000000001
 20
962.0400000000001
 30
0.0
 11
310.7500000000001
 21
961.04
 31
0.0
  0
LINE
  5
994
330
1E
100
AcDbEntity
  8
0
100
AcDbLine
 10
310.7500000000001
 20
962.0400000000001
 30
0.0
 11
310.7500000000001
 21
962.54
 31
0.0
  0
LINE
  5
995
330
1E
100
AcDbEntity
  8
0
100
AcDbLine
 10
310.7500000000001
 20
962.54
 30
0.0
 11
310.7500000000001
 21
962.0400000000001
 31
0.0
  0
LINE
  5
996
330
1E
100
AcDbEntity
  8
0
100
AcDbLine
 10
310.7500000000001
 20
953.7399999999999
 30
0.0
 11
310.7500000000001
 21
954.239999999999
 31
0.0
  0
LINE
  5
997
330
1E
100
AcDbEntity
  8
0
100
AcDbLine
 10
310.7500000000001
 20
954.239999999999
 30
0.0
 11
310.7500000000001
 21
955.2399999999998
 31
0.0
  0
LINE
  5
998
330
1E
100
AcDbEntity
  8
0
100
AcDbLine
 10
310.7500000000001
 20
954.239999999999
 30
0.0
 11
310.7500000000001
 21
953.7399999999999
 31
0.0
  0
LINE
  5
999
330
1E
100
AcDbEntity
  8
0
100
AcDbLine
 10
310.7500000000001
 20
947.439999999999
 30
0.0
 11
310.7500000000001
 21
946.9399999999991
 31
0.0
  0
LINE
  5
99A
330
1E
100
AcDbEntity
  8
0
100
AcDbLine
 10
310.7500000000001
 20
947.439999999999
 30
0.0
 11
310.7500000000001
 21
948.4399999999999
 31
0.0
  0
LINE
  5
99B
330
1E
100
AcDbEntity
  8
0
100
AcDbLine
 10
310.7500000000001
 20
946.9399999999991
 30
0.0
 11
310.7500000000001
 21
947.439999999999
 31
0.0
  0
LINE
  5
99C
330
1E
100
AcDbEntity
  8
0
100
AcDbLine
 10
310.7500000000001
 20
940.639999999999
 30
0.0
 11
310.7500000000001
 21
940.14
 31
0.0
  0
LINE
  5
99D
330
1E
100
AcDbEntity
  8
0
100
AcDbLine
 10
310.7500000000001
 20
940.639999999999
 30
0.0
 11
310.7500000000001
 21
941.6399999999999
 31
0.0
  0
LINE
  5
99E
330
1E
100
AcDbEntity
  8
0
100
AcDbLine
 10
310.7500000000001
 20
940.14
 30
0.0
 11
310.7500000000001
 21
940.639999999999
 31
0.0
  0
LINE
  5
99F
330
1E
100
AcDbEntity
  8
0
100
AcDbLine
 10
310.7500000000001
 20
933.3400000000001
 30
0.0
 11
310.7500000000001
 21
933.84
 31
0.0
  0
LINE
  5
9A0
330
1E
100
AcDbEntity
  8
0
100
AcDbLine
 10
310.7500000000001
 20
933.84
 30
0.0
 11
310.7500000000001
 21
934.8399999999999
 31
0.0
  0
LINE
  5
9A1
330
1E
100
AcDbEntity
  8
0
100
AcDbLine
 10
310.7500000000001
 20
933.84
 30
0.0
 11
310.7500000000001
 21
933.3400000000001
 31
0.0
  0
LINE
  5
9A2
330
1E
100
AcDbEntity
  8
0
100
AcDbLine
 10
310.7500000000001
 20
927.04
 30
0.0
 11
310.7500000000001
 21
926.5400000000001
 31
0.0
  0
LINE
  5
9A3
330
1E
100
AcDbEntity
  8
0
100
AcDbLine
 10
310.7500000000001
 20
927.04
 30
0.0
 11
310.7500000000001
 21
928.04
 31
0.0
  0
LINE
  5
9A4
330
1E
100
AcDbEntity
  8
0
100
AcDbLine
 10
310.7500000000001
 20
926.5400000000001
 30
0.0
 11
310.7500000000001
 21
927.04
 31
0.0
  0
LINE
  5
9A5
330
1E
100
AcDbEntity
  8
0
100
AcDbLine
 10
310.7500000000001
 20
919.74
 30
0.0
 11
310.7500000000001
 21
920.2399999999999
 31
0.0
  0
LINE
  5
9A6
330
1E
100
AcDbEntity
  8
0
100
AcDbLine
 10
310.7500000000001
 20
920.2399999999999
 30
0.0
 11
310.7500000000001
 21
921.2399999999989
 31
0.0
  0
LINE
  5
9A7
330
1E
100
AcDbEntity
  8
0
100
AcDbLine
 10
310.7500000000001
 20
920.2399999999999
 30
0.0
 11
310.7500000000001
 21
919.74
 31
0.0
  0
LINE
  5
9A8
330
1E
100
AcDbEntity
  8
0
100
AcDbLine
 10
310.7500000000001
 20
912.94
 30
0.0
 11
310.7500000000001
 21
913.439999999999
 31
0.0
  0
LINE
  5
9A9
330
1E
100
AcDbEntity
  8
0
100
AcDbLine
 10
310.7500000000001
 20
913.439999999999
 30
0.0
 11
310.7500000000001
 21
914.439999999999
 31
0.0
  0
LINE
  5
9AA
330
1E
100
AcDbEntity
  8
0
100
AcDbLine
 10
310.7500000000001
 20
913.439999999999
 30
0.0
 11
310.7500000000001
 21
912.94
 31
0.0
  0
LINE
  5
9AB
330
1E
100
AcDbEntity
  8
0
100
AcDbLine
 10
310.2500000000001
 20
921.7399999999999
 30
0.0
 11
310.7500000000001
 21
921.7399999999999
 31
0.0
  0
LINE
  5
9AC
330
1E
100
AcDbEntity
  8
0
100
AcDbLine
 10
310.2500000000001
 20
921.7399999999999
 30
0.0
 11
310.2500000000001
 21
926.5400000000001
 31
0.0
  0
LINE
  5
9AD
330
1E
100
AcDbEntity
  8
0
100
AcDbLine
 10
310.2500000000001
 20
928.54
 30
0.0
 11
310.7500000000001
 21
928.54
 31
0.0
  0
LINE
  5
9AE
330
1E
100
AcDbEntity
  8
0
100
AcDbLine
 10
310.2500000000001
 20
928.54
 30
0.0
 11
310.2500000000001
 21
933.3400000000001
 31
0.0
  0
LINE
  5
9AF
330
1E
100
AcDbEntity
  8
0
100
AcDbLine
 10
310.2500000000001
 20
935.34
 30
0.0
 11
310.7500000000001
 21
935.34
 31
0.0
  0
LINE
  5
9B0
330
1E
100
AcDbEntity
  8
0
100
AcDbLine
 10
310.2500000000001
 20
935.34
 30
0.0
 11
310.2500000000001
 21
940.14
 31
0.0
  0
LINE
  5
9B1
330
1E
100
AcDbEntity
  8
0
100
AcDbLine
 10
310.2500000000001
 20
942.14
 30
0.0
 11
310.7500000000001
 21
942.14
 31
0.0
  0
LINE
  5
9B2
330
1E
100
AcDbEntity
  8
0
100
AcDbLine
 10
310.2500000000001
 20
942.14
 30
0.0
 11
310.2500000000001
 21
946.9399999999991
 31
0.0
  0
LINE
  5
9B3
330
1E
100
AcDbEntity
  8
0
100
AcDbLine
 10
310.2500000000001
 20
948.939999999999
 30
0.0
 11
310.7500000000001
 21
948.939999999999
 31
0.0
  0
LINE
  5
9B4
330
1E
100
AcDbEntity
  8
0
100
AcDbLine
 10
310.2500000000001
 20
948.939999999999
 30
0.0
 11
310.2500000000001
 21
953.7399999999999
 31
0.0
  0
LINE
  5
9B5
330
1E
100
AcDbEntity
  8
0
100
AcDbLine
 10
310.2500000000001
 20
955.739999999999
 30
0.0
 11
310.7500000000001
 21
955.739999999999
 31
0.0
  0
LINE
  5
9B6
330
1E
100
AcDbEntity
  8
0
100
AcDbLine
 10
310.2500000000001
 20
955.739999999999
 30
0.0
 11
310.2500000000001
 21
960.5400000000001
 31
0.0
  0
LINE
  5
9B7
330
1E
100
AcDbEntity
  8
0
100
AcDbLine
 10
310.2500000000001
 20
969.34
 30
0.0
 11
310.7500000000001
 21
969.34
 31
0.0
  0
LINE
  5
9B8
330
1E
100
AcDbEntity
  8
0
100
AcDbLine
 10
310.2500000000001
 20
969.34
 30
0.0
 11
310.2500000000001
 21
974.14
 31
0.0
  0
LINE
  5
9B9
330
1E
100
AcDbEntity
  8
0
100
AcDbLine
 10
310.2500000000001
 20
976.14
 30
0.0
 11
310.7500000000001
 21
976.14
 31
0.0
  0
LINE
  5
9BA
330
1E
100
AcDbEntity
  8
0
100
AcDbLine
 10
310.2500000000001
 20
976.14
 30
0.0
 11
310.2500000000001
 21
977.64
 31
0.0
  0
LINE
  5
9BB
330
1E
100
AcDbEntity
  8
0
100
AcDbLine
 10
309.2500000000001
 20
978.1399999999999
 30
0.0
 11
310.2500000000001
 21
978.64
 31
0.0
  0
LINE
  5
9BC
330
1E
100
AcDbEntity
  8
0
100
AcDbLine
 10
309.2500000000001
 20
978.1399999999999
 30
0.0
 11
310.2500000000001
 21
977.64
 31
0.0
  0
LINE
  5
9BD
330
1E
100
AcDbEntity
  8
0
100
AcDbLine
 10
310.2500000000001
 20
978.64
 30
0.0
 11
310.2500000000001
 21
997.6399999999991
 31
0.0
  0
LINE
  5
9BE
330
1E
100
AcDbEntity
  8
0
100
AcDbLine
 10
309.7500000000001
 20
998.14
 30
0.0
 11
310.2500000000001
 21
997.6399999999991
 31
0.0
  0
LINE
  5
9BF
330
1E
100
AcDbEntity
  8
0
100
AcDbLine
 10
309.85
 20
978.64
 30
0.0
 11
310.2500000000001
 21
978.64
 31
0.0
  0
LINE
  5
9C0
330
1E
100
AcDbEntity
  8
0
100
AcDbLine
 10
310.2500000000001
 20
997.6399999999991
 30
0.0
 11
310.2500000000001
 21
978.64
 31
0.0
  0
LINE
  5
9C1
330
1E
100
AcDbEntity
  8
0
100
AcDbLine
 10
308.6500000000002
 20
978.64
 30
0.0
 11
309.85
 21
978.64
 31
0.0
  0
LINE
  5
9C2
330
1E
100
AcDbEntity
  8
0
100
AcDbLine
 10
309.85
 20
997.6399999999991
 30
0.0
 11
310.2500000000001
 21
997.6399999999991
 31
0.0
  0
LINE
  5
9C3
330
1E
100
AcDbEntity
  8
0
100
AcDbLine
 10
308.6500000000002
 20
997.6399999999991
 30
0.0
 11
309.85
 21
997.6399999999991
 31
0.0
  0
LINE
  5
9C4
330
1E
100
AcDbEntity
  8
0
100
AcDbLine
 10
309.35
 20
998.14
 30
0.0
 11
309.7500000000001
 21
998.14
 31
0.0
  0
LINE
  5
9C5
330
1E
100
AcDbEntity
  8
0
100
AcDbLine
 10
308.2500000000001
 20
998.14
 30
0.0
 11
309.35
 21
998.14
 31
0.0
  0
LINE
  5
9C6
330
1E
100
AcDbEntity
  8
0
100
AcDbLine
 10
306.3500000000001
 20
998.14
 30
0.0
 11
308.2500000000001
 21
998.14
 31
0.0
  0
LINE
  5
9C7
330
1E
100
AcDbEntity
  8
0
100
AcDbLine
 10
298.2499999999999
 20
998.14
 30
0.0
 11
301.2500000000001
 21
998.14
 31
0.0
  0
LINE
  5
9C8
330
1E
100
AcDbEntity
  8
0
100
AcDbLine
 10
301.2500000000001
 20
998.14
 30
0.0
 11
303.9499999999999
 21
998.14
 31
0.0
  0
LINE
  5
9C9
330
1E
100
AcDbEntity
  8
0
100
AcDbLine
 10
303.9499999999999
 20
998.14
 30
0.0
 11
306.3500000000001
 21
998.14
 31
0.0
  0
LINE
  5
9CA
330
1E
100
AcDbEntity
  8
0
100
AcDbLine
 10
295.25
 20
998.14
 30
0.0
 11
298.2499999999999
 21
998.14
 31
0.0
  0
LINE
  5
9CB
330
1E
100
AcDbEntity
  8
0
100
AcDbLine
 10
292.55
 20
998.14
 30
0.0
 11
295.25
 21
998.14
 31
0.0
  0
LINE
  5
9CC
330
1E
100
AcDbEntity
  8
0
100
AcDbLine
 10
290.15
 20
998.14
 30
0.0
 11
292.55
 21
998.14
 31
0.0
  0
LINE
  5
9CD
330
1E
100
AcDbEntity
  8
0
100
AcDbLine
 10
286.7500000000001
 20
998.14
 30
0.0
 11
287.1499999999999
 21
998.14
 31
0.0
  0
LINE
  5
9CE
330
1E
100
AcDbEntity
  8
0
100
AcDbLine
 10
287.1499999999999
 20
998.14
 30
0.0
 11
288.2499999999999
 21
998.14
 31
0.0
  0
LINE
  5
9CF
330
1E
100
AcDbEntity
  8
0
100
AcDbLine
 10
288.2499999999999
 20
998.14
 30
0.0
 11
290.15
 21
998.14
 31
0.0
  0
LINE
  5
9D0
330
1E
100
AcDbEntity
  8
0
100
AcDbLine
 10
306.7499999999999
 20
997.6399999999991
 30
0.0
 11
308.6500000000002
 21
997.6399999999991
 31
0.0
  0
LINE
  5
9D1
330
1E
100
AcDbEntity
  8
0
100
AcDbLine
 10
298.2499999999999
 20
997.6399999999991
 30
0.0
 11
301.3500000000001
 21
997.6399999999991
 31
0.0
  0
LINE
  5
9D2
330
1E
100
AcDbEntity
  8
0
100
AcDbLine
 10
301.3500000000001
 20
997.6399999999991
 30
0.0
 11
304.2499999999999
 21
997.6399999999991
 31
0.0
  0
LINE
  5
9D3
330
1E
100
AcDbEntity
  8
0
100
AcDbLine
 10
304.2499999999999
 20
997.6399999999991
 30
0.0
 11
306.7499999999999
 21
997.6399999999991
 31
0.0
  0
LINE
  5
9D4
330
1E
100
AcDbEntity
  8
0
100
AcDbLine
 10
295.1499999999999
 20
997.6399999999991
 30
0.0
 11
298.2499999999999
 21
997.6399999999991
 31
0.0
  0
LINE
  5
9D5
330
1E
100
AcDbEntity
  8
0
100
AcDbLine
 10
292.2499999999999
 20
997.6399999999991
 30
0.0
 11
295.1499999999999
 21
997.6399999999991
 31
0.0
  0
LINE
  5
9D6
330
1E
100
AcDbEntity
  8
0
100
AcDbLine
 10
289.7499999999999
 20
997.6399999999991
 30
0.0
 11
292.2499999999999
 21
997.6399999999991
 31
0.0
  0
LINE
  5
9D7
330
1E
100
AcDbEntity
  8
0
100
AcDbLine
 10
286.2500000000001
 20
997.6399999999991
 30
0.0
 11
286.2500000000001
 21
978.64
 31
0.0
  0
LINE
  5
9D8
330
1E
100
AcDbEntity
  8
0
100
AcDbLine
 10
286.2500000000001
 20
997.6399999999991
 30
0.0
 11
286.7500000000001
 21
998.14
 31
0.0
  0
LINE
  5
9D9
330
1E
100
AcDbEntity
  8
0
100
AcDbLine
 10
286.2500000000001
 20
997.6399999999991
 30
0.0
 11
286.6499999999999
 21
997.6399999999991
 31
0.0
  0
LINE
  5
9DA
330
1E
100
AcDbEntity
  8
0
100
AcDbLine
 10
286.6499999999999
 20
997.6399999999991
 30
0.0
 11
287.8500000000001
 21
997.6399999999991
 31
0.0
  0
LINE
  5
9DB
330
1E
100
AcDbEntity
  8
0
100
AcDbLine
 10
287.8500000000001
 20
997.6399999999991
 30
0.0
 11
289.7499999999999
 21
997.6399999999991
 31
0.0
  0
LINE
  5
9DC
330
1E
100
AcDbEntity
  8
0
100
AcDbLine
 10
306.7499999999999
 20
978.64
 30
0.0
 11
308.6500000000002
 21
978.64
 31
0.0
  0
LINE
  5
9DD
330
1E
100
AcDbEntity
  8
0
100
AcDbLine
 10
298.2499999999999
 20
978.64
 30
0.0
 11
301.3500000000001
 21
978.64
 31
0.0
  0
LINE
  5
9DE
330
1E
100
AcDbEntity
  8
0
100
AcDbLine
 10
301.3500000000001
 20
978.64
 30
0.0
 11
304.2499999999999
 21
978.64
 31
0.0
  0
LINE
  5
9DF
330
1E
100
AcDbEntity
  8
0
100
AcDbLine
 10
304.2499999999999
 20
978.64
 30
0.0
 11
306.7499999999999
 21
978.64
 31
0.0
  0
LINE
  5
9E0
330
1E
100
AcDbEntity
  8
0
100
AcDbLine
 10
295.1499999999999
 20
978.64
 30
0.0
 11
298.2499999999999
 21
978.64
 31
0.0
  0
LINE
  5
9E1
330
1E
100
AcDbEntity
  8
0
100
AcDbLine
 10
292.2499999999999
 20
978.64
 30
0.0
 11
295.1499999999999
 21
978.64
 31
0.0
  0
LINE
  5
9E2
330
1E
100
AcDbEntity
  8
0
100
AcDbLine
 10
289.7499999999999
 20
978.64
 30
0.0
 11
292.2499999999999
 21
978.64
 31
0.0
  0
LINE
  5
9E3
330
1E
100
AcDbEntity
  8
0
100
AcDbLine
 10
286.2500000000001
 20
978.64
 30
0.0
 11
286.2500000000001
 21
997.6399999999991
 31
0.0
  0
LINE
  5
9E4
330
1E
100
AcDbEntity
  8
0
100
AcDbLine
 10
286.2500000000001
 20
978.64
 30
0.0
 11
287.2500000000001
 21
978.1399999999999
 31
0.0
  0
LINE
  5
9E5
330
1E
100
AcDbEntity
  8
0
100
AcDbLine
 10
286.2500000000001
 20
978.64
 30
0.0
 11
286.6499999999999
 21
978.64
 31
0.0
  0
LINE
  5
9E6
330
1E
100
AcDbEntity
  8
0
100
AcDbLine
 10
286.6499999999999
 20
978.64
 30
0.0
 11
287.8500000000001
 21
978.64
 31
0.0
  0
LINE
  5
9E7
330
1E
100
AcDbEntity
  8
0
100
AcDbLine
 10
287.8500000000001
 20
978.64
 30
0.0
 11
289.7499999999999
 21
978.64
 31
0.0
  0
LINE
  5
9E8
330
1E
100
AcDbEntity
  8
0
100
AcDbLine
 10
310.2500000000001
 20
977.64
 30
0.0
 11
310.2500000000001
 21
976.14
 31
0.0
  0
LINE
  5
9E9
330
1E
100
AcDbEntity
  8
0
100
AcDbLine
 10
310.2500000000001
 20
974.14
 30
0.0
 11
310.7500000000001
 21
974.14
 31
0.0
  0
LINE
  5
9EA
330
1E
100
AcDbEntity
  8
0
100
AcDbLine
 10
310.2500000000001
 20
974.14
 30
0.0
 11
310.2500000000001
 21
969.34
 31
0.0
  0
LINE
  5
9EB
330
1E
100
AcDbEntity
  8
0
100
AcDbLine
 10
309.85
 20
977.64
 30
0.0
 11
310.2500000000001
 21
977.64
 31
0.0
  0
LINE
  5
9EC
330
1E
100
AcDbEntity
  8
0
100
AcDbLine
 10
310.2500000000001
 20
974.6399999999999
 30
0.0
 11
310.7500000000001
 21
974.6399999999999
 31
0.0
  0
LINE
  5
9ED
330
1E
100
AcDbEntity
  8
0
100
AcDbLine
 10
310.2500000000001
 20
975.6399999999999
 30
0.0
 11
310.7500000000001
 21
975.6399999999999
 31
0.0
  0
LINE
  5
9EE
330
1E
100
AcDbEntity
  8
0
100
AcDbLine
 10
309.946
 20
976.14
 30
0.0
 11
310.099
 21
975.6399999999999
 31
0.0
  0
LINE
  5
9EF
330
1E
100
AcDbEntity
  8
0
100
AcDbLine
 10
310.099
 20
975.6399999999999
 30
0.0
 11
310.099
 21
974.6399999999999
 31
0.0
  0
LINE
  5
9F0
330
1E
100
AcDbEntity
  8
0
100
AcDbLine
 10
310.099
 20
974.6399999999999
 30
0.0
 11
310.099
 21
975.6399999999999
 31
0.0
  0
LINE
  5
9F1
330
1E
100
AcDbEntity
  8
0
100
AcDbLine
 10
308.6500000000002
 20
977.64
 30
0.0
 11
309.85
 21
977.64
 31
0.0
  0
LINE
  5
9F2
330
1E
100
AcDbEntity
  8
0
100
AcDbLine
 10
308.85
 20
978.1399999999999
 30
0.0
 11
309.2500000000001
 21
978.1399999999999
 31
0.0
  0
LINE
  5
9F3
330
1E
100
AcDbEntity
  8
0
100
AcDbLine
 10
307.7500000000001
 20
978.1399999999999
 30
0.0
 11
308.85
 21
978.1399999999999
 31
0.0
  0
LINE
  5
9F4
330
1E
100
AcDbEntity
  8
0
100
AcDbLine
 10
306.05
 20
978.1399999999999
 30
0.0
 11
307.7500000000001
 21
978.1399999999999
 31
0.0
  0
LINE
  5
9F5
330
1E
100
AcDbEntity
  8
0
100
AcDbLine
 10
298.2499999999999
 20
978.1399999999999
 30
0.0
 11
301.05
 21
978.1399999999999
 31
0.0
  0
LINE
  5
9F6
330
1E
100
AcDbEntity
  8
0
100
AcDbLine
 10
301.05
 20
978.1399999999999
 30
0.0
 11
303.7500000000001
 21
978.1399999999999
 31
0.0
  0
LINE
  5
9F7
330
1E
100
AcDbEntity
  8
0
100
AcDbLine
 10
303.7500000000001
 20
978.1399999999999
 30
0.0
 11
306.05
 21
978.1399999999999
 31
0.0
  0
LINE
  5
9F8
330
1E
100
AcDbEntity
  8
0
100
AcDbLine
 10
295.4499999999999
 20
978.1399999999999
 30
0.0
 11
298.2499999999999
 21
978.1399999999999
 31
0.0
  0
LINE
  5
9F9
330
1E
100
AcDbEntity
  8
0
100
AcDbLine
 10
292.7500000000001
 20
978.1399999999999
 30
0.0
 11
295.4499999999999
 21
978.1399999999999
 31
0.0
  0
LINE
  5
9FA
330
1E
100
AcDbEntity
  8
0
100
AcDbLine
 10
290.4500000000001
 20
978.1399999999999
 30
0.0
 11
292.7500000000001
 21
978.1399999999999
 31
0.0
  0
LINE
  5
9FB
330
1E
100
AcDbEntity
  8
0
100
AcDbLine
 10
287.2500000000001
 20
978.1399999999999
 30
0.0
 11
287.6499999999999
 21
978.1399999999999
 31
0.0
  0
LINE
  5
9FC
330
1E
100
AcDbEntity
  8
0
100
AcDbLine
 10
287.6499999999999
 20
978.1399999999999
 30
0.0
 11
288.7500000000001
 21
978.1399999999999
 31
0.0
  0
LINE
  5
9FD
330
1E
100
AcDbEntity
  8
0
100
AcDbLine
 10
288.7500000000001
 20
978.1399999999999
 30
0.0
 11
290.4500000000001
 21
978.1399999999999
 31
0.0
  0
LINE
  5
9FE
330
1E
100
AcDbEntity
  8
0
100
AcDbLine
 10
306.7499999999999
 20
977.64
 30
0.0
 11
308.6500000000002
 21
977.64
 31
0.0
  0
LINE
  5
9FF
330
1E
100
AcDbEntity
  8
0
100
AcDbLine
 10
306.758
 20
974.6399999999999
 30
0.0
 11
307.0479999999999
 21
974.14
 31
0.0
  0
LINE
  5
A00
330
1E
100
AcDbEntity
  8
0
100
AcDbLine
 10
306.758
 20
974.6399999999999
 30
0.0
 11
306.758
 21
975.6399999999999
 31
0.0
  0
LINE
  5
A01
330
1E
100
AcDbEntity
  8
0
100
AcDbLine
 10
309.4870000000002
 20
975.6399999999999
 30
0.0
 11
309.64
 21
976.14
 31
0.0
  0
LINE
  5
A02
330
1E
100
AcDbEntity
  8
0
100
AcDbLine
 10
309.4870000000002
 20
975.6399999999999
 30
0.0
 11
309.4870000000002
 21
974.6399999999999
 31
0.0
  0
LINE
  5
A03
330
1E
100
AcDbEntity
  8
0
100
AcDbLine
 10
309.64
 20
976.14
 30
0.0
 11
309.946
 21
976.14
 31
0.0
  0
LINE
  5
A04
330
1E
100
AcDbEntity
  8
0
100
AcDbLine
 10
307.6299999999999
 20
976.14
 30
0.0
 11
307.9200000000001
 21
975.6399999999999
 31
0.0
  0
LINE
  5
A05
330
1E
100
AcDbEntity
  8
0
100
AcDbLine
 10
307.9200000000001
 20
975.6399999999999
 30
0.0
 11
307.9200000000001
 21
974.6399999999999
 31
0.0
  0
LINE
  5
A06
330
1E
100
AcDbEntity
  8
0
100
AcDbLine
 10
306.758
 20
975.6399999999999
 30
0.0
 11
307.049
 21
976.14
 31
0.0
  0
LINE
  5
A07
330
1E
100
AcDbEntity
  8
0
100
AcDbLine
 10
306.758
 20
975.6399999999999
 30
0.0
 11
306.758
 21
974.6399999999999
 31
0.0
  0
LINE
  5
A08
330
1E
100
AcDbEntity
  8
0
100
AcDbLine
 10
307.049
 20
976.14
 30
0.0
 11
307.6299999999999
 21
976.14
 31
0.0
  0
LINE
  5
A09
330
1E
100
AcDbEntity
  8
0
100
AcDbLine
 10
309.4870000000002
 20
974.6399999999999
 30
0.0
 11
309.64
 21
974.14
 31
0.0
  0
LINE
  5
A0A
330
1E
100
AcDbEntity
  8
0
100
AcDbLine
 10
309.4870000000002
 20
974.6399999999999
 30
0.0
 11
309.4870000000002
 21
975.6399999999999
 31
0.0
  0
LINE
  5
A0B
330
1E
100
AcDbEntity
  8
0
100
AcDbLine
 10
307.9200000000001
 20
974.6399999999999
 30
0.0
 11
307.9200000000001
 21
975.6399999999999
 31
0.0
  0
LINE
  5
A0C
330
1E
100
AcDbEntity
  8
0
100
AcDbLine
 10
298.2499999999999
 20
977.64
 30
0.0
 11
301.3500000000001
 21
977.64
 31
0.0
  0
LINE
  5
A0D
330
1E
100
AcDbEntity
  8
0
100
AcDbLine
 10
301.3500000000001
 20
977.64
 30
0.0
 11
304.2499999999999
 21
977.64
 31
0.0
  0
LINE
  5
A0E
330
1E
100
AcDbEntity
  8
0
100
AcDbLine
 10
304.2499999999999
 20
977.64
 30
0.0
 11
306.7499999999999
 21
977.64
 31
0.0
  0
LINE
  5
A0F
330
1E
100
AcDbEntity
  8
0
100
AcDbLine
 10
306.725570032573
 20
976.14
 30
0.0
 11
307.049
 21
976.14
 31
0.0
  0
LINE
  5
A10
330
1E
100
AcDbEntity
  8
0
100
AcDbLine
 10
295.1499999999999
 20
977.64
 30
0.0
 11
298.2499999999999
 21
977.64
 31
0.0
  0
LINE
  5
A11
330
1E
100
AcDbEntity
  8
0
100
AcDbLine
 10
292.2499999999999
 20
977.64
 30
0.0
 11
295.1499999999999
 21
977.64
 31
0.0
  0
LINE
  5
A12
330
1E
100
AcDbEntity
  8
0
100
AcDbLine
 10
289.7499999999999
 20
977.64
 30
0.0
 11
292.2499999999999
 21
977.64
 31
0.0
  0
LINE
  5
A13
330
1E
100
AcDbEntity
  8
0
100
AcDbLine
 10
286.2500000000001
 20
977.64
 30
0.0
 11
286.2500000000001
 21
824.14
 31
0.0
  0
LINE
  5
A14
330
1E
100
AcDbEntity
  8
0
100
AcDbLine
 10
286.2500000000001
 20
977.64
 30
0.0
 11
287.2500000000001
 21
978.1399999999999
 31
0.0
  0
LINE
  5
A15
330
1E
100
AcDbEntity
  8
0
100
AcDbLine
 10
286.2500000000001
 20
977.64
 30
0.0
 11
286.6499999999999
 21
977.64
 31
0.0
  0
LINE
  5
A16
330
1E
100
AcDbEntity
  8
0
100
AcDbLine
 10
286.6499999999999
 20
977.64
 30
0.0
 11
287.8500000000001
 21
977.64
 31
0.0
  0
LINE
  5
A17
330
1E
100
AcDbEntity
  8
0
100
AcDbLine
 10
287.8500000000001
 20
977.64
 30
0.0
 11
289.7499999999999
 21
977.64
 31
0.0
  0
LINE
  5
A18
330
1E
100
AcDbEntity
  8
0
100
AcDbLine
 10
307.0479999999999
 20
974.14
 30
0.0
 11
307.6299999999999
 21
974.14
 31
0.0
  0
LINE
  5
A19
330
1E
100
AcDbEntity
  8
0
100
AcDbLine
 10
307.0170000000001
 20
974.14
 30
0.0
 11
307.6299999999999
 21
974.14
 31
0.0
  0
LINE
  5
A1A
330
1E
100
AcDbEntity
  8
0
100
AcDbLine
 10
307.6299999999999
 20
974.14
 30
0.0
 11
307.9200000000001
 21
974.6399999999999
 31
0.0
  0
LINE
  5
A1B
330
1E
100
AcDbEntity
  8
0
100
AcDbLine
 10
309.64
 20
974.14
 30
0.0
 11
309.946
 21
974.14
 31
0.0
  0
LINE
  5
A1C
330
1E
100
AcDbEntity
  8
0
100
AcDbLine
 10
309.946
 20
974.14
 30
0.0
 11
310.099
 21
974.6399999999999
 31
0.0
  0
LINE
  5
A1D
330
1E
100
AcDbEntity
  8
0
100
AcDbLine
 10
309.158
 20
974.14
 30
0.0
 11
309.946
 21
974.14
 31
0.0
  0
LINE
  5
A1E
330
1E
100
AcDbEntity
  8
0
100
AcDbLine
 10
306.6929967426712
 20
974.14
 30
0.0
 11
307.0479999999999
 21
974.14
 31
0.0
  0
LINE
  5
A1F
330
1E
100
AcDbEntity
  8
0
100
AcDbLine
 10
310.2500000000001
 20
962.54
 30
0.0
 11
310.7500000000001
 21
962.54
 31
0.0
  0
LINE
  5
A20
330
1E
100
AcDbEntity
  8
0
100
AcDbLine
 10
310.2500000000001
 20
962.54
 30
0.0
 11
310.2500000000001
 21
967.34
 31
0.0
  0
LINE
  5
A21
330
1E
100
AcDbEntity
  8
0
100
AcDbLine
 10
310.2500000000001
 20
953.7399999999999
 30
0.0
 11
310.7500000000001
 21
953.7399999999999
 31
0.0
  0
LINE
  5
A22
330
1E
100
AcDbEntity
  8
0
100
AcDbLine
 10
310.2500000000001
 20
953.7399999999999
 30
0.0
 11
310.2500000000001
 21
948.939999999999
 31
0.0
  0
LINE
  5
A23
330
1E
100
AcDbEntity
  8
0
100
AcDbLine
 10
310.2500000000001
 20
960.5400000000001
 30
0.0
 11
310.7500000000001
 21
960.5400000000001
 31
0.0
  0
LINE
  5
A24
330
1E
100
AcDbEntity
  8
0
100
AcDbLine
 10
310.2500000000001
 20
960.5400000000001
 30
0.0
 11
310.2500000000001
 21
955.739999999999
 31
0.0
  0
LINE
  5
A25
330
1E
100
AcDbEntity
  8
0
100
AcDbLine
 10
310.2500000000001
 20
967.34
 30
0.0
 11
310.7500000000001
 21
967.34
 31
0.0
  0
LINE
  5
A26
330
1E
100
AcDbEntity
  8
0
100
AcDbLine
 10
310.2500000000001
 20
967.34
 30
0.0
 11
310.2500000000001
 21
962.54
 31
0.0
  0
LINE
  5
A27
330
1E
100
AcDbEntity
  8
0
100
AcDbLine
 10
310.2500000000001
 20
967.8399999999999
 30
0.0
 11
310.7500000000001
 21
967.8399999999999
 31
0.0
  0
LINE
  5
A28
330
1E
100
AcDbEntity
  8
0
100
AcDbLine
 10
310.2500000000001
 20
968.8399999999999
 30
0.0
 11
310.7500000000001
 21
968.8399999999999
 31
0.0
  0
LINE
  5
A29
330
1E
100
AcDbEntity
  8
0
100
AcDbLine
 10
307.6299999999999
 20
969.34
 30
0.0
 11
307.9200000000001
 21
968.8399999999999
 31
0.0
  0
LINE
  5
A2A
330
1E
100
AcDbEntity
  8
0
100
AcDbLine
 10
309.64
 20
969.34
 30
0.0
 11
309.946
 21
969.34
 31
0.0
  0
LINE
  5
A2B
330
1E
100
AcDbEntity
  8
0
100
AcDbLine
 10
309.946
 20
969.34
 30
0.0
 11
310.099
 21
968.8399999999999
 31
0.0
  0
LINE
  5
A2C
330
1E
100
AcDbEntity
  8
0
100
AcDbLine
 10
307.049
 20
969.34
 30
0.0
 11
307.6299999999999
 21
969.34
 31
0.0
  0
LINE
  5
A2D
330
1E
100
AcDbEntity
  8
0
100
AcDbLine
 10
306.6148208469061
 20
969.34
 30
0.0
 11
307.049
 21
969.34
 31
0.0
  0
LINE
  5
A2E
330
1E
100
AcDbEntity
  8
0
100
AcDbLine
 10
309.4870000000002
 20
967.8399999999999
 30
0.0
 11
309.64
 21
967.34
 31
0.0
  0
LINE
  5
A2F
330
1E
100
AcDbEntity
  8
0
100
AcDbLine
 10
309.4870000000002
 20
967.8399999999999
 30
0.0
 11
309.4870000000002
 21
968.8399999999999
 31
0.0
  0
LINE
  5
A30
330
1E
100
AcDbEntity
  8
0
100
AcDbLine
 10
310.099
 20
968.8399999999999
 30
0.0
 11
310.099
 21
967.8399999999999
 31
0.0
  0
LINE
  5
A31
330
1E
100
AcDbEntity
  8
0
100
AcDbLine
 10
309.4870000000002
 20
968.8399999999999
 30
0.0
 11
309.64
 21
969.34
 31
0.0
  0
LINE
  5
A32
330
1E
100
AcDbEntity
  8
0
100
AcDbLine
 10
309.4870000000002
 20
968.8399999999999
 30
0.0
 11
309.4870000000002
 21
967.8399999999999
 31
0.0
  0
LINE
  5
A33
330
1E
100
AcDbEntity
  8
0
100
AcDbLine
 10
310.099
 20
967.8399999999999
 30
0.0
 11
310.099
 21
968.8399999999999
 31
0.0
  0
LINE
  5
A34
330
1E
100
AcDbEntity
  8
0
100
AcDbLine
 10
306.758
 20
967.8399999999999
 30
0.0
 11
307.0479999999999
 21
967.34
 31
0.0
  0
LINE
  5
A35
330
1E
100
AcDbEntity
  8
0
100
AcDbLine
 10
306.758
 20
967.8399999999999
 30
0.0
 11
306.758
 21
968.8399999999999
 31
0.0
  0
LINE
  5
A36
330
1E
100
AcDbEntity
  8
0
100
AcDbLine
 10
307.9200000000001
 20
968.8399999999999
 30
0.0
 11
307.9200000000001
 21
967.8399999999999
 31
0.0
  0
LINE
  5
A37
330
1E
100
AcDbEntity
  8
0
100
AcDbLine
 10
306.758
 20
968.8399999999999
 30
0.0
 11
307.049
 21
969.34
 31
0.0
  0
LINE
  5
A38
330
1E
100
AcDbEntity
  8
0
100
AcDbLine
 10
306.758
 20
968.8399999999999
 30
0.0
 11
306.758
 21
967.8399999999999
 31
0.0
  0
LINE
  5
A39
330
1E
100
AcDbEntity
  8
0
100
AcDbLine
 10
307.9200000000001
 20
967.8399999999999
 30
0.0
 11
307.9200000000001
 21
968.8399999999999
 31
0.0
  0
LINE
  5
A3A
330
1E
100
AcDbEntity
  8
0
100
AcDbLine
 10
310.2500000000001
 20
955.2399999999998
 30
0.0
 11
310.7500000000001
 21
955.2399999999998
 31
0.0
  0
LINE
  5
A3B
330
1E
100
AcDbEntity
  8
0
100
AcDbLine
 10
310.2500000000001
 20
954.239999999999
 30
0.0
 11
310.7500000000001
 21
954.239999999999
 31
0.0
  0
LINE
  5
A3C
330
1E
100
AcDbEntity
  8
0
100
AcDbLine
 10
307.6299999999999
 20
955.739999999999
 30
0.0
 11
307.9200000000001
 21
955.2399999999998
 31
0.0
  0
LINE
  5
A3D
330
1E
100
AcDbEntity
  8
0
100
AcDbLine
 10
309.64
 20
955.739999999999
 30
0.0
 11
309.946
 21
955.739999999999
 31
0.0
  0
LINE
  5
A3E
330
1E
100
AcDbEntity
  8
0
100
AcDbLine
 10
310.2500000000001
 20
961.04
 30
0.0
 11
310.7500000000001
 21
961.04
 31
0.0
  0
LINE
  5
A3F
330
1E
100
AcDbEntity
  8
0
100
AcDbLine
 10
309.946
 20
967.34
 30
0.0
 11
310.099
 21
967.8399999999999
 31
0.0
  0
LINE
  5
A40
330
1E
100
AcDbEntity
  8
0
100
AcDbLine
 10
309.64
 20
967.34
 30
0.0
 11
309.946
 21
967.34
 31
0.0
  0
LINE
  5
A41
330
1E
100
AcDbEntity
  8
0
100
AcDbLine
 10
309.64
 20
962.54
 30
0.0
 11
309.946
 21
962.54
 31
0.0
  0
LINE
  5
A42
330
1E
100
AcDbEntity
  8
0
100
AcDbLine
 10
309.946
 20
962.54
 30
0.0
 11
310.099
 21
962.0400000000001
 31
0.0
  0
LINE
  5
A43
330
1E
100
AcDbEntity
  8
0
100
AcDbLine
 10
309.158
 20
967.34
 30
0.0
 11
309.946
 21
967.34
 31
0.0
  0
LINE
  5
A44
330
1E
100
AcDbEntity
  8
0
100
AcDbLine
 10
310.2500000000001
 20
962.0400000000001
 30
0.0
 11
310.7500000000001
 21
962.0400000000001
 31
0.0
  0
LINE
  5
A45
330
1E
100
AcDbEntity
  8
0
100
AcDbLine
 10
309.946
 20
960.5400000000001
 30
0.0
 11
310.099
 21
961.04
 31
0.0
  0
LINE
  5
A46
330
1E
100
AcDbEntity
  8
0
100
AcDbLine
 10
309.4870000000002
 20
961.04
 30
0.0
 11
309.4870000000002
 21
962.0400000000001
 31
0.0
  0
LINE
  5
A47
330
1E
100
AcDbEntity
  8
0
100
AcDbLine
 10
309.4870000000002
 20
961.04
 30
0.0
 11
309.64
 21
960.5400000000001
 31
0.0
  0
LINE
  5
A48
330
1E
100
AcDbEntity
  8
0
100
AcDbLine
 10
310.099
 20
962.0400000000001
 30
0.0
 11
310.099
 21
961.04
 31
0.0
  0
LINE
  5
A49
330
1E
100
AcDbEntity
  8
0
100
AcDbLine
 10
310.099
 20
961.04
 30
0.0
 11
310.099
 21
962.0400000000001
 31
0.0
  0
LINE
  5
A4A
330
1E
100
AcDbEntity
  8
0
100
AcDbLine
 10
309.4870000000002
 20
962.0400000000001
 30
0.0
 11
309.4870000000002
 21
961.04
 31
0.0
  0
LINE
  5
A4B
330
1E
100
AcDbEntity
  8
0
100
AcDbLine
 10
309.4870000000002
 20
962.0400000000001
 30
0.0
 11
309.64
 21
962.54
 31
0.0
  0
LINE
  5
A4C
330
1E
100
AcDbEntity
  8
0
100
AcDbLine
 10
307.9200000000001
 20
962.0400000000001
 30
0.0
 11
307.9200000000001
 21
961.04
 31
0.0
  0
LINE
  5
A4D
330
1E
100
AcDbEntity
  8
0
100
AcDbLine
 10
307.9200000000001
 20
961.04
 30
0.0
 11
307.9200000000001
 21
962.0400000000001
 31
0.0
  0
LINE
  5
A4E
330
1E
100
AcDbEntity
  8
0
100
AcDbLine
 10
309.158
 20
960.5400000000001
 30
0.0
 11
309.946
 21
960.5400000000001
 31
0.0
  0
LINE
  5
A4F
330
1E
100
AcDbEntity
  8
0
100
AcDbLine
 10
309.64
 20
960.5400000000001
 30
0.0
 11
309.946
 21
960.5400000000001
 31
0.0
  0
LINE
  5
A50
330
1E
100
AcDbEntity
  8
0
100
AcDbLine
 10
309.4870000000002
 20
955.2399999999998
 30
0.0
 11
309.4870000000002
 21
954.239999999999
 31
0.0
  0
LINE
  5
A51
330
1E
100
AcDbEntity
  8
0
100
AcDbLine
 10
309.4870000000002
 20
955.2399999999998
 30
0.0
 11
309.64
 21
955.739999999999
 31
0.0
  0
LINE
  5
A52
330
1E
100
AcDbEntity
  8
0
100
AcDbLine
 10
309.946
 20
955.739999999999
 30
0.0
 11
310.099
 21
955.2399999999998
 31
0.0
  0
LINE
  5
A53
330
1E
100
AcDbEntity
  8
0
100
AcDbLine
 10
310.099
 20
955.2399999999998
 30
0.0
 11
310.099
 21
954.239999999999
 31
0.0
  0
LINE
  5
A54
330
1E
100
AcDbEntity
  8
0
100
AcDbLine
 10
307.9200000000001
 20
955.2399999999998
 30
0.0
 11
307.9200000000001
 21
954.239999999999
 31
0.0
  0
LINE
  5
A55
330
1E
100
AcDbEntity
  8
0
100
AcDbLine
 10
307.049
 20
955.739999999999
 30
0.0
 11
307.6299999999999
 21
955.739999999999
 31
0.0
  0
LINE
  5
A56
330
1E
100
AcDbEntity
  8
0
100
AcDbLine
 10
306.758
 20
961.04
 30
0.0
 11
306.758
 21
962.0400000000001
 31
0.0
  0
LINE
  5
A57
330
1E
100
AcDbEntity
  8
0
100
AcDbLine
 10
306.758
 20
961.04
 30
0.0
 11
307.0479999999999
 21
960.5400000000001
 31
0.0
  0
LINE
  5
A58
330
1E
100
AcDbEntity
  8
0
100
AcDbLine
 10
307.6299999999999
 20
967.34
 30
0.0
 11
307.9200000000001
 21
967.8399999999999
 31
0.0
  0
LINE
  5
A59
330
1E
100
AcDbEntity
  8
0
100
AcDbLine
 10
307.0479999999999
 20
967.34
 30
0.0
 11
307.6299999999999
 21
967.34
 31
0.0
  0
LINE
  5
A5A
330
1E
100
AcDbEntity
  8
0
100
AcDbLine
 10
306.7499999999999
 20
967.34
 30
0.0
 11
307.0479999999999
 21
967.34
 31
0.0
  0
LINE
  5
A5B
330
1E
100
AcDbEntity
  8
0
100
AcDbLine
 10
307.0170000000001
 20
967.34
 30
0.0
 11
307.6299999999999
 21
967.34
 31
0.0
  0
LINE
  5
A5C
330
1E
100
AcDbEntity
  8
0
100
AcDbLine
 10
306.758
 20
962.0400000000001
 30
0.0
 11
307.049
 21
962.54
 31
0.0
  0
LINE
  5
A5D
330
1E
100
AcDbEntity
  8
0
100
AcDbLine
 10
306.758
 20
962.0400000000001
 30
0.0
 11
306.758
 21
961.04
 31
0.0
  0
LINE
  5
A5E
330
1E
100
AcDbEntity
  8
0
100
AcDbLine
 10
307.049
 20
962.54
 30
0.0
 11
307.6299999999999
 21
962.54
 31
0.0
  0
LINE
  5
A5F
330
1E
100
AcDbEntity
  8
0
100
AcDbLine
 10
307.6299999999999
 20
962.54
 30
0.0
 11
307.9200000000001
 21
962.0400000000001
 31
0.0
  0
LINE
  5
A60
330
1E
100
AcDbEntity
  8
0
100
AcDbLine
 10
306.7499999999999
 20
962.54
 30
0.0
 11
307.049
 21
962.54
 31
0.0
  0
LINE
  5
A61
330
1E
100
AcDbEntity
  8
0
100
AcDbLine
 10
306.7499999999999
 20
960.5400000000001
 30
0.0
 11
307.0479999999999
 21
960.5400000000001
 31
0.0
  0
LINE
  5
A62
330
1E
100
AcDbEntity
  8
0
100
AcDbLine
 10
307.6299999999999
 20
960.5400000000001
 30
0.0
 11
307.9200000000001
 21
961.04
 31
0.0
  0
LINE
  5
A63
330
1E
100
AcDbEntity
  8
0
100
AcDbLine
 10
307.0479999999999
 20
960.5400000000001
 30
0.0
 11
307.6299999999999
 21
960.5400000000001
 31
0.0
  0
LINE
  5
A64
330
1E
100
AcDbEntity
  8
0
100
AcDbLine
 10
307.0170000000001
 20
960.5400000000001
 30
0.0
 11
307.6299999999999
 21
960.5400000000001
 31
0.0
  0
LINE
  5
A65
330
1E
100
AcDbEntity
  8
0
100
AcDbLine
 10
306.7499999999999
 20
955.739999999999
 30
0.0
 11
307.049
 21
955.739999999999
 31
0.0
  0
LINE
  5
A66
330
1E
100
AcDbEntity
  8
0
100
AcDbLine
 10
306.758
 20
955.2399999999998
 30
0.0
 11
306.758
 21
954.239999999999
 31
0.0
  0
LINE
  5
A67
330
1E
100
AcDbEntity
  8
0
100
AcDbLine
 10
306.758
 20
955.2399999999998
 30
0.0
 11
307.049
 21
955.739999999999
 31
0.0
  0
LINE
  5
A68
330
1E
100
AcDbEntity
  8
0
100
AcDbLine
 10
306.758
 20
954.239999999999
 30
0.0
 11
306.758
 21
955.2399999999998
 31
0.0
  0
LINE
  5
A69
330
1E
100
AcDbEntity
  8
0
100
AcDbLine
 10
306.758
 20
954.239999999999
 30
0.0
 11
307.0479999999999
 21
953.7399999999999
 31
0.0
  0
LINE
  5
A6A
330
1E
100
AcDbEntity
  8
0
100
AcDbLine
 10
309.4870000000002
 20
954.239999999999
 30
0.0
 11
309.4870000000002
 21
955.2399999999998
 31
0.0
  0
LINE
  5
A6B
330
1E
100
AcDbEntity
  8
0
100
AcDbLine
 10
309.4870000000002
 20
954.239999999999
 30
0.0
 11
309.64
 21
953.7399999999999
 31
0.0
  0
LINE
  5
A6C
330
1E
100
AcDbEntity
  8
0
100
AcDbLine
 10
310.099
 20
954.239999999999
 30
0.0
 11
310.099
 21
955.2399999999998
 31
0.0
  0
LINE
  5
A6D
330
1E
100
AcDbEntity
  8
0
100
AcDbLine
 10
307.9200000000001
 20
954.239999999999
 30
0.0
 11
307.9200000000001
 21
955.2399999999998
 31
0.0
  0
LINE
  5
A6E
330
1E
100
AcDbEntity
  8
0
100
AcDbLine
 10
306.7499999999999
 20
953.7399999999999
 30
0.0
 11
307.0479999999999
 21
953.7399999999999
 31
0.0
  0
LINE
  5
A6F
330
1E
100
AcDbEntity
  8
0
100
AcDbLine
 10
307.0479999999999
 20
953.7399999999999
 30
0.0
 11
307.6299999999999
 21
953.7399999999999
 31
0.0
  0
LINE
  5
A70
330
1E
100
AcDbEntity
  8
0
100
AcDbLine
 10
307.0458306188931
 20
953.7399999999999
 30
0.0
 11
307.6299999999999
 21
953.7399999999999
 31
0.0
  0
LINE
  5
A71
330
1E
100
AcDbEntity
  8
0
100
AcDbLine
 10
307.6299999999999
 20
953.7399999999999
 30
0.0
 11
307.9200000000001
 21
954.239999999999
 31
0.0
  0
LINE
  5
A72
330
1E
100
AcDbEntity
  8
0
100
AcDbLine
 10
309.64
 20
953.7399999999999
 30
0.0
 11
309.946
 21
953.7399999999999
 31
0.0
  0
LINE
  5
A73
330
1E
100
AcDbEntity
  8
0
100
AcDbLine
 10
309.158
 20
953.7399999999999
 30
0.0
 11
309.946
 21
953.7399999999999
 31
0.0
  0
LINE
  5
A74
330
1E
100
AcDbEntity
  8
0
100
AcDbLine
 10
309.946
 20
953.7399999999999
 30
0.0
 11
310.099
 21
954.239999999999
 31
0.0
  0
LINE
  5
A75
330
1E
100
AcDbEntity
  8
0
100
AcDbLine
 10
310.2500000000001
 20
940.14
 30
0.0
 11
310.7500000000001
 21
940.14
 31
0.0
  0
LINE
  5
A76
330
1E
100
AcDbEntity
  8
0
100
AcDbLine
 10
310.2500000000001
 20
940.14
 30
0.0
 11
310.2500000000001
 21
935.34
 31
0.0
  0
LINE
  5
A77
330
1E
100
AcDbEntity
  8
0
100
AcDbLine
 10
310.2500000000001
 20
946.9399999999991
 30
0.0
 11
310.7500000000001
 21
946.9399999999991
 31
0.0
  0
LINE
  5
A78
330
1E
100
AcDbEntity
  8
0
100
AcDbLine
 10
310.2500000000001
 20
946.9399999999991
 30
0.0
 11
310.2500000000001
 21
942.14
 31
0.0
  0
LINE
  5
A79
330
1E
100
AcDbEntity
  8
0
100
AcDbLine
 10
310.2500000000001
 20
947.439999999999
 30
0.0
 11
310.7500000000001
 21
947.439999999999
 31
0.0
  0
LINE
  5
A7A
330
1E
100
AcDbEntity
  8
0
100
AcDbLine
 10
310.2500000000001
 20
948.4399999999999
 30
0.0
 11
310.7500000000001
 21
948.4399999999999
 31
0.0
  0
LINE
  5
A7B
330
1E
100
AcDbEntity
  8
0
100
AcDbLine
 10
306.758
 20
948.4399999999999
 30
0.0
 11
306.758
 21
947.439999999999
 31
0.0
  0
LINE
  5
A7C
330
1E
100
AcDbEntity
  8
0
100
AcDbLine
 10
306.758
 20
948.4399999999999
 30
0.0
 11
307.049
 21
948.939999999999
 31
0.0
  0
LINE
  5
A7D
330
1E
100
AcDbEntity
  8
0
100
AcDbLine
 10
307.049
 20
948.939999999999
 30
0.0
 11
307.6299999999999
 21
948.939999999999
 31
0.0
  0
LINE
  5
A7E
330
1E
100
AcDbEntity
  8
0
100
AcDbLine
 10
307.6299999999999
 20
948.939999999999
 30
0.0
 11
307.9200000000001
 21
948.4399999999999
 31
0.0
  0
LINE
  5
A7F
330
1E
100
AcDbEntity
  8
0
100
AcDbLine
 10
309.64
 20
948.939999999999
 30
0.0
 11
309.946
 21
948.939999999999
 31
0.0
  0
LINE
  5
A80
330
1E
100
AcDbEntity
  8
0
100
AcDbLine
 10
309.946
 20
948.939999999999
 30
0.0
 11
310.099
 21
948.4399999999999
 31
0.0
  0
LINE
  5
A81
330
1E
100
AcDbEntity
  8
0
100
AcDbLine
 10
306.7499999999999
 20
948.939999999999
 30
0.0
 11
307.049
 21
948.939999999999
 31
0.0
  0
LINE
  5
A82
330
1E
100
AcDbEntity
  8
0
100
AcDbLine
 10
309.4870000000002
 20
948.4399999999999
 30
0.0
 11
309.64
 21
948.939999999999
 31
0.0
  0
LINE
  5
A83
330
1E
100
AcDbEntity
  8
0
100
AcDbLine
 10
309.4870000000002
 20
948.4399999999999
 30
0.0
 11
309.4870000000002
 21
947.439999999999
 31
0.0
  0
LINE
  5
A84
330
1E
100
AcDbEntity
  8
0
100
AcDbLine
 10
310.099
 20
948.4399999999999
 30
0.0
 11
310.099
 21
947.439999999999
 31
0.0
  0
LINE
  5
A85
330
1E
100
AcDbEntity
  8
0
100
AcDbLine
 10
307.9200000000001
 20
948.4399999999999
 30
0.0
 11
307.9200000000001
 21
947.439999999999
 31
0.0
  0
LINE
  5
A86
330
1E
100
AcDbEntity
  8
0
100
AcDbLine
 10
306.758
 20
947.439999999999
 30
0.0
 11
306.758
 21
948.4399999999999
 31
0.0
  0
LINE
  5
A87
330
1E
100
AcDbEntity
  8
0
100
AcDbLine
 10
306.758
 20
947.439999999999
 30
0.0
 11
307.0479999999999
 21
946.9399999999991
 31
0.0
  0
LINE
  5
A88
330
1E
100
AcDbEntity
  8
0
100
AcDbLine
 10
309.4870000000002
 20
947.439999999999
 30
0.0
 11
309.4870000000002
 21
948.4399999999999
 31
0.0
  0
LINE
  5
A89
330
1E
100
AcDbEntity
  8
0
100
AcDbLine
 10
309.4870000000002
 20
947.439999999999
 30
0.0
 11
309.64
 21
946.9399999999991
 31
0.0
  0
LINE
  5
A8A
330
1E
100
AcDbEntity
  8
0
100
AcDbLine
 10
310.099
 20
947.439999999999
 30
0.0
 11
310.099
 21
948.4399999999999
 31
0.0
  0
LINE
  5
A8B
330
1E
100
AcDbEntity
  8
0
100
AcDbLine
 10
307.9200000000001
 20
947.439999999999
 30
0.0
 11
307.9200000000001
 21
948.4399999999999
 31
0.0
  0
LINE
  5
A8C
330
1E
100
AcDbEntity
  8
0
100
AcDbLine
 10
310.2500000000001
 20
940.639999999999
 30
0.0
 11
310.7500000000001
 21
940.639999999999
 31
0.0
  0
LINE
  5
A8D
330
1E
100
AcDbEntity
  8
0
100
AcDbLine
 10
310.2500000000001
 20
941.6399999999999
 30
0.0
 11
310.7500000000001
 21
941.6399999999999
 31
0.0
  0
LINE
  5
A8E
330
1E
100
AcDbEntity
  8
0
100
AcDbLine
 10
306.758
 20
941.6399999999999
 30
0.0
 11
306.758
 21
940.639999999999
 31
0.0
  0
LINE
  5
A8F
330
1E
100
AcDbEntity
  8
0
100
AcDbLine
 10
306.758
 20
941.6399999999999
 30
0.0
 11
307.049
 21
942.14
 31
0.0
  0
LINE
  5
A90
330
1E
100
AcDbEntity
  8
0
100
AcDbLine
 10
307.049
 20
942.14
 30
0.0
 11
307.6299999999999
 21
942.14
 31
0.0
  0
LINE
  5
A91
330
1E
100
AcDbEntity
  8
0
100
AcDbLine
 10
307.6299999999999
 20
942.14
 30
0.0
 11
307.9200000000001
 21
941.6399999999999
 31
0.0
  0
LINE
  5
A92
330
1E
100
AcDbEntity
  8
0
100
AcDbLine
 10
307.6299999999999
 20
946.9399999999991
 30
0.0
 11
307.9200000000001
 21
947.439999999999
 31
0.0
  0
LINE
  5
A93
330
1E
100
AcDbEntity
  8
0
100
AcDbLine
 10
309.64
 20
946.9399999999991
 30
0.0
 11
309.946
 21
946.9399999999991
 31
0.0
  0
LINE
  5
A94
330
1E
100
AcDbEntity
  8
0
100
AcDbLine
 10
309.158
 20
946.9399999999991
 30
0.0
 11
309.946
 21
946.9399999999991
 31
0.0
  0
LINE
  5
A95
330
1E
100
AcDbEntity
  8
0
100
AcDbLine
 10
309.946
 20
946.9399999999991
 30
0.0
 11
310.099
 21
947.439999999999
 31
0.0
  0
LINE
  5
A96
330
1E
100
AcDbEntity
  8
0
100
AcDbLine
 10
307.1299999999999
 20
946.9399999999991
 30
0.0
 11
307.6299999999999
 21
946.9399999999991
 31
0.0
  0
LINE
  5
A97
330
1E
100
AcDbEntity
  8
0
100
AcDbLine
 10
309.64
 20
942.14
 30
0.0
 11
309.946
 21
942.14
 31
0.0
  0
LINE
  5
A98
330
1E
100
AcDbEntity
  8
0
100
AcDbLine
 10
309.946
 20
942.14
 30
0.0
 11
310.099
 21
941.6399999999999
 31
0.0
  0
LINE
  5
A99
330
1E
100
AcDbEntity
  8
0
100
AcDbLine
 10
306.7499999999999
 20
942.14
 30
0.0
 11
307.049
 21
942.14
 31
0.0
  0
LINE
  5
A9A
330
1E
100
AcDbEntity
  8
0
100
AcDbLine
 10
307.0479999999999
 20
946.9399999999991
 30
0.0
 11
307.6299999999999
 21
946.9399999999991
 31
0.0
  0
LINE
  5
A9B
330
1E
100
AcDbEntity
  8
0
100
AcDbLine
 10
306.7499999999999
 20
946.9399999999991
 30
0.0
 11
307.0479999999999
 21
946.9399999999991
 31
0.0
  0
LINE
  5
A9C
330
1E
100
AcDbEntity
  8
0
100
AcDbLine
 10
309.4870000000002
 20
941.6399999999999
 30
0.0
 11
309.64
 21
942.14
 31
0.0
  0
LINE
  5
A9D
330
1E
100
AcDbEntity
  8
0
100
AcDbLine
 10
309.4870000000002
 20
941.6399999999999
 30
0.0
 11
309.4870000000002
 21
940.639999999999
 31
0.0
  0
LINE
  5
A9E
330
1E
100
AcDbEntity
  8
0
100
AcDbLine
 10
310.099
 20
941.6399999999999
 30
0.0
 11
310.099
 21
940.639999999999
 31
0.0
  0
LINE
  5
A9F
330
1E
100
AcDbEntity
  8
0
100
AcDbLine
 10
307.9200000000001
 20
941.6399999999999
 30
0.0
 11
307.9200000000001
 21
940.639999999999
 31
0.0
  0
LINE
  5
AA0
330
1E
100
AcDbEntity
  8
0
100
AcDbLine
 10
307.0479999999999
 20
940.14
 30
0.0
 11
307.6299999999999
 21
940.14
 31
0.0
  0
LINE
  5
AA1
330
1E
100
AcDbEntity
  8
0
100
AcDbLine
 10
307.6299999999999
 20
940.14
 30
0.0
 11
307.9200000000001
 21
940.639999999999
 31
0.0
  0
LINE
  5
AA2
330
1E
100
AcDbEntity
  8
0
100
AcDbLine
 10
309.4870000000002
 20
940.639999999999
 30
0.0
 11
309.4870000000002
 21
941.6399999999999
 31
0.0
  0
LINE
  5
AA3
330
1E
100
AcDbEntity
  8
0
100
AcDbLine
 10
309.4870000000002
 20
940.639999999999
 30
0.0
 11
309.64
 21
940.14
 31
0.0
  0
LINE
  5
AA4
330
1E
100
AcDbEntity
  8
0
100
AcDbLine
 10
310.099
 20
940.639999999999
 30
0.0
 11
310.099
 21
941.6399999999999
 31
0.0
  0
LINE
  5
AA5
330
1E
100
AcDbEntity
  8
0
100
AcDbLine
 10
307.9200000000001
 20
940.639999999999
 30
0.0
 11
307.9200000000001
 21
941.6399999999999
 31
0.0
  0
LINE
  5
AA6
330
1E
100
AcDbEntity
  8
0
100
AcDbLine
 10
307.214169381108
 20
940.14
 30
0.0
 11
307.6299999999999
 21
940.14
 31
0.0
  0
LINE
  5
AA7
330
1E
100
AcDbEntity
  8
0
100
AcDbLine
 10
309.64
 20
940.14
 30
0.0
 11
309.946
 21
940.14
 31
0.0
  0
LINE
  5
AA8
330
1E
100
AcDbEntity
  8
0
100
AcDbLine
 10
309.158
 20
940.14
 30
0.0
 11
309.946
 21
940.14
 31
0.0
  0
LINE
  5
AA9
330
1E
100
AcDbEntity
  8
0
100
AcDbLine
 10
309.946
 20
940.14
 30
0.0
 11
310.099
 21
940.639999999999
 31
0.0
  0
LINE
  5
AAA
330
1E
100
AcDbEntity
  8
0
100
AcDbLine
 10
306.758
 20
940.639999999999
 30
0.0
 11
306.758
 21
941.6399999999999
 31
0.0
  0
LINE
  5
AAB
330
1E
100
AcDbEntity
  8
0
100
AcDbLine
 10
306.758
 20
940.639999999999
 30
0.0
 11
307.0479999999999
 21
940.14
 31
0.0
  0
LINE
  5
AAC
330
1E
100
AcDbEntity
  8
0
100
AcDbLine
 10
306.7499999999999
 20
940.14
 30
0.0
 11
307.0479999999999
 21
940.14
 31
0.0
  0
LINE
  5
AAD
330
1E
100
AcDbEntity
  8
0
100
AcDbLine
 10
310.2500000000001
 20
926.5400000000001
 30
0.0
 11
310.7500000000001
 21
926.5400000000001
 31
0.0
  0
LINE
  5
AAE
330
1E
100
AcDbEntity
  8
0
100
AcDbLine
 10
310.2500000000001
 20
926.5400000000001
 30
0.0
 11
310.2500000000001
 21
921.7399999999999
 31
0.0
  0
LINE
  5
AAF
330
1E
100
AcDbEntity
  8
0
100
AcDbLine
 10
310.2500000000001
 20
933.3400000000001
 30
0.0
 11
310.7500000000001
 21
933.3400000000001
 31
0.0
  0
LINE
  5
AB0
330
1E
100
AcDbEntity
  8
0
100
AcDbLine
 10
310.2500000000001
 20
933.3400000000001
 30
0.0
 11
310.2500000000001
 21
928.54
 31
0.0
  0
LINE
  5
AB1
330
1E
100
AcDbEntity
  8
0
100
AcDbLine
 10
310.2500000000001
 20
934.8399999999999
 30
0.0
 11
310.7500000000001
 21
934.8399999999999
 31
0.0
  0
LINE
  5
AB2
330
1E
100
AcDbEntity
  8
0
100
AcDbLine
 10
310.2500000000001
 20
933.84
 30
0.0
 11
310.7500000000001
 21
933.84
 31
0.0
  0
LINE
  5
AB3
330
1E
100
AcDbEntity
  8
0
100
AcDbLine
 10
307.6299999999999
 20
935.34
 30
0.0
 11
307.9200000000001
 21
934.8399999999999
 31
0.0
  0
LINE
  5
AB4
330
1E
100
AcDbEntity
  8
0
100
AcDbLine
 10
309.64
 20
935.34
 30
0.0
 11
309.946
 21
935.34
 31
0.0
  0
LINE
  5
AB5
330
1E
100
AcDbEntity
  8
0
100
AcDbLine
 10
309.4870000000002
 20
934.8399999999999
 30
0.0
 11
309.4870000000002
 21
933.84
 31
0.0
  0
LINE
  5
AB6
330
1E
100
AcDbEntity
  8
0
100
AcDbLine
 10
309.4870000000002
 20
934.8399999999999
 30
0.0
 11
309.64
 21
935.34
 31
0.0
  0
LINE
  5
AB7
330
1E
100
AcDbEntity
  8
0
100
AcDbLine
 10
309.946
 20
935.34
 30
0.0
 11
310.099
 21
934.8399999999999
 31
0.0
  0
LINE
  5
AB8
330
1E
100
AcDbEntity
  8
0
100
AcDbLine
 10
310.099
 20
934.8399999999999
 30
0.0
 11
310.099
 21
933.84
 31
0.0
  0
LINE
  5
AB9
330
1E
100
AcDbEntity
  8
0
100
AcDbLine
 10
307.9200000000001
 20
934.8399999999999
 30
0.0
 11
307.9200000000001
 21
933.84
 31
0.0
  0
LINE
  5
ABA
330
1E
100
AcDbEntity
  8
0
100
AcDbLine
 10
307.049
 20
935.34
 30
0.0
 11
307.6299999999999
 21
935.34
 31
0.0
  0
LINE
  5
ABB
330
1E
100
AcDbEntity
  8
0
100
AcDbLine
 10
306.7499999999999
 20
935.34
 30
0.0
 11
307.049
 21
935.34
 31
0.0
  0
LINE
  5
ABC
330
1E
100
AcDbEntity
  8
0
100
AcDbLine
 10
306.758
 20
934.8399999999999
 30
0.0
 11
306.758
 21
933.84
 31
0.0
  0
LINE
  5
ABD
330
1E
100
AcDbEntity
  8
0
100
AcDbLine
 10
306.758
 20
934.8399999999999
 30
0.0
 11
307.049
 21
935.34
 31
0.0
  0
LINE
  5
ABE
330
1E
100
AcDbEntity
  8
0
100
AcDbLine
 10
306.758
 20
933.84
 30
0.0
 11
306.758
 21
934.8399999999999
 31
0.0
  0
LINE
  5
ABF
330
1E
100
AcDbEntity
  8
0
100
AcDbLine
 10
306.758
 20
933.84
 30
0.0
 11
307.0479999999999
 21
933.3400000000001
 31
0.0
  0
LINE
  5
AC0
330
1E
100
AcDbEntity
  8
0
100
AcDbLine
 10
309.4870000000002
 20
933.84
 30
0.0
 11
309.4870000000002
 21
934.8399999999999
 31
0.0
  0
LINE
  5
AC1
330
1E
100
AcDbEntity
  8
0
100
AcDbLine
 10
309.4870000000002
 20
933.84
 30
0.0
 11
309.64
 21
933.3400000000001
 31
0.0
  0
LINE
  5
AC2
330
1E
100
AcDbEntity
  8
0
100
AcDbLine
 10
310.099
 20
933.84
 30
0.0
 11
310.099
 21
934.8399999999999
 31
0.0
  0
LINE
  5
AC3
330
1E
100
AcDbEntity
  8
0
100
AcDbLine
 10
307.9200000000001
 20
933.84
 30
0.0
 11
307.9200000000001
 21
934.8399999999999
 31
0.0
  0
LINE
  5
AC4
330
1E
100
AcDbEntity
  8
0
100
AcDbLine
 10
310.099
 20
927.04
 30
0.0
 11
310.099
 21
928.04
 31
0.0
  0
LINE
  5
AC5
330
1E
100
AcDbEntity
  8
0
100
AcDbLine
 10
310.099
 20
927.04
 30
0.0
 11
310.7500000000001
 21
927.04
 31
0.0
  0
LINE
  5
AC6
330
1E
100
AcDbEntity
  8
0
100
AcDbLine
 10
310.099
 20
928.04
 30
0.0
 11
310.099
 21
927.04
 31
0.0
  0
LINE
  5
AC7
330
1E
100
AcDbEntity
  8
0
100
AcDbLine
 10
310.099
 20
928.04
 30
0.0
 11
310.7500000000001
 21
928.04
 31
0.0
  0
LINE
  5
AC8
330
1E
100
AcDbEntity
  8
0
100
AcDbLine
 10
307.049
 20
928.54
 30
0.0
 11
307.6299999999999
 21
928.54
 31
0.0
  0
LINE
  5
AC9
330
1E
100
AcDbEntity
  8
0
100
AcDbLine
 10
307.6299999999999
 20
928.54
 30
0.0
 11
307.9200000000001
 21
928.04
 31
0.0
  0
LINE
  5
ACA
330
1E
100
AcDbEntity
  8
0
100
AcDbLine
 10
307.2983387622151
 20
933.3400000000001
 30
0.0
 11
307.6299999999999
 21
933.3400000000001
 31
0.0
  0
LINE
  5
ACB
330
1E
100
AcDbEntity
  8
0
100
AcDbLine
 10
307.6299999999999
 20
933.3400000000001
 30
0.0
 11
307.9200000000001
 21
933.84
 31
0.0
  0
LINE
  5
ACC
330
1E
100
AcDbEntity
  8
0
100
AcDbLine
 10
309.64
 20
933.3400000000001
 30
0.0
 11
309.946
 21
933.3400000000001
 31
0.0
  0
LINE
  5
ACD
330
1E
100
AcDbEntity
  8
0
100
AcDbLine
 10
309.158
 20
933.3400000000001
 30
0.0
 11
309.946
 21
933.3400000000001
 31
0.0
  0
LINE
  5
ACE
330
1E
100
AcDbEntity
  8
0
100
AcDbLine
 10
309.946
 20
933.3400000000001
 30
0.0
 11
310.099
 21
933.84
 31
0.0
  0
LINE
  5
ACF
330
1E
100
AcDbEntity
  8
0
100
AcDbLine
 10
309.64
 20
928.54
 30
0.0
 11
309.946
 21
928.54
 31
0.0
  0
LINE
  5
AD0
330
1E
100
AcDbEntity
  8
0
100
AcDbLine
 10
309.946
 20
928.54
 30
0.0
 11
310.099
 21
928.04
 31
0.0
  0
LINE
  5
AD1
330
1E
100
AcDbEntity
  8
0
100
AcDbLine
 10
306.7499999999999
 20
928.54
 30
0.0
 11
307.049
 21
928.54
 31
0.0
  0
LINE
  5
AD2
330
1E
100
AcDbEntity
  8
0
100
AcDbLine
 10
306.7499999999999
 20
933.3400000000001
 30
0.0
 11
307.0479999999999
 21
933.3400000000001
 31
0.0
  0
LINE
  5
AD3
330
1E
100
AcDbEntity
  8
0
100
AcDbLine
 10
307.0479999999999
 20
933.3400000000001
 30
0.0
 11
307.6299999999999
 21
933.3400000000001
 31
0.0
  0
LINE
  5
AD4
330
1E
100
AcDbEntity
  8
0
100
AcDbLine
 10
307.0479999999999
 20
926.5400000000001
 30
0.0
 11
307.6299999999999
 21
926.5400000000001
 31
0.0
  0
LINE
  5
AD5
330
1E
100
AcDbEntity
  8
0
100
AcDbLine
 10
307.6299999999999
 20
926.5400000000001
 30
0.0
 11
307.9200000000001
 21
927.04
 31
0.0
  0
LINE
  5
AD6
330
1E
100
AcDbEntity
  8
0
100
AcDbLine
 10
309.4870000000002
 20
928.04
 30
0.0
 11
309.64
 21
928.54
 31
0.0
  0
LINE
  5
AD7
330
1E
100
AcDbEntity
  8
0
100
AcDbLine
 10
309.4870000000002
 20
928.04
 30
0.0
 11
309.4870000000002
 21
927.04
 31
0.0
  0
LINE
  5
AD8
330
1E
100
AcDbEntity
  8
0
100
AcDbLine
 10
309.4870000000002
 20
927.04
 30
0.0
 11
309.4870000000002
 21
928.04
 31
0.0
  0
LINE
  5
AD9
330
1E
100
AcDbEntity
  8
0
100
AcDbLine
 10
309.4870000000002
 20
927.04
 30
0.0
 11
309.64
 21
926.5400000000001
 31
0.0
  0
LINE
  5
ADA
330
1E
100
AcDbEntity
  8
0
100
AcDbLine
 10
307.9200000000001
 20
928.04
 30
0.0
 11
307.9200000000001
 21
927.04
 31
0.0
  0
LINE
  5
ADB
330
1E
100
AcDbEntity
  8
0
100
AcDbLine
 10
307.9200000000001
 20
927.04
 30
0.0
 11
307.9200000000001
 21
928.04
 31
0.0
  0
LINE
  5
ADC
330
1E
100
AcDbEntity
  8
0
100
AcDbLine
 10
307.382508143322
 20
926.5400000000001
 30
0.0
 11
307.6299999999999
 21
926.5400000000001
 31
0.0
  0
LINE
  5
ADD
330
1E
100
AcDbEntity
  8
0
100
AcDbLine
 10
309.64
 20
926.5400000000001
 30
0.0
 11
309.946
 21
926.5400000000001
 31
0.0
  0
LINE
  5
ADE
330
1E
100
AcDbEntity
  8
0
100
AcDbLine
 10
309.158
 20
926.5400000000001
 30
0.0
 11
309.946
 21
926.5400000000001
 31
0.0
  0
LINE
  5
ADF
330
1E
100
AcDbEntity
  8
0
100
AcDbLine
 10
309.946
 20
926.5400000000001
 30
0.0
 11
310.099
 21
927.04
 31
0.0
  0
LINE
  5
AE0
330
1E
100
AcDbEntity
  8
0
100
AcDbLine
 10
306.758
 20
927.04
 30
0.0
 11
306.758
 21
928.04
 31
0.0
  0
LINE
  5
AE1
330
1E
100
AcDbEntity
  8
0
100
AcDbLine
 10
306.758
 20
927.04
 30
0.0
 11
307.0479999999999
 21
926.5400000000001
 31
0.0
  0
LINE
  5
AE2
330
1E
100
AcDbEntity
  8
0
100
AcDbLine
 10
306.758
 20
928.04
 30
0.0
 11
306.758
 21
927.04
 31
0.0
  0
LINE
  5
AE3
330
1E
100
AcDbEntity
  8
0
100
AcDbLine
 10
306.758
 20
928.04
 30
0.0
 11
307.049
 21
928.54
 31
0.0
  0
LINE
  5
AE4
330
1E
100
AcDbEntity
  8
0
100
AcDbLine
 10
306.7499999999999
 20
926.5400000000001
 30
0.0
 11
307.0479999999999
 21
926.5400000000001
 31
0.0
  0
LINE
  5
AE5
330
1E
100
AcDbEntity
  8
0
100
AcDbLine
 10
310.2500000000001
 20
912.94
 30
0.0
 11
310.7500000000001
 21
912.94
 31
0.0
  0
LINE
  5
AE6
330
1E
100
AcDbEntity
  8
0
100
AcDbLine
 10
310.2500000000001
 20
912.94
 30
0.0
 11
310.2500000000001
 21
908.14
 31
0.0
  0
LINE
  5
AE7
330
1E
100
AcDbEntity
  8
0
100
AcDbLine
 10
310.2500000000001
 20
919.74
 30
0.0
 11
310.7500000000001
 21
919.74
 31
0.0
  0
LINE
  5
AE8
330
1E
100
AcDbEntity
  8
0
100
AcDbLine
 10
310.2500000000001
 20
919.74
 30
0.0
 11
310.2500000000001
 21
914.9399999999991
 31
0.0
  0
LINE
  5
AE9
330
1E
100
AcDbEntity
  8
0
100
AcDbLine
 10
310.099
 20
921.2399999999989
 30
0.0
 11
310.099
 21
920.2399999999999
 31
0.0
  0
LINE
  5
AEA
330
1E
100
AcDbEntity
  8
0
100
AcDbLine
 10
310.099
 20
921.2399999999989
 30
0.0
 11
310.7500000000001
 21
921.2399999999989
 31
0.0
  0
LINE
  5
AEB
330
1E
100
AcDbEntity
  8
0
100
AcDbLine
 10
310.099
 20
920.2399999999999
 30
0.0
 11
310.099
 21
921.2399999999989
 31
0.0
  0
LINE
  5
AEC
330
1E
100
AcDbEntity
  8
0
100
AcDbLine
 10
310.099
 20
920.2399999999999
 30
0.0
 11
310.7500000000001
 21
920.2399999999999
 31
0.0
  0
LINE
  5
AED
330
1E
100
AcDbEntity
  8
0
100
AcDbLine
 10
307.6299999999999
 20
921.7399999999999
 30
0.0
 11
307.9200000000001
 21
921.2399999999989
 31
0.0
  0
LINE
  5
AEE
330
1E
100
AcDbEntity
  8
0
100
AcDbLine
 10
309.64
 20
921.7399999999999
 30
0.0
 11
309.946
 21
921.7399999999999
 31
0.0
  0
LINE
  5
AEF
330
1E
100
AcDbEntity
  8
0
100
AcDbLine
 10
309.4870000000002
 20
921.2399999999989
 30
0.0
 11
309.4870000000002
 21
920.2399999999999
 31
0.0
  0
LINE
  5
AF0
330
1E
100
AcDbEntity
  8
0
100
AcDbLine
 10
309.4870000000002
 20
921.2399999999989
 30
0.0
 11
309.64
 21
921.7399999999999
 31
0.0
  0
LINE
  5
AF1
330
1E
100
AcDbEntity
  8
0
100
AcDbLine
 10
309.946
 20
921.7399999999999
 30
0.0
 11
310.099
 21
921.2399999999989
 31
0.0
  0
LINE
  5
AF2
330
1E
100
AcDbEntity
  8
0
100
AcDbLine
 10
307.9200000000001
 20
921.2399999999989
 30
0.0
 11
307.9200000000001
 21
920.2399999999999
 31
0.0
  0
LINE
  5
AF3
330
1E
100
AcDbEntity
  8
0
100
AcDbLine
 10
307.049
 20
921.7399999999999
 30
0.0
 11
307.6299999999999
 21
921.7399999999999
 31
0.0
  0
LINE
  5
AF4
330
1E
100
AcDbEntity
  8
0
100
AcDbLine
 10
306.7499999999999
 20
921.7399999999999
 30
0.0
 11
307.049
 21
921.7399999999999
 31
0.0
  0
LINE
  5
AF5
330
1E
100
AcDbEntity
  8
0
100
AcDbLine
 10
306.758
 20
921.2399999999989
 30
0.0
 11
306.758
 21
920.2399999999999
 31
0.0
  0
LINE
  5
AF6
330
1E
100
AcDbEntity
  8
0
100
AcDbLine
 10
306.758
 20
921.2399999999989
 30
0.0
 11
307.049
 21
921.7399999999999
 31
0.0
  0
LINE
  5
AF7
330
1E
100
AcDbEntity
  8
0
100
AcDbLine
 10
306.758
 20
920.2399999999999
 30
0.0
 11
306.758
 21
921.2399999999989
 31
0.0
  0
LINE
  5
AF8
330
1E
100
AcDbEntity
  8
0
100
AcDbLine
 10
306.758
 20
920.2399999999999
 30
0.0
 11
307.0479999999999
 21
919.74
 31
0.0
  0
LINE
  5
AF9
330
1E
100
AcDbEntity
  8
0
100
AcDbLine
 10
309.4870000000002
 20
920.2399999999999
 30
0.0
 11
309.4870000000002
 21
921.2399999999989
 31
0.0
  0
LINE
  5
AFA
330
1E
100
AcDbEntity
  8
0
100
AcDbLine
 10
309.4870000000002
 20
920.2399999999999
 30
0.0
 11
309.64
 21
919.74
 31
0.0
  0
LINE
  5
AFB
330
1E
100
AcDbEntity
  8
0
100
AcDbLine
 10
307.9200000000001
 20
920.2399999999999
 30
0.0
 11
307.9200000000001
 21
921.2399999999989
 31
0.0
  0
LINE
  5
AFC
330
1E
100
AcDbEntity
  8
0
100
AcDbLine
 10
310.099
 20
914.439999999999
 30
0.0
 11
310.099
 21
913.439999999999
 31
0.0
  0
LINE
  5
AFD
330
1E
100
AcDbEntity
  8
0
100
AcDbLine
 10
310.099
 20
914.439999999999
 30
0.0
 11
310.7500000000001
 21
914.439999999999
 31
0.0
  0
LINE
  5
AFE
330
1E
100
AcDbEntity
  8
0
100
AcDbLine
 10
310.099
 20
913.439999999999
 30
0.0
 11
310.099
 21
914.439999999999
 31
0.0
  0
LINE
  5
AFF
330
1E
100
AcDbEntity
  8
0
100
AcDbLine
 10
310.099
 20
913.439999999999
 30
0.0
 11
310.7500000000001
 21
913.439999999999
 31
0.0
  0
LINE
  5
B00
330
1E
100
AcDbEntity
  8
0
100
AcDbLine
 10
307.6299999999999
 20
914.9399999999991
 30
0.0
 11
307.9200000000001
 21
914.439999999999
 31
0.0
  0
LINE
  5
B01
330
1E
100
AcDbEntity
  8
0
100
AcDbLine
 10
309.64
 20
914.9399999999991
 30
0.0
 11
309.946
 21
914.9399999999991
 31
0.0
  0
LINE
  5
B02
330
1E
100
AcDbEntity
  8
0
100
AcDbLine
 10
309.64
 20
919.74
 30
0.0
 11
309.946
 21
919.74
 31
0.0
  0
LINE
  5
B03
330
1E
100
AcDbEntity
  8
0
100
AcDbLine
 10
309.158
 20
919.74
 30
0.0
 11
309.946
 21
919.74
 31
0.0
  0
LINE
  5
B04
330
1E
100
AcDbEntity
  8
0
100
AcDbLine
 10
309.946
 20
919.74
 30
0.0
 11
310.099
 21
920.2399999999999
 31
0.0
  0
LINE
  5
B05
330
1E
100
AcDbEntity
  8
0
100
AcDbLine
 10
309.1401628664499
 20
914.9399999999991
 30
0.0
 11
309.64
 21
914.9399999999991
 31
0.0
  0
LINE
  5
B06
330
1E
100
AcDbEntity
  8
0
100
AcDbLine
 10
309.4870000000002
 20
914.439999999999
 30
0.0
 11
309.4870000000002
 21
913.439999999999
 31
0.0
  0
LINE
  5
B07
330
1E
100
AcDbEntity
  8
0
100
AcDbLine
 10
309.4870000000002
 20
914.439999999999
 30
0.0
 11
309.64
 21
914.9399999999991
 31
0.0
  0
LINE
  5
B08
330
1E
100
AcDbEntity
  8
0
100
AcDbLine
 10
309.946
 20
914.9399999999991
 30
0.0
 11
310.099
 21
914.439999999999
 31
0.0
  0
LINE
  5
B09
330
1E
100
AcDbEntity
  8
0
100
AcDbLine
 10
307.9200000000001
 20
914.439999999999
 30
0.0
 11
307.9200000000001
 21
913.439999999999
 31
0.0
  0
LINE
  5
B0A
330
1E
100
AcDbEntity
  8
0
100
AcDbLine
 10
307.049
 20
914.9399999999991
 30
0.0
 11
307.6299999999999
 21
914.9399999999991
 31
0.0
  0
LINE
  5
B0B
330
1E
100
AcDbEntity
  8
0
100
AcDbLine
 10
306.7499999999999
 20
919.74
 30
0.0
 11
307.0479999999999
 21
919.74
 31
0.0
  0
LINE
  5
B0C
330
1E
100
AcDbEntity
  8
0
100
AcDbLine
 10
307.0479999999999
 20
919.74
 30
0.0
 11
307.6299999999999
 21
919.74
 31
0.0
  0
LINE
  5
B0D
330
1E
100
AcDbEntity
  8
0
100
AcDbLine
 10
307.0170000000001
 20
919.74
 30
0.0
 11
307.6299999999999
 21
919.74
 31
0.0
  0
LINE
  5
B0E
330
1E
100
AcDbEntity
  8
0
100
AcDbLine
 10
307.6299999999999
 20
919.74
 30
0.0
 11
307.9200000000001
 21
920.2399999999999
 31
0.0
  0
LINE
  5
B0F
330
1E
100
AcDbEntity
  8
0
100
AcDbLine
 10
306.7499999999999
 20
914.9399999999991
 30
0.0
 11
307.049
 21
914.9399999999991
 31
0.0
  0
LINE
  5
B10
330
1E
100
AcDbEntity
  8
0
100
AcDbLine
 10
306.758
 20
914.439999999999
 30
0.0
 11
306.758
 21
913.439999999999
 31
0.0
  0
LINE
  5
B11
330
1E
100
AcDbEntity
  8
0
100
AcDbLine
 10
306.758
 20
914.439999999999
 30
0.0
 11
307.049
 21
914.9399999999991
 31
0.0
  0
LINE
  5
B12
330
1E
100
AcDbEntity
  8
0
100
AcDbLine
 10
306.7499999999999
 20
912.94
 30
0.0
 11
307.0479999999999
 21
912.94
 31
0.0
  0
LINE
  5
B13
330
1E
100
AcDbEntity
  8
0
100
AcDbLine
 10
307.0479999999999
 20
912.94
 30
0.0
 11
307.6299999999999
 21
912.94
 31
0.0
  0
LINE
  5
B14
330
1E
100
AcDbEntity
  8
0
100
AcDbLine
 10
306.758
 20
913.439999999999
 30
0.0
 11
306.758
 21
914.439999999999
 31
0.0
  0
LINE
  5
B15
330
1E
100
AcDbEntity
  8
0
100
AcDbLine
 10
306.758
 20
913.439999999999
 30
0.0
 11
307.0479999999999
 21
912.94
 31
0.0
  0
LINE
  5
B16
330
1E
100
AcDbEntity
  8
0
100
AcDbLine
 10
309.4870000000002
 20
913.439999999999
 30
0.0
 11
309.4870000000002
 21
914.439999999999
 31
0.0
  0
LINE
  5
B17
330
1E
100
AcDbEntity
  8
0
100
AcDbLine
 10
309.4870000000002
 20
913.439999999999
 30
0.0
 11
309.64
 21
912.94
 31
0.0
  0
LINE
  5
B18
330
1E
100
AcDbEntity
  8
0
100
AcDbLine
 10
307.9200000000001
 20
913.439999999999
 30
0.0
 11
307.9200000000001
 21
914.439999999999
 31
0.0
  0
LINE
  5
B19
330
1E
100
AcDbEntity
  8
0
100
AcDbLine
 10
307.0170000000001
 20
912.94
 30
0.0
 11
307.6299999999999
 21
912.94
 31
0.0
  0
LINE
  5
B1A
330
1E
100
AcDbEntity
  8
0
100
AcDbLine
 10
307.6299999999999
 20
912.94
 30
0.0
 11
307.9200000000001
 21
913.439999999999
 31
0.0
  0
LINE
  5
B1B
330
1E
100
AcDbEntity
  8
0
100
AcDbLine
 10
309.155798045603
 20
912.94
 30
0.0
 11
309.64
 21
912.94
 31
0.0
  0
LINE
  5
B1C
330
1E
100
AcDbEntity
  8
0
100
AcDbLine
 10
309.64
 20
912.94
 30
0.0
 11
309.946
 21
912.94
 31
0.0
  0
LINE
  5
B1D
330
1E
100
AcDbEntity
  8
0
100
AcDbLine
 10
309.158
 20
912.94
 30
0.0
 11
309.946
 21
912.94
 31
0.0
  0
LINE
  5
B1E
330
1E
100
AcDbEntity
  8
0
100
AcDbLine
 10
309.946
 20
912.94
 30
0.0
 11
310.099
 21
913.439999999999
 31
0.0
  0
LINE
  5
B1F
330
1E
100
AcDbEntity
  8
0
100
AcDbLine
 10
310.2500000000001
 20
906.14
 30
0.0
 11
310.7500000000001
 21
906.14
 31
0.0
  0
LINE
  5
B20
330
1E
100
AcDbEntity
  8
0
100
AcDbLine
 10
310.2500000000001
 20
906.14
 30
0.0
 11
310.2500000000001
 21
824.14
 31
0.0
  0
LINE
  5
B21
330
1E
100
AcDbEntity
  8
0
100
AcDbLine
 10
310.7500000000001
 20
906.14
 30
0.0
 11
310.7500000000001
 21
906.639999999999
 31
0.0
  0
LINE
  5
B22
330
1E
100
AcDbEntity
  8
0
100
AcDbLine
 10
310.7500000000001
 20
906.639999999999
 30
0.0
 11
310.7500000000001
 21
906.14
 31
0.0
  0
LINE
  5
B23
330
1E
100
AcDbEntity
  8
0
100
AcDbLine
 10
310.7500000000001
 20
906.639999999999
 30
0.0
 11
310.7500000000001
 21
907.6399999999999
 31
0.0
  0
LINE
  5
B24
330
1E
100
AcDbEntity
  8
0
100
AcDbLine
 10
310.7500000000001
 20
907.6399999999999
 30
0.0
 11
310.7500000000001
 21
906.639999999999
 31
0.0
  0
LINE
  5
B25
330
1E
100
AcDbEntity
  8
0
100
AcDbLine
 10
310.7500000000001
 20
907.6399999999999
 30
0.0
 11
310.7500000000001
 21
908.14
 31
0.0
  0
LINE
  5
B26
330
1E
100
AcDbEntity
  8
0
100
AcDbLine
 10
310.7500000000001
 20
908.14
 30
0.0
 11
310.7500000000001
 21
907.6399999999999
 31
0.0
  0
LINE
  5
B27
330
1E
100
AcDbEntity
  8
0
100
AcDbLine
 10
310.099
 20
906.639999999999
 30
0.0
 11
310.099
 21
907.6399999999999
 31
0.0
  0
LINE
  5
B28
330
1E
100
AcDbEntity
  8
0
100
AcDbLine
 10
310.099
 20
906.639999999999
 30
0.0
 11
310.7500000000001
 21
906.639999999999
 31
0.0
  0
LINE
  5
B29
330
1E
100
AcDbEntity
  8
0
100
AcDbLine
 10
310.099
 20
907.6399999999999
 30
0.0
 11
310.099
 21
906.639999999999
 31
0.0
  0
LINE
  5
B2A
330
1E
100
AcDbEntity
  8
0
100
AcDbLine
 10
310.099
 20
907.6399999999999
 30
0.0
 11
310.7500000000001
 21
907.6399999999999
 31
0.0
  0
LINE
  5
B2B
330
1E
100
AcDbEntity
  8
0
100
AcDbLine
 10
309.4870000000002
 20
907.6399999999999
 30
0.0
 11
309.4870000000002
 21
906.639999999999
 31
0.0
  0
LINE
  5
B2C
330
1E
100
AcDbEntity
  8
0
100
AcDbLine
 10
309.4870000000002
 20
907.6399999999999
 30
0.0
 11
309.64
 21
908.14
 31
0.0
  0
LINE
  5
B2D
330
1E
100
AcDbEntity
  8
0
100
AcDbLine
 10
309.64
 20
908.14
 30
0.0
 11
309.946
 21
908.14
 31
0.0
  0
LINE
  5
B2E
330
1E
100
AcDbEntity
  8
0
100
AcDbLine
 10
309.946
 20
908.14
 30
0.0
 11
310.099
 21
907.6399999999999
 31
0.0
  0
LINE
  5
B2F
330
1E
100
AcDbEntity
  8
0
100
AcDbLine
 10
307.049
 20
908.14
 30
0.0
 11
307.6299999999999
 21
908.14
 31
0.0
  0
LINE
  5
B30
330
1E
100
AcDbEntity
  8
0
100
AcDbLine
 10
307.6299999999999
 20
908.14
 30
0.0
 11
307.9200000000001
 21
907.6399999999999
 31
0.0
  0
LINE
  5
B31
330
1E
100
AcDbEntity
  8
0
100
AcDbLine
 10
306.7499999999999
 20
908.14
 30
0.0
 11
307.049
 21
908.14
 31
0.0
  0
LINE
  5
B32
330
1E
100
AcDbEntity
  8
0
100
AcDbLine
 10
306.758
 20
907.6399999999999
 30
0.0
 11
306.758
 21
906.639999999999
 31
0.0
  0
LINE
  5
B33
330
1E
100
AcDbEntity
  8
0
100
AcDbLine
 10
306.758
 20
907.6399999999999
 30
0.0
 11
307.049
 21
908.14
 31
0.0
  0
LINE
  5
B34
330
1E
100
AcDbEntity
  8
0
100
AcDbLine
 10
307.9200000000001
 20
907.6399999999999
 30
0.0
 11
307.9200000000001
 21
906.639999999999
 31
0.0
  0
LINE
  5
B35
330
1E
100
AcDbEntity
  8
0
100
AcDbLine
 10
309.946
 20
906.14
 30
0.0
 11
310.099
 21
906.639999999999
 31
0.0
  0
LINE
  5
B36
330
1E
100
AcDbEntity
  8
0
100
AcDbLine
 10
309.64
 20
906.14
 30
0.0
 11
309.946
 21
906.14
 31
0.0
  0
LINE
  5
B37
330
1E
100
AcDbEntity
  8
0
100
AcDbLine
 10
309.4870000000002
 20
906.639999999999
 30
0.0
 11
309.4870000000002
 21
907.6399999999999
 31
0.0
  0
LINE
  5
B38
330
1E
100
AcDbEntity
  8
0
100
AcDbLine
 10
309.4870000000002
 20
906.639999999999
 30
0.0
 11
309.64
 21
906.14
 31
0.0
  0
LINE
  5
B39
330
1E
100
AcDbEntity
  8
0
100
AcDbLine
 10
306.758
 20
906.639999999999
 30
0.0
 11
306.758
 21
907.6399999999999
 31
0.0
  0
LINE
  5
B3A
330
1E
100
AcDbEntity
  8
0
100
AcDbLine
 10
306.758
 20
906.639999999999
 30
0.0
 11
307.0479999999999
 21
906.14
 31
0.0
  0
LINE
  5
B3B
330
1E
100
AcDbEntity
  8
0
100
AcDbLine
 10
307.9200000000001
 20
906.639999999999
 30
0.0
 11
307.9200000000001
 21
907.6399999999999
 31
0.0
  0
LINE
  5
B3C
330
1E
100
AcDbEntity
  8
0
100
AcDbLine
 10
309.2089576547231
 20
906.14
 30
0.0
 11
309.946
 21
906.14
 31
0.0
  0
LINE
  5
B3D
330
1E
100
AcDbEntity
  8
0
100
AcDbLine
 10
307.6299999999999
 20
906.14
 30
0.0
 11
307.9200000000001
 21
906.639999999999
 31
0.0
  0
LINE
  5
B3E
330
1E
100
AcDbEntity
  8
0
100
AcDbLine
 10
307.0479999999999
 20
906.14
 30
0.0
 11
307.6299999999999
 21
906.14
 31
0.0
  0
LINE
  5
B3F
330
1E
100
AcDbEntity
  8
0
100
AcDbLine
 10
307.0170000000001
 20
906.14
 30
0.0
 11
307.6299999999999
 21
906.14
 31
0.0
  0
LINE
  5
B40
330
1E
100
AcDbEntity
  8
0
100
AcDbLine
 10
306.7499999999999
 20
906.14
 30
0.0
 11
307.0479999999999
 21
906.14
 31
0.0
  0
LINE
  5
B41
330
1E
100
AcDbEntity
  8
0
100
AcDbLine
 10
241.25
 20
897.14
 30
0.0
 11
242.4500000000001
 21
897.14
 31
0.0
  0
LINE
  5
B42
330
1E
100
AcDbEntity
  8
0
100
AcDbLine
 10
206.743
 20
897.244
 30
0.0
 11
210.2500000000001
 21
897.14
 31
0.0
  0
LINE
  5
B43
330
1E
100
AcDbEntity
  8
0
100
AcDbLine
 10
202.2290000000001
 20
897.7
 30
0.0
 11
206.743
 21
897.244
 31
0.0
  0
LINE
  5
B44
330
1E
100
AcDbEntity
  8
0
100
AcDbLine
 10
198.8320000000001
 20
898.2449999999998
 30
0.0
 11
202.2290000000001
 21
897.7
 31
0.0
  0
LINE
  5
B45
330
1E
100
AcDbEntity
  8
0
100
AcDbLine
 10
242.4500000000001
 20
897.14
 30
0.0
 11
243.2570000000001
 21
897.14
 31
0.0
  0
LINE
  5
B46
330
1E
100
AcDbEntity
  8
0
100
AcDbLine
 10
243.2570000000001
 20
897.14
 30
0.0
 11
243.6540000000001
 21
897.14
 31
0.0
  0
LINE
  5
B47
330
1E
100
AcDbEntity
  8
0
100
AcDbLine
 10
243.6540000000001
 20
897.14
 30
0.0
 11
243.9070000000001
 21
897.14
 31
0.0
  0
LINE
  5
B48
330
1E
100
AcDbEntity
  8
0
100
AcDbLine
 10
243.9070000000001
 20
897.14
 30
0.0
 11
244.07
 21
897.14
 31
0.0
  0
LINE
  5
B49
330
1E
100
AcDbEntity
  8
0
100
AcDbLine
 10
244.07
 20
897.14
 30
0.0
 11
244.2499999999999
 21
897.14
 31
0.0
  0
LINE
  5
B4A
330
1E
100
AcDbEntity
  8
0
100
AcDbLine
 10
224.55
 20
897.14
 30
0.0
 11
227.5729999999999
 21
897.14
 31
0.0
  0
LINE
  5
B4B
330
1E
100
AcDbEntity
  8
0
100
AcDbLine
 10
227.5729999999999
 20
897.14
 30
0.0
 11
231.0009999999999
 21
897.14
 31
0.0
  0
LINE
  5
B4C
330
1E
100
AcDbEntity
  8
0
100
AcDbLine
 10
231.0009999999999
 20
897.14
 30
0.0
 11
233.56
 21
897.14
 31
0.0
  0
LINE
  5
B4D
330
1E
100
AcDbEntity
  8
0
100
AcDbLine
 10
233.56
 20
897.14
 30
0.0
 11
235.761
 21
897.14
 31
0.0
  0
LINE
  5
B4E
330
1E
100
AcDbEntity
  8
0
100
AcDbLine
 10
235.761
 20
897.14
 30
0.0
 11
237.7459999999999
 21
897.14
 31
0.0
  0
LINE
  5
B4F
330
1E
100
AcDbEntity
  8
0
100
AcDbLine
 10
237.7459999999999
 20
897.14
 30
0.0
 11
239.55
 21
897.14
 31
0.0
  0
LINE
  5
B50
330
1E
100
AcDbEntity
  8
0
100
AcDbLine
 10
239.55
 20
897.14
 30
0.0
 11
241.25
 21
897.14
 31
0.0
  0
LINE
  5
B51
330
1E
100
AcDbEntity
  8
0
100
AcDbLine
 10
210.2500000000001
 20
897.14
 30
0.0
 11
224.55
 21
897.14
 31
0.0
  0
LINE
  5
B52
330
1E
100
AcDbEntity
  8
0
100
AcDbLine
 10
245.2500000000001
 20
896.1399999999999
 30
0.0
 11
245.2500000000001
 21
860.1399999999999
 31
0.0
  0
LINE
  5
B53
330
1E
100
AcDbEntity
  8
0
100
AcDbLine
 10
195.53
 20
898.994
 30
0.0
 11
198.8320000000001
 21
898.2449999999998
 31
0.0
  0
LINE
  5
B54
330
1E
100
AcDbEntity
  8
0
100
AcDbLine
 10
245.2500000000001
 20
822.1399999999999
 30
0.0
 11
245.2500000000001
 21
826.5960000000001
 31
0.0
  0
LINE
  5
B55
330
1E
100
AcDbEntity
  8
0
100
AcDbLine
 10
305.5280000000001
 20
821.84
 30
0.0
 11
306.3760000000001
 21
821.84
 31
0.0
  0
LINE
  5
B56
330
1E
100
AcDbEntity
  8
0
100
AcDbLine
 10
308.2500000000001
 20
822.4879999999998
 30
0.0
 11
308.2500000000001
 21
823.14
 31
0.0
  0
LINE
  5
B57
330
1E
100
AcDbEntity
  8
0
100
AcDbLine
 10
308.85
 20
823.14
 30
0.0
 11
309.2500000000001
 21
823.14
 31
0.0
  0
LINE
  5
B58
330
1E
100
AcDbEntity
  8
0
100
AcDbLine
 10
309.2500000000001
 20
823.14
 30
0.0
 11
310.2500000000001
 21
824.14
 31
0.0
  0
LINE
  5
B59
330
1E
100
AcDbEntity
  8
0
100
AcDbLine
 10
310.2500000000001
 20
824.14
 30
0.0
 11
310.2500000000001
 21
906.14
 31
0.0
  0
LINE
  5
B5A
330
1E
100
AcDbEntity
  8
0
100
AcDbLine
 10
309.85
 20
824.14
 30
0.0
 11
310.2500000000001
 21
824.14
 31
0.0
  0
LINE
  5
B5B
330
1E
100
AcDbEntity
  8
0
100
AcDbLine
 10
308.2500000000001
 20
823.14
 30
0.0
 11
308.2500000000001
 21
822.4879999999998
 31
0.0
  0
LINE
  5
B5C
330
1E
100
AcDbEntity
  8
0
100
AcDbLine
 10
308.2500000000001
 20
823.14
 30
0.0
 11
308.85
 21
823.14
 31
0.0
  0
LINE
  5
B5D
330
1E
100
AcDbEntity
  8
0
100
AcDbLine
 10
308.6500000000002
 20
824.14
 30
0.0
 11
309.85
 21
824.14
 31
0.0
  0
LINE
  5
B5E
330
1E
100
AcDbEntity
  8
0
100
AcDbLine
 10
306.7499999999999
 20
824.14
 30
0.0
 11
308.6500000000002
 21
824.14
 31
0.0
  0
LINE
  5
B5F
330
1E
100
AcDbEntity
  8
0
100
AcDbLine
 10
307.85
 20
823.14
 30
0.0
 11
308.2500000000001
 21
823.14
 31
0.0
  0
LINE
  5
B60
330
1E
100
AcDbEntity
  8
0
100
AcDbLine
 10
306.9500000000001
 20
823.14
 30
0.0
 11
307.85
 21
823.14
 31
0.0
  0
LINE
  5
B61
330
1E
100
AcDbEntity
  8
0
100
AcDbLine
 10
307.7500000000001
 20
823.14
 30
0.0
 11
308.85
 21
823.14
 31
0.0
  0
LINE
  5
B62
330
1E
100
AcDbEntity
  8
0
100
AcDbLine
 10
306.05
 20
823.14
 30
0.0
 11
307.7500000000001
 21
823.14
 31
0.0
  0
LINE
  5
B63
330
1E
100
AcDbEntity
  8
0
100
AcDbLine
 10
306.7000000000001
 20
822.5900000000001
 30
0.0
 11
307.2500000000001
 21
821.1399999999999
 31
0.0
  0
LINE
  5
B64
330
1E
100
AcDbEntity
  8
0
100
AcDbLine
 10
307.2500000000001
 20
792.488
 30
0.0
 11
307.4220000000001
 21
792.488
 31
0.0
  0
LINE
  5
B65
330
1E
100
AcDbEntity
  8
0
100
AcDbLine
 10
307.4220000000001
 20
792.488
 30
0.0
 11
308.4220000000001
 21
792.488
 31
0.0
  0
LINE
  5
B66
330
1E
100
AcDbEntity
  8
0
100
AcDbLine
 10
308.3220000000002
 20
822.4879999999998
 30
0.0
 11
309.4220000000001
 21
822.4879999999998
 31
0.0
  0
LINE
  5
B67
330
1E
100
AcDbEntity
  8
0
100
AcDbLine
 10
309.4220000000001
 20
822.4879999999998
 30
0.0
 11
309.8219999999999
 21
822.4879999999998
 31
0.0
  0
LINE
  5
B68
330
1E
100
AcDbEntity
  8
0
100
AcDbLine
 10
308.4220000000001
 20
792.488
 30
0.0
 11
308.8220000000002
 21
792.488
 31
0.0
  0
LINE
  5
B69
330
1E
100
AcDbEntity
  8
0
100
AcDbLine
 10
308.8220000000002
 20
792.488
 30
0.0
 11
309.8219999999999
 21
822.4879999999998
 31
0.0
  0
LINE
  5
B6A
330
1E
100
AcDbEntity
  8
0
100
AcDbLine
 10
306.738689655172
 20
822.4879999999998
 30
0.0
 11
308.3220000000002
 21
822.4879999999998
 31
0.0
  0
LINE
  5
B6B
330
1E
100
AcDbEntity
  8
0
100
AcDbLine
 10
307.2500000000001
 20
821.1399999999999
 30
0.0
 11
307.2500000000001
 21
778.1399999999999
 31
0.0
  0
LINE
  5
B6C
330
1E
100
AcDbEntity
  8
0
100
AcDbLine
 10
303.9579999999999
 20
821.84
 30
0.0
 11
305.5280000000001
 21
821.84
 31
0.0
  0
LINE
  5
B6D
330
1E
100
AcDbEntity
  8
0
100
AcDbLine
 10
305.3500000000001
 20
823.14
 30
0.0
 11
306.9500000000001
 21
823.14
 31
0.0
  0
LINE
  5
B6E
330
1E
100
AcDbEntity
  8
0
100
AcDbLine
 10
305.2500000000001
 20
823.14
 30
0.0
 11
306.7000000000001
 21
822.5900000000001
 31
0.0
  0
LINE
  5
B6F
330
1E
100
AcDbEntity
  8
0
100
AcDbLine
 10
305.2500000000001
 20
823.14
 30
0.0
 11
306.05
 21
823.14
 31
0.0
  0
LINE
  5
B70
330
1E
100
AcDbEntity
  8
0
100
AcDbLine
 10
305.2500000000001
 20
823.14
 30
0.0
 11
305.3500000000001
 21
823.14
 31
0.0
  0
LINE
  5
B71
330
1E
100
AcDbEntity
  8
0
100
AcDbLine
 10
298.2499999999999
 20
824.14
 30
0.0
 11
301.3500000000001
 21
824.14
 31
0.0
  0
LINE
  5
B72
330
1E
100
AcDbEntity
  8
0
100
AcDbLine
 10
301.3500000000001
 20
824.14
 30
0.0
 11
304.2499999999999
 21
824.14
 31
0.0
  0
LINE
  5
B73
330
1E
100
AcDbEntity
  8
0
100
AcDbLine
 10
304.2499999999999
 20
824.14
 30
0.0
 11
306.7499999999999
 21
824.14
 31
0.0
  0
LINE
  5
B74
330
1E
100
AcDbEntity
  8
0
100
AcDbLine
 10
295.1499999999999
 20
824.14
 30
0.0
 11
298.2499999999999
 21
824.14
 31
0.0
  0
LINE
  5
B75
330
1E
100
AcDbEntity
  8
0
100
AcDbLine
 10
292.2499999999999
 20
824.14
 30
0.0
 11
295.1499999999999
 21
824.14
 31
0.0
  0
LINE
  5
B76
330
1E
100
AcDbEntity
  8
0
100
AcDbLine
 10
289.7499999999999
 20
824.14
 30
0.0
 11
292.2499999999999
 21
824.14
 31
0.0
  0
LINE
  5
B77
330
1E
100
AcDbEntity
  8
0
100
AcDbLine
 10
286.2500000000001
 20
824.14
 30
0.0
 11
286.2500000000001
 21
977.64
 31
0.0
  0
LINE
  5
B78
330
1E
100
AcDbEntity
  8
0
100
AcDbLine
 10
286.2500000000001
 20
824.14
 30
0.0
 11
287.2500000000001
 21
823.14
 31
0.0
  0
LINE
  5
B79
330
1E
100
AcDbEntity
  8
0
100
AcDbLine
 10
286.2500000000001
 20
824.14
 30
0.0
 11
286.6499999999999
 21
824.14
 31
0.0
  0
LINE
  5
B7A
330
1E
100
AcDbEntity
  8
0
100
AcDbLine
 10
286.6499999999999
 20
824.14
 30
0.0
 11
287.8500000000001
 21
824.14
 31
0.0
  0
LINE
  5
B7B
330
1E
100
AcDbEntity
  8
0
100
AcDbLine
 10
287.8500000000001
 20
824.14
 30
0.0
 11
289.7499999999999
 21
824.14
 31
0.0
  0
LINE
  5
B7C
330
1E
100
AcDbEntity
  8
0
100
AcDbLine
 10
284.2500000000001
 20
822.1399999999999
 30
0.0
 11
284.2500000000001
 21
823.14
 31
0.0
  0
LINE
  5
B7D
330
1E
100
AcDbEntity
  8
0
100
AcDbLine
 10
293.9220000000001
 20
823.14
 30
0.0
 11
297.2500000000001
 21
823.14
 31
0.0
  0
LINE
  5
B7E
330
1E
100
AcDbEntity
  8
0
100
AcDbLine
 10
290.8020000000001
 20
823.14
 30
0.0
 11
293.9220000000001
 21
823.14
 31
0.0
  0
LINE
  5
B7F
330
1E
100
AcDbEntity
  8
0
100
AcDbLine
 10
297.2500000000001
 20
823.14
 30
0.0
 11
300.5780000000001
 21
823.14
 31
0.0
  0
LINE
  5
B80
330
1E
100
AcDbEntity
  8
0
100
AcDbLine
 10
300.5780000000001
 20
823.14
 30
0.0
 11
303.6979999999999
 21
823.14
 31
0.0
  0
LINE
  5
B81
330
1E
100
AcDbEntity
  8
0
100
AcDbLine
 10
303.6979999999999
 20
823.14
 30
0.0
 11
305.2500000000001
 21
823.14
 31
0.0
  0
LINE
  5
B82
330
1E
100
AcDbEntity
  8
0
100
AcDbLine
 10
288.0459999999999
 20
823.14
 30
0.0
 11
290.8020000000001
 21
823.14
 31
0.0
  0
LINE
  5
B83
330
1E
100
AcDbEntity
  8
0
100
AcDbLine
 10
285.9660000000001
 20
823.14
 30
0.0
 11
288.0459999999999
 21
823.14
 31
0.0
  0
LINE
  5
B84
330
1E
100
AcDbEntity
  8
0
100
AcDbLine
 10
284.7180000000001
 20
823.14
 30
0.0
 11
285.9660000000001
 21
823.14
 31
0.0
  0
LINE
  5
B85
330
1E
100
AcDbEntity
  8
0
100
AcDbLine
 10
284.2500000000001
 20
823.14
 30
0.0
 11
284.2500000000001
 21
822.1399999999999
 31
0.0
  0
LINE
  5
B86
330
1E
100
AcDbEntity
  8
0
100
AcDbLine
 10
284.2500000000001
 20
823.14
 30
0.0
 11
284.7180000000001
 21
823.14
 31
0.0
  0
LINE
  5
B87
330
1E
100
AcDbEntity
  8
0
100
AcDbLine
 10
297.2500000000001
 20
821.84
 30
0.0
 11
299.4479999999999
 21
821.84
 31
0.0
  0
LINE
  5
B88
330
1E
100
AcDbEntity
  8
0
100
AcDbLine
 10
299.4479999999999
 20
821.84
 30
0.0
 11
301.6840000000001
 21
821.84
 31
0.0
  0
LINE
  5
B89
330
1E
100
AcDbEntity
  8
0
100
AcDbLine
 10
301.6840000000001
 20
821.84
 30
0.0
 11
303.9579999999999
 21
821.84
 31
0.0
  0
LINE
  5
B8A
330
1E
100
AcDbEntity
  8
0
100
AcDbLine
 10
252.0000000000001
 20
780.0499999999998
 30
0.0
 11
253.82
 21
779.22
 31
0.0
  0
LINE
  5
B8B
330
1E
100
AcDbEntity
  8
0
100
AcDbLine
 10
254.98
 20
778.3099999999998
 30
0.0
 11
256.8
 21
777.77
 31
0.0
  0
LINE
  5
B8C
330
1E
100
AcDbEntity
  8
0
100
AcDbLine
 10
256.8
 20
777.77
 30
0.0
 11
259.2500000000001
 21
777.4399999999999
 31
0.0
  0
LINE
  5
B8D
330
1E
100
AcDbEntity
  8
0
100
AcDbLine
 10
307.2500000000001
 20
778.1399999999999
 30
0.0
 11
307.2500000000001
 21
821.1399999999999
 31
0.0
  0
LINE
  5
B8E
330
1E
100
AcDbEntity
  8
0
100
AcDbLine
 10
259.2500000000001
 20
777.4399999999999
 30
0.0
 11
297.2500000000001
 21
777.4399999999999
 31
0.0
  0
LINE
  5
B8F
330
1E
100
AcDbEntity
  8
0
100
AcDbLine
 10
305.5280000000001
 20
777.4399999999999
 30
0.0
 11
306.3760000000001
 21
777.4399999999999
 31
0.0
  0
LINE
  5
B90
330
1E
100
AcDbEntity
  8
0
100
AcDbLine
 10
303.9579999999999
 20
777.4399999999999
 30
0.0
 11
305.5280000000001
 21
777.4399999999999
 31
0.0
  0
LINE
  5
B91
330
1E
100
AcDbEntity
  8
0
100
AcDbLine
 10
297.2500000000001
 20
777.4399999999999
 30
0.0
 11
299.4479999999999
 21
777.4399999999999
 31
0.0
  0
LINE
  5
B92
330
1E
100
AcDbEntity
  8
0
100
AcDbLine
 10
299.4479999999999
 20
777.4399999999999
 30
0.0
 11
301.6840000000001
 21
777.4399999999999
 31
0.0
  0
LINE
  5
B93
330
1E
100
AcDbEntity
  8
0
100
AcDbLine
 10
301.6840000000001
 20
777.4399999999999
 30
0.0
 11
303.9579999999999
 21
777.4399999999999
 31
0.0
  0
LINE
  5
B94
330
1E
100
AcDbEntity
  8
0
100
AcDbLine
 10
253.82
 20
779.22
 30
0.0
 11
254.98
 21
778.3099999999998
 31
0.0
  0
LINE
  5
B95
330
1E
100
AcDbEntity
  8
0
100
AcDbLine
 10
250.2499999999999
 20
780.4399999999999
 30
0.0
 11
252.0000000000001
 21
780.0499999999998
 31
0.0
  0
LINE
  5
B96
330
1E
100
AcDbEntity
  8
0
100
AcDbLine
 10
245.2500000000001
 20
826.5960000000001
 30
0.0
 11
245.2500000000001
 21
860.1399999999999
 31
0.0
  0
LINE
  5
B97
330
1E
100
AcDbEntity
  8
0
100
AcDbLine
 10
245.2500000000001
 20
860.1399999999999
 30
0.0
 11
245.2500000000001
 21
826.5960000000001
 31
0.0
  0
LINE
  5
B98
330
1E
100
AcDbEntity
  8
0
100
AcDbLine
 10
245.2500000000001
 20
860.1399999999999
 30
0.0
 11
245.2500000000001
 21
896.1399999999999
 31
0.0
  0
LINE
  5
B99
330
1E
100
AcDbEntity
  8
0
100
AcDbLine
 10
245.2500000000001
 20
826.5899999999998
 30
0.0
 11
245.2500000000001
 21
822.1399999999999
 31
0.0
  0
LINE
  5
B9A
330
1E
100
AcDbEntity
  8
0
100
AcDbLine
 10
244.6499999999999
 20
821.84
 30
0.0
 11
297.2500000000001
 21
821.84
 31
0.0
  0
LINE
  5
B9B
330
1E
100
AcDbEntity
  8
0
100
AcDbLine
 10
245.2
 20
780.4399999999999
 30
0.0
 11
250.2499999999999
 21
780.4399999999999
 31
0.0
  0
LINE
  5
B9C
330
1E
100
AcDbEntity
  8
0
100
AcDbLine
 10
242.2499999999999
 20
625.14
 30
0.0
 11
243.45
 21
625.14
 31
0.0
  0
LINE
  5
B9D
330
1E
100
AcDbEntity
  8
0
100
AcDbLine
 10
243.45
 20
625.14
 30
0.0
 11
244.2499999999999
 21
625.14
 31
0.0
  0
LINE
  5
B9E
330
1E
100
AcDbEntity
  8
0
100
AcDbLine
 10
245.2500000000001
 20
757.1399999999999
 30
0.0
 11
245.2500000000001
 21
764.58
 31
0.0
  0
LINE
  5
B9F
330
1E
100
AcDbEntity
  8
0
100
AcDbLine
 10
305.4679140918719
 20
776.222657069331
 30
0.0
 11
305.4850000000001
 21
621.9449999999999
 31
0.0
  0
LINE
  5
BA0
330
1E
100
AcDbEntity
  8
0
100
AcDbLine
 10
306.7000000000001
 20
776.6899999999999
 30
0.0
 11
307.2500000000001
 21
778.1399999999999
 31
0.0
  0
LINE
  5
BA1
330
1E
100
AcDbEntity
  8
0
100
AcDbLine
 10
269.3220000000001
 20
776.488
 30
0.0
 11
272.3219999999999
 21
776.488
 31
0.0
  0
LINE
  5
BA2
330
1E
100
AcDbEntity
  8
0
100
AcDbLine
 10
272.3219999999999
 20
776.488
 30
0.0
 11
275.3220000000001
 21
776.488
 31
0.0
  0
LINE
  5
BA3
330
1E
100
AcDbEntity
  8
0
100
AcDbLine
 10
275.3220000000001
 20
776.488
 30
0.0
 11
278.022
 21
776.488
 31
0.0
  0
LINE
  5
BA4
330
1E
100
AcDbEntity
  8
0
100
AcDbLine
 10
278.022
 20
776.488
 30
0.0
 11
280.4220000000001
 21
776.488
 31
0.0
  0
LINE
  5
BA5
330
1E
100
AcDbEntity
  8
0
100
AcDbLine
 10
280.4220000000001
 20
776.488
 30
0.0
 11
282.3220000000001
 21
776.488
 31
0.0
  0
LINE
  5
BA6
330
1E
100
AcDbEntity
  8
0
100
AcDbLine
 10
282.3220000000001
 20
776.488
 30
0.0
 11
283.4220000000001
 21
776.488
 31
0.0
  0
LINE
  5
BA7
330
1E
100
AcDbEntity
  8
0
100
AcDbLine
 10
283.4220000000001
 20
776.488
 30
0.0
 11
283.8220000000001
 21
776.488
 31
0.0
  0
LINE
  5
BA8
330
1E
100
AcDbEntity
  8
0
100
AcDbLine
 10
266.6220000000001
 20
776.488
 30
0.0
 11
269.3220000000001
 21
776.488
 31
0.0
  0
LINE
  5
BA9
330
1E
100
AcDbEntity
  8
0
100
AcDbLine
 10
264.222
 20
776.488
 30
0.0
 11
266.6220000000001
 21
776.488
 31
0.0
  0
LINE
  5
BAA
330
1E
100
AcDbEntity
  8
0
100
AcDbLine
 10
260.8220000000001
 20
776.488
 30
0.0
 11
261.2220000000001
 21
776.488
 31
0.0
  0
LINE
  5
BAB
330
1E
100
AcDbEntity
  8
0
100
AcDbLine
 10
260.8220000000001
 20
776.488
 30
0.0
 11
261.8219999999999
 21
746.4879999999999
 31
0.0
  0
LINE
  5
BAC
330
1E
100
AcDbEntity
  8
0
100
AcDbLine
 10
262.3219999999999
 20
776.488
 30
0.0
 11
264.222
 21
776.488
 31
0.0
  0
LINE
  5
BAD
330
1E
100
AcDbEntity
  8
0
100
AcDbLine
 10
261.2220000000001
 20
776.488
 30
0.0
 11
262.3219999999999
 21
776.488
 31
0.0
  0
LINE
  5
BAE
330
1E
100
AcDbEntity
  8
0
100
AcDbLine
 10
305.4679140918719
 20
776.222657069331
 30
0.0
 11
305.4850000000001
 21
621.9449999999999
 31
0.0
  0
LINE
  5
BAF
330
1E
100
AcDbEntity
  8
0
100
AcDbLine
 10
279.4761805808101
 20
746.4879999999999
 30
0.0
 11
280.0910000000001
 21
621.0869999999999
 31
0.0
  0
LINE
  5
BB0
330
1E
100
AcDbEntity
  8
0
100
AcDbLine
 10
279.4761805808101
 20
746.4879999999999
 30
0.0
 11
280.0910000000001
 21
621.0869999999999
 31
0.0
  0
LINE
  5
BB1
330
1E
100
AcDbEntity
  8
0
100
AcDbLine
 10
279.4761805808101
 20
746.4879999999999
 30
0.0
 11
279.7220000000001
 21
746.4879999999999
 31
0.0
  0
LINE
  5
BB2
330
1E
100
AcDbEntity
  8
0
100
AcDbLine
 10
289.4619999999999
 20
776.14
 30
0.0
 11
291.7940000000001
 21
776.14
 31
0.0
  0
LINE
  5
BB3
330
1E
100
AcDbEntity
  8
0
100
AcDbLine
 10
289.4619999999999
 20
776.14
 30
0.0
 11
289.512963437451
 21
776.14
 31
0.0
  0
LINE
  5
BB4
330
1E
100
AcDbEntity
  8
0
100
AcDbLine
 10
293.9220000000001
 20
776.14
 30
0.0
 11
297.2500000000001
 21
776.14
 31
0.0
  0
LINE
  5
BB5
330
1E
100
AcDbEntity
  8
0
100
AcDbLine
 10
294.434
 20
776.14
 30
0.0
 11
297.2500000000001
 21
776.14
 31
0.0
  0
LINE
  5
BB6
330
1E
100
AcDbEntity
  8
0
100
AcDbLine
 10
305.2500000000001
 20
776.14
 30
0.0
 11
306.7000000000001
 21
776.6899999999999
 31
0.0
  0
LINE
  5
BB7
330
1E
100
AcDbEntity
  8
0
100
AcDbLine
 10
297.2500000000001
 20
776.14
 30
0.0
 11
300.5780000000001
 21
776.14
 31
0.0
  0
LINE
  5
BB8
330
1E
100
AcDbEntity
  8
0
100
AcDbLine
 10
297.2500000000001
 20
776.14
 30
0.0
 11
300.066
 21
776.14
 31
0.0
  0
LINE
  5
BB9
330
1E
100
AcDbEntity
  8
0
100
AcDbLine
 10
300.066
 20
776.14
 30
0.0
 11
302.706
 21
776.14
 31
0.0
  0
LINE
  5
BBA
330
1E
100
AcDbEntity
  8
0
100
AcDbLine
 10
302.706
 20
776.14
 30
0.0
 11
305.2500000000001
 21
776.14
 31
0.0
  0
LINE
  5
BBB
330
1E
100
AcDbEntity
  8
0
100
AcDbLine
 10
303.6979999999999
 20
776.14
 30
0.0
 11
305.2500000000001
 21
776.14
 31
0.0
  0
LINE
  5
BBC
330
1E
100
AcDbEntity
  8
0
100
AcDbLine
 10
300.5780000000001
 20
776.14
 30
0.0
 11
303.6979999999999
 21
776.14
 31
0.0
  0
LINE
  5
BBD
330
1E
100
AcDbEntity
  8
0
100
AcDbLine
 10
290.8020000000001
 20
776.14
 30
0.0
 11
293.9220000000001
 21
776.14
 31
0.0
  0
LINE
  5
BBE
330
1E
100
AcDbEntity
  8
0
100
AcDbLine
 10
291.7940000000001
 20
776.14
 30
0.0
 11
294.434
 21
776.14
 31
0.0
  0
LINE
  5
BBF
330
1E
100
AcDbEntity
  8
0
100
AcDbLine
 10
279.7220000000001
 20
746.4879999999999
 30
0.0
 11
281.4220000000001
 21
746.4879999999999
 31
0.0
  0
LINE
  5
BC0
330
1E
100
AcDbEntity
  8
0
100
AcDbLine
 10
281.4220000000001
 20
746.4879999999999
 30
0.0
 11
282.4220000000001
 21
746.4879999999999
 31
0.0
  0
LINE
  5
BC1
330
1E
100
AcDbEntity
  8
0
100
AcDbLine
 10
282.4220000000001
 20
746.4879999999999
 30
0.0
 11
282.8219999999999
 21
746.4879999999999
 31
0.0
  0
LINE
  5
BC2
330
1E
100
AcDbEntity
  8
0
100
AcDbLine
 10
282.8219999999999
 20
746.4879999999999
 30
0.0
 11
283.8220000000001
 21
776.488
 31
0.0
  0
LINE
  5
BC3
330
1E
100
AcDbEntity
  8
0
100
AcDbLine
 10
263.2220000000001
 20
746.4879999999999
 30
0.0
 11
264.9220000000001
 21
746.4879999999999
 31
0.0
  0
LINE
  5
BC4
330
1E
100
AcDbEntity
  8
0
100
AcDbLine
 10
263.2220000000001
 20
746.4879999999999
 30
0.0
 11
263.8316007880511
 21
746.4879999999999
 31
0.0
  0
LINE
  5
BC5
330
1E
100
AcDbEntity
  8
0
100
AcDbLine
 10
262.222
 20
746.4879999999999
 30
0.0
 11
263.2220000000001
 21
746.4879999999999
 31
0.0
  0
LINE
  5
BC6
330
1E
100
AcDbEntity
  8
0
100
AcDbLine
 10
269.6220000000002
 20
746.4879999999999
 30
0.0
 11
272.3219999999999
 21
746.4879999999999
 31
0.0
  0
LINE
  5
BC7
330
1E
100
AcDbEntity
  8
0
100
AcDbLine
 10
267.1220000000001
 20
746.4879999999999
 30
0.0
 11
269.6220000000002
 21
746.4879999999999
 31
0.0
  0
LINE
  5
BC8
330
1E
100
AcDbEntity
  8
0
100
AcDbLine
 10
272.3219999999999
 20
746.4879999999999
 30
0.0
 11
275.022
 21
746.4879999999999
 31
0.0
  0
LINE
  5
BC9
330
1E
100
AcDbEntity
  8
0
100
AcDbLine
 10
275.022
 20
746.4879999999999
 30
0.0
 11
277.522
 21
746.4879999999999
 31
0.0
  0
LINE
  5
BCA
330
1E
100
AcDbEntity
  8
0
100
AcDbLine
 10
277.522
 20
746.4879999999999
 30
0.0
 11
279.7220000000001
 21
746.4879999999999
 31
0.0
  0
LINE
  5
BCB
330
1E
100
AcDbEntity
  8
0
100
AcDbLine
 10
264.9220000000001
 20
746.4879999999999
 30
0.0
 11
267.1220000000001
 21
746.4879999999999
 31
0.0
  0
LINE
  5
BCC
330
1E
100
AcDbEntity
  8
0
100
AcDbLine
 10
261.8219999999999
 20
746.4879999999999
 30
0.0
 11
262.222
 21
746.4879999999999
 31
0.0
  0
LINE
  5
BCD
330
1E
100
AcDbEntity
  8
0
100
AcDbLine
 10
245.2500000000001
 20
764.58
 30
0.0
 11
245.2500000000001
 21
757.1399999999999
 31
0.0
  0
LINE
  5
BCE
330
1E
100
AcDbEntity
  8
0
100
AcDbLine
 10
245.2500000000001
 20
764.58
 30
0.0
 11
244.6499999999999
 21
821.84
 31
0.0
  0
LINE
  5
BCF
330
1E
100
AcDbEntity
  8
0
100
AcDbLine
 10
245.2500000000001
 20
757.1399999999999
 30
0.0
 11
245.2500000000001
 21
702.1399999999999
 31
0.0
  0
LINE
  5
BD0
330
1E
100
AcDbEntity
  8
0
100
AcDbLine
 10
245.2500000000001
 20
702.1399999999999
 30
0.0
 11
245.2500000000001
 21
757.1399999999999
 31
0.0
  0
LINE
  5
BD1
330
1E
100
AcDbEntity
  8
0
100
AcDbLine
 10
245.2500000000001
 20
702.1399999999999
 30
0.0
 11
245.2500000000001
 21
625.14
 31
0.0
  0
LINE
  5
BD3
330
1E
100
AcDbEntity
  8
0
100
AcDbLine
 10
244.2499999999999
 20
625.14
 30
0.0
 11
244.6499999999999
 21
625.14
 31
0.0
  0
LINE
  5
BD4
330
1E
100
AcDbEntity
  8
0
100
AcDbLine
 10
244.6499999999999
 20
625.14
 30
0.0
 11
244.9000000000001
 21
625.14
 31
0.0
  0
LINE
  5
BD5
330
1E
100
AcDbEntity
  8
0
100
AcDbLine
 10
244.9000000000001
 20
625.14
 30
0.0
 11
245.1000000000001
 21
625.14
 31
0.0
  0
LINE
  5
BD6
330
1E
100
AcDbEntity
  8
0
100
AcDbLine
 10
245.1000000000001
 20
625.14
 30
0.0
 11
245.2
 21
625.14
 31
0.0
  0
LINE
  5
BD7
330
1E
100
AcDbEntity
  8
0
100
AcDbLine
 10
245.2500000000001
 20
625.14
 30
0.0
 11
245.2500000000001
 21
702.1399999999999
 31
0.0
  0
LINE
  5
BDB
330
1E
100
AcDbEntity
  8
0
100
AcDbLine
 10
294.7359999999999
 20
176.9689999999998
 30
0.0
 11
297.8650000000001
 21
176.5059999999998
 31
0.0
  0
LINE
  5
BDC
330
1E
100
AcDbEntity
  8
0
100
AcDbLine
 10
297.8650000000001
 20
176.5059999999998
 30
0.0
 11
300.926
 21
177.0149999999999
 31
0.0
  0
LINE
  5
BDD
330
1E
100
AcDbEntity
  8
0
100
AcDbLine
 10
300.926
 20
177.0149999999999
 30
0.0
 11
303.319
 21
179.0509999999998
 31
0.0
  0
LINE
  5
BDE
330
1E
100
AcDbEntity
  8
0
100
AcDbLine
 10
303.319
 20
179.0509999999998
 30
0.0
 11
304.9720000000001
 21
181.9659999999998
 31
0.0
  0
LINE
  5
BDF
330
1E
100
AcDbEntity
  8
0
100
AcDbLine
 10
304.9720000000001
 20
181.9659999999998
 30
0.0
 11
305.3940000000001
 21
185.3429999999999
 31
0.0
  0
LINE
  5
BE0
330
1E
100
AcDbEntity
  8
0
100
AcDbLine
 10
305.1890000000001
 20
186.978
 30
0.0
 11
305.3940000000001
 21
185.3429999999999
 31
0.0
  0
LINE
  5
BE1
330
1E
100
AcDbEntity
  8
0
100
AcDbLine
 10
305.5719999999999
 20
456.6719999999998
 30
0.0
 11
305.6700000000001
 21
436.965
 31
0.0
  0
LINE
  5
BE2
330
1E
100
AcDbEntity
  8
0
100
AcDbLine
 10
305.6700000000001
 20
436.965
 30
0.0
 11
305.6810000000001
 21
415.648
 31
0.0
  0
LINE
  5
BE3
330
1E
100
AcDbEntity
  8
0
100
AcDbLine
 10
305.6810000000001
 20
415.648
 30
0.0
 11
305.691
 21
394.0099999999998
 31
0.0
  0
LINE
  5
BE4
330
1E
100
AcDbEntity
  8
0
100
AcDbLine
 10
305.691
 20
394.0099999999998
 30
0.0
 11
305.7030000000001
 21
372.1319999999999
 31
0.0
  0
LINE
  5
BE5
330
1E
100
AcDbEntity
  8
0
100
AcDbLine
 10
305.7030000000001
 20
372.1319999999999
 30
0.0
 11
305.713
 21
352.7659999999999
 31
0.0
  0
LINE
  5
BE6
330
1E
100
AcDbEntity
  8
0
100
AcDbLine
 10
305.7880000000001
 20
195.8759999999998
 30
0.0
 11
305.79
 21
187.1689999999999
 31
0.0
  0
LINE
  5
BE7
330
1E
100
AcDbEntity
  8
0
100
AcDbLine
 10
305.7830000000001
 20
207.2839999999998
 30
0.0
 11
305.7880000000001
 21
195.8759999999998
 31
0.0
  0
LINE
  5
BE8
330
1E
100
AcDbEntity
  8
0
100
AcDbLine
 10
305.7739999999999
 20
225.5859999999998
 30
0.0
 11
305.7830000000001
 21
207.2839999999998
 31
0.0
  0
LINE
  5
BE9
330
1E
100
AcDbEntity
  8
0
100
AcDbLine
 10
305.7669999999999
 20
243.0589999999999
 30
0.0
 11
305.7739999999999
 21
225.5859999999998
 31
0.0
  0
LINE
  5
BEA
330
1E
100
AcDbEntity
  8
0
100
AcDbLine
 10
305.7559999999999
 20
264.1229999999998
 30
0.0
 11
305.7669999999999
 21
243.0589999999999
 31
0.0
  0
LINE
  5
BEB
330
1E
100
AcDbEntity
  8
0
100
AcDbLine
 10
305.7450000000001
 20
287.5569999999999
 30
0.0
 11
305.7559999999999
 21
264.1229999999998
 31
0.0
  0
LINE
  5
BEC
330
1E
100
AcDbEntity
  8
0
100
AcDbLine
 10
305.734
 20
310.4729999999999
 30
0.0
 11
305.7450000000001
 21
287.5569999999999
 31
0.0
  0
LINE
  5
BED
330
1E
100
AcDbEntity
  8
0
100
AcDbLine
 10
305.723
 20
333.1469999999999
 30
0.0
 11
305.734
 21
310.4729999999999
 31
0.0
  0
LINE
  5
BEE
330
1E
100
AcDbEntity
  8
0
100
AcDbLine
 10
305.713
 20
352.7659999999999
 30
0.0
 11
305.723
 21
333.1469999999999
 31
0.0
  0
LINE
  5
BEF
330
1E
100
AcDbEntity
  8
0
100
AcDbLine
 10
305.56
 20
477.3189999999999
 30
0.0
 11
305.5719999999999
 21
456.6719999999998
 31
0.0
  0
LINE
  5
BF0
330
1E
100
AcDbEntity
  8
0
100
AcDbLine
 10
305.55
 20
496.245
 30
0.0
 11
305.56
 21
477.3189999999999
 31
0.0
  0
LINE
  5
BF1
330
1E
100
AcDbEntity
  8
0
100
AcDbLine
 10
305.5379999999999
 20
518.3579999999999
 30
0.0
 11
305.55
 21
496.245
 31
0.0
  0
LINE
  5
BF2
330
1E
100
AcDbEntity
  8
0
100
AcDbLine
 10
305.5260000000001
 20
542.648
 30
0.0
 11
305.5379999999999
 21
518.3579999999999
 31
0.0
  0
LINE
  5
BF3
330
1E
100
AcDbEntity
  8
0
100
AcDbLine
 10
305.513
 20
566.798
 30
0.0
 11
305.5260000000001
 21
542.648
 31
0.0
  0
LINE
  5
BF4
330
1E
100
AcDbEntity
  8
0
100
AcDbLine
 10
305.502
 20
589.326
 30
0.0
 11
305.513
 21
566.798
 31
0.0
  0
LINE
  5
BF5
330
1E
100
AcDbEntity
  8
0
100
AcDbLine
 10
305.4850000000001
 20
621.9449999999999
 30
0.0
 11
305.502
 21
589.326
 31
0.0
  0
LINE
  5
BF6
330
1E
100
AcDbEntity
  8
0
100
AcDbLine
 10
305.3940000000001
 20
185.3429999999999
 30
0.0
 11
305.79
 21
187.1689999999999
 31
0.0
  0
LINE
  5
BF7
330
1E
100
AcDbEntity
  8
0
100
AcDbLine
 10
304.694
 20
195.6019999999998
 30
0.0
 11
305.1890000000001
 21
186.978
 31
0.0
  0
LINE
  5
BF8
330
1E
100
AcDbEntity
  8
0
100
AcDbLine
 10
304.042
 20
206.9329999999999
 30
0.0
 11
304.694
 21
195.6019999999998
 31
0.0
  0
LINE
  5
BF9
330
1E
100
AcDbEntity
  8
0
100
AcDbLine
 10
302.993
 20
225.1469999999998
 30
0.0
 11
304.042
 21
206.9329999999999
 31
0.0
  0
LINE
  5
BFA
330
1E
100
AcDbEntity
  8
0
100
AcDbLine
 10
301.992
 20
242.5479999999999
 30
0.0
 11
302.993
 21
225.1469999999998
 31
0.0
  0
LINE
  5
BFB
330
1E
100
AcDbEntity
  8
0
100
AcDbLine
 10
300.782
 20
263.546
 30
0.0
 11
301.992
 21
242.5479999999999
 31
0.0
  0
LINE
  5
BFC
330
1E
100
AcDbEntity
  8
0
100
AcDbLine
 10
299.436
 20
286.9159999999999
 30
0.0
 11
300.782
 21
263.546
 31
0.0
  0
LINE
  5
BFD
330
1E
100
AcDbEntity
  8
0
100
AcDbLine
 10
298.1190000000001
 20
309.782
 30
0.0
 11
299.436
 21
286.9159999999999
 31
0.0
  0
LINE
  5
BFE
330
1E
100
AcDbEntity
  8
0
100
AcDbLine
 10
296.816
 20
332.4139999999999
 30
0.0
 11
298.1190000000001
 21
309.782
 31
0.0
  0
LINE
  5
BFF
330
1E
100
AcDbEntity
  8
0
100
AcDbLine
 10
295.6870000000001
 20
352.0019999999998
 30
0.0
 11
296.816
 21
332.4139999999999
 31
0.0
  0
LINE
  5
C00
330
1E
100
AcDbEntity
  8
0
100
AcDbLine
 10
292.137
 20
179.0049999999999
 30
0.0
 11
294.7359999999999
 21
176.9689999999998
 31
0.0
  0
LINE
  5
C01
330
1E
100
AcDbEntity
  8
0
100
AcDbLine
 10
290.1970000000001
 20
181.8269999999998
 30
0.0
 11
292.137
 21
179.0049999999999
 31
0.0
  0
LINE
  5
C02
330
1E
100
AcDbEntity
  8
0
100
AcDbLine
 10
290.8370000000001
 20
436.1619999999999
 30
0.0
 11
292.066
 21
414.8389999999999
 31
0.0
  0
LINE
  5
C03
330
1E
100
AcDbEntity
  8
0
100
AcDbLine
 10
292.066
 20
414.8389999999999
 30
0.0
 11
293.3120000000001
 21
393.2089999999999
 31
0.0
  0
LINE
  5
C04
330
1E
100
AcDbEntity
  8
0
100
AcDbLine
 10
293.3120000000001
 20
393.2089999999999
 30
0.0
 11
294.5720000000001
 21
371.3469999999998
 31
0.0
  0
LINE
  5
C05
330
1E
100
AcDbEntity
  8
0
100
AcDbLine
 10
294.5720000000001
 20
371.3469999999998
 30
0.0
 11
295.6870000000001
 21
352.0019999999998
 31
0.0
  0
LINE
  5
C06
330
1E
100
AcDbEntity
  8
0
100
AcDbLine
 10
289.4210000000001
 20
185.2509999999998
 30
0.0
 11
290.1970000000001
 21
181.8269999999998
 31
0.0
  0
LINE
  5
C07
330
1E
100
AcDbEntity
  8
0
100
AcDbLine
 10
289.2160000000001
 20
186.0579999999999
 30
0.0
 11
289.4210000000001
 21
185.2509999999998
 31
0.0
  0
LINE
  5
C08
330
1E
100
AcDbEntity
  8
0
100
AcDbLine
 10
289.6129999999999
 20
455.8749999999999
 30
0.0
 11
290.8370000000001
 21
436.1619999999999
 31
0.0
  0
LINE
  5
C09
330
1E
100
AcDbEntity
  8
0
100
AcDbLine
 10
289.561
 20
477.3099999999999
 30
0.0
 11
289.5720000000001
 21
456.6639999999998
 31
0.0
  0
LINE
  5
C0A
330
1E
100
AcDbEntity
  8
0
100
AcDbLine
 10
289.55
 20
496.236
 30
0.0
 11
289.561
 21
477.3099999999999
 31
0.0
  0
LINE
  5
C0B
330
1E
100
AcDbEntity
  8
0
100
AcDbLine
 10
289.5389999999999
 20
518.3489999999999
 30
0.0
 11
289.55
 21
496.236
 31
0.0
  0
LINE
  5
C0C
330
1E
100
AcDbEntity
  8
0
100
AcDbLine
 10
289.5260000000001
 20
542.641
 30
0.0
 11
289.5389999999999
 21
518.3489999999999
 31
0.0
  0
LINE
  5
C0D
330
1E
100
AcDbEntity
  8
0
100
AcDbLine
 10
289.513
 20
566.7909999999999
 30
0.0
 11
289.5260000000001
 21
542.641
 31
0.0
  0
LINE
  5
C0E
330
1E
100
AcDbEntity
  8
0
100
AcDbLine
 10
289.502
 20
589.3179999999999
 30
0.0
 11
289.513
 21
566.7909999999999
 31
0.0
  0
LINE
  5
C0F
330
1E
100
AcDbEntity
  8
0
100
AcDbLine
 10
289.4859999999999
 20
621.937
 30
0.0
 11
289.512963437451
 21
776.14
 31
0.0
  0
LINE
  5
C10
330
1E
100
AcDbEntity
  8
0
100
AcDbLine
 10
289.4859999999999
 20
621.937
 30
0.0
 11
289.502
 21
589.3179999999999
 31
0.0
  0
LINE
  5
C11
330
1E
100
AcDbEntity
  8
0
100
AcDbLine
 10
288.7200000000001
 20
194.6829999999998
 30
0.0
 11
289.2160000000001
 21
186.0579999999999
 31
0.0
  0
LINE
  5
C12
330
1E
100
AcDbEntity
  8
0
100
AcDbLine
 10
288.069
 20
206.0119999999999
 30
0.0
 11
288.7200000000001
 21
194.6829999999998
 31
0.0
  0
LINE
  5
C13
330
1E
100
AcDbEntity
  8
0
100
AcDbLine
 10
288.4220000000001
 20
476.538
 30
0.0
 11
289.6129999999999
 21
455.8749999999999
 31
0.0
  0
LINE
  5
C14
330
1E
100
AcDbEntity
  8
0
100
AcDbLine
 10
287.02
 20
224.2259999999999
 30
0.0
 11
288.069
 21
206.0119999999999
 31
0.0
  0
LINE
  5
C15
330
1E
100
AcDbEntity
  8
0
100
AcDbLine
 10
286.0170000000001
 20
241.6269999999999
 30
0.0
 11
287.02
 21
224.2259999999999
 31
0.0
  0
LINE
  5
C16
330
1E
100
AcDbEntity
  8
0
100
AcDbLine
 10
287.33
 20
495.4689999999999
 30
0.0
 11
288.4220000000001
 21
476.538
 31
0.0
  0
LINE
  5
C17
330
1E
100
AcDbEntity
  8
0
100
AcDbLine
 10
286.056
 20
517.581
 30
0.0
 11
287.33
 21
495.4689999999999
 31
0.0
  0
LINE
  5
C18
330
1E
100
AcDbEntity
  8
0
100
AcDbLine
 10
284.809
 20
262.6259999999998
 30
0.0
 11
286.0170000000001
 21
241.6269999999999
 31
0.0
  0
LINE
  5
C19
330
1E
100
AcDbEntity
  8
0
100
AcDbLine
 10
283.463
 20
285.9949999999999
 30
0.0
 11
284.809
 21
262.6259999999998
 31
0.0
  0
LINE
  5
C1A
330
1E
100
AcDbEntity
  8
0
100
AcDbLine
 10
284.657
 20
541.8609999999999
 30
0.0
 11
286.056
 21
517.581
 31
0.0
  0
LINE
  5
C1B
330
1E
100
AcDbEntity
  8
0
100
AcDbLine
 10
282.145
 20
308.8609999999998
 30
0.0
 11
283.463
 21
285.9949999999999
 31
0.0
  0
LINE
  5
C1C
330
1E
100
AcDbEntity
  8
0
100
AcDbLine
 10
280.8410000000001
 20
331.4939999999999
 30
0.0
 11
282.145
 21
308.8609999999998
 31
0.0
  0
LINE
  5
C1D
330
1E
100
AcDbEntity
  8
0
100
AcDbLine
 10
283.2650000000001
 20
565.996
 30
0.0
 11
284.657
 21
541.8609999999999
 31
0.0
  0
LINE
  5
C1E
330
1E
100
AcDbEntity
  8
0
100
AcDbLine
 10
281.9689999999999
 20
588.5049999999999
 30
0.0
 11
283.2650000000001
 21
565.996
 31
0.0
  0
LINE
  5
C1F
330
1E
100
AcDbEntity
  8
0
100
AcDbLine
 10
279.7130000000001
 20
351.0809999999999
 30
0.0
 11
280.8410000000001
 21
331.4939999999999
 31
0.0
  0
LINE
  5
C20
330
1E
100
AcDbEntity
  8
0
100
AcDbLine
 10
280.0910000000001
 20
621.0869999999999
 30
0.0
 11
281.9689999999999
 21
588.5049999999999
 31
0.0
  0
LINE
  5
C21
330
1E
100
AcDbEntity
  8
0
100
AcDbLine
 10
278.599
 20
370.4269999999997
 30
0.0
 11
279.7130000000001
 21
351.0809999999999
 31
0.0
  0
LINE
  5
C22
330
1E
100
AcDbEntity
  8
0
100
AcDbLine
 10
272.4479999999999
 20
475.6169999999998
 30
0.0
 11
273.6399999999999
 21
454.955
 31
0.0
  0
LINE
  5
C23
330
1E
100
AcDbEntity
  8
0
100
AcDbLine
 10
271.357
 20
494.5479999999999
 30
0.0
 11
272.4479999999999
 21
475.6169999999998
 31
0.0
  0
LINE
  5
C24
330
1E
100
AcDbEntity
  8
0
100
AcDbLine
 10
270.0819999999999
 20
516.6599999999998
 30
0.0
 11
271.357
 21
494.5479999999999
 31
0.0
  0
LINE
  5
C25
330
1E
100
AcDbEntity
  8
0
100
AcDbLine
 10
268.683
 20
540.941
 30
0.0
 11
270.0819999999999
 21
516.6599999999998
 31
0.0
  0
LINE
  5
C26
330
1E
100
AcDbEntity
  8
0
100
AcDbLine
 10
267.292
 20
565.076
 30
0.0
 11
268.683
 21
540.941
 31
0.0
  0
LINE
  5
C27
330
1E
100
AcDbEntity
  8
0
100
AcDbLine
 10
265.9950000000001
 20
587.5839999999998
 30
0.0
 11
267.292
 21
565.076
 31
0.0
  0
LINE
  5
C28
330
1E
100
AcDbEntity
  8
0
100
AcDbLine
 10
264.118
 20
620.1669999999999
 30
0.0
 11
264.128931267632
 21
746.4879999999999
 31
0.0
  0
LINE
  5
C29
330
1E
100
AcDbEntity
  8
0
100
AcDbLine
 10
264.118
 20
620.1669999999999
 30
0.0
 11
265.9950000000001
 21
587.5839999999998
 31
0.0
  0
LINE
  5
C2A
330
1E
100
AcDbEntity
  8
0
100
AcDbLine
 10
274.8620000000002
 20
435.2419999999999
 30
0.0
 11
276.092
 21
413.918
 31
0.0
  0
LINE
  5
C2B
330
1E
100
AcDbEntity
  8
0
100
AcDbLine
 10
276.092
 20
413.918
 30
0.0
 11
277.338
 21
392.2899999999998
 31
0.0
  0
LINE
  5
C2C
330
1E
100
AcDbEntity
  8
0
100
AcDbLine
 10
277.338
 20
392.2899999999998
 30
0.0
 11
278.599
 21
370.4269999999997
 31
0.0
  0
LINE
  5
C2D
330
1E
100
AcDbEntity
  8
0
100
AcDbLine
 10
273.6399999999999
 20
454.955
 30
0.0
 11
274.8620000000002
 21
435.2419999999999
 31
0.0
  0
LINE
  5
C4C
330
1E
100
AcDbEntity
  8
0
100
AcDbLine
 10
244.35
 20
624.84
 30
0.0
 11
244.6000000000001
 21
624.84
 31
0.0
  0
LINE
  5
C4D
330
1E
100
AcDbEntity
  8
0
100
AcDbLine
 10
244.6000000000001
 20
624.84
 30
0.0
 11
244.7740000000001
 21
624.84
 31
0.0
  0
LINE
  5
C4E
330
1E
100
AcDbEntity
  8
0
100
AcDbLine
 10
244.7740000000001
 20
624.84
 30
0.0
 11
244.8640000000001
 21
624.84
 31
0.0
  0
LINE
  5
C4F
330
1E
100
AcDbEntity
  8
0
100
AcDbLine
 10
244.8640000000001
 20
624.84
 30
0.0
 11
244.936
 21
624.84
 31
0.0
  0
LINE
  5
C50
330
1E
100
AcDbEntity
  8
0
100
AcDbLine
 10
244.178
 20
625.14
 30
0.0
 11
244.2499999999999
 21
625.14
 31
0.0
  0
LINE
  5
C51
330
1E
100
AcDbEntity
  8
0
100
AcDbLine
 10
244.07
 20
625.14
 30
0.0
 11
244.178
 21
625.14
 31
0.0
  0
LINE
  5
C52
330
1E
100
AcDbEntity
  8
0
100
AcDbLine
 10
243.9070000000001
 20
625.14
 30
0.0
 11
244.07
 21
625.14
 31
0.0
  0
LINE
  5
C53
330
1E
100
AcDbEntity
  8
0
100
AcDbLine
 10
243.95
 20
624.84
 30
0.0
 11
244.35
 21
624.84
 31
0.0
  0
LINE
  5
C54
330
1E
100
AcDbEntity
  8
0
100
AcDbLine
 10
243.6540000000001
 20
625.14
 30
0.0
 11
243.9070000000001
 21
625.14
 31
0.0
  0
LINE
  5
C55
330
1E
100
AcDbEntity
  8
0
100
AcDbLine
 10
243.2570000000001
 20
625.14
 30
0.0
 11
243.6540000000001
 21
625.14
 31
0.0
  0
LINE
  5
C56
330
1E
100
AcDbEntity
  8
0
100
AcDbLine
 10
242.4500000000001
 20
625.14
 30
0.0
 11
243.2570000000001
 21
625.14
 31
0.0
  0
LINE
  5
C57
330
1E
100
AcDbEntity
  8
0
100
AcDbLine
 10
243.1500000000001
 20
624.84
 30
0.0
 11
243.95
 21
624.84
 31
0.0
  0
LINE
  5
C58
330
1E
100
AcDbEntity
  8
0
100
AcDbLine
 10
241.95
 20
624.84
 30
0.0
 11
243.1500000000001
 21
624.84
 31
0.0
  0
LINE
  5
C59
330
1E
100
AcDbEntity
  8
0
100
AcDbLine
 10
240.95
 20
826.1460000000001
 30
0.0
 11
240.95
 21
824.6259999999999
 31
0.0
  0
LINE
  5
C5A
330
1E
100
AcDbEntity
  8
0
100
AcDbLine
 10
240.95
 20
826.1460000000001
 30
0.0
 11
240.95
 21
827.4840000000001
 31
0.0
  0
LINE
  5
C5B
330
1E
100
AcDbEntity
  8
0
100
AcDbLine
 10
240.95
 20
827.4840000000001
 30
0.0
 11
240.95
 21
836.3939999999999
 31
0.0
  0
LINE
  5
C5C
330
1E
100
AcDbEntity
  8
0
100
AcDbLine
 10
240.95
 20
827.4840000000001
 30
0.0
 11
240.95
 21
826.1460000000001
 31
0.0
  0
LINE
  5
C5D
330
1E
100
AcDbEntity
  8
0
100
AcDbLine
 10
240.95
 20
836.3939999999999
 30
0.0
 11
240.95
 21
845.3039999999997
 31
0.0
  0
LINE
  5
C5E
330
1E
100
AcDbEntity
  8
0
100
AcDbLine
 10
240.95
 20
836.3939999999999
 30
0.0
 11
240.95
 21
827.4840000000001
 31
0.0
  0
LINE
  5
C5F
330
1E
100
AcDbEntity
  8
0
100
AcDbLine
 10
203.55
 20
836.3939999999999
 30
0.0
 11
203.55
 21
845.3039999999997
 31
0.0
  0
LINE
  5
C60
330
1E
100
AcDbEntity
  8
0
100
AcDbLine
 10
203.55
 20
836.3939999999999
 30
0.0
 11
203.55
 21
827.4840000000001
 31
0.0
  0
LINE
  5
C61
330
1E
100
AcDbEntity
  8
0
100
AcDbLine
 10
203.55
 20
845.3039999999997
 30
0.0
 11
203.55
 21
846.4610000000002
 31
0.0
  0
LINE
  5
C62
330
1E
100
AcDbEntity
  8
0
100
AcDbLine
 10
203.55
 20
845.3039999999997
 30
0.0
 11
203.55
 21
836.3939999999999
 31
0.0
  0
LINE
  5
C63
330
1E
100
AcDbEntity
  8
0
100
AcDbLine
 10
240.95
 20
845.3039999999997
 30
0.0
 11
240.95
 21
846.4610000000002
 31
0.0
  0
LINE
  5
C64
330
1E
100
AcDbEntity
  8
0
100
AcDbLine
 10
240.95
 20
845.3039999999997
 30
0.0
 11
240.95
 21
836.3939999999999
 31
0.0
  0
LINE
  5
C65
330
1E
100
AcDbEntity
  8
0
100
AcDbLine
 10
204.2499999999999
 20
848.5769999999998
 30
0.0
 11
240.2499999999999
 21
848.5769999999998
 31
0.0
  0
LINE
  5
C66
330
1E
100
AcDbEntity
  8
0
100
AcDbLine
 10
240.2499999999999
 20
848.5769999999998
 30
0.0
 11
240.95
 21
848.3539999999999
 31
0.0
  0
LINE
  5
C67
330
1E
100
AcDbEntity
  8
0
100
AcDbLine
 10
240.95
 20
848.0969999999997
 30
0.0
 11
240.95
 21
847.436
 31
0.0
  0
LINE
  5
C68
330
1E
100
AcDbEntity
  8
0
100
AcDbLine
 10
240.95
 20
848.0969999999997
 30
0.0
 11
240.95
 21
848.3539999999999
 31
0.0
  0
LINE
  5
C69
330
1E
100
AcDbEntity
  8
0
100
AcDbLine
 10
240.95
 20
848.3539999999999
 30
0.0
 11
240.95
 21
848.0969999999997
 31
0.0
  0
LINE
  5
C6A
330
1E
100
AcDbEntity
  8
0
100
AcDbLine
 10
240.95
 20
846.4610000000002
 30
0.0
 11
240.95
 21
845.3039999999997
 31
0.0
  0
LINE
  5
C6B
330
1E
100
AcDbEntity
  8
0
100
AcDbLine
 10
240.95
 20
846.4610000000002
 30
0.0
 11
240.95
 21
847.436
 31
0.0
  0
LINE
  5
C6C
330
1E
100
AcDbEntity
  8
0
100
AcDbLine
 10
240.95
 20
847.436
 30
0.0
 11
240.95
 21
846.4610000000002
 31
0.0
  0
LINE
  5
C6D
330
1E
100
AcDbEntity
  8
0
100
AcDbLine
 10
240.95
 20
847.436
 30
0.0
 11
240.95
 21
848.0969999999997
 31
0.0
  0
LINE
  5
C6E
330
1E
100
AcDbEntity
  8
0
100
AcDbLine
 10
203.55
 20
848.3539999999999
 30
0.0
 11
203.55
 21
848.0969999999997
 31
0.0
  0
LINE
  5
C6F
330
1E
100
AcDbEntity
  8
0
100
AcDbLine
 10
203.55
 20
848.3539999999999
 30
0.0
 11
204.2499999999999
 21
848.5769999999998
 31
0.0
  0
LINE
  5
C70
330
1E
100
AcDbEntity
  8
0
100
AcDbLine
 10
203.55
 20
848.0969999999997
 30
0.0
 11
203.55
 21
847.436
 31
0.0
  0
LINE
  5
C71
330
1E
100
AcDbEntity
  8
0
100
AcDbLine
 10
203.55
 20
848.0969999999997
 30
0.0
 11
203.55
 21
848.3539999999999
 31
0.0
  0
LINE
  5
C72
330
1E
100
AcDbEntity
  8
0
100
AcDbLine
 10
203.55
 20
846.4610000000002
 30
0.0
 11
203.55
 21
847.436
 31
0.0
  0
LINE
  5
C73
330
1E
100
AcDbEntity
  8
0
100
AcDbLine
 10
203.55
 20
846.4610000000002
 30
0.0
 11
203.55
 21
845.3039999999997
 31
0.0
  0
LINE
  5
C74
330
1E
100
AcDbEntity
  8
0
100
AcDbLine
 10
203.55
 20
847.436
 30
0.0
 11
203.55
 21
848.0969999999997
 31
0.0
  0
LINE
  5
C75
330
1E
100
AcDbEntity
  8
0
100
AcDbLine
 10
203.55
 20
847.436
 30
0.0
 11
203.55
 21
846.4610000000002
 31
0.0
  0
LINE
  5
C76
330
1E
100
AcDbEntity
  8
0
100
AcDbLine
 10
199.2499999999999
 20
860.1399999999999
 30
0.0
 11
199.2499999999999
 21
826.5899999999998
 31
0.0
  0
LINE
  5
C77
330
1E
100
AcDbEntity
  8
0
100
AcDbLine
 10
203.55
 20
827.4840000000001
 30
0.0
 11
203.55
 21
836.3939999999999
 31
0.0
  0
LINE
  5
C78
330
1E
100
AcDbEntity
  8
0
100
AcDbLine
 10
203.55
 20
827.4840000000001
 30
0.0
 11
203.55
 21
826.1460000000001
 31
0.0
  0
LINE
  5
C79
330
1E
100
AcDbEntity
  8
0
100
AcDbLine
 10
203.55
 20
826.1460000000001
 30
0.0
 11
203.55
 21
827.4840000000001
 31
0.0
  0
LINE
  5
C7A
330
1E
100
AcDbEntity
  8
0
100
AcDbLine
 10
203.55
 20
826.1460000000001
 30
0.0
 11
203.55
 21
824.6259999999999
 31
0.0
  0
LINE
  5
C7B
330
1E
100
AcDbEntity
  8
0
100
AcDbLine
 10
199.2499999999999
 20
826.5899999999998
 30
0.0
 11
199.2499999999999
 21
860.1399999999999
 31
0.0
  0
LINE
  5
C7C
330
1E
100
AcDbEntity
  8
0
100
AcDbLine
 10
199.2499999999999
 20
826.5899999999998
 30
0.0
 11
199.2499999999999
 21
818.7309999999998
 31
0.0
  0
LINE
  5
C7D
330
1E
100
AcDbEntity
  8
0
100
AcDbLine
 10
240.95
 20
824.6259999999999
 30
0.0
 11
240.95
 21
823.1480000000001
 31
0.0
  0
LINE
  5
C7E
330
1E
100
AcDbEntity
  8
0
100
AcDbLine
 10
240.95
 20
824.6259999999999
 30
0.0
 11
240.95
 21
826.1460000000001
 31
0.0
  0
LINE
  5
C7F
330
1E
100
AcDbEntity
  8
0
100
AcDbLine
 10
240.95
 20
823.1480000000001
 30
0.0
 11
240.95
 21
821.8019999999997
 31
0.0
  0
LINE
  5
C80
330
1E
100
AcDbEntity
  8
0
100
AcDbLine
 10
240.95
 20
823.1480000000001
 30
0.0
 11
240.95
 21
824.6259999999999
 31
0.0
  0
LINE
  5
C81
330
1E
100
AcDbEntity
  8
0
100
AcDbLine
 10
241.1779999999999
 20
789.6019999999999
 30
0.0
 11
241.25
 21
790.059
 31
0.0
  0
LINE
  5
C82
330
1E
100
AcDbEntity
  8
0
100
AcDbLine
 10
240.9860000000001
 20
789.1749999999998
 30
0.0
 11
241.1779999999999
 21
789.6019999999999
 31
0.0
  0
LINE
  5
C83
330
1E
100
AcDbEntity
  8
0
100
AcDbLine
 10
241.25
 20
625.14
 30
0.0
 11
242.4500000000001
 21
625.14
 31
0.0
  0
LINE
  5
C84
330
1E
100
AcDbEntity
  8
0
100
AcDbLine
 10
240.95
 20
819.818
 30
0.0
 11
240.95
 21
793.2189999999999
 31
0.0
  0
LINE
  5
C85
330
1E
100
AcDbEntity
  8
0
100
AcDbLine
 10
240.95
 20
819.818
 30
0.0
 11
240.95
 21
820.6319999999998
 31
0.0
  0
LINE
  5
C86
330
1E
100
AcDbEntity
  8
0
100
AcDbLine
 10
240.95
 20
820.6319999999998
 30
0.0
 11
240.95
 21
819.818
 31
0.0
  0
LINE
  5
C87
330
1E
100
AcDbEntity
  8
0
100
AcDbLine
 10
240.95
 20
820.6319999999998
 30
0.0
 11
240.95
 21
821.8019999999997
 31
0.0
  0
LINE
  5
C88
330
1E
100
AcDbEntity
  8
0
100
AcDbLine
 10
240.95
 20
821.8019999999997
 30
0.0
 11
240.95
 21
820.6319999999998
 31
0.0
  0
LINE
  5
C89
330
1E
100
AcDbEntity
  8
0
100
AcDbLine
 10
240.95
 20
821.8019999999997
 30
0.0
 11
240.95
 21
823.1480000000001
 31
0.0
  0
LINE
  5
C8A
330
1E
100
AcDbEntity
  8
0
100
AcDbLine
 10
203.55
 20
824.6259999999999
 30
0.0
 11
203.55
 21
826.1460000000001
 31
0.0
  0
LINE
  5
C8B
330
1E
100
AcDbEntity
  8
0
100
AcDbLine
 10
203.55
 20
824.6259999999999
 30
0.0
 11
203.55
 21
823.1480000000001
 31
0.0
  0
LINE
  5
C8C
330
1E
100
AcDbEntity
  8
0
100
AcDbLine
 10
203.55
 20
823.1480000000001
 30
0.0
 11
203.55
 21
821.8019999999997
 31
0.0
  0
LINE
  5
C8D
330
1E
100
AcDbEntity
  8
0
100
AcDbLine
 10
203.55
 20
823.1480000000001
 30
0.0
 11
203.55
 21
824.6259999999999
 31
0.0
  0
LINE
  5
C8E
330
1E
100
AcDbEntity
  8
0
100
AcDbLine
 10
203.55
 20
820.6319999999998
 30
0.0
 11
203.55
 21
821.8019999999997
 31
0.0
  0
LINE
  5
C8F
330
1E
100
AcDbEntity
  8
0
100
AcDbLine
 10
203.55
 20
820.6319999999998
 30
0.0
 11
203.55
 21
819.818
 31
0.0
  0
LINE
  5
C90
330
1E
100
AcDbEntity
  8
0
100
AcDbLine
 10
203.55
 20
821.8019999999997
 30
0.0
 11
203.55
 21
823.1480000000001
 31
0.0
  0
LINE
  5
C91
330
1E
100
AcDbEntity
  8
0
100
AcDbLine
 10
203.55
 20
821.8019999999997
 30
0.0
 11
203.55
 21
820.6319999999998
 31
0.0
  0
LINE
  5
C92
330
1E
100
AcDbEntity
  8
0
100
AcDbLine
 10
203.55
 20
819.818
 30
0.0
 11
203.55
 21
793.2189999999999
 31
0.0
  0
LINE
  5
C93
330
1E
100
AcDbEntity
  8
0
100
AcDbLine
 10
203.55
 20
819.818
 30
0.0
 11
203.55
 21
820.6319999999998
 31
0.0
  0
LINE
  5
C94
330
1E
100
AcDbEntity
  8
0
100
AcDbLine
 10
240.95
 20
793.2189999999999
 30
0.0
 11
241.25
 21
794.1609999999999
 31
0.0
  0
LINE
  5
C95
330
1E
100
AcDbEntity
  8
0
100
AcDbLine
 10
240.95
 20
793.2189999999999
 30
0.0
 11
240.95
 21
819.818
 31
0.0
  0
LINE
  5
C96
330
1E
100
AcDbEntity
  8
0
100
AcDbLine
 10
240.2499999999999
 20
792.8159999999999
 30
0.0
 11
240.2499999999999
 21
790.5059999999999
 31
0.0
  0
LINE
  5
C97
330
1E
100
AcDbEntity
  8
0
100
AcDbLine
 10
240.2499999999999
 20
792.8159999999999
 30
0.0
 11
240.95
 21
793.2189999999999
 31
0.0
  0
LINE
  5
C98
330
1E
100
AcDbEntity
  8
0
100
AcDbLine
 10
204.2499999999999
 20
792.8159999999999
 30
0.0
 11
204.2499999999999
 21
790.5059999999999
 31
0.0
  0
LINE
  5
C99
330
1E
100
AcDbEntity
  8
0
100
AcDbLine
 10
204.2499999999999
 20
792.8159999999999
 30
0.0
 11
240.2499999999999
 21
792.8159999999999
 31
0.0
  0
LINE
  5
C9A
330
1E
100
AcDbEntity
  8
0
100
AcDbLine
 10
204.2580000000001
 20
788.5119999999999
 30
0.0
 11
204.7379999999999
 21
788.3410000000001
 31
0.0
  0
LINE
  5
C9B
330
1E
100
AcDbEntity
  8
0
100
AcDbLine
 10
204.2689999999999
 20
790.2349999999999
 30
0.0
 11
204.3540000000001
 21
789.9939999999998
 31
0.0
  0
LINE
  5
C9C
330
1E
100
AcDbEntity
  8
0
100
AcDbLine
 10
204.3540000000001
 20
789.9939999999998
 30
0.0
 11
204.4550000000001
 21
789.8729999999999
 31
0.0
  0
LINE
  5
C9D
330
1E
100
AcDbEntity
  8
0
100
AcDbLine
 10
240.2309999999999
 20
790.2349999999999
 30
0.0
 11
240.2499999999999
 21
790.5059999999999
 31
0.0
  0
LINE
  5
C9E
330
1E
100
AcDbEntity
  8
0
100
AcDbLine
 10
240.2499999999999
 20
790.5059999999999
 30
0.0
 11
240.2499999999999
 21
792.8159999999999
 31
0.0
  0
LINE
  5
C9F
330
1E
100
AcDbEntity
  8
0
100
AcDbLine
 10
239.2500000000001
 20
791.5909999999999
 30
0.0
 11
239.2500000000001
 21
792.8159999999999
 31
0.0
  0
LINE
  5
CA0
330
1E
100
AcDbEntity
  8
0
100
AcDbLine
 10
239.2500000000001
 20
791.5909999999999
 30
0.0
 11
239.2500000000001
 21
790.239
 31
0.0
  0
LINE
  5
CA1
330
1E
100
AcDbEntity
  8
0
100
AcDbLine
 10
239.2500000000001
 20
792.8159999999999
 30
0.0
 11
239.2500000000001
 21
791.5909999999999
 31
0.0
  0
LINE
  5
CA2
330
1E
100
AcDbEntity
  8
0
100
AcDbLine
 10
205.2500000000001
 20
792.8159999999999
 30
0.0
 11
205.2500000000001
 21
791.5909999999999
 31
0.0
  0
LINE
  5
CA3
330
1E
100
AcDbEntity
  8
0
100
AcDbLine
 10
205.2500000000001
 20
790.239
 30
0.0
 11
205.2500000000001
 21
791.5909999999999
 31
0.0
  0
LINE
  5
CA4
330
1E
100
AcDbEntity
  8
0
100
AcDbLine
 10
239.2500000000001
 20
790.239
 30
0.0
 11
239.2500000000001
 21
791.5909999999999
 31
0.0
  0
LINE
  5
CA5
330
1E
100
AcDbEntity
  8
0
100
AcDbLine
 10
205.2500000000001
 20
791.5909999999999
 30
0.0
 11
205.2500000000001
 21
790.239
 31
0.0
  0
LINE
  5
CA6
330
1E
100
AcDbEntity
  8
0
100
AcDbLine
 10
205.2500000000001
 20
791.5909999999999
 30
0.0
 11
205.2500000000001
 21
792.8159999999999
 31
0.0
  0
LINE
  5
CA7
330
1E
100
AcDbEntity
  8
0
100
AcDbLine
 10
204.4550000000001
 20
789.8729999999999
 30
0.0
 11
204.684
 21
789.7219999999999
 31
0.0
  0
LINE
  5
CA8
330
1E
100
AcDbEntity
  8
0
100
AcDbLine
 10
204.684
 20
789.7219999999999
 30
0.0
 11
204.9120000000001
 21
789.6549999999998
 31
0.0
  0
LINE
  5
CA9
330
1E
100
AcDbEntity
  8
0
100
AcDbLine
 10
240.146
 20
789.9939999999998
 30
0.0
 11
240.2309999999999
 21
790.2349999999999
 31
0.0
  0
LINE
  5
CAA
330
1E
100
AcDbEntity
  8
0
100
AcDbLine
 10
240.0449999999999
 20
789.8729999999999
 30
0.0
 11
240.146
 21
789.9939999999998
 31
0.0
  0
LINE
  5
CAB
330
1E
100
AcDbEntity
  8
0
100
AcDbLine
 10
204.9120000000001
 20
789.6549999999998
 30
0.0
 11
222.2500000000001
 21
789.615
 31
0.0
  0
LINE
  5
CAC
330
1E
100
AcDbEntity
  8
0
100
AcDbLine
 10
240.666
 20
788.7969999999998
 30
0.0
 11
240.9860000000001
 21
789.1749999999998
 31
0.0
  0
LINE
  5
CAD
330
1E
100
AcDbEntity
  8
0
100
AcDbLine
 10
239.816
 20
789.7219999999999
 30
0.0
 11
240.0449999999999
 21
789.8729999999999
 31
0.0
  0
LINE
  5
CAE
330
1E
100
AcDbEntity
  8
0
100
AcDbLine
 10
239.588
 20
789.6549999999998
 30
0.0
 11
239.816
 21
789.7219999999999
 31
0.0
  0
LINE
  5
CAF
330
1E
100
AcDbEntity
  8
0
100
AcDbLine
 10
222.2500000000001
 20
789.615
 30
0.0
 11
239.588
 21
789.6549999999998
 31
0.0
  0
LINE
  5
CB0
330
1E
100
AcDbEntity
  8
0
100
AcDbLine
 10
204.7379999999999
 20
788.3410000000001
 30
0.0
 11
222.2500000000001
 21
788.2769999999999
 31
0.0
  0
LINE
  5
CB1
330
1E
100
AcDbEntity
  8
0
100
AcDbLine
 10
205.85
 20
625.14
 30
0.0
 11
207.95
 21
625.14
 31
0.0
  0
LINE
  5
CB2
330
1E
100
AcDbEntity
  8
0
100
AcDbLine
 10
240.242
 20
788.5119999999999
 30
0.0
 11
240.666
 21
788.7969999999998
 31
0.0
  0
LINE
  5
CB3
330
1E
100
AcDbEntity
  8
0
100
AcDbLine
 10
239.762
 20
788.3410000000001
 30
0.0
 11
240.242
 21
788.5119999999999
 31
0.0
  0
LINE
  5
CB4
330
1E
100
AcDbEntity
  8
0
100
AcDbLine
 10
222.2500000000001
 20
788.2769999999999
 30
0.0
 11
239.762
 21
788.3410000000001
 31
0.0
  0
LINE
  5
CB5
330
1E
100
AcDbEntity
  8
0
100
AcDbLine
 10
207.95
 20
625.14
 30
0.0
 11
210.2500000000001
 21
625.14
 31
0.0
  0
LINE
  5
CB6
330
1E
100
AcDbEntity
  8
0
100
AcDbLine
 10
210.2500000000001
 20
625.14
 30
0.0
 11
213.2499999999999
 21
625.14
 31
0.0
  0
LINE
  5
CB7
330
1E
100
AcDbEntity
  8
0
100
AcDbLine
 10
213.2499999999999
 20
625.14
 30
0.0
 11
216.85
 21
625.14
 31
0.0
  0
LINE
  5
CB8
330
1E
100
AcDbEntity
  8
0
100
AcDbLine
 10
216.85
 20
625.14
 30
0.0
 11
219.9500000000001
 21
625.14
 31
0.0
  0
LINE
  5
CB9
330
1E
100
AcDbEntity
  8
0
100
AcDbLine
 10
219.9500000000001
 20
625.14
 30
0.0
 11
222.2500000000001
 21
625.14
 31
0.0
  0
LINE
  5
CBA
330
1E
100
AcDbEntity
  8
0
100
AcDbLine
 10
240.55
 20
625.14
 30
0.0
 11
242.2499999999999
 21
625.14
 31
0.0
  0
LINE
  5
CBB
330
1E
100
AcDbEntity
  8
0
100
AcDbLine
 10
238.6500000000001
 20
625.14
 30
0.0
 11
240.55
 21
625.14
 31
0.0
  0
LINE
  5
CBC
330
1E
100
AcDbEntity
  8
0
100
AcDbLine
 10
239.55
 20
625.14
 30
0.0
 11
241.25
 21
625.14
 31
0.0
  0
LINE
  5
CBD
330
1E
100
AcDbEntity
  8
0
100
AcDbLine
 10
240.2499999999999
 20
624.84
 30
0.0
 11
241.95
 21
624.84
 31
0.0
  0
LINE
  5
CBE
330
1E
100
AcDbEntity
  8
0
100
AcDbLine
 10
236.55
 20
625.14
 30
0.0
 11
238.6500000000001
 21
625.14
 31
0.0
  0
LINE
  5
CBF
330
1E
100
AcDbEntity
  8
0
100
AcDbLine
 10
234.2500000000001
 20
625.14
 30
0.0
 11
236.55
 21
625.14
 31
0.0
  0
LINE
  5
CC0
330
1E
100
AcDbEntity
  8
0
100
AcDbLine
 10
235.761
 20
625.14
 30
0.0
 11
237.7459999999999
 21
625.14
 31
0.0
  0
LINE
  5
CC1
330
1E
100
AcDbEntity
  8
0
100
AcDbLine
 10
237.7459999999999
 20
625.14
 30
0.0
 11
239.55
 21
625.14
 31
0.0
  0
LINE
  5
CC2
330
1E
100
AcDbEntity
  8
0
100
AcDbLine
 10
238.3500000000001
 20
624.84
 30
0.0
 11
240.2499999999999
 21
624.84
 31
0.0
  0
LINE
  5
CC3
330
1E
100
AcDbEntity
  8
0
100
AcDbLine
 10
236.2500000000001
 20
624.84
 30
0.0
 11
238.3500000000001
 21
624.84
 31
0.0
  0
LINE
  5
CC4
330
1E
100
AcDbEntity
  8
0
100
AcDbLine
 10
231.2500000000001
 20
625.14
 30
0.0
 11
234.2500000000001
 21
625.14
 31
0.0
  0
LINE
  5
CC5
330
1E
100
AcDbEntity
  8
0
100
AcDbLine
 10
227.6499999999999
 20
625.14
 30
0.0
 11
231.2500000000001
 21
625.14
 31
0.0
  0
LINE
  5
CC6
330
1E
100
AcDbEntity
  8
0
100
AcDbLine
 10
231.0009999999999
 20
625.14
 30
0.0
 11
233.56
 21
625.14
 31
0.0
  0
LINE
  5
CC7
330
1E
100
AcDbEntity
  8
0
100
AcDbLine
 10
233.56
 20
625.14
 30
0.0
 11
235.761
 21
625.14
 31
0.0
  0
LINE
  5
CC8
330
1E
100
AcDbEntity
  8
0
100
AcDbLine
 10
233.9500000000001
 20
624.84
 30
0.0
 11
236.2500000000001
 21
624.84
 31
0.0
  0
LINE
  5
CC9
330
1E
100
AcDbEntity
  8
0
100
AcDbLine
 10
231.1820000000001
 20
624.84
 30
0.0
 11
233.9500000000001
 21
624.84
 31
0.0
  0
LINE
  5
CCA
330
1E
100
AcDbEntity
  8
0
100
AcDbLine
 10
224.55
 20
625.14
 30
0.0
 11
227.5729999999999
 21
625.14
 31
0.0
  0
LINE
  5
CCB
330
1E
100
AcDbEntity
  8
0
100
AcDbLine
 10
224.55
 20
625.14
 30
0.0
 11
227.6499999999999
 21
625.14
 31
0.0
  0
LINE
  5
CCC
330
1E
100
AcDbEntity
  8
0
100
AcDbLine
 10
222.2500000000001
 20
625.14
 30
0.0
 11
224.55
 21
625.14
 31
0.0
  0
LINE
  5
CCD
330
1E
100
AcDbEntity
  8
0
100
AcDbLine
 10
227.5729999999999
 20
625.14
 30
0.0
 11
231.0009999999999
 21
625.14
 31
0.0
  0
LINE
  5
CCE
330
1E
100
AcDbEntity
  8
0
100
AcDbLine
 10
227.627
 20
624.84
 30
0.0
 11
231.1820000000001
 21
624.84
 31
0.0
  0
LINE
  5
CCF
330
1E
100
AcDbEntity
  8
0
100
AcDbLine
 10
224.55
 20
624.84
 30
0.0
 11
227.627
 21
624.84
 31
0.0
  0
LINE
  5
CD0
330
1E
100
AcDbEntity
  8
0
100
AcDbLine
 10
222.2500000000001
 20
624.84
 30
0.0
 11
224.55
 21
624.84
 31
0.0
  0
LINE
  5
CD3
330
1E
100
AcDbEntity
  8
0
100
AcDbLine
 10
216.9270000000001
 20
625.14
 30
0.0
 11
219.9500000000001
 21
625.14
 31
0.0
  0
LINE
  5
CD4
330
1E
100
AcDbEntity
  8
0
100
AcDbLine
 10
213.4990000000001
 20
625.14
 30
0.0
 11
216.9270000000001
 21
625.14
 31
0.0
  0
LINE
  5
CD5
330
1E
100
AcDbEntity
  8
0
100
AcDbLine
 10
216.8730000000001
 20
624.84
 30
0.0
 11
219.9500000000001
 21
624.84
 31
0.0
  0
LINE
  5
CD6
330
1E
100
AcDbEntity
  8
0
100
AcDbLine
 10
219.9500000000001
 20
624.84
 30
0.0
 11
222.2500000000001
 21
624.84
 31
0.0
  0
LINE
  5
CD7
330
1E
100
AcDbEntity
  8
0
100
AcDbLine
 10
213.3179999999999
 20
624.84
 30
0.0
 11
216.8730000000001
 21
624.84
 31
0.0
  0
LINE
  5
CD8
330
1E
100
AcDbEntity
  8
0
100
AcDbLine
 10
210.94
 20
625.14
 30
0.0
 11
213.4990000000001
 21
625.14
 31
0.0
  0
LINE
  5
CD9
330
1E
100
AcDbEntity
  8
0
100
AcDbLine
 10
208.7390000000001
 20
625.14
 30
0.0
 11
210.94
 21
625.14
 31
0.0
  0
LINE
  5
CDA
330
1E
100
AcDbEntity
  8
0
100
AcDbLine
 10
210.55
 20
624.84
 30
0.0
 11
213.3179999999999
 21
624.84
 31
0.0
  0
LINE
  5
CDB
330
1E
100
AcDbEntity
  8
0
100
AcDbLine
 10
208.2500000000001
 20
624.84
 30
0.0
 11
210.55
 21
624.84
 31
0.0
  0
LINE
  5
CDC
330
1E
100
AcDbEntity
  8
0
100
AcDbLine
 10
206.7540000000001
 20
625.14
 30
0.0
 11
208.7390000000001
 21
625.14
 31
0.0
  0
LINE
  5
CDD
330
1E
100
AcDbEntity
  8
0
100
AcDbLine
 10
204.9500000000001
 20
625.14
 30
0.0
 11
206.7540000000001
 21
625.14
 31
0.0
  0
LINE
  5
CDE
330
1E
100
AcDbEntity
  8
0
100
AcDbLine
 10
206.15
 20
624.84
 30
0.0
 11
208.2500000000001
 21
624.84
 31
0.0
  0
LINE
  5
CDF
330
1E
100
AcDbEntity
  8
0
100
AcDbLine
 10
203.8340000000001
 20
788.7969999999998
 30
0.0
 11
204.2580000000001
 21
788.5119999999999
 31
0.0
  0
LINE
  5
CE0
330
1E
100
AcDbEntity
  8
0
100
AcDbLine
 10
204.2499999999999
 20
790.5059999999999
 30
0.0
 11
204.2499999999999
 21
792.8159999999999
 31
0.0
  0
LINE
  5
CE1
330
1E
100
AcDbEntity
  8
0
100
AcDbLine
 10
204.2499999999999
 20
790.5059999999999
 30
0.0
 11
204.2689999999999
 21
790.2349999999999
 31
0.0
  0
LINE
  5
CE2
330
1E
100
AcDbEntity
  8
0
100
AcDbLine
 10
203.95
 20
625.14
 30
0.0
 11
205.85
 21
625.14
 31
0.0
  0
LINE
  5
CE3
330
1E
100
AcDbEntity
  8
0
100
AcDbLine
 10
204.2499999999999
 20
624.84
 30
0.0
 11
206.15
 21
624.84
 31
0.0
  0
LINE
  5
CE4
330
1E
100
AcDbEntity
  8
0
100
AcDbLine
 10
199.2499999999999
 20
818.7309999999998
 30
0.0
 11
199.2499999999999
 21
826.5899999999998
 31
0.0
  0
LINE
  5
CE5
330
1E
100
AcDbEntity
  8
0
100
AcDbLine
 10
199.2499999999999
 20
818.7309999999998
 30
0.0
 11
199.2499999999999
 21
809.1469999999997
 31
0.0
  0
LINE
  5
CE6
330
1E
100
AcDbEntity
  8
0
100
AcDbLine
 10
203.55
 20
793.2189999999999
 30
0.0
 11
203.55
 21
819.818
 31
0.0
  0
LINE
  5
CE7
330
1E
100
AcDbEntity
  8
0
100
AcDbLine
 10
203.55
 20
793.2189999999999
 30
0.0
 11
204.2499999999999
 21
792.8159999999999
 31
0.0
  0
LINE
  5
CE8
330
1E
100
AcDbEntity
  8
0
100
AcDbLine
 10
203.3220000000001
 20
789.6019999999999
 30
0.0
 11
203.5140000000001
 21
789.1749999999998
 31
0.0
  0
LINE
  5
CE9
330
1E
100
AcDbEntity
  8
0
100
AcDbLine
 10
203.5140000000001
 20
789.1749999999998
 30
0.0
 11
203.8340000000001
 21
788.7969999999998
 31
0.0
  0
LINE
  5
CEA
330
1E
100
AcDbEntity
  8
0
100
AcDbLine
 10
199.2499999999999
 20
809.1469999999997
 30
0.0
 11
199.2499999999999
 21
786.532
 31
0.0
  0
LINE
  5
CEB
330
1E
100
AcDbEntity
  8
0
100
AcDbLine
 10
199.2499999999999
 20
809.1469999999997
 30
0.0
 11
199.2499999999999
 21
818.7309999999998
 31
0.0
  0
LINE
  5
CEC
330
1E
100
AcDbEntity
  8
0
100
AcDbLine
 10
203.2500000000001
 20
794.1609999999999
 30
0.0
 11
203.55
 21
793.2189999999999
 31
0.0
  0
LINE
  5
CED
330
1E
100
AcDbEntity
  8
0
100
AcDbLine
 10
203.2500000000001
 20
790.059
 30
0.0
 11
203.3220000000001
 21
789.6019999999999
 31
0.0
  0
LINE
  5
CEE
330
1E
100
AcDbEntity
  8
0
100
AcDbLine
 10
199.2499999999999
 20
786.532
 30
0.0
 11
199.2499999999999
 21
809.1469999999997
 31
0.0
  0
LINE
  5
CEF
330
1E
100
AcDbEntity
  8
0
100
AcDbLine
 10
199.2499999999999
 20
786.532
 30
0.0
 11
199.2499999999999
 21
709.58
 31
0.0
  0
LINE
  5
CF0
330
1E
100
AcDbEntity
  8
0
100
AcDbLine
 10
202.2499999999999
 20
625.14
 30
0.0
 11
203.95
 21
625.14
 31
0.0
  0
LINE
  5
CF1
330
1E
100
AcDbEntity
  8
0
100
AcDbLine
 10
201.05
 20
625.14
 30
0.0
 11
202.2499999999999
 21
625.14
 31
0.0
  0
LINE
  5
CF2
330
1E
100
AcDbEntity
  8
0
100
AcDbLine
 10
201.243
 20
625.14
 30
0.0
 11
202.05
 21
625.14
 31
0.0
  0
LINE
  5
CF3
330
1E
100
AcDbEntity
  8
0
100
AcDbLine
 10
202.05
 20
625.14
 30
0.0
 11
203.2500000000001
 21
625.14
 31
0.0
  0
LINE
  5
CF4
330
1E
100
AcDbEntity
  8
0
100
AcDbLine
 10
203.2500000000001
 20
625.14
 30
0.0
 11
204.9500000000001
 21
625.14
 31
0.0
  0
LINE
  5
CF5
330
1E
100
AcDbEntity
  8
0
100
AcDbLine
 10
202.55
 20
624.84
 30
0.0
 11
204.2499999999999
 21
624.84
 31
0.0
  0
LINE
  5
CF6
330
1E
100
AcDbEntity
  8
0
100
AcDbLine
 10
201.3500000000001
 20
624.84
 30
0.0
 11
202.55
 21
624.84
 31
0.0
  0
LINE
  5
CF7
330
1E
100
AcDbEntity
  8
0
100
AcDbLine
 10
200.2499999999999
 20
625.14
 30
0.0
 11
200.3220000000001
 21
625.14
 31
0.0
  0
LINE
  5
CF8
330
1E
100
AcDbEntity
  8
0
100
AcDbLine
 10
200.2499999999999
 20
625.14
 30
0.0
 11
201.05
 21
625.14
 31
0.0
  0
LINE
  5
CF9
330
1E
100
AcDbEntity
  8
0
100
AcDbLine
 10
199.85
 20
625.14
 30
0.0
 11
200.2499999999999
 21
625.14
 31
0.0
  0
LINE
  5
CFA
330
1E
100
AcDbEntity
  8
0
100
AcDbLine
 10
200.3220000000001
 20
625.14
 30
0.0
 11
200.4300000000001
 21
625.14
 31
0.0
  0
LINE
  5
CFB
330
1E
100
AcDbEntity
  8
0
100
AcDbLine
 10
200.4300000000001
 20
625.14
 30
0.0
 11
200.5929999999999
 21
625.14
 31
0.0
  0
LINE
  5
CFC
330
1E
100
AcDbEntity
  8
0
100
AcDbLine
 10
200.5929999999999
 20
625.14
 30
0.0
 11
200.8459999999999
 21
625.14
 31
0.0
  0
LINE
  5
CFD
330
1E
100
AcDbEntity
  8
0
100
AcDbLine
 10
200.8459999999999
 20
625.14
 30
0.0
 11
201.243
 21
625.14
 31
0.0
  0
LINE
  5
CFE
330
1E
100
AcDbEntity
  8
0
100
AcDbLine
 10
200.55
 20
624.84
 30
0.0
 11
201.3500000000001
 21
624.84
 31
0.0
  0
LINE
  5
CFF
330
1E
100
AcDbEntity
  8
0
100
AcDbLine
 10
200.15
 20
624.84
 30
0.0
 11
200.55
 21
624.84
 31
0.0
  0
LINE
  5
D00
330
1E
100
AcDbEntity
  8
0
100
AcDbLine
 10
199.9
 20
624.84
 30
0.0
 11
200.15
 21
624.84
 31
0.0
  0
LINE
  5
D01
330
1E
100
AcDbEntity
  8
0
100
AcDbLine
 10
199.6000000000001
 20
625.14
 30
0.0
 11
199.85
 21
625.14
 31
0.0
  0
LINE
  5
D02
330
1E
100
AcDbEntity
  8
0
100
AcDbLine
 10
199.3999999999999
 20
625.14
 30
0.0
 11
199.6000000000001
 21
625.14
 31
0.0
  0
LINE
  5
D03
330
1E
100
AcDbEntity
  8
0
100
AcDbLine
 10
199.7259999999999
 20
624.84
 30
0.0
 11
199.9
 21
624.84
 31
0.0
  0
LINE
  5
D04
330
1E
100
AcDbEntity
  8
0
100
AcDbLine
 10
199.636
 20
624.84
 30
0.0
 11
199.7259999999999
 21
624.84
 31
0.0
  0
LINE
  5
D05
330
1E
100
AcDbEntity
  8
0
100
AcDbLine
 10
199.564
 20
624.84
 30
0.0
 11
199.636
 21
624.84
 31
0.0
  0
LINE
  5
D07
330
1E
100
AcDbEntity
  8
0
100
AcDbLine
 10
199.3
 20
625.14
 30
0.0
 11
199.3999999999999
 21
625.14
 31
0.0
  0
LINE
  5
D08
330
1E
100
AcDbEntity
  8
0
100
AcDbLine
 10
199.2499999999999
 20
709.58
 30
0.0
 11
199.2499999999999
 21
786.532
 31
0.0
  0
LINE
  5
D09
330
1E
100
AcDbEntity
  8
0
100
AcDbLine
 10
199.2499999999999
 20
625.14
 30
0.0
 11
199.2499999999999
 21
702.1399999999999
 31
0.0
  0
LINE
  5
D0A
330
1E
100
AcDbEntity
  8
0
100
AcDbLine
 10
199.2499999999999
 20
702.1399999999999
 30
0.0
 11
199.2499999999999
 21
709.58
 31
0.0
  0
LINE
  5
D0B
330
1E
100
AcDbEntity
  8
0
100
AcDbLine
 10
199.2499999999999
 20
702.1399999999999
 30
0.0
 11
199.2499999999999
 21
625.14
 31
0.0
  0
LINE
  5
D0C
330
1E
100
AcDbEntity
  8
0
100
AcDbLine
 10
199.2499999999999
 20
709.58
 30
0.0
 11
199.2499999999999
 21
702.1399999999999
 31
0.0
  0
LINE
  5
D0D
330
1E
100
AcDbEntity
  8
0
100
AcDbLine
 10
199.2499999999999
 20
624.1399999999999
 30
0.0
 11
199.55
 21
624.84
 31
0.0
  0
LINE
  5
D10
330
1E
100
AcDbEntity
  8
0
100
AcDbLine
 10
175.2499999999999
 20
884.14
 30
0.0
 11
181.4620000000001
 21
883.322
 31
0.0
  0
LINE
  5
D11
330
1E
100
AcDbEntity
  8
0
100
AcDbLine
 10
0.5500000000001819
 20
899.84
 30
0.0
 11
1.250000000000113
 21
900.14
 31
0.0
  0
LINE
  5
D12
330
1E
100
AcDbEntity
  8
0
100
AcDbLine
 10
188.391
 20
899.928
 30
0.0
 11
191.4429999999999
 21
899.6839999999997
 31
0.0
  0
LINE
  5
D13
330
1E
100
AcDbEntity
  8
0
100
AcDbLine
 10
175.2499999999999
 20
900.14
 30
0.0
 11
183.2499999999999
 21
900.14
 31
0.0
  0
LINE
  5
D14
330
1E
100
AcDbEntity
  8
0
100
AcDbLine
 10
183.2499999999999
 20
900.14
 30
0.0
 11
188.391
 21
899.928
 31
0.0
  0
LINE
  5
D15
330
1E
100
AcDbEntity
  8
0
100
AcDbLine
 10
24.25000000000011
 20
900.14
 30
0.0
 11
175.2499999999999
 21
900.14
 31
0.0
  0
LINE
  5
D16
330
1E
100
AcDbEntity
  8
0
100
AcDbLine
 10
1.250000000000113
 20
900.14
 30
0.0
 11
1.335870000000113
 21
900.14
 31
0.0
  0
LINE
  5
D17
330
1E
100
AcDbEntity
  8
0
100
AcDbLine
 10
1.335870000000113
 20
900.14
 30
0.0
 11
1.539730000000076
 21
900.14
 31
0.0
  0
LINE
  5
D18
330
1E
100
AcDbEntity
  8
0
100
AcDbLine
 10
1.539730000000076
 20
900.14
 30
0.0
 11
1.852330000000165
 21
900.14
 31
0.0
  0
LINE
  5
D19
330
1E
100
AcDbEntity
  8
0
100
AcDbLine
 10
1.852330000000165
 20
900.14
 30
0.0
 11
2.232880000000136
 21
900.14
 31
0.0
  0
LINE
  5
D1A
330
1E
100
AcDbEntity
  8
0
100
AcDbLine
 10
2.232880000000136
 20
900.14
 30
0.0
 11
2.694970000000125
 21
900.14
 31
0.0
  0
LINE
  5
D1B
330
1E
100
AcDbEntity
  8
0
100
AcDbLine
 10
2.694970000000125
 20
900.14
 30
0.0
 11
3.242930000000114
 21
900.14
 31
0.0
  0
LINE
  5
D1C
330
1E
100
AcDbEntity
  8
0
100
AcDbLine
 10
3.242930000000114
 20
900.14
 30
0.0
 11
4.050000000000068
 21
900.14
 31
0.0
  0
LINE
  5
D1D
330
1E
100
AcDbEntity
  8
0
100
AcDbLine
 10
4.050000000000068
 20
900.14
 30
0.0
 11
5.250000000000113
 21
900.14
 31
0.0
  0
LINE
  5
D1E
330
1E
100
AcDbEntity
  8
0
100
AcDbLine
 10
21.97670000000016
 20
900.14
 30
0.0
 11
24.25000000000011
 21
900.14
 31
0.0
  0
LINE
  5
D1F
330
1E
100
AcDbEntity
  8
0
100
AcDbLine
 10
24.25000000000011
 20
900.14
 30
0.0
 11
175.2499999999999
 21
900.14
 31
0.0
  0
LINE
  5
D20
330
1E
100
AcDbEntity
  8
0
100
AcDbLine
 10
18.92730000000005
 20
900.14
 30
0.0
 11
21.97670000000016
 21
900.14
 31
0.0
  0
LINE
  5
D21
330
1E
100
AcDbEntity
  8
0
100
AcDbLine
 10
15.49890000000016
 20
900.14
 30
0.0
 11
18.92730000000005
 21
900.14
 31
0.0
  0
LINE
  5
D22
330
1E
100
AcDbEntity
  8
0
100
AcDbLine
 10
12.94030000000009
 20
900.14
 30
0.0
 11
15.49890000000016
 21
900.14
 31
0.0
  0
LINE
  5
D23
330
1E
100
AcDbEntity
  8
0
100
AcDbLine
 10
10.73900000000014
 20
900.14
 30
0.0
 11
12.94030000000009
 21
900.14
 31
0.0
  0
LINE
  5
D24
330
1E
100
AcDbEntity
  8
0
100
AcDbLine
 10
8.75412000000017
 20
900.14
 30
0.0
 11
10.73900000000014
 21
900.14
 31
0.0
  0
LINE
  5
D25
330
1E
100
AcDbEntity
  8
0
100
AcDbLine
 10
6.950000000000159
 20
900.14
 30
0.0
 11
8.75412000000017
 21
900.14
 31
0.0
  0
LINE
  5
D26
330
1E
100
AcDbEntity
  8
0
100
AcDbLine
 10
5.250000000000113
 20
900.14
 30
0.0
 11
6.950000000000159
 21
900.14
 31
0.0
  0
LINE
  5
D27
330
1E
100
AcDbEntity
  8
0
100
AcDbLine
 10
2.244550000000117
 20
892.843
 30
0.0
 11
3.90574000000015
 21
890.7379999999999
 31
0.0
  0
LINE
  5
D28
330
1E
100
AcDbEntity
  8
0
100
AcDbLine
 10
191.4429999999999
 20
899.6839999999997
 30
0.0
 11
195.53
 21
898.994
 31
0.0
  0
LINE
  5
D29
330
1E
100
AcDbEntity
  8
0
100
AcDbLine
 10
2.327800000000138
 20
885.025
 30
0.0
 11
3.908512703218548
 21
890.9239852089998
 31
0.0
  0
LINE
  5
D2A
330
1E
100
AcDbEntity
  8
0
100
AcDbLine
 10
2.327800000000138
 20
885.025
 30
0.0
 11
2.505160000000159
 21
884.6670000000001
 31
0.0
  0
LINE
  5
D2B
330
1E
100
AcDbEntity
  8
0
100
AcDbLine
 10
2.327800000000138
 20
885.025
 30
0.0
 11
3.908512703218548
 21
890.9239852089998
 31
0.0
  0
LINE
  5
D2C
330
1E
100
AcDbEntity
  8
0
100
AcDbLine
 10
2.327800000000138
 20
885.025
 30
0.0
 11
2.710310000000163
 21
884.9219999999998
 31
0.0
  0
LINE
  5
D2D
330
1E
100
AcDbEntity
  8
0
100
AcDbLine
 10
2.710310000000163
 20
884.9219999999998
 30
0.0
 11
3.730330000000094
 21
884.6490000000001
 31
0.0
  0
LINE
  5
D2E
330
1E
100
AcDbEntity
  8
0
100
AcDbLine
 10
3.730330000000094
 20
884.6490000000001
 30
0.0
 11
5.430360000000177
 21
884.1930000000001
 31
0.0
  0
LINE
  5
D2F
330
1E
100
AcDbEntity
  8
0
100
AcDbLine
 10
5.430360000000177
 20
884.1930000000001
 30
0.0
 11
7.682900000000131
 21
883.59
 31
0.0
  0
LINE
  5
D30
330
1E
100
AcDbEntity
  8
0
100
AcDbLine
 10
2.887670000000071
 20
884.5639999999999
 30
0.0
 11
3.907690000000116
 21
884.2910000000001
 31
0.0
  0
LINE
  5
D31
330
1E
100
AcDbEntity
  8
0
100
AcDbLine
 10
3.907690000000116
 20
884.2910000000001
 30
0.0
 11
5.565210000000092
 21
883.8469999999997
 31
0.0
  0
LINE
  5
D32
330
1E
100
AcDbEntity
  8
0
100
AcDbLine
 10
2.505160000000159
 20
884.6670000000001
 30
0.0
 11
2.887670000000071
 21
884.5639999999999
 31
0.0
  0
LINE
  5
D33
330
1E
100
AcDbEntity
  8
0
100
AcDbLine
 10
1.065009000000145
 20
895.1060000000001
 30
0.0
 11
2.244550000000117
 21
892.843
 31
0.0
  0
LINE
  5
D34
330
1E
100
AcDbEntity
  8
0
100
AcDbLine
 10
0.5500000000001819
 20
899.84
 30
0.0
 11
1.250000000000113
 21
900.14
 31
0.0
  0
LINE
  5
D35
330
1E
100
AcDbEntity
  8
0
100
AcDbLine
 10
0.2500000000001137
 20
898.14
 30
0.0
 11
1.065009000000145
 21
895.1060000000001
 31
0.0
  0
LINE
  5
D36
330
1E
100
AcDbEntity
  8
0
100
AcDbLine
 10
0.2500000000001137
 20
898.14
 30
0.0
 11
0.2500000000001137
 21
899.14
 31
0.0
  0
LINE
  5
D37
330
1E
100
AcDbEntity
  8
0
100
AcDbLine
 10
0.2500000000001137
 20
899.14
 30
0.0
 11
0.5500000000001819
 21
899.84
 31
0.0
  0
LINE
  5
D38
330
1E
100
AcDbEntity
  8
0
100
AcDbLine
 10
0.2500000000001137
 20
898.14
 30
0.0
 11
1.065009000000145
 21
895.1060000000001
 31
0.0
  0
LINE
  5
D39
330
1E
100
AcDbEntity
  8
0
100
AcDbLine
 10
181.4620000000001
 20
883.322
 30
0.0
 11
187.2500000000001
 21
880.925
 31
0.0
  0
LINE
  5
D3A
330
1E
100
AcDbEntity
  8
0
100
AcDbLine
 10
187.2500000000001
 20
880.925
 30
0.0
 11
192.2209999999999
 21
877.1109999999998
 31
0.0
  0
LINE
  5
D3B
330
1E
100
AcDbEntity
  8
0
100
AcDbLine
 10
24.86681079090635
 20
884.14
 30
0.0
 11
175.2499999999999
 21
884.14
 31
0.0
  0
LINE
  5
D3C
330
1E
100
AcDbEntity
  8
0
100
AcDbLine
 10
23.1957000000001
 20
879.433
 30
0.0
 11
23.57820000000015
 21
879.3309999999999
 31
0.0
  0
LINE
  5
D3D
330
1E
100
AcDbEntity
  8
0
100
AcDbLine
 10
23.57820000000015
 20
879.3309999999999
 30
0.0
 11
24.88020869890067
 21
884.1899999999998
 31
0.0
  0
LINE
  5
D3E
330
1E
100
AcDbEntity
  8
0
100
AcDbLine
 10
24.86681079090635
 20
884.14
 30
0.0
 11
175.2499999999999
 21
884.14
 31
0.0
  0
LINE
  5
D3F
330
1E
100
AcDbEntity
  8
0
100
AcDbLine
 10
23.2455000000001
 20
879.109
 30
0.0
 11
23.57820000000015
 21
879.3309999999999
 31
0.0
  0
LINE
  5
D5E
330
1E
100
AcDbEntity
  8
0
100
AcDbLine
 10
22.17560000000014
 20
879.7069999999999
 30
0.0
 11
23.1957000000001
 21
879.433
 31
0.0
  0
LINE
  5
D5F
330
1E
100
AcDbEntity
  8
0
100
AcDbLine
 10
20.4756000000001
 20
880.1619999999999
 30
0.0
 11
22.17560000000014
 21
879.7069999999999
 31
0.0
  0
LINE
  5
D60
330
1E
100
AcDbEntity
  8
0
100
AcDbLine
 10
18.22310000000015
 20
880.7659999999998
 30
0.0
 11
20.4756000000001
 21
880.1619999999999
 31
0.0
  0
LINE
  5
D61
330
1E
100
AcDbEntity
  8
0
100
AcDbLine
 10
15.67300000000011
 20
881.4489999999999
 30
0.0
 11
18.22310000000015
 21
880.7659999999998
 31
0.0
  0
LINE
  5
D62
330
1E
100
AcDbEntity
  8
0
100
AcDbLine
 10
12.95300000000008
 20
882.178
 30
0.0
 11
15.67300000000011
 21
881.4489999999999
 31
0.0
  0
LINE
  5
D63
330
1E
100
AcDbEntity
  8
0
100
AcDbLine
 10
7.682900000000131
 20
883.59
 30
0.0
 11
10.23294000000009
 21
882.9069999999999
 31
0.0
  0
LINE
  5
D64
330
1E
100
AcDbEntity
  8
0
100
AcDbLine
 10
10.23294000000009
 20
882.9069999999999
 30
0.0
 11
12.95300000000008
 21
882.178
 31
0.0
  0
LINE
  5
D65
330
1E
100
AcDbEntity
  8
0
100
AcDbLine
 10
7.732750000000123
 20
883.266
 30
0.0
 11
10.19779000000005
 21
882.605
 31
0.0
  0
LINE
  5
D66
330
1E
100
AcDbEntity
  8
0
100
AcDbLine
 10
10.19779000000005
 20
882.605
 30
0.0
 11
12.87530000000015
 21
881.888
 31
0.0
  0
LINE
  5
D67
330
1E
100
AcDbEntity
  8
0
100
AcDbLine
 10
5.565210000000092
 20
883.8469999999997
 30
0.0
 11
7.732750000000123
 21
883.266
 31
0.0
  0
LINE
  5
D68
330
1E
100
AcDbEntity
  8
0
100
AcDbLine
 10
15.55290000000013
 20
881.1699999999998
 30
0.0
 11
18.01790000000016
 21
880.5099999999999
 31
0.0
  0
LINE
  5
D69
330
1E
100
AcDbEntity
  8
0
100
AcDbLine
 10
12.87530000000015
 20
881.888
 30
0.0
 11
15.55290000000013
 21
881.1699999999998
 31
0.0
  0
LINE
  5
D6A
330
1E
100
AcDbEntity
  8
0
100
AcDbLine
 10
20.18550000000016
 20
879.9289999999999
 30
0.0
 11
21.84300000000007
 21
879.4849999999998
 31
0.0
  0
LINE
  5
D6B
330
1E
100
AcDbEntity
  8
0
100
AcDbLine
 10
18.01790000000016
 20
880.5099999999999
 30
0.0
 11
20.18550000000016
 21
879.9289999999999
 31
0.0
  0
LINE
  5
D6C
330
1E
100
AcDbEntity
  8
0
100
AcDbLine
 10
22.86300000000017
 20
879.2119999999997
 30
0.0
 11
23.2455000000001
 21
879.109
 31
0.0
  0
LINE
  5
D6D
330
1E
100
AcDbEntity
  8
0
100
AcDbLine
 10
21.84300000000007
 20
879.4849999999998
 30
0.0
 11
22.86300000000017
 21
879.2119999999997
 31
0.0
  0
LINE
  5
D79
330
1E
100
AcDbEntity
  8
0
100
AcDbLine
 10
199.55
 20
624.84
 30
0.0
 11
199.2499999999999
 21
625.14
 31
0.0
  0
LINE
  5
D7A
330
1E
100
AcDbEntity
  8
0
100
AcDbLine
 10
244.936
 20
624.84
 30
0.0
 11
245.2
 21
625.14
 31
0.0
  0
ENDSEC
  0
SECTION
  2
OBJECTS
  0
DICTIONARY
  5
C
330
0
100
AcDbDictionary
281
     1
  3
ACAD_GROUP
350
D
  3
ACAD_LAYOUT
350
19
  3
ACAD_MLINESTYLE
350
16
  3
ACAD_PLOTSETTINGS
350
18
  3
ACAD_PLOTSTYLENAME
350
E
  3
AcDbVariableDictionary
350
D6F
  0
DICTIONARY
  5
D
102
{ACAD_REACTORS
330
C
102
}
330
C
100
AcDbDictionary
281
     1
  0
DICTIONARY
  5
19
102
{ACAD_REACTORS
330
C
102
}
330
C
100
AcDbDictionary
281
     1
  3
Layout1
350
1D
  3
Model
350
21
  0
DICTIONARY
  5
16
102
{ACAD_REACTORS
330
C
102
}
330
C
100
AcDbDictionary
281
     1
  3
Standard
350
17
  0
DICTIONARY
  5
18
102
{ACAD_REACTORS
330
C
102
}
330
C
100
AcDbDictionary
281
     1
  0
ACDBDICTIONARYWDFLT
  5
E
102
{ACAD_REACTORS
330
C
102
}
330
C
100
AcDbDictionary
281
     1
  3
Normal
350
F
100
AcDbDictionaryWithDefault
340
F
  0
DICTIONARY
  5
D6F
102
{ACAD_REACTORS
330
C
102
}
330
C
100
AcDbDictionary
281
     1
  3
DIMASSOC
350
D70
  0
LAYOUT
  5
1D
102
{ACAD_REACTORS
330
19
102
}
330
19
100
AcDbPlotSettings
  1

  2
C:\Programme\AutoCAD LT 2002 Deu2\plotters\DWF ePlot (optimized for plotting).pc3
  4

  6

 40
0.0
 41
0.0
 42
0.0
 43
0.0
 44
0.0
 45
0.0
 46
0.0
 47
0.0
 48
0.0
 49
0.0
140
0.0
141
0.0
142
1.0
143
1.0
 70
   688
 72
     0
 73
     0
 74
     5
  7

 75
    16
147
1.0
148
0.0
149
0.0
100
AcDbLayout
  1
Layout1
 70
     1
 71
     1
 10
0.0
 20
0.0
 11
12.0
 21
9.0
 12
0.0
 22
0.0
 32
0.0
 14
1.000000000000000E+20
 24
1.000000000000000E+20
 34
1.000000000000000E+20
 15
-1.000000000000000E+20
 25
-1.000000000000000E+20
 35
-1.000000000000000E+20
146
0.0
 13
0.0
 23
0.0
 33
0.0
 16
1.0
 26
0.0
 36
0.0
 17
0.0
 27
1.0
 37
0.0
 76
     0
330
1A
  0
LAYOUT
  5
21
102
{ACAD_REACTORS
330
19
102
}
330
19
100
AcDbPlotSettings
  1

  2
C:\Programme\AutoCAD LT 2002 Deu2\plotters\DWF ePlot (optimized for plotting).pc3
  4

  6

 40
0.0
 41
0.0
 42
0.0
 43
0.0
 44
0.0
 45
0.0
 46
0.0
 47
0.0
 48
0.0
 49
0.0
140
0.0
141
0.0
142
1.0
143
1.0
 70
  1712
 72
     0
 73
     0
 74
     0
  7

 75
     0
147
1.0
148
0.0
149
0.0
100
AcDbLayout
  1
Model
 70
     1
 71
     0
 10
0.0
 20
0.0
 11
12.0
 21
9.0
 12
0.0
 22
0.0
 32
0.0
 14
0.0
 24
0.0
 34
0.0
 15
0.0
 25
0.0
 35
0.0
146
0.0
 13
0.0
 23
0.0
 33
0.0
 16
1.0
 26
0.0
 36
0.0
 17
0.0
 27
1.0
 37
0.0
 76
     0
330
1E
  0
MLINESTYLE
  5
17
102
{ACAD_REACTORS
330
16
102
}
330
16
100
AcDbMlineStyle
  2
STANDARD
 70
     0
  3

 62
   256
 51
90.0
 52
90.0
 71
     2
 49
0.5
 62
   256
  6
BYLAYER
 49
-0.5
 62
   256
  6
BYLAYER
  0
ACDBPLACEHOLDER
  5
F
102
{ACAD_REACTORS
330
E
102
}
330
E
  0
DICTIONARYVAR
  5
D70
102
{ACAD_REACTORS
330
D6F
102
}
330
D6F
100
DictionaryVariables
280
     0
  1
1
  0
ENDSEC
  0
EOF
