  0
SECTION
  2
HEADER
  9
$ACADVER
  1
AC1015
  9
$ACADMAINTVER
 70
    13
  9
$DWGCODEPAGE
  3
ANSI_1252
  9
$INSBASE
 10
0.0
 20
0.0
 30
0.0
  9
$EXTMIN
 10
0.250000000000004
 20
-0.169999999999998
 30
0.0
  9
$EXTMAX
 10
253.75
 20
218.679
 30
0.0
  9
$LIMMIN
 10
0.0
 20
0.0
  9
$LIMMAX
 10
12.0
 20
9.0
  9
$ORTHOMODE
 70
     0
  9
$REGENMODE
 70
     1
  9
$FILLMODE
 70
     1
  9
$QTEXTMODE
 70
     0
  9
$MIRRTEXT
 70
     1
  9
$LTSCALE
 40
1.0
  9
$ATTMODE
 70
     1
  9
$TEXTSIZE
 40
0.2
  9
$TRACEWID
 40
0.05
  9
$TEXTSTYLE
  7
Standard
  9
$CLAYER
  8
0
  9
$CELTYPE
  6
Continuous
  9
$CECOLOR
 62
   256
  9
$CELTSCALE
 40
1.0
  9
$DISPSILH
 70
     0
  9
$DIMSCALE
 40
1.0
  9
$DIMASZ
 40
0.18
  9
$DIMEXO
 40
0.0625
  9
$DIMDLI
 40
0.38
  9
$DIMRND
 40
0.0
  9
$DIMDLE
 40
0.0
  9
$DIMEXE
 40
0.18
  9
$DIMTP
 40
0.0
  9
$DIMTM
 40
0.0
  9
$DIMTXT
 40
0.18
  9
$DIMCEN
 40
0.09
  9
$DIMTSZ
 40
0.0
  9
$DIMTOL
 70
     0
  9
$DIMLIM
 70
     0
  9
$DIMTIH
 70
     1
  9
$DIMTOH
 70
     1
  9
$DIMSE1
 70
     0
  9
$DIMSE2
 70
     0
  9
$DIMTAD
 70
     0
  9
$DIMZIN
 70
     0
  9
$DIMBLK
  1

  9
$DIMASO
 70
     1
  9
$DIMSHO
 70
     1
  9
$DIMPOST
  1

  9
$DIMAPOST
  1

  9
$DIMALT
 70
     0
  9
$DIMALTD
 70
     2
  9
$DIMALTF
 40
25.4
  9
$DIMLFAC
 40
1.0
  9
$DIMTOFL
 70
     0
  9
$DIMTVP
 40
0.0
  9
$DIMTIX
 70
     0
  9
$DIMSOXD
 70
     0
  9
$DIMSAH
 70
     0
  9
$DIMBLK1
  1

  9
$DIMBLK2
  1

  9
$DIMSTYLE
  2
Standard
  9
$DIMCLRD
 70
     0
  9
$DIMCLRE
 70
     0
  9
$DIMCLRT
 70
     0
  9
$DIMTFAC
 40
1.0
  9
$DIMGAP
 40
0.09
  9
$DIMJUST
 70
     0
  9
$DIMSD1
 70
     0
  9
$DIMSD2
 70
     0
  9
$DIMTOLJ
 70
     1
  9
$DIMTZIN
 70
     0
  9
$DIMALTZ
 70
     0
  9
$DIMALTTZ
 70
     0
  9
$DIMUPT
 70
     0
  9
$DIMDEC
 70
     4
  9
$DIMTDEC
 70
     4
  9
$DIMALTU
 70
     2
  9
$DIMALTTD
 70
     2
  9
$DIMTXSTY
  7
Standard
  9
$DIMAUNIT
 70
     0
  9
$DIMADEC
 70
     0
  9
$DIMALTRND
 40
0.0
  9
$DIMAZIN
 70
     0
  9
$DIMDSEP
 70
    46
  9
$DIMATFIT
 70
     3
  9
$DIMFRAC
 70
     0
  9
$DIMLDRBLK
  1

  9
$DIMLUNIT
 70
     2
  9
$DIMLWD
 70
    -2
  9
$DIMLWE
 70
    -2
  9
$DIMTMOVE
 70
     0
  9
$LUNITS
 70
     2
  9
$LUPREC
 70
     4
  9
$SKETCHINC
 40
0.1
  9
$FILLETRAD
 40
0.0
  9
$AUNITS
 70
     0
  9
$AUPREC
 70
     0
  9
$MENU
  1
.
  9
$ELEVATION
 40
0.0
  9
$PELEVATION
 40
0.0
  9
$THICKNESS
 40
0.0
  9
$LIMCHECK
 70
     0
  9
$CHAMFERA
 40
0.0
  9
$CHAMFERB
 40
0.0
  9
$CHAMFERC
 40
0.0
  9
$CHAMFERD
 40
0.0
  9
$SKPOLY
 70
     0
  9
$TDCREATE
 40
2455321.403358460
  9
$TDUCREATE
 40
2455321.320025127
  9
$TDUPDATE
 40
2455321.411347292
  9
$TDUUPDATE
 40
2455321.328013958
  9
$TDINDWG
 40
0.0079891782
  9
$TDUSRTIMER
 40
0.0079891782
  9
$USRTIMER
 70
     1
  9
$ANGBASE
 50
0.0
  9
$ANGDIR
 70
     0
  9
$PDMODE
 70
     0
  9
$PDSIZE
 40
0.0
  9
$PLINEWID
 40
0.0
  9
$SPLFRAME
 70
     0
  9
$SPLINETYPE
 70
     6
  9
$SPLINESEGS
 70
     8
  9
$HANDSEED
  5
5D2
  9
$SURFTAB1
 70
     6
  9
$SURFTAB2
 70
     6
  9
$SURFTYPE
 70
     6
  9
$SURFU
 70
     6
  9
$SURFV
 70
     6
  9
$UCSBASE
  2

  9
$UCSNAME
  2

  9
$UCSORG
 10
0.0
 20
0.0
 30
0.0
  9
$UCSXDIR
 10
1.0
 20
0.0
 30
0.0
  9
$UCSYDIR
 10
0.0
 20
1.0
 30
0.0
  9
$UCSORTHOREF
  2

  9
$UCSORTHOVIEW
 70
     1
  9
$UCSORGTOP
 10
0.0
 20
0.0
 30
0.0
  9
$UCSORGBOTTOM
 10
0.0
 20
0.0
 30
0.0
  9
$UCSORGLEFT
 10
0.0
 20
0.0
 30
0.0
  9
$UCSORGRIGHT
 10
0.0
 20
0.0
 30
0.0
  9
$UCSORGFRONT
 10
0.0
 20
0.0
 30
0.0
  9
$UCSORGBACK
 10
0.0
 20
0.0
 30
0.0
  9
$PUCSBASE
  2

  9
$PUCSNAME
  2

  9
$PUCSORG
 10
0.0
 20
0.0
 30
0.0
  9
$PUCSXDIR
 10
1.0
 20
0.0
 30
0.0
  9
$PUCSYDIR
 10
0.0
 20
1.0
 30
0.0
  9
$PUCSORTHOREF
  2

  9
$PUCSORTHOVIEW
 70
     0
  9
$PUCSORGTOP
 10
0.0
 20
0.0
 30
0.0
  9
$PUCSORGBOTTOM
 10
0.0
 20
0.0
 30
0.0
  9
$PUCSORGLEFT
 10
0.0
 20
0.0
 30
0.0
  9
$PUCSORGRIGHT
 10
0.0
 20
0.0
 30
0.0
  9
$PUCSORGFRONT
 10
0.0
 20
0.0
 30
0.0
  9
$PUCSORGBACK
 10
0.0
 20
0.0
 30
0.0
  9
$USERI1
 70
     0
  9
$USERI2
 70
     0
  9
$USERI3
 70
     0
  9
$USERI4
 70
     0
  9
$USERI5
 70
     0
  9
$USERR1
 40
0.0
  9
$USERR2
 40
0.0
  9
$USERR3
 40
0.0
  9
$USERR4
 40
0.0
  9
$USERR5
 40
0.0
  9
$WORLDVIEW
 70
     1
  9
$SHADEDGE
 70
     3
  9
$SHADEDIF
 70
    70
  9
$TILEMODE
 70
     1
  9
$MAXACTVP
 70
    64
  9
$PINSBASE
 10
0.0
 20
0.0
 30
0.0
  9
$PLIMCHECK
 70
     0
  9
$PEXTMIN
 10
1.000000000000000E+20
 20
1.000000000000000E+20
 30
1.000000000000000E+20
  9
$PEXTMAX
 10
-1.000000000000000E+20
 20
-1.000000000000000E+20
 30
-1.000000000000000E+20
  9
$PLIMMIN
 10
0.0
 20
0.0
  9
$PLIMMAX
 10
12.0
 20
9.0
  9
$UNITMODE
 70
     0
  9
$VISRETAIN
 70
     1
  9
$PLINEGEN
 70
     0
  9
$PSLTSCALE
 70
     1
  9
$TREEDEPTH
 70
  3020
  9
$CMLSTYLE
  2
Standard
  9
$CMLJUST
 70
     0
  9
$CMLSCALE
 40
1.0
  9
$PROXYGRAPHICS
 70
     1
  9
$MEASUREMENT
 70
     0
  9
$CELWEIGHT
370
    -1
  9
$ENDCAPS
280
     0
  9
$JOINSTYLE
280
     0
  9
$LWDISPLAY
290
     0
  9
$INSUNITS
 70
     0
  9
$HYPERLINKBASE
  1

  9
$STYLESHEET
  1

  9
$XEDIT
290
     1
  9
$CEPSNTYPE
380
     0
  9
$PSTYLEMODE
290
     1
  9
$FINGERPRINTGUID
  2
{16FD2441-7CEF-48E3-BFA5-45C15268CCC6}
  9
$VERSIONGUID
  2
{0B776671-C5DB-4EF7-B4E8-4CEA1E70DFF8}
  9
$EXTNAMES
290
     1
  9
$PSVPSCALE
 40
0.0
  9
$OLESTARTUP
290
     0
  0
ENDSEC
  0
SECTION
  2
CLASSES
  0
CLASS
  1
ACDBDICTIONARYWDFLT
  2
AcDbDictionaryWithDefault
  3
AutoCAD 2000
 90
        0
280
     0
281
     0
  0
CLASS
  1
ACDBPLACEHOLDER
  2
AcDbPlaceHolder
  3
AutoCAD 2000
 90
        0
280
     0
281
     0
  0
CLASS
  1
LAYOUT
  2
AcDbLayout
  3
AutoCAD 2000
 90
        0
280
     0
281
     0
  0
CLASS
  1
DICTIONARYVAR
  2
AcDbDictionaryVar
  3
AutoCAD 2000
 90
        0
280
     0
281
     0
  0
ENDSEC
  0
SECTION
  2
TABLES
  0
TABLE
  2
VPORT
  5
8
330
0
100
AcDbSymbolTable
 70
     4
  0
VPORT
  5
5D1
330
8
100
AcDbSymbolTableRecord
100
AcDbViewportTableRecord
  2
*Active
 70
     0
 10
0.0
 20
0.0
 11
1.0
 21
1.0
 12
127.0
 22
109.2544999999999
 13
0.0
 23
0.0
 14
1.0
 24
1.0
 15
0.0
 25
0.0
 16
0.0
 26
0.0
 36
1.0
 17
0.0
 27
0.0
 37
0.0
 40
220.2856455142231
 41
2.041621029572836
 42
50.0
 43
0.0
 44
0.0
 50
0.0
 51
0.0
 71
     0
 72
   100
 73
     1
 74
     3
 75
     0
 76
     0
 77
     0
 78
     0
281
     0
 65
     1
110
0.0
120
0.0
130
0.0
111
1.0
121
0.0
131
0.0
112
0.0
122
1.0
132
0.0
 79
     1
146
0.0
  0
ENDTAB
  0
TABLE
  2
LTYPE
  5
5
330
0
100
AcDbSymbolTable
 70
     1
  0
LTYPE
  5
13
330
5
100
AcDbSymbolTableRecord
100
AcDbLinetypeTableRecord
  2
ByBlock
 70
     0
  3

 72
    65
 73
     0
 40
0.0
  0
LTYPE
  5
14
330
5
100
AcDbSymbolTableRecord
100
AcDbLinetypeTableRecord
  2
ByLayer
 70
     0
  3

 72
    65
 73
     0
 40
0.0
  0
LTYPE
  5
15
330
5
100
AcDbSymbolTableRecord
100
AcDbLinetypeTableRecord
  2
Continuous
 70
     0
  3
Solid line
 72
    65
 73
     0
 40
0.0
  0
ENDTAB
  0
TABLE
  2
LAYER
  5
2
330
0
100
AcDbSymbolTable
 70
     1
  0
LAYER
  5
10
330
2
100
AcDbSymbolTableRecord
100
AcDbLayerTableRecord
  2
0
 70
     0
 62
     7
  6
Continuous
370
    -3
390
F
  0
ENDTAB
  0
TABLE
  2
STYLE
  5
3
330
0
100
AcDbSymbolTable
 70
     1
  0
STYLE
  5
11
330
3
100
AcDbSymbolTableRecord
100
AcDbTextStyleTableRecord
  2
Standard
 70
     0
 40
0.0
 41
1.0
 50
0.0
 71
     0
 42
0.2
  3
txt
  4

  0
ENDTAB
  0
TABLE
  2
VIEW
  5
6
330
0
100
AcDbSymbolTable
 70
     0
  0
ENDTAB
  0
TABLE
  2
UCS
  5
7
330
0
100
AcDbSymbolTable
 70
     0
  0
ENDTAB
  0
TABLE
  2
APPID
  5
9
330
0
100
AcDbSymbolTable
 70
     1
  0
APPID
  5
12
330
9
100
AcDbSymbolTableRecord
100
AcDbRegAppTableRecord
  2
ACAD
 70
     0
  0
ENDTAB
  0
TABLE
  2
DIMSTYLE
  5
A
330
0
100
AcDbSymbolTable
 70
     1
100
AcDbDimStyleTable
 71
     0
  0
DIMSTYLE
105
379
330
A
100
AcDbSymbolTableRecord
100
AcDbDimStyleTableRecord
  2
Standard
 70
     0
340
11
  0
ENDTAB
  0
TABLE
  2
BLOCK_RECORD
  5
1
330
0
100
AcDbSymbolTable
 70
     1
  0
BLOCK_RECORD
  5
1E
330
1
100
AcDbSymbolTableRecord
100
AcDbBlockTableRecord
  2
*Model_Space
340
21
  0
BLOCK_RECORD
  5
1A
330
1
100
AcDbSymbolTableRecord
100
AcDbBlockTableRecord
  2
*Paper_Space
340
1D
  0
ENDTAB
  0
ENDSEC
  0
SECTION
  2
BLOCKS
  0
BLOCK
  5
1F
330
1E
100
AcDbEntity
  8
0
100
AcDbBlockBegin
  2
*Model_Space
 70
     0
 10
0.0
 20
0.0
 30
0.0
  3
*Model_Space
  1

  0
ENDBLK
  5
20
330
1E
100
AcDbEntity
  8
0
100
AcDbBlockEnd
  0
BLOCK
  5
1B
330
1A
100
AcDbEntity
 67
     1
  8
0
100
AcDbBlockBegin
  2
*Paper_Space
 70
     0
 10
0.0
 20
0.0
 30
0.0
  3
*Paper_Space
  1

  0
ENDBLK
  5
1C
330
1A
100
AcDbEntity
 67
     1
  8
0
100
AcDbBlockEnd
  0
ENDSEC
  0
SECTION
  2
ENTITIES
  0
LINE
  5
22
330
1E
100
AcDbEntity
  8
0
100
AcDbLine
 10
25.796
 20
50.9711
 30
0.0
 11
26.1682
 21
50.8357
 31
0.0
  0
LINE
  5
23
330
1E
100
AcDbEntity
  8
0
100
AcDbLine
 10
26.1682
 20
50.8357
 30
0.0
 11
26.5188
 21
51.0273
 31
0.0
  0
LINE
  5
24
330
1E
100
AcDbEntity
  8
0
100
AcDbLine
 10
23.19119999999999
 20
51.91919999999999
 30
0.0
 11
24.8037
 21
51.3323
 31
0.0
  0
LINE
  5
25
330
1E
100
AcDbEntity
  8
0
100
AcDbLine
 10
24.8037
 20
51.3323
 30
0.0
 11
25.796
 21
50.9711
 31
0.0
  0
LINE
  5
26
330
1E
100
AcDbEntity
  8
0
100
AcDbLine
 10
18.6844
 20
53.55949999999999
 30
0.0
 11
21.08249999999999
 21
52.6867
 31
0.0
  0
LINE
  5
27
330
1E
100
AcDbEntity
  8
0
100
AcDbLine
 10
21.08249999999999
 20
52.6867
 30
0.0
 11
23.19119999999999
 21
51.91919999999999
 31
0.0
  0
LINE
  5
2C
330
1E
100
AcDbEntity
  8
0
100
AcDbLine
 10
0.250000000000004
 20
72.83
 30
0.0
 11
1.065009
 21
69.7955
 31
0.0
  0
LINE
  5
2D
330
1E
100
AcDbEntity
  8
0
100
AcDbLine
 10
1.065009
 20
69.7955
 30
0.0
 11
2.244549999999999
 21
67.5331
 31
0.0
  0
LINE
  5
2E
330
1E
100
AcDbEntity
  8
0
100
AcDbLine
 10
2.244549999999999
 20
67.5331
 30
0.0
 11
3.90574
 21
65.42799999999999
 31
0.0
  0
LINE
  5
2F
330
1E
100
AcDbEntity
  8
0
100
AcDbLine
 10
3.90574
 20
65.42799999999999
 30
0.0
 11
6.04268
 21
63.5315
 31
0.0
  0
LINE
  5
30
330
1E
100
AcDbEntity
  8
0
100
AcDbLine
 10
0.250000000000004
 20
73.83
 30
0.0
 11
0.5500000000000041
 21
74.53
 31
0.0
  0
LINE
  5
38
330
1E
100
AcDbEntity
  8
0
100
AcDbLine
 10
1.25
 20
74.83
 30
0.0
 11
1.33587
 21
74.83
 31
0.0
  0
LINE
  5
39
330
1E
100
AcDbEntity
  8
0
100
AcDbLine
 10
1.33587
 20
74.83
 30
0.0
 11
1.539729999999999
 21
74.83
 31
0.0
  0
LINE
  5
3A
330
1E
100
AcDbEntity
  8
0
100
AcDbLine
 10
1.539729999999999
 20
74.83
 30
0.0
 11
1.85233
 21
74.83
 31
0.0
  0
LINE
  5
3B
330
1E
100
AcDbEntity
  8
0
100
AcDbLine
 10
1.85233
 20
74.83
 30
0.0
 11
2.232879999999999
 21
74.83
 31
0.0
  0
LINE
  5
3C
330
1E
100
AcDbEntity
  8
0
100
AcDbLine
 10
2.232879999999999
 20
74.83
 30
0.0
 11
2.69497
 21
74.83
 31
0.0
  0
LINE
  5
3D
330
1E
100
AcDbEntity
  8
0
100
AcDbLine
 10
2.69497
 20
74.83
 30
0.0
 11
3.242929999999999
 21
74.83
 31
0.0
  0
LINE
  5
3E
330
1E
100
AcDbEntity
  8
0
100
AcDbLine
 10
3.242929999999999
 20
74.83
 30
0.0
 11
4.049999999999999
 21
74.83
 31
0.0
  0
LINE
  5
3F
330
1E
100
AcDbEntity
  8
0
100
AcDbLine
 10
4.049999999999999
 20
74.83
 30
0.0
 11
5.25
 21
74.83
 31
0.0
  0
LINE
  5
40
330
1E
100
AcDbEntity
  8
0
100
AcDbLine
 10
5.25
 20
74.83
 30
0.0
 11
6.95
 21
74.83
 31
0.0
  0
LINE
  5
42
330
1E
100
AcDbEntity
  8
0
100
AcDbLine
 10
0.5500000000000041
 20
74.53
 30
0.0
 11
1.25
 21
74.83
 31
0.0
  0
LINE
  5
44
330
1E
100
AcDbEntity
  8
0
100
AcDbLine
 10
0.250000000000004
 20
72.83
 30
0.0
 11
0.250000000000004
 21
73.83
 31
0.0
  0
LINE
  5
45
330
1E
100
AcDbEntity
  8
0
100
AcDbLine
 10
0.250000000000004
 20
72.83
 30
0.0
 11
1.065009
 21
69.7955
 31
0.0
  0
LINE
  5
46
330
1E
100
AcDbEntity
  8
0
100
AcDbLine
 10
6.363199999999999
 20
58.0441
 30
0.0
 11
7.35551
 21
57.6829
 31
0.0
  0
LINE
  5
47
330
1E
100
AcDbEntity
  8
0
100
AcDbLine
 10
5.99108
 20
58.17949999999999
 30
0.0
 11
6.363199999999999
 21
58.0441
 31
0.0
  0
LINE
  5
48
330
1E
100
AcDbEntity
  8
0
100
AcDbLine
 10
8.96803
 20
57.096
 30
0.0
 11
11.0767
 21
56.3285
 31
0.0
  0
LINE
  5
49
330
1E
100
AcDbEntity
  8
0
100
AcDbLine
 10
13.4748
 20
55.4557
 30
0.0
 11
16.0796
 21
54.50759999999999
 31
0.0
  0
LINE
  5
4A
330
1E
100
AcDbEntity
  8
0
100
AcDbLine
 10
11.0767
 20
56.3285
 30
0.0
 11
13.4748
 21
55.4557
 31
0.0
  0
LINE
  5
4B
330
1E
100
AcDbEntity
  8
0
100
AcDbLine
 10
13.536
 20
55.7526
 30
0.0
 11
16.1822
 21
54.7895
 31
0.0
  0
LINE
  5
4C
330
1E
100
AcDbEntity
  8
0
100
AcDbLine
 10
11.0553
 20
56.6556
 30
0.0
 11
13.536
 21
55.7526
 31
0.0
  0
LINE
  5
4D
330
1E
100
AcDbEntity
  8
0
100
AcDbLine
 10
7.35551
 20
57.6829
 30
0.0
 11
8.96803
 21
57.096
 31
0.0
  0
LINE
  5
4E
330
1E
100
AcDbEntity
  8
0
100
AcDbLine
 10
8.863899999999999
 20
57.4532
 30
0.0
 11
11.0553
 21
56.6556
 31
0.0
  0
LINE
  5
4F
330
1E
100
AcDbEntity
  8
0
100
AcDbLine
 10
7.210039999999999
 20
58.0551
 30
0.0
 11
8.863899999999999
 21
57.4532
 31
0.0
  0
LINE
  5
54
330
1E
100
AcDbEntity
  8
0
100
AcDbLine
 10
15.4989
 20
74.83
 30
0.0
 11
18.9273
 21
74.83
 31
0.0
  0
LINE
  5
55
330
1E
100
AcDbEntity
  8
0
100
AcDbLine
 10
12.9403
 20
74.83
 30
0.0
 11
15.4989
 21
74.83
 31
0.0
  0
LINE
  5
56
330
1E
100
AcDbEntity
  8
0
100
AcDbLine
 10
10.739
 20
74.83
 30
0.0
 11
12.9403
 21
74.83
 31
0.0
  0
LINE
  5
57
330
1E
100
AcDbEntity
  8
0
100
AcDbLine
 10
8.75412
 20
74.83
 30
0.0
 11
10.739
 21
74.83
 31
0.0
  0
LINE
  5
58
330
1E
100
AcDbEntity
  8
0
100
AcDbLine
 10
6.95
 20
74.83
 30
0.0
 11
8.75412
 21
74.83
 31
0.0
  0
LINE
  5
5A
330
1E
100
AcDbEntity
  8
0
100
AcDbLine
 10
6.04268
 20
63.5315
 30
0.0
 11
7.34227714640883
 21
62.6638026727929
 31
0.0
  0
LINE
  5
5B
330
1E
100
AcDbEntity
  8
0
100
AcDbLine
 10
6.217719999999999
 20
58.4163
 30
0.0
 11
7.210039999999999
 21
58.0551
 31
0.0
  0
LINE
  5
5C
330
1E
100
AcDbEntity
  8
0
100
AcDbLine
 10
5.845609999999999
 20
58.5517
 30
0.0
 11
6.217719999999999
 21
58.4163
 31
0.0
  0
LINE
  5
5D
330
1E
100
AcDbEntity
  8
0
100
AcDbLine
 10
5.845609999999999
 20
58.5517
 30
0.0
 11
7.348495155659089
 21
62.6808866934577
 31
0.0
  0
LINE
  5
5E
330
1E
100
AcDbEntity
  8
0
100
AcDbLine
 10
5.845609999999999
 20
58.5517
 30
0.0
 11
5.99108
 21
58.17949999999999
 31
0.0
  0
LINE
  5
5F
330
1E
100
AcDbEntity
  8
0
100
AcDbLine
 10
16.0796
 20
54.50759999999999
 30
0.0
 11
18.6844
 21
53.55949999999999
 31
0.0
  0
LINE
  5
67
330
1E
100
AcDbEntity
  8
0
100
AcDbLine
 10
18.9273
 20
74.83
 30
0.0
 11
21.9767
 21
74.83
 31
0.0
  0
LINE
  5
69
330
1E
100
AcDbEntity
  8
0
100
AcDbLine
 10
16.1822
 20
54.7895
 30
0.0
 11
18.82839999999999
 21
53.8264
 31
0.0
  0
LINE
  5
6A
330
1E
100
AcDbEntity
  8
0
100
AcDbLine
 10
18.82839999999999
 20
53.8264
 30
0.0
 11
21.3092
 21
52.92349999999999
 31
0.0
  0
LINE
  5
6D
330
1E
100
AcDbEntity
  8
0
100
AcDbLine
 10
24.25
 20
74.83
 30
0.0
 11
146.055960143182
 21
74.83
 31
0.0
  0
LINE
  5
7F
330
1E
100
AcDbEntity
  8
0
100
AcDbLine
 10
21.9767
 20
74.83
 30
0.0
 11
24.25
 21
74.83
 31
0.0
  0
LINE
  5
84
330
1E
100
AcDbEntity
  8
0
100
AcDbLine
 10
24.25
 20
74.83
 30
0.0
 11
146.055960143182
 21
74.83
 31
0.0
  0
LINE
  5
86
330
1E
100
AcDbEntity
  8
0
100
AcDbLine
 10
21.3092
 20
52.92349999999999
 30
0.0
 11
23.5006
 21
52.1259
 31
0.0
  0
LINE
  5
87
330
1E
100
AcDbEntity
  8
0
100
AcDbLine
 10
23.5006
 20
52.1259
 30
0.0
 11
25.15439999999999
 21
51.5239
 31
0.0
  0
LINE
  5
97
330
1E
100
AcDbEntity
  8
0
100
AcDbLine
 10
25.15439999999999
 20
51.5239
 30
0.0
 11
26.1467
 21
51.1627
 31
0.0
  0
LINE
  5
98
330
1E
100
AcDbEntity
  8
0
100
AcDbLine
 10
26.1467
 20
51.1627
 30
0.0
 11
26.5188
 21
51.0273
 31
0.0
  0
LINE
  5
99
330
1E
100
AcDbEntity
  8
0
100
AcDbLine
 10
178.75
 20
14.33
 30
0.0
 11
178.75
 21
-0.169999999999992
 31
0.0
  0
LINE
  5
9A
330
1E
100
AcDbEntity
  8
0
100
AcDbLine
 10
178.75
 20
14.33
 30
0.0
 11
178.872
 21
14.67999999999999
 31
0.0
  0
LINE
  5
9B
330
1E
100
AcDbEntity
  8
0
100
AcDbLine
 10
178.953
 20
-0.169999999999993
 30
0.0
 11
179.238
 21
-0.169999999999993
 31
0.0
  0
LINE
  5
9C
330
1E
100
AcDbEntity
  8
0
100
AcDbLine
 10
182.529
 20
-0.169999999999993
 30
0.0
 11
183.26
 21
-0.169999999999993
 31
0.0
  0
LINE
  5
9D
330
1E
100
AcDbEntity
  8
0
100
AcDbLine
 10
180.01
 20
-0.169999999999993
 30
0.0
 11
180.5379999999999
 21
-0.169999999999993
 31
0.0
  0
LINE
  5
9E
330
1E
100
AcDbEntity
  8
0
100
AcDbLine
 10
180.5379999999999
 20
-0.169999999999993
 30
0.0
 11
181.147
 21
-0.169999999999993
 31
0.0
  0
LINE
  5
9F
330
1E
100
AcDbEntity
  8
0
100
AcDbLine
 10
181.147
 20
-0.169999999999993
 30
0.0
 11
181.798
 21
-0.169999999999993
 31
0.0
  0
LINE
  5
A0
330
1E
100
AcDbEntity
  8
0
100
AcDbLine
 10
181.798
 20
-0.169999999999993
 30
0.0
 11
182.529
 21
-0.169999999999993
 31
0.0
  0
LINE
  5
A1
330
1E
100
AcDbEntity
  8
0
100
AcDbLine
 10
183.26
 20
-0.169999999999993
 30
0.0
 11
184.0329999999999
 21
-0.169999999999993
 31
0.0
  0
LINE
  5
A2
330
1E
100
AcDbEntity
  8
0
100
AcDbLine
 10
184.0329999999999
 20
-0.169999999999993
 30
0.0
 11
184.8449999999999
 21
-0.169999999999993
 31
0.0
  0
LINE
  5
A3
330
1E
100
AcDbEntity
  8
0
100
AcDbLine
 10
253.669
 20
-0.169999999999998
 30
0.0
 11
253.75
 21
-0.169999999999998
 31
0.0
  0
LINE
  5
A4
330
1E
100
AcDbEntity
  8
0
100
AcDbLine
 10
251.3529999999999
 20
-0.169999999999998
 30
0.0
 11
251.962
 21
-0.169999999999998
 31
0.0
  0
LINE
  5
A5
330
1E
100
AcDbEntity
  8
0
100
AcDbLine
 10
250.702
 20
-0.169999999999998
 30
0.0
 11
251.3529999999999
 21
-0.169999999999998
 31
0.0
  0
LINE
  5
A6
330
1E
100
AcDbEntity
  8
0
100
AcDbLine
 10
249.9709999999999
 20
-0.169999999999997
 30
0.0
 11
250.702
 21
-0.169999999999998
 31
0.0
  0
LINE
  5
A7
330
1E
100
AcDbEntity
  8
0
100
AcDbLine
 10
249.2399999999999
 20
-0.169999999999997
 30
0.0
 11
249.9709999999999
 21
-0.169999999999997
 31
0.0
  0
LINE
  5
A8
330
1E
100
AcDbEntity
  8
0
100
AcDbLine
 10
247.655
 20
-0.169999999999997
 30
0.0
 11
248.467
 21
-0.169999999999997
 31
0.0
  0
LINE
  5
A9
330
1E
100
AcDbEntity
  8
0
100
AcDbLine
 10
248.467
 20
-0.169999999999997
 30
0.0
 11
249.2399999999999
 21
-0.169999999999997
 31
0.0
  0
LINE
  5
AA
330
1E
100
AcDbEntity
  8
0
100
AcDbLine
 10
216.25
 20
-0.169999999999995
 30
0.0
 11
247.655
 21
-0.169999999999997
 31
0.0
  0
LINE
  5
AB
330
1E
100
AcDbEntity
  8
0
100
AcDbLine
 10
251.962
 20
-0.169999999999998
 30
0.0
 11
252.49
 21
-0.169999999999998
 31
0.0
  0
LINE
  5
AC
330
1E
100
AcDbEntity
  8
0
100
AcDbLine
 10
252.937
 20
-0.169999999999998
 30
0.0
 11
253.262
 21
-0.169999999999998
 31
0.0
  0
LINE
  5
AD
330
1E
100
AcDbEntity
  8
0
100
AcDbLine
 10
252.49
 20
-0.169999999999998
 30
0.0
 11
252.937
 21
-0.169999999999998
 31
0.0
  0
LINE
  5
AE
330
1E
100
AcDbEntity
  8
0
100
AcDbLine
 10
253.262
 20
-0.169999999999998
 30
0.0
 11
253.547
 21
-0.169999999999998
 31
0.0
  0
LINE
  5
AF
330
1E
100
AcDbEntity
  8
0
100
AcDbLine
 10
253.547
 20
-0.169999999999998
 30
0.0
 11
253.669
 21
-0.169999999999998
 31
0.0
  0
LINE
  5
B0
330
1E
100
AcDbEntity
  8
0
100
AcDbLine
 10
253.75
 20
-0.169999999999998
 30
0.0
 11
253.75
 21
14.33
 31
0.0
  0
LINE
  5
B1
330
1E
100
AcDbEntity
  8
0
100
AcDbLine
 10
184.8449999999999
 20
-0.169999999999993
 30
0.0
 11
216.25
 21
-0.169999999999995
 31
0.0
  0
LINE
  5
B2
330
1E
100
AcDbEntity
  8
0
100
AcDbLine
 10
179.5629999999999
 20
-0.169999999999993
 30
0.0
 11
180.01
 21
-0.169999999999993
 31
0.0
  0
LINE
  5
B3
330
1E
100
AcDbEntity
  8
0
100
AcDbLine
 10
179.238
 20
-0.169999999999993
 30
0.0
 11
179.5629999999999
 21
-0.169999999999993
 31
0.0
  0
LINE
  5
CB
330
1E
100
AcDbEntity
  8
0
100
AcDbLine
 10
251.109
 20
14.83
 30
0.0
 11
251.678
 21
14.83
 31
0.0
  0
LINE
  5
CC
330
1E
100
AcDbEntity
  8
0
100
AcDbLine
 10
250.499
 20
14.83
 30
0.0
 11
251.109
 21
14.83
 31
0.0
  0
LINE
  5
CD
330
1E
100
AcDbEntity
  8
0
100
AcDbLine
 10
249.8079999999999
 20
14.83
 30
0.0
 11
250.499
 21
14.83
 31
0.0
  0
LINE
  5
CE
330
1E
100
AcDbEntity
  8
0
100
AcDbLine
 10
249.1179999999999
 20
14.83
 30
0.0
 11
249.8079999999999
 21
14.83
 31
0.0
  0
LINE
  5
CF
330
1E
100
AcDbEntity
  8
0
100
AcDbLine
 10
248.3859999999999
 20
14.83
 30
0.0
 11
249.1179999999999
 21
14.83
 31
0.0
  0
LINE
  5
D0
330
1E
100
AcDbEntity
  8
0
100
AcDbLine
 10
247.655
 20
14.83
 30
0.0
 11
248.3859999999999
 21
14.83
 31
0.0
  0
LINE
  5
D2
330
1E
100
AcDbEntity
  8
0
100
AcDbLine
 10
251.678
 20
14.83
 30
0.0
 11
252.165
 21
14.83
 31
0.0
  0
LINE
  5
D3
330
1E
100
AcDbEntity
  8
0
100
AcDbLine
 10
252.165
 20
14.83
 30
0.0
 11
252.572
 21
14.83
 31
0.0
  0
LINE
  5
D4
330
1E
100
AcDbEntity
  8
0
100
AcDbLine
 10
252.572
 20
14.83
 30
0.0
 11
252.897
 21
14.83
 31
0.0
  0
LINE
  5
D5
330
1E
100
AcDbEntity
  8
0
100
AcDbLine
 10
252.897
 20
14.83
 30
0.0
 11
253.141
 21
14.83
 31
0.0
  0
LINE
  5
D6
330
1E
100
AcDbEntity
  8
0
100
AcDbLine
 10
253.141
 20
14.83
 30
0.0
 11
253.344
 21
14.83
 31
0.0
  0
LINE
  5
D7
330
1E
100
AcDbEntity
  8
0
100
AcDbLine
 10
180.822
 20
14.83
 30
0.0
 11
181.3909999999999
 21
14.83
 31
0.0
  0
LINE
  5
D8
330
1E
100
AcDbEntity
  8
0
100
AcDbLine
 10
181.3909999999999
 20
14.83
 30
0.0
 11
182.0009999999999
 21
14.83
 31
0.0
  0
LINE
  5
D9
330
1E
100
AcDbEntity
  8
0
100
AcDbLine
 10
182.0009999999999
 20
14.83
 30
0.0
 11
182.692
 21
14.83
 31
0.0
  0
LINE
  5
DA
330
1E
100
AcDbEntity
  8
0
100
AcDbLine
 10
182.692
 20
14.83
 30
0.0
 11
183.382
 21
14.83
 31
0.0
  0
LINE
  5
DB
330
1E
100
AcDbEntity
  8
0
100
AcDbLine
 10
183.382
 20
14.83
 30
0.0
 11
184.114
 21
14.83
 31
0.0
  0
LINE
  5
DE
330
1E
100
AcDbEntity
  8
0
100
AcDbLine
 10
184.114
 20
14.83
 30
0.0
 11
184.8449999999999
 21
14.83
 31
0.0
  0
LINE
  5
DF
330
1E
100
AcDbEntity
  8
0
100
AcDbLine
 10
184.8449999999999
 20
14.83
 30
0.0
 11
216.25
 21
14.83
 31
0.0
  0
LINE
  5
E0
330
1E
100
AcDbEntity
  8
0
100
AcDbLine
 10
180.335
 20
14.83
 30
0.0
 11
180.822
 21
14.83
 31
0.0
  0
LINE
  5
E1
330
1E
100
AcDbEntity
  8
0
100
AcDbLine
 10
179.9279999999999
 20
14.83
 30
0.0
 11
180.335
 21
14.83
 31
0.0
  0
LINE
  5
E2
330
1E
100
AcDbEntity
  8
0
100
AcDbLine
 10
179.6029999999999
 20
14.83
 30
0.0
 11
179.9279999999999
 21
14.83
 31
0.0
  0
LINE
  5
E3
330
1E
100
AcDbEntity
  8
0
100
AcDbLine
 10
179.36
 20
14.83
 30
0.0
 11
179.6029999999999
 21
14.83
 31
0.0
  0
LINE
  5
E4
330
1E
100
AcDbEntity
  8
0
100
AcDbLine
 10
179.1559999999999
 20
14.83
 30
0.0
 11
179.36
 21
14.83
 31
0.0
  0
LINE
  5
EA
330
1E
100
AcDbEntity
  8
0
100
AcDbLine
 10
241.25
 20
19.82999999999999
 30
0.0
 11
243.25
 21
14.83
 31
0.0
  0
LINE
  5
EB
330
1E
100
AcDbEntity
  8
0
100
AcDbLine
 10
216.25
 20
14.83
 30
0.0
 11
247.655
 21
14.83
 31
0.0
  0
LINE
  5
EC
330
1E
100
AcDbEntity
  8
0
100
AcDbLine
 10
216.25
 20
14.83
 30
0.0
 11
223.2499999999999
 21
14.83
 31
0.0
  0
LINE
  5
ED
330
1E
100
AcDbEntity
  8
0
100
AcDbLine
 10
253.344
 20
14.83
 30
0.0
 11
253.628
 21
14.67999999999999
 31
0.0
  0
LINE
  5
EE
330
1E
100
AcDbEntity
  8
0
100
AcDbLine
 10
253.628
 20
14.67999999999999
 30
0.0
 11
253.75
 21
14.33
 31
0.0
  0
LINE
  5
EF
330
1E
100
AcDbEntity
  8
0
100
AcDbLine
 10
253.75
 20
14.33
 30
0.0
 11
253.75
 21
-0.169999999999997
 31
0.0
  0
LINE
  5
F0
330
1E
100
AcDbEntity
  8
0
100
AcDbLine
 10
178.872
 20
14.67999999999999
 30
0.0
 11
179.1559999999999
 21
14.83
 31
0.0
  0
LINE
  5
F1
330
1E
100
AcDbEntity
  8
0
100
AcDbLine
 10
178.8309999999999
 20
-0.169999999999993
 30
0.0
 11
178.953
 21
-0.169999999999993
 31
0.0
  0
LINE
  5
F2
330
1E
100
AcDbEntity
  8
0
100
AcDbLine
 10
178.75
 20
-0.169999999999993
 30
0.0
 11
178.8309999999999
 21
-0.169999999999993
 31
0.0
  0
LINE
  5
F3
330
1E
100
AcDbEntity
  8
0
100
AcDbLine
 10
178.75
 20
-0.169999999999993
 30
0.0
 11
178.75
 21
14.33
 31
0.0
  0
LINE
  5
11D
330
1E
100
AcDbEntity
  8
0
100
AcDbLine
 10
199.2499999999999
 20
56.0704
 30
0.0
 11
199.2499999999999
 21
56.599
 31
0.0
  0
LINE
  5
11E
330
1E
100
AcDbEntity
  8
0
100
AcDbLine
 10
199.2499999999999
 20
56.0704
 30
0.0
 11
199.2499999999999
 21
55.4812
 31
0.0
  0
LINE
  5
11F
330
1E
100
AcDbEntity
  8
0
100
AcDbLine
 10
199.2499999999999
 20
56.599
 30
0.0
 11
199.2499999999999
 21
56.0704
 31
0.0
  0
LINE
  5
120
330
1E
100
AcDbEntity
  8
0
100
AcDbLine
 10
199.2499999999999
 20
56.599
 30
0.0
 11
199.2499999999999
 21
56.9976
 31
0.0
  0
LINE
  5
121
330
1E
100
AcDbEntity
  8
0
100
AcDbLine
 10
199.2499999999999
 20
55.4812
 30
0.0
 11
199.2499999999999
 21
56.0704
 31
0.0
  0
LINE
  5
122
330
1E
100
AcDbEntity
  8
0
100
AcDbLine
 10
199.2499999999999
 20
55.4812
 30
0.0
 11
199.2499999999999
 21
54.83
 31
0.0
  0
LINE
  5
123
330
1E
100
AcDbEntity
  8
0
100
AcDbLine
 10
199.2499999999999
 20
57.2489
 30
0.0
 11
199.2499999999999
 21
57.33
 31
0.0
  0
LINE
  5
124
330
1E
100
AcDbEntity
  8
0
100
AcDbLine
 10
199.2499999999999
 20
57.2489
 30
0.0
 11
199.2499999999999
 21
56.9976
 31
0.0
  0
LINE
  5
125
330
1E
100
AcDbEntity
  8
0
100
AcDbLine
 10
199.2499999999999
 20
56.9976
 30
0.0
 11
199.2499999999999
 21
56.599
 31
0.0
  0
LINE
  5
126
330
1E
100
AcDbEntity
  8
0
100
AcDbLine
 10
199.2499999999999
 20
56.9976
 30
0.0
 11
199.2499999999999
 21
57.2489
 31
0.0
  0
LINE
  5
127
330
1E
100
AcDbEntity
  8
0
100
AcDbLine
 10
199.2499999999999
 20
54.83
 30
0.0
 11
199.2499999999999
 21
48.4263623140207
 31
0.0
  0
LINE
  5
128
330
1E
100
AcDbEntity
  8
0
100
AcDbLine
 10
199.2499999999999
 20
54.83
 30
0.0
 11
199.2499999999999
 21
55.4812
 31
0.0
  0
LINE
  5
129
330
1E
100
AcDbEntity
  8
0
100
AcDbLine
 10
199.2499999999999
 20
48.4263623140207
 30
0.0
 11
199.2499999999999
 21
54.83
 31
0.0
  0
LINE
  5
12A
330
1E
100
AcDbEntity
  8
0
100
AcDbLine
 10
199.2499999999999
 20
48.4263623140207
 30
0.0
 11
199.2499999999999
 21
59.83
 31
0.0
  0
LINE
  5
13E
330
1E
100
AcDbEntity
  8
0
100
AcDbLine
 10
199.2499999999999
 20
57.33
 30
0.0
 11
199.2499999999999
 21
57.2489
 31
0.0
  0
LINE
  5
143
330
1E
100
AcDbEntity
  8
0
100
AcDbLine
 10
199.55
 20
60.53
 30
0.0
 11
200.2499999999999
 21
60.83
 31
0.0
  0
LINE
  5
145
330
1E
100
AcDbEntity
  8
0
100
AcDbLine
 10
199.2499999999999
 20
59.83
 30
0.0
 11
199.2499999999999
 21
48.4263623140207
 31
0.0
  0
LINE
  5
146
330
1E
100
AcDbEntity
  8
0
100
AcDbLine
 10
199.2499999999999
 20
59.83
 30
0.0
 11
199.55
 21
60.53
 31
0.0
  0
LINE
  5
147
330
1E
100
AcDbEntity
  8
0
100
AcDbLine
 10
29.3587602325836
 20
58.83
 30
0.0
 11
158.780982342583
 21
58.83
 31
0.0
  0
LINE
  5
15C
330
1E
100
AcDbEntity
  8
0
100
AcDbLine
 10
237.927
 20
23.153
 30
0.0
 11
237.927
 21
70.83
 31
0.0
  0
LINE
  5
15D
330
1E
100
AcDbEntity
  8
0
100
AcDbLine
 10
29.3587602325836
 20
58.83
 30
0.0
 11
158.780982342583
 21
58.83
 31
0.0
  0
LINE
  5
16F
330
1E
100
AcDbEntity
  8
0
100
AcDbLine
 10
233.927
 20
71.82999999999999
 30
0.0
 11
235.1269999999999
 21
71.82999999999999
 31
0.0
  0
LINE
  5
170
330
1E
100
AcDbEntity
  8
0
100
AcDbLine
 10
235.1269999999999
 20
71.82999999999999
 30
0.0
 11
235.934
 21
71.82999999999999
 31
0.0
  0
LINE
  5
171
330
1E
100
AcDbEntity
  8
0
100
AcDbLine
 10
235.934
 20
71.82999999999999
 30
0.0
 11
236.3319999999999
 21
71.82999999999999
 31
0.0
  0
LINE
  5
172
330
1E
100
AcDbEntity
  8
0
100
AcDbLine
 10
236.3319999999999
 20
71.82999999999999
 30
0.0
 11
236.5839999999999
 21
71.82999999999999
 31
0.0
  0
LINE
  5
173
330
1E
100
AcDbEntity
  8
0
100
AcDbLine
 10
236.5839999999999
 20
71.82999999999999
 30
0.0
 11
236.747
 21
71.82999999999999
 31
0.0
  0
LINE
  5
174
330
1E
100
AcDbEntity
  8
0
100
AcDbLine
 10
236.747
 20
71.82999999999999
 30
0.0
 11
236.927
 21
71.82999999999999
 31
0.0
  0
LINE
  5
175
330
1E
100
AcDbEntity
  8
0
100
AcDbLine
 10
232.227
 20
71.82999999999999
 30
0.0
 11
233.927
 21
71.82999999999999
 31
0.0
  0
LINE
  5
176
330
1E
100
AcDbEntity
  8
0
100
AcDbLine
 10
230.423
 20
71.82999999999999
 30
0.0
 11
232.227
 21
71.82999999999999
 31
0.0
  0
LINE
  5
177
330
1E
100
AcDbEntity
  8
0
100
AcDbLine
 10
228.438
 20
71.82999999999999
 30
0.0
 11
230.423
 21
71.82999999999999
 31
0.0
  0
LINE
  5
178
330
1E
100
AcDbEntity
  8
0
100
AcDbLine
 10
226.237
 20
71.82999999999999
 30
0.0
 11
228.438
 21
71.82999999999999
 31
0.0
  0
LINE
  5
179
330
1E
100
AcDbEntity
  8
0
100
AcDbLine
 10
223.6779999999999
 20
71.82999999999999
 30
0.0
 11
226.237
 21
71.82999999999999
 31
0.0
  0
LINE
  5
17A
330
1E
100
AcDbEntity
  8
0
100
AcDbLine
 10
219.55
 20
71.82999999999999
 30
0.0
 11
223.6779999999999
 21
71.82999999999999
 31
0.0
  0
LINE
  5
17B
330
1E
100
AcDbEntity
  8
0
100
AcDbLine
 10
205.25
 20
71.82999999999999
 30
0.0
 11
219.55
 21
71.82999999999999
 31
0.0
  0
LINE
  5
17C
330
1E
100
AcDbEntity
  8
0
100
AcDbLine
 10
201.743
 20
71.93439999999999
 30
0.0
 11
205.25
 21
71.82999999999999
 31
0.0
  0
LINE
  5
17E
330
1E
100
AcDbEntity
  8
0
100
AcDbLine
 10
197.229
 20
72.38970000000001
 30
0.0
 11
201.743
 21
71.93439999999999
 31
0.0
  0
LINE
  5
180
330
1E
100
AcDbEntity
  8
0
100
AcDbLine
 10
193.832
 20
72.9352
 30
0.0
 11
197.229
 21
72.38970000000001
 31
0.0
  0
LINE
  5
182
330
1E
100
AcDbEntity
  8
0
100
AcDbLine
 10
190.53
 20
73.6842
 30
0.0
 11
193.832
 21
72.9352
 31
0.0
  0
LINE
  5
184
330
1E
100
AcDbEntity
  8
0
100
AcDbLine
 10
186.4429999999999
 20
74.37359999999999
 30
0.0
 11
190.53
 21
73.6842
 31
0.0
  0
LINE
  5
372
330
1E
100
AcDbEntity
  8
0
100
AcDbLine
 10
183.3909999999999
 20
74.61809999999999
 30
0.0
 11
186.4429999999999
 21
74.37359999999999
 31
0.0
  0
LINE
  5
373
330
1E
100
AcDbEntity
  8
0
100
AcDbLine
 10
179.3086360557822
 20
74.78636549694218
 30
0.0
 11
183.3909999999999
 21
74.61809999999999
 31
0.0
  0
LINE
  5
375
330
1E
100
AcDbEntity
  8
0
100
AcDbLine
 10
236.927
 20
71.82999999999999
 30
0.0
 11
237.627
 21
71.53
 31
0.0
  0
LINE
  5
376
330
1E
100
AcDbEntity
  8
0
100
AcDbLine
 10
237.627
 20
71.53
 30
0.0
 11
237.927
 21
70.83
 31
0.0
  0
LINE
  5
377
330
1E
100
AcDbEntity
  8
0
100
AcDbLine
 10
237.927
 20
70.83
 30
0.0
 11
237.927
 21
23.153
 31
0.0
  0
LINE
  5
378
330
1E
100
AcDbEntity
  8
0
100
AcDbLine
 10
26.5188
 20
51.0273
 30
0.0
 11
29.3623999473396
 21
58.84
 31
0.0
  0
LINE
  5
37D
330
1E
100
AcDbEntity
  8
0
100
AcDbLine
 10
7.348495155659089
 20
62.6808866934577
 30
0.0
 11
29.3587602325836
 21
58.83
 31
0.0
  0
LINE
  5
37E
330
1E
100
AcDbEntity
  8
0
100
AcDbLine
 10
232.75
 20
59.83
 30
0.0
 11
232.75
 21
26.97583333333333
 31
0.0
  0
LINE
  5
381
330
1E
100
AcDbEntity
  8
0
100
AcDbLine
 10
232.75
 20
26.97583333333333
 30
0.0
 11
232.75
 21
59.83
 31
0.0
  0
LINE
  5
382
330
1E
100
AcDbEntity
  8
0
100
AcDbLine
 10
232.75
 20
26.97583333333333
 30
0.0
 11
232.75
 21
54.83
 31
0.0
  0
LINE
  5
383
330
1E
100
AcDbEntity
  8
0
100
AcDbLine
 10
232.75
 20
54.83
 30
0.0
 11
232.75
 21
26.97583333333333
 31
0.0
  0
LINE
  5
386
330
1E
100
AcDbEntity
  8
0
100
AcDbLine
 10
232.75
 20
55.4812
 30
0.0
 11
232.75
 21
56.0704
 31
0.0
  0
LINE
  5
387
330
1E
100
AcDbEntity
  8
0
100
AcDbLine
 10
232.75
 20
56.0704
 30
0.0
 11
232.75
 21
55.4812
 31
0.0
  0
LINE
  5
388
330
1E
100
AcDbEntity
  8
0
100
AcDbLine
 10
232.75
 20
54.83
 30
0.0
 11
232.75
 21
55.4812
 31
0.0
  0
LINE
  5
389
330
1E
100
AcDbEntity
  8
0
100
AcDbLine
 10
232.75
 20
55.4812
 30
0.0
 11
232.75
 21
54.83
 31
0.0
  0
LINE
  5
38C
330
1E
100
AcDbEntity
  8
0
100
AcDbLine
 10
232.75
 20
57.33
 30
0.0
 11
232.75
 21
57.2489
 31
0.0
  0
LINE
  5
391
330
1E
100
AcDbEntity
  8
0
100
AcDbLine
 10
232.75
 20
56.9976
 30
0.0
 11
232.75
 21
57.2489
 31
0.0
  0
LINE
  5
392
330
1E
100
AcDbEntity
  8
0
100
AcDbLine
 10
232.75
 20
56.9976
 30
0.0
 11
232.75
 21
56.599
 31
0.0
  0
LINE
  5
393
330
1E
100
AcDbEntity
  8
0
100
AcDbLine
 10
232.75
 20
57.2489
 30
0.0
 11
232.75
 21
56.9976
 31
0.0
  0
LINE
  5
394
330
1E
100
AcDbEntity
  8
0
100
AcDbLine
 10
232.75
 20
57.2489
 30
0.0
 11
232.75
 21
57.33
 31
0.0
  0
LINE
  5
395
330
1E
100
AcDbEntity
  8
0
100
AcDbLine
 10
232.75
 20
56.599
 30
0.0
 11
232.75
 21
56.9976
 31
0.0
  0
LINE
  5
396
330
1E
100
AcDbEntity
  8
0
100
AcDbLine
 10
232.75
 20
56.599
 30
0.0
 11
232.75
 21
56.0704
 31
0.0
  0
LINE
  5
397
330
1E
100
AcDbEntity
  8
0
100
AcDbLine
 10
232.75
 20
56.0704
 30
0.0
 11
232.75
 21
56.599
 31
0.0
  0
LINE
  5
398
330
1E
100
AcDbEntity
  8
0
100
AcDbLine
 10
232.75
 20
59.83
 30
0.0
 11
232.45
 21
60.53
 31
0.0
  0
LINE
  5
39A
330
1E
100
AcDbEntity
  8
0
100
AcDbLine
 10
232.45
 20
60.53
 30
0.0
 11
231.7499999999999
 21
60.83
 31
0.0
  0
LINE
  5
39E
330
1E
100
AcDbEntity
  8
0
100
AcDbLine
 10
200.2499999999999
 20
60.83
 30
0.0
 11
231.7499999999999
 21
60.83
 31
0.0
  0
LINE
  5
4BA
330
1E
100
AcDbEntity
  8
0
100
AcDbLine
 10
37.05309999999997
 20
218.191
 30
0.0
 11
43.21609999999998
 21
217.071
 31
0.0
  0
LINE
  5
4BB
330
1E
100
AcDbEntity
  8
0
100
AcDbLine
 10
43.21609999999998
 20
217.071
 30
0.0
 11
50.2251
 21
215.407
 31
0.0
  0
LINE
  5
4BC
330
1E
100
AcDbEntity
  8
0
100
AcDbLine
 10
50.2251
 20
215.407
 30
0.0
 11
56.02510000000001
 21
213.574
 31
0.0
  0
LINE
  5
4BD
330
1E
100
AcDbEntity
  8
0
100
AcDbLine
 10
56.02510000000001
 20
213.574
 30
0.0
 11
62.44409999999999
 21
210.753
 31
0.0
  0
LINE
  5
4BE
330
1E
100
AcDbEntity
  8
0
100
AcDbLine
 10
62.44409999999999
 20
210.753
 30
0.0
 11
66.05309999999997
 21
209.026
 31
0.0
  0
LINE
  5
4BF
330
1E
100
AcDbEntity
  8
0
100
AcDbLine
 10
95.53028194023198
 20
178.769167640411
 30
0.0
 11
117.298873768612
 21
150.907161565788
 31
0.0
  0
LINE
  5
4C0
330
1E
100
AcDbEntity
  8
0
100
AcDbLine
 10
95.53028194023198
 20
178.769167640411
 30
0.0
 11
96.70010000000003
 21
181.065
 31
0.0
  0
LINE
  5
4C1
330
1E
100
AcDbEntity
  8
0
100
AcDbLine
 10
94.06010000000003
 20
186.899
 30
0.0
 11
96.70010000000003
 21
181.065
 31
0.0
  0
LINE
  5
4C2
330
1E
100
AcDbEntity
  8
0
100
AcDbLine
 10
90.5131
 20
190.951
 30
0.0
 11
94.06010000000003
 21
186.899
 31
0.0
  0
LINE
  5
4C3
330
1E
100
AcDbEntity
  8
0
100
AcDbLine
 10
85.98509999999999
 20
195.279
 30
0.0
 11
90.5131
 21
190.951
 31
0.0
  0
LINE
  5
4C4
330
1E
100
AcDbEntity
  8
0
100
AcDbLine
 10
80.51909999999997
 20
199.972
 30
0.0
 11
85.98509999999999
 21
195.279
 31
0.0
  0
LINE
  5
4C5
330
1E
100
AcDbEntity
  8
0
100
AcDbLine
 10
75.62709999999999
 20
203.587
 30
0.0
 11
80.51909999999997
 21
199.972
 31
0.0
  0
LINE
  5
4C6
330
1E
100
AcDbEntity
  8
0
100
AcDbLine
 10
69.57209999999998
 20
207.121
 30
0.0
 11
75.62709999999999
 21
203.587
 31
0.0
  0
LINE
  5
4C7
330
1E
100
AcDbEntity
  8
0
100
AcDbLine
 10
66.05309999999997
 20
209.026
 30
0.0
 11
69.57209999999998
 21
207.121
 31
0.0
  0
LINE
  5
4C8
330
1E
100
AcDbEntity
  8
0
100
AcDbLine
 10
61.0591
 20
199.225
 30
0.0
 11
70.2371
 21
194.549
 31
0.0
  0
LINE
  5
4C9
330
1E
100
AcDbEntity
  8
0
100
AcDbLine
 10
70.2371
 20
194.549
 30
0.0
 11
78.7901
 21
190.1909999999999
 31
0.0
  0
LINE
  5
4CA
330
1E
100
AcDbEntity
  8
0
100
AcDbLine
 10
78.7901
 20
190.1909999999999
 30
0.0
 11
86.18610000000002
 21
186.4219999999999
 31
0.0
  0
LINE
  5
4CC
330
1E
100
AcDbEntity
  8
0
100
AcDbLine
 10
56.84410000000003
 20
168.264
 30
0.0
 11
65.3981
 21
163.906
 31
0.0
  0
LINE
  5
4CE
330
1E
100
AcDbEntity
  8
0
100
AcDbLine
 10
57.5251
 20
169.601
 30
0.0
 11
66.07909999999998
 21
165.242
 31
0.0
  0
LINE
  5
4CF
330
1E
100
AcDbEntity
  8
0
100
AcDbLine
 10
86.18610000000002
 20
186.4219999999999
 30
0.0
 11
91.88810000000001
 21
183.5169999999999
 31
0.0
  0
LINE
  5
4D0
330
1E
100
AcDbEntity
  8
0
100
AcDbLine
 10
91.88810000000001
 20
183.5169999999999
 30
0.0
 11
95.45209999999997
 21
181.7009999999999
 31
0.0
  0
LINE
  5
4D1
330
1E
100
AcDbEntity
  8
0
100
AcDbLine
 10
95.45209999999997
 20
181.7009999999999
 30
0.0
 11
96.70010000000003
 21
181.065
 31
0.0
  0
LINE
  5
4D2
330
1E
100
AcDbEntity
  8
0
100
AcDbLine
 10
65.3981
 20
163.906
 30
0.0
 11
72.79309999999998
 21
160.1379999999999
 31
0.0
  0
LINE
  5
4D4
330
1E
100
AcDbEntity
  8
0
100
AcDbLine
 10
66.07909999999998
 20
165.242
 30
0.0
 11
73.47410000000002
 21
161.474
 31
0.0
  0
LINE
  5
4D5
330
1E
100
AcDbEntity
  8
0
100
AcDbLine
 10
73.47410000000002
 20
161.474
 30
0.0
 11
79.17610000000002
 21
158.569
 31
0.0
  0
LINE
  5
4D7
330
1E
100
AcDbEntity
  8
0
100
AcDbLine
 10
51.88209999999997
 20
203.901
 30
0.0
 11
61.0591
 21
199.225
 31
0.0
  0
LINE
  5
4D8
330
1E
100
AcDbEntity
  8
0
100
AcDbLine
 10
43.32810000000001
 20
208.259
 30
0.0
 11
51.88209999999997
 21
203.901
 31
0.0
  0
LINE
  5
4D9
330
1E
100
AcDbEntity
  8
0
100
AcDbLine
 10
47.6671
 20
172.94
 30
0.0
 11
56.84410000000003
 21
168.264
 31
0.0
  0
LINE
  5
4DC
330
1E
100
AcDbEntity
  8
0
100
AcDbLine
 10
48.34809999999999
 20
174.277
 30
0.0
 11
57.5251
 21
169.601
 31
0.0
  0
LINE
  5
4DF
330
1E
100
AcDbEntity
  8
0
100
AcDbLine
 10
39.17009999999999
 20
178.953
 30
0.0
 11
48.34809999999999
 21
174.277
 31
0.0
  0
LINE
  5
4E0
330
1E
100
AcDbEntity
  8
0
100
AcDbLine
 10
35.93310000000002
 20
212.027
 30
0.0
 11
43.32810000000001
 21
208.259
 31
0.0
  0
LINE
  5
4E2
330
1E
100
AcDbEntity
  8
0
100
AcDbLine
 10
38.4891
 20
177.616
 30
0.0
 11
47.6671
 21
172.94
 31
0.0
  0
LINE
  5
4E4
330
1E
100
AcDbEntity
  8
0
100
AcDbLine
 10
32.58710000000002
 20
166.033
 30
0.0
 11
41.76510000000002
 21
161.3569999999999
 31
0.0
  0
LINE
  5
4E5
330
1E
100
AcDbEntity
  8
0
100
AcDbLine
 10
30.61709999999999
 20
183.3109999999999
 30
0.0
 11
39.17009999999999
 21
178.953
 31
0.0
  0
LINE
  5
4E6
330
1E
100
AcDbEntity
  8
0
100
AcDbLine
 10
31.69010000000003
 20
218.679
 30
0.0
 11
37.05309999999997
 21
218.191
 31
0.0
  0
LINE
  5
4E7
330
1E
100
AcDbEntity
  8
0
100
AcDbLine
 10
30.23009999999999
 20
214.933
 30
0.0
 11
35.93310000000002
 21
212.027
 31
0.0
  0
LINE
  5
4E8
330
1E
100
AcDbEntity
  8
0
100
AcDbLine
 10
26.66610000000003
 20
216.7489999999999
 30
0.0
 11
30.23009999999999
 21
214.933
 31
0.0
  0
LINE
  5
4EB
330
1E
100
AcDbEntity
  8
0
100
AcDbLine
 10
29.93610000000001
 20
181.9749999999999
 30
0.0
 11
38.4891
 21
177.616
 31
0.0
  0
LINE
  5
4EC
330
1E
100
AcDbEntity
  8
0
100
AcDbLine
 10
82.6431
 20
155.68
 30
0.0
 11
83.30709999999999
 21
154.781
 31
0.0
  0
LINE
  5
4ED
330
1E
100
AcDbEntity
  8
0
100
AcDbLine
 10
82.6431
 20
155.68
 30
0.0
 11
82.87009999999998
 21
156.126
 31
0.0
  0
LINE
  5
4EE
330
1E
100
AcDbEntity
  8
0
100
AcDbLine
 10
82.87009999999998
 20
156.126
 30
0.0
 11
83.98810000000002
 21
156.117
 31
0.0
  0
LINE
  5
4EF
330
1E
100
AcDbEntity
  8
0
100
AcDbLine
 10
82.74009999999998
 20
156.753
 30
0.0
 11
83.98810000000002
 21
156.117
 31
0.0
  0
LINE
  5
4F0
330
1E
100
AcDbEntity
  8
0
100
AcDbLine
 10
84.50996754606808
 20
157.141193796358
 30
0.0
 11
99.96299120115601
 21
137.362139256777
 31
0.0
  0
LINE
  5
4F1
330
1E
100
AcDbEntity
  8
0
100
AcDbLine
 10
83.98810000000002
 20
156.117
 30
0.0
 11
84.50996754606808
 21
157.141193796358
 31
0.0
  0
LINE
  5
4F2
330
1E
100
AcDbEntity
  8
0
100
AcDbLine
 10
119.1829999999999
 20
151.744
 30
0.0
 11
198.6029999999999
 21
50.0906
 31
0.0
  0
LINE
  5
4F3
330
1E
100
AcDbEntity
  8
0
100
AcDbLine
 10
119.1829999999999
 20
151.744
 30
0.0
 11
198.6029999999999
 21
50.0906
 31
0.0
  0
LINE
  5
4F4
330
1E
100
AcDbEntity
  8
0
100
AcDbLine
 10
118.4809999999999
 20
151.83
 30
0.0
 11
119.1829999999999
 21
151.744
 31
0.0
  0
LINE
  5
4F5
330
1E
100
AcDbEntity
  8
0
100
AcDbLine
 10
118.0869999999999
 20
151.522
 30
0.0
 11
118.4809999999999
 21
151.83
 31
0.0
  0
LINE
  5
4F6
330
1E
100
AcDbEntity
  8
0
100
AcDbLine
 10
118.7889999999999
 20
151.436
 30
0.0
 11
119.1829999999999
 21
151.744
 31
0.0
  0
LINE
  5
4F7
330
1E
100
AcDbEntity
  8
0
100
AcDbLine
 10
115.565
 20
149.552
 30
0.0
 11
117.141
 21
150.784
 31
0.0
  0
LINE
  5
4F8
330
1E
100
AcDbEntity
  8
0
100
AcDbLine
 10
115.565
 20
149.552
 30
0.0
 11
115.6628389261489
 21
149.628483221457
 31
0.0
  0
LINE
  5
4F9
330
1E
100
AcDbEntity
  8
0
100
AcDbLine
 10
115.565
 20
149.552
 30
0.0
 11
115.6628389261489
 21
149.628483221457
 31
0.0
  0
LINE
  5
4FA
330
1E
100
AcDbEntity
  8
0
100
AcDbLine
 10
117.7649999999999
 20
150.6359999999999
 30
0.0
 11
118.7889999999999
 21
151.436
 31
0.0
  0
LINE
  5
4FB
330
1E
100
AcDbEntity
  8
0
100
AcDbLine
 10
117.141
 20
150.784
 30
0.0
 11
118.0869999999999
 21
151.522
 31
0.0
  0
LINE
  5
4FD
330
1E
100
AcDbEntity
  8
0
100
AcDbLine
 10
116.11
 20
149.343
 30
0.0
 11
117.7649999999999
 21
150.6359999999999
 31
0.0
  0
LINE
  5
4FE
330
1E
100
AcDbEntity
  8
0
100
AcDbLine
 10
114.061
 20
147.742
 30
0.0
 11
116.11
 21
149.343
 31
0.0
  0
LINE
  5
505
330
1E
100
AcDbEntity
  8
0
100
AcDbLine
 10
111.5389999999999
 20
145.772
 30
0.0
 11
114.061
 21
147.742
 31
0.0
  0
LINE
  5
506
330
1E
100
AcDbEntity
  8
0
100
AcDbLine
 10
98.69510000000003
 20
135.7369999999999
 30
0.0
 11
99.08910000000004
 21
136.045
 31
0.0
  0
LINE
  5
507
330
1E
100
AcDbEntity
  8
0
100
AcDbLine
 10
98.69510000000003
 20
135.7369999999999
 30
0.0
 11
98.78109999999999
 21
136.439
 31
0.0
  0
LINE
  5
508
330
1E
100
AcDbEntity
  8
0
100
AcDbLine
 10
98.69510000000003
 20
135.7369999999999
 30
0.0
 11
178.115
 21
34.08339999999999
 31
0.0
  0
LINE
  5
509
330
1E
100
AcDbEntity
  8
0
100
AcDbLine
 10
106.3379999999999
 20
141.7089999999999
 30
0.0
 11
108.9389999999999
 21
143.74
 31
0.0
  0
LINE
  5
50B
330
1E
100
AcDbEntity
  8
0
100
AcDbLine
 10
108.9389999999999
 20
143.74
 30
0.0
 11
111.5389999999999
 21
145.772
 31
0.0
  0
LINE
  5
50F
330
1E
100
AcDbEntity
  8
0
100
AcDbLine
 10
98.78109999999999
 20
136.439
 30
0.0
 11
99.1751
 21
136.746
 31
0.0
  0
LINE
  5
510
330
1E
100
AcDbEntity
  8
0
100
AcDbLine
 10
99.1751
 20
136.746
 30
0.0
 11
100.1200999999999
 21
137.485
 31
0.0
  0
LINE
  5
511
330
1E
100
AcDbEntity
  8
0
100
AcDbLine
 10
99.1751
 20
136.746
 30
0.0
 11
99.96299120115601
 21
137.362139256777
 31
0.0
  0
LINE
  5
516
330
1E
100
AcDbEntity
  8
0
100
AcDbLine
 10
100.1131
 20
136.8449999999999
 30
0.0
 11
101.7679999999999
 21
138.138
 31
0.0
  0
LINE
  5
517
330
1E
100
AcDbEntity
  8
0
100
AcDbLine
 10
101.7679999999999
 20
138.138
 30
0.0
 11
103.817
 21
139.739
 31
0.0
  0
LINE
  5
518
330
1E
100
AcDbEntity
  8
0
100
AcDbLine
 10
103.817
 20
139.739
 30
0.0
 11
106.3379999999999
 21
141.7089999999999
 31
0.0
  0
LINE
  5
519
330
1E
100
AcDbEntity
  8
0
100
AcDbLine
 10
101.696
 20
138.717
 30
0.0
 11
115.565
 21
149.552
 31
0.0
  0
LINE
  5
51B
330
1E
100
AcDbEntity
  8
0
100
AcDbLine
 10
100.1200999999999
 20
137.485
 30
0.0
 11
101.696
 21
138.717
 31
0.0
  0
LINE
  5
51C
330
1E
100
AcDbEntity
  8
0
100
AcDbLine
 10
99.08910000000004
 20
136.045
 30
0.0
 11
100.1131
 21
136.8449999999999
 31
0.0
  0
LINE
  5
51E
330
1E
100
AcDbEntity
  8
0
100
AcDbLine
 10
50.94209999999998
 20
156.681
 30
0.0
 11
59.49610000000001
 21
152.323
 31
0.0
  0
LINE
  5
521
330
1E
100
AcDbEntity
  8
0
100
AcDbLine
 10
59.49610000000001
 20
152.323
 30
0.0
 11
66.89109999999999
 21
148.555
 31
0.0
  0
LINE
  5
522
330
1E
100
AcDbEntity
  8
0
100
AcDbLine
 10
72.79309999999998
 20
160.1379999999999
 30
0.0
 11
78.49509999999998
 21
157.2319999999999
 31
0.0
  0
LINE
  5
523
330
1E
100
AcDbEntity
  8
0
100
AcDbLine
 10
78.49509999999998
 20
157.2319999999999
 30
0.0
 11
82.05910000000001
 21
155.4159999999999
 31
0.0
  0
LINE
  5
526
330
1E
100
AcDbEntity
  8
0
100
AcDbLine
 10
79.17610000000002
 20
158.569
 30
0.0
 11
82.74009999999998
 21
156.753
 31
0.0
  0
LINE
  5
527
330
1E
100
AcDbEntity
  8
0
100
AcDbLine
 10
82.05910000000001
 20
155.4159999999999
 30
0.0
 11
83.30709999999999
 21
154.781
 31
0.0
  0
LINE
  5
52E
330
1E
100
AcDbEntity
  8
0
100
AcDbLine
 10
66.89109999999999
 20
148.555
 30
0.0
 11
72.59410000000002
 21
145.649
 31
0.0
  0
LINE
  5
535
330
1E
100
AcDbEntity
  8
0
100
AcDbLine
 10
41.76510000000002
 20
161.3569999999999
 30
0.0
 11
50.94209999999998
 21
156.681
 31
0.0
  0
LINE
  5
538
330
1E
100
AcDbEntity
  8
0
100
AcDbLine
 10
27.19709999999997
 20
156.995
 30
0.0
 11
32.98009999999999
 21
152.927
 31
0.0
  0
LINE
  5
540
330
1E
100
AcDbEntity
  8
0
100
AcDbLine
 10
46.79910000000001
 20
147.008
 30
0.0
 11
53.05309999999997
 21
146.066
 31
0.0
  0
LINE
  5
541
330
1E
100
AcDbEntity
  8
0
100
AcDbLine
 10
40.01909999999997
 20
149.34
 30
0.0
 11
40.10809999999998
 21
149.295
 31
0.0
  0
LINE
  5
544
330
1E
100
AcDbEntity
  8
0
100
AcDbLine
 10
40.10809999999998
 20
149.295
 30
0.0
 11
46.79910000000001
 21
147.008
 31
0.0
  0
LINE
  5
546
330
1E
100
AcDbEntity
  8
0
100
AcDbLine
 10
32.98009999999999
 20
152.927
 30
0.0
 11
33.06909999999999
 21
152.881
 31
0.0
  0
LINE
  5
547
330
1E
100
AcDbEntity
  8
0
100
AcDbLine
 10
76.28710000000001
 20
143.206
 30
0.0
 11
77.4051
 21
143.198
 31
0.0
  0
LINE
  5
548
330
1E
100
AcDbEntity
  8
0
100
AcDbLine
 10
77.4051
 20
143.198
 30
0.0
 11
83.30709999999999
 21
154.781
 31
0.0
  0
LINE
  5
54A
330
1E
100
AcDbEntity
  8
0
100
AcDbLine
 10
72.59410000000002
 20
145.649
 30
0.0
 11
76.15809999999999
 21
143.833
 31
0.0
  0
LINE
  5
54B
330
1E
100
AcDbEntity
  8
0
100
AcDbLine
 10
53.05309999999997
 20
146.066
 30
0.0
 11
60.65210000000002
 21
145.561
 31
0.0
  0
LINE
  5
54C
330
1E
100
AcDbEntity
  8
0
100
AcDbLine
 10
68.84309999999999
 20
146.438
 30
0.0
 11
71.3381
 21
145.167
 31
0.0
  0
LINE
  5
54D
330
1E
100
AcDbEntity
  8
0
100
AcDbLine
 10
76.15809999999999
 20
143.833
 30
0.0
 11
77.4051
 21
143.198
 31
0.0
  0
LINE
  5
54E
330
1E
100
AcDbEntity
  8
0
100
AcDbLine
 10
71.3381
 20
145.167
 30
0.0
 11
72.49610000000001
 21
144.5759999999999
 31
0.0
  0
LINE
  5
54F
330
1E
100
AcDbEntity
  8
0
100
AcDbLine
 10
60.65210000000002
 20
145.561
 30
0.0
 11
68.04110000000003
 21
146.846
 31
0.0
  0
LINE
  5
551
330
1E
100
AcDbEntity
  8
0
100
AcDbLine
 10
235.25
 20
25.83
 30
0.0
 11
241.25
 21
19.83
 31
0.0
  0
LINE
  5
552
330
1E
100
AcDbEntity
  8
0
100
AcDbLine
 10
223.2499999999999
 20
31.33
 30
0.0
 11
235.25
 21
25.83
 31
0.0
  0
LINE
  5
553
330
1E
100
AcDbEntity
  8
0
100
AcDbLine
 10
216.25
 20
31.82999999999999
 30
0.0
 11
223.2499999999999
 21
31.33
 31
0.0
  0
LINE
  5
554
330
1E
100
AcDbEntity
  8
0
100
AcDbLine
 10
212.7499999999999
 20
31.62999999999999
 30
0.0
 11
213.1499999999999
 21
31.82999999999999
 31
0.0
  0
LINE
  5
555
330
1E
100
AcDbEntity
  8
0
100
AcDbLine
 10
204.2889999999999
 20
42.4204
 30
0.0
 11
213.1499999999999
 21
31.82999999999999
 31
0.0
  0
LINE
  5
556
330
1E
100
AcDbEntity
  8
0
100
AcDbLine
 10
213.1499999999999
 20
31.82999999999999
 30
0.0
 11
216.25
 21
31.82999999999999
 31
0.0
  0
LINE
  5
557
330
1E
100
AcDbEntity
  8
0
100
AcDbLine
 10
202.35
 20
26.03
 30
0.0
 11
205.1499999999999
 21
27.53
 31
0.0
  0
LINE
  5
558
330
1E
100
AcDbEntity
  8
0
100
AcDbLine
 10
205.1499999999999
 20
27.53
 30
0.0
 11
207.6499999999999
 21
28.93
 31
0.0
  0
LINE
  5
559
330
1E
100
AcDbEntity
  8
0
100
AcDbLine
 10
207.6499999999999
 20
28.93
 30
0.0
 11
209.95
 21
30.12999999999999
 31
0.0
  0
LINE
  5
55A
330
1E
100
AcDbEntity
  8
0
100
AcDbLine
 10
209.95
 20
30.12999999999999
 30
0.0
 11
211.6499999999999
 21
31.03
 31
0.0
  0
LINE
  5
55B
330
1E
100
AcDbEntity
  8
0
100
AcDbLine
 10
211.6499999999999
 20
31.03
 30
0.0
 11
212.7499999999999
 21
31.62999999999999
 31
0.0
  0
LINE
  5
55C
330
1E
100
AcDbEntity
  8
0
100
AcDbLine
 10
199.5499999999999
 20
24.53
 30
0.0
 11
202.35
 21
26.03
 31
0.0
  0
LINE
  5
55D
330
1E
100
AcDbEntity
  8
0
100
AcDbLine
 10
198.576
 20
49.2297
 30
0.0
 11
204.2889999999999
 21
42.4204
 31
0.0
  0
LINE
  5
55E
330
1E
100
AcDbEntity
  8
0
100
AcDbLine
 10
198.438886005256
 20
49.32775609395529
 30
0.0
 11
198.517
 21
49.38880000000001
 31
0.0
  0
LINE
  5
55F
330
1E
100
AcDbEntity
  8
0
100
AcDbLine
 10
198.438886005256
 20
49.32775609395529
 30
0.0
 11
198.576
 21
49.2297
 31
0.0
  0
LINE
  5
560
330
1E
100
AcDbEntity
  8
0
100
AcDbLine
 10
198.517
 20
49.38880000000001
 30
0.0
 11
198.6029999999999
 21
50.0906
 31
0.0
  0
LINE
  5
561
330
1E
100
AcDbEntity
  8
0
100
AcDbLine
 10
198.209
 20
49.7828
 30
0.0
 11
198.6029999999999
 21
50.0906
 31
0.0
  0
LINE
  5
562
330
1E
100
AcDbEntity
  8
0
100
AcDbLine
 10
198.123
 20
49.0809
 30
0.0
 11
198.517
 21
49.38880000000001
 31
0.0
  0
LINE
  5
563
330
1E
100
AcDbEntity
  8
0
100
AcDbLine
 10
197.1849999999999
 20
48.9824
 30
0.0
 11
198.209
 21
49.7828
 31
0.0
  0
LINE
  5
564
330
1E
100
AcDbEntity
  8
0
100
AcDbLine
 10
185.904
 20
26.9935
 30
0.0
 11
191.5499999999999
 21
20.23
 31
0.0
  0
LINE
  5
565
330
1E
100
AcDbEntity
  8
0
100
AcDbLine
 10
197.178
 20
48.3421
 30
0.0
 11
198.123
 21
49.0809
 31
0.0
  0
LINE
  5
566
330
1E
100
AcDbEntity
  8
0
100
AcDbLine
 10
195.6019999999999
 20
47.11079999999999
 30
0.0
 11
197.178
 21
48.3421
 31
0.0
  0
LINE
  5
567
330
1E
100
AcDbEntity
  8
0
100
AcDbLine
 10
195.5299999999999
 20
47.6895
 30
0.0
 11
197.1849999999999
 21
48.9824
 31
0.0
  0
LINE
  5
568
330
1E
100
AcDbEntity
  8
0
100
AcDbLine
 10
193.5529999999999
 20
45.5101
 30
0.0
 11
195.6019999999999
 21
47.11079999999999
 31
0.0
  0
LINE
  5
569
330
1E
100
AcDbEntity
  8
0
100
AcDbLine
 10
193.4809999999999
 20
46.0888
 30
0.0
 11
195.5299999999999
 21
47.6895
 31
0.0
  0
LINE
  5
56A
330
1E
100
AcDbEntity
  8
0
100
AcDbLine
 10
191.189
 20
43.6631
 30
0.0
 11
193.5529999999999
 21
45.5101
 31
0.0
  0
LINE
  5
56B
330
1E
100
AcDbEntity
  8
0
100
AcDbLine
 10
190.96
 20
44.11869999999999
 30
0.0
 11
193.4809999999999
 21
46.0888
 31
0.0
  0
LINE
  5
56C
330
1E
100
AcDbEntity
  8
0
100
AcDbLine
 10
188.667
 20
41.69299999999999
 30
0.0
 11
191.189
 21
43.6631
 31
0.0
  0
LINE
  5
56D
330
1E
100
AcDbEntity
  8
0
100
AcDbLine
 10
188.359
 20
42.087
 30
0.0
 11
190.96
 21
44.11869999999999
 31
0.0
  0
LINE
  5
56E
330
1E
100
AcDbEntity
  8
0
100
AcDbLine
 10
186.1449999999999
 20
39.7229
 30
0.0
 11
188.667
 21
41.69299999999999
 31
0.0
  0
LINE
  5
56F
330
1E
100
AcDbEntity
  8
0
100
AcDbLine
 10
180.191
 20
33.80279999999999
 30
0.0
 11
185.904
 21
26.9935
 31
0.0
  0
LINE
  5
571
330
1E
100
AcDbEntity
  8
0
100
AcDbLine
 10
179.8189999999999
 20
34.57889999999999
 30
0.0
 11
179.9853050801639
 21
34.91045089230189
 31
0.0
  0
LINE
  5
572
330
1E
100
AcDbEntity
  8
0
100
AcDbLine
 10
179.8189999999999
 20
34.57889999999999
 30
0.0
 11
180.191
 21
33.80279999999999
 31
0.0
  0
LINE
  5
573
330
1E
100
AcDbEntity
  8
0
100
AcDbLine
 10
183.2369999999999
 20
38.0852
 30
0.0
 11
185.759
 21
40.0553
 31
0.0
  0
LINE
  5
574
330
1E
100
AcDbEntity
  8
0
100
AcDbLine
 10
185.759
 20
40.0553
 30
0.0
 11
188.359
 21
42.087
 31
0.0
  0
LINE
  5
575
330
1E
100
AcDbEntity
  8
0
100
AcDbLine
 10
183.7809999999999
 20
37.8759
 30
0.0
 11
186.1449999999999
 21
39.7229
 31
0.0
  0
LINE
  5
579
330
1E
100
AcDbEntity
  8
0
100
AcDbLine
 10
181.7329999999999
 20
36.2752
 30
0.0
 11
183.7809999999999
 21
37.8759
 31
0.0
  0
LINE
  5
57A
330
1E
100
AcDbEntity
  8
0
100
AcDbLine
 10
181.188
 20
36.48449999999999
 30
0.0
 11
183.2369999999999
 21
38.0852
 31
0.0
  0
LINE
  5
57B
330
1E
100
AcDbEntity
  8
0
100
AcDbLine
 10
180.1559999999999
 20
35.0439
 30
0.0
 11
181.7329999999999
 21
36.2752
 31
0.0
  0
LINE
  5
57C
330
1E
100
AcDbEntity
  8
0
100
AcDbLine
 10
178.115
 20
34.08339999999999
 30
0.0
 11
178.509
 21
34.39119999999999
 31
0.0
  0
LINE
  5
57D
330
1E
100
AcDbEntity
  8
0
100
AcDbLine
 10
178.115
 20
34.08339999999999
 30
0.0
 11
178.817
 21
33.9972
 31
0.0
  0
LINE
  5
57E
330
1E
100
AcDbEntity
  8
0
100
AcDbLine
 10
179.211
 20
34.3051
 30
0.0
 11
180.1559999999999
 21
35.0439
 31
0.0
  0
LINE
  5
57F
330
1E
100
AcDbEntity
  8
0
100
AcDbLine
 10
179.533
 20
35.1916
 30
0.0
 11
181.188
 21
36.48449999999999
 31
0.0
  0
LINE
  5
580
330
1E
100
AcDbEntity
  8
0
100
AcDbLine
 10
178.509
 20
34.39119999999999
 30
0.0
 11
179.533
 21
35.1916
 31
0.0
  0
LINE
  5
581
330
1E
100
AcDbEntity
  8
0
100
AcDbLine
 10
178.817
 20
33.9972
 30
0.0
 11
179.211
 21
34.3051
 31
0.0
  0
LINE
  5
583
330
1E
100
AcDbEntity
  8
0
100
AcDbLine
 10
189.25
 20
14.83
 30
0.0
 11
191.5499999999999
 21
20.23
 31
0.0
  0
LINE
  5
584
330
1E
100
AcDbEntity
  8
0
100
AcDbLine
 10
191.5499999999999
 20
20.23
 30
0.0
 11
191.95
 21
20.43
 31
0.0
  0
LINE
  5
585
330
1E
100
AcDbEntity
  8
0
100
AcDbLine
 10
191.95
 20
20.43
 30
0.0
 11
192.95
 21
21.03
 31
0.0
  0
LINE
  5
586
330
1E
100
AcDbEntity
  8
0
100
AcDbLine
 10
192.95
 20
21.03
 30
0.0
 11
194.6499999999999
 21
21.93
 31
0.0
  0
LINE
  5
587
330
1E
100
AcDbEntity
  8
0
100
AcDbLine
 10
194.6499999999999
 20
21.93
 30
0.0
 11
196.95
 21
23.13
 31
0.0
  0
LINE
  5
588
330
1E
100
AcDbEntity
  8
0
100
AcDbLine
 10
196.95
 20
23.13
 30
0.0
 11
199.5499999999999
 21
24.53
 31
0.0
  0
LINE
  5
589
330
1E
100
AcDbEntity
  8
0
100
AcDbLine
 10
25.41910000000001
 20
217.385
 30
0.0
 11
26.66610000000003
 21
216.7489999999999
 31
0.0
  0
LINE
  5
58A
330
1E
100
AcDbEntity
  8
0
100
AcDbLine
 10
25.41910000000001
 20
217.385
 30
0.0
 11
31.69010000000003
 21
218.679
 31
0.0
  0
LINE
  5
58F
330
1E
100
AcDbEntity
  8
0
100
AcDbLine
 10
24.03410000000002
 20
170.392
 30
0.0
 11
32.58710000000002
 21
166.033
 31
0.0
  0
LINE
  5
592
330
1E
100
AcDbEntity
  8
0
100
AcDbLine
 10
23.22109999999998
 20
187.079
 30
0.0
 11
30.61709999999999
 21
183.3109999999999
 31
0.0
  0
LINE
  5
594
330
1E
100
AcDbEntity
  8
0
100
AcDbLine
 10
22.54009999999999
 20
185.7429999999999
 30
0.0
 11
29.93610000000001
 21
181.9749999999999
 31
0.0
  0
LINE
  5
595
330
1E
100
AcDbEntity
  8
0
100
AcDbLine
 10
22.75909999999999
 20
161.501
 30
0.0
 11
27.19709999999997
 21
156.995
 31
0.0
  0
LINE
  5
59B
330
1E
100
AcDbEntity
  8
0
100
AcDbLine
 10
16.6381
 20
174.16
 30
0.0
 11
24.03410000000002
 21
170.392
 31
0.0
  0
LINE
  5
59C
330
1E
100
AcDbEntity
  8
0
100
AcDbLine
 10
17.51909999999998
 20
189.985
 30
0.0
 11
23.22109999999998
 21
187.079
 31
0.0
  0
LINE
  5
59F
330
1E
100
AcDbEntity
  8
0
100
AcDbLine
 10
16.83809999999999
 20
188.6479999999999
 30
0.0
 11
22.54009999999999
 21
185.7429999999999
 31
0.0
  0
LINE
  5
5A4
330
1E
100
AcDbEntity
  8
0
100
AcDbLine
 10
17.88409999999998
 20
167.352
 30
0.0
 11
22.75909999999999
 21
161.501
 31
0.0
  0
LINE
  5
5AA
330
1E
100
AcDbEntity
  8
0
100
AcDbLine
 10
12.02660802617538
 20
191.099995910344
 30
0.0
 11
13.14409999999998
 21
191.091
 31
0.0
  0
LINE
  5
5AD
330
1E
100
AcDbEntity
  8
0
100
AcDbLine
 10
13.14409999999998
 20
191.091
 30
0.0
 11
13.37110000000001
 21
191.537
 31
0.0
  0
LINE
  5
5B0
330
1E
100
AcDbEntity
  8
0
100
AcDbLine
 10
13.95510000000001
 20
191.801
 30
0.0
 11
17.51909999999998
 21
189.985
 31
0.0
  0
LINE
  5
5B1
330
1E
100
AcDbEntity
  8
0
100
AcDbLine
 10
13.27409999999997
 20
190.464
 30
0.0
 11
16.83809999999999
 21
188.6479999999999
 31
0.0
  0
LINE
  5
5B2
330
1E
100
AcDbEntity
  8
0
100
AcDbLine
 10
12.70710000000002
 20
192.436
 30
0.0
 11
13.95510000000001
 21
191.801
 31
0.0
  0
LINE
  5
5B3
330
1E
100
AcDbEntity
  8
0
100
AcDbLine
 10
12.70710000000002
 20
192.436
 30
0.0
 11
25.41910000000001
 21
217.385
 31
0.0
  0
LINE
  5
5B4
330
1E
100
AcDbEntity
  8
0
100
AcDbLine
 10
12.70710000000002
 20
192.436
 30
0.0
 11
13.37110000000001
 21
191.537
 31
0.0
  0
LINE
  5
5B5
330
1E
100
AcDbEntity
  8
0
100
AcDbLine
 10
12.02660802617538
 20
191.099995910344
 30
0.0
 11
13.14409999999998
 21
191.091
 31
0.0
  0
LINE
  5
5B6
330
1E
100
AcDbEntity
  8
0
100
AcDbLine
 10
12.02609999999998
 20
191.0999999999999
 30
0.0
 11
13.27409999999997
 21
190.464
 31
0.0
  0
LINE
  5
5BB
330
1E
100
AcDbEntity
  8
0
100
AcDbLine
 10
13.77909999999997
 20
174.4939999999999
 30
0.0
 11
14.58145937203778
 21
174.0852673293059
 31
0.0
  0
LINE
  5
5BE
330
1E
100
AcDbEntity
  8
0
100
AcDbLine
 10
14.58145937203778
 20
174.0852673293059
 30
0.0
 11
17.88409999999998
 21
167.352
 31
0.0
  0
LINE
  5
5C0
330
1E
100
AcDbEntity
  8
0
100
AcDbLine
 10
7.372099999999988
 20
178.8809999999999
 30
0.0
 11
10.93610000000001
 21
177.065
 31
0.0
  0
LINE
  5
5C1
330
1E
100
AcDbEntity
  8
0
100
AcDbLine
 10
10.69009999999997
 20
191.781
 30
0.0
 11
12.02717339115838
 21
191.099707834359
 31
0.0
  0
LINE
  5
5C3
330
1E
100
AcDbEntity
  8
0
100
AcDbLine
 10
10.93610000000001
 20
177.065
 30
0.0
 11
16.6381
 21
174.16
 31
0.0
  0
LINE
  5
5C4
330
1E
100
AcDbEntity
  8
0
100
AcDbLine
 10
11.28410000000002
 20
175.766
 30
0.0
 11
13.77909999999997
 21
174.4939999999999
 31
0.0
  0
LINE
  5
5C6
330
1E
100
AcDbEntity
  8
0
100
AcDbLine
 10
10.12509999999997
 20
176.356
 30
0.0
 11
11.28410000000002
 21
175.766
 31
0.0
  0
LINE
  5
5C7
330
1E
100
AcDbEntity
  8
0
100
AcDbLine
 10
6.124099999999998
 20
179.5169999999999
 30
0.0
 11
7.372099999999988
 21
178.8809999999999
 31
0.0
  0
LINE
  5
5C8
330
1E
100
AcDbEntity
  8
0
100
AcDbLine
 10
6.124099999999998
 20
179.5169999999999
 30
0.0
 11
6.788099999999985
 21
178.617
 31
0.0
  0
LINE
  5
5C9
330
1E
100
AcDbEntity
  8
0
100
AcDbLine
 10
4.788099999999985
 20
180.198
 30
0.0
 11
6.124224851181281
 21
179.51719115327
 31
0.0
  0
LINE
  5
5CA
330
1E
100
AcDbEntity
  8
0
100
AcDbLine
 10
4.788099999999985
 20
180.198
 30
0.0
 11
6.124224851181281
 21
179.51719115327
 31
0.0
  0
LINE
  5
5CB
330
1E
100
AcDbEntity
  8
0
100
AcDbLine
 10
4.788099999999985
 20
180.198
 30
0.0
 11
6.124203058309205
 21
179.517202257607
 31
0.0
  0
LINE
  5
5CC
330
1E
100
AcDbEntity
  8
0
100
AcDbLine
 10
4.788099999999985
 20
180.198
 30
0.0
 11
10.69009999999997
 21
191.781
 31
0.0
  0
LINE
  5
5CD
330
1E
100
AcDbEntity
  8
0
100
AcDbLine
 10
72.49610000000001
 20
144.5759999999999
 30
0.0
 11
76.28710000000001
 21
143.206
 31
0.0
  0
LINE
  5
5CE
330
1E
100
AcDbEntity
  8
0
100
AcDbLine
 10
40.01909999999997
 20
149.34
 30
0.0
 11
33.06909999999999
 21
152.881
 31
0.0
  0
LINE
  5
5CF
330
1E
100
AcDbEntity
  8
0
100
AcDbLine
 10
10.12509999999997
 20
176.356
 30
0.0
 11
6.788099999999985
 21
178.617
 31
0.0
  0
LINE
  5
5D0
330
1E
100
AcDbEntity
  8
0
100
AcDbLine
 10
14.58145937203778
 20
174.0852673293059
 30
0.0
 11
68.84309999999999
 21
146.438
 31
0.0
  0
ENDSEC
  0
SECTION
  2
OBJECTS
  0
DICTIONARY
  5
C
330
0
100
AcDbDictionary
281
     1
  3
ACAD_GROUP
350
D
  3
ACAD_LAYOUT
350
19
  3
ACAD_MLINESTYLE
350
16
  3
ACAD_PLOTSETTINGS
350
18
  3
ACAD_PLOTSTYLENAME
350
E
  3
AcDbVariableDictionary
350
3A0
  0
DICTIONARY
  5
D
102
{ACAD_REACTORS
330
C
102
}
330
C
100
AcDbDictionary
281
     1
  0
DICTIONARY
  5
19
102
{ACAD_REACTORS
330
C
102
}
330
C
100
AcDbDictionary
281
     1
  3
Layout1
350
1D
  3
Model
350
21
  0
DICTIONARY
  5
16
102
{ACAD_REACTORS
330
C
102
}
330
C
100
AcDbDictionary
281
     1
  3
Standard
350
17
  0
DICTIONARY
  5
18
102
{ACAD_REACTORS
330
C
102
}
330
C
100
AcDbDictionary
281
     1
  0
ACDBDICTIONARYWDFLT
  5
E
102
{ACAD_REACTORS
330
C
102
}
330
C
100
AcDbDictionary
281
     1
  3
Normal
350
F
100
AcDbDictionaryWithDefault
340
F
  0
DICTIONARY
  5
3A0
102
{ACAD_REACTORS
330
C
102
}
330
C
100
AcDbDictionary
281
     1
  3
DIMASSOC
350
3A1
  0
LAYOUT
  5
1D
102
{ACAD_REACTORS
330
19
102
}
330
19
100
AcDbPlotSettings
  1

  2
hp deskjet 980c series
  4

  6

 40
0.0
 41
0.0
 42
0.0
 43
0.0
 44
0.0
 45
0.0
 46
0.0
 47
0.0
 48
0.0
 49
0.0
140
0.0
141
0.0
142
1.0
143
1.0
 70
   688
 72
     0
 73
     0
 74
     5
  7

 75
    16
147
1.0
148
0.0
149
0.0
100
AcDbLayout
  1
Layout1
 70
     1
 71
     1
 10
0.0
 20
0.0
 11
12.0
 21
9.0
 12
0.0
 22
0.0
 32
0.0
 14
1.000000000000000E+20
 24
1.000000000000000E+20
 34
1.000000000000000E+20
 15
-1.000000000000000E+20
 25
-1.000000000000000E+20
 35
-1.000000000000000E+20
146
0.0
 13
0.0
 23
0.0
 33
0.0
 16
1.0
 26
0.0
 36
0.0
 17
0.0
 27
1.0
 37
0.0
 76
     0
330
1A
  0
LAYOUT
  5
21
102
{ACAD_REACTORS
330
19
102
}
330
19
100
AcDbPlotSettings
  1

  2
hp deskjet 980c series
  4

  6

 40
0.0
 41
0.0
 42
0.0
 43
0.0
 44
0.0
 45
0.0
 46
0.0
 47
0.0
 48
0.0
 49
0.0
140
0.0
141
0.0
142
1.0
143
1.0
 70
  1712
 72
     0
 73
     0
 74
     0
  7

 75
     0
147
1.0
148
0.0
149
0.0
100
AcDbLayout
  1
Model
 70
     1
 71
     0
 10
0.0
 20
0.0
 11
12.0
 21
9.0
 12
0.0
 22
0.0
 32
0.0
 14
0.0
 24
0.0
 34
0.0
 15
0.0
 25
0.0
 35
0.0
146
0.0
 13
0.0
 23
0.0
 33
0.0
 16
1.0
 26
0.0
 36
0.0
 17
0.0
 27
1.0
 37
0.0
 76
     0
330
1E
  0
MLINESTYLE
  5
17
102
{ACAD_REACTORS
330
16
102
}
330
16
100
AcDbMlineStyle
  2
STANDARD
 70
     0
  3

 62
   256
 51
90.0
 52
90.0
 71
     2
 49
0.5
 62
   256
  6
BYLAYER
 49
-0.5
 62
   256
  6
BYLAYER
  0
ACDBPLACEHOLDER
  5
F
102
{ACAD_REACTORS
330
E
102
}
330
E
  0
DICTIONARYVAR
  5
3A1
102
{ACAD_REACTORS
330
3A0
102
}
330
3A0
100
DictionaryVariables
280
     0
  1
1
  0
ENDSEC
  0
EOF
