  0
SECTION
  2
HEADER
  9
$ACADVER
  1
AC1015
  9
$ACADMAINTVER
 70
    13
  9
$DWGCODEPAGE
  3
ANSI_1252
  9
$INSBASE
 10
0.0
 20
0.0
 30
0.0
  9
$EXTMIN
 10
-0.0000000000000058
 20
-0.0000000000000078
 30
0.0
  9
$EXTMAX
 10
88.0
 20
176.0
 30
0.0
  9
$LIMMIN
 10
0.0
 20
0.0
  9
$LIMMAX
 10
12.0
 20
9.0
  9
$ORTHOMODE
 70
     0
  9
$REGENMODE
 70
     1
  9
$FILLMODE
 70
     1
  9
$QTEXTMODE
 70
     0
  9
$MIRRTEXT
 70
     1
  9
$LTSCALE
 40
1.0
  9
$ATTMODE
 70
     1
  9
$TEXTSIZE
 40
0.2
  9
$TRACEWID
 40
0.05
  9
$TEXTSTYLE
  7
Standard
  9
$CLAYER
  8
0
  9
$CELTYPE
  6
Continuous
  9
$CECOLOR
 62
   256
  9
$CELTSCALE
 40
1.0
  9
$DISPSILH
 70
     0
  9
$DIMSCALE
 40
1.0
  9
$DIMASZ
 40
0.18
  9
$DIMEXO
 40
0.0625
  9
$DIMDLI
 40
0.38
  9
$DIMRND
 40
0.0
  9
$DIMDLE
 40
0.0
  9
$DIMEXE
 40
0.18
  9
$DIMTP
 40
0.0
  9
$DIMTM
 40
0.0
  9
$DIMTXT
 40
0.18
  9
$DIMCEN
 40
0.09
  9
$DIMTSZ
 40
0.0
  9
$DIMTOL
 70
     0
  9
$DIMLIM
 70
     0
  9
$DIMTIH
 70
     1
  9
$DIMTOH
 70
     1
  9
$DIMSE1
 70
     0
  9
$DIMSE2
 70
     0
  9
$DIMTAD
 70
     0
  9
$DIMZIN
 70
     0
  9
$DIMBLK
  1

  9
$DIMASO
 70
     1
  9
$DIMSHO
 70
     1
  9
$DIMPOST
  1

  9
$DIMAPOST
  1

  9
$DIMALT
 70
     0
  9
$DIMALTD
 70
     2
  9
$DIMALTF
 40
25.4
  9
$DIMLFAC
 40
1.0
  9
$DIMTOFL
 70
     0
  9
$DIMTVP
 40
0.0
  9
$DIMTIX
 70
     0
  9
$DIMSOXD
 70
     0
  9
$DIMSAH
 70
     0
  9
$DIMBLK1
  1

  9
$DIMBLK2
  1

  9
$DIMSTYLE
  2
Standard
  9
$DIMCLRD
 70
     0
  9
$DIMCLRE
 70
     0
  9
$DIMCLRT
 70
     0
  9
$DIMTFAC
 40
1.0
  9
$DIMGAP
 40
0.09
  9
$DIMJUST
 70
     0
  9
$DIMSD1
 70
     0
  9
$DIMSD2
 70
     0
  9
$DIMTOLJ
 70
     1
  9
$DIMTZIN
 70
     0
  9
$DIMALTZ
 70
     0
  9
$DIMALTTZ
 70
     0
  9
$DIMUPT
 70
     0
  9
$DIMDEC
 70
     4
  9
$DIMTDEC
 70
     4
  9
$DIMALTU
 70
     2
  9
$DIMALTTD
 70
     2
  9
$DIMTXSTY
  7
Standard
  9
$DIMAUNIT
 70
     0
  9
$DIMADEC
 70
     0
  9
$DIMALTRND
 40
0.0
  9
$DIMAZIN
 70
     0
  9
$DIMDSEP
 70
    46
  9
$DIMATFIT
 70
     3
  9
$DIMFRAC
 70
     0
  9
$DIMLDRBLK
  1

  9
$DIMLUNIT
 70
     2
  9
$DIMLWD
 70
    -2
  9
$DIMLWE
 70
    -2
  9
$DIMTMOVE
 70
     0
  9
$LUNITS
 70
     2
  9
$LUPREC
 70
     4
  9
$SKETCHINC
 40
0.1
  9
$FILLETRAD
 40
0.0
  9
$AUNITS
 70
     0
  9
$AUPREC
 70
     0
  9
$MENU
  1
.
  9
$ELEVATION
 40
0.0
  9
$PELEVATION
 40
0.0
  9
$THICKNESS
 40
0.0
  9
$LIMCHECK
 70
     0
  9
$CHAMFERA
 40
0.0
  9
$CHAMFERB
 40
0.0
  9
$CHAMFERC
 40
0.0
  9
$CHAMFERD
 40
0.0
  9
$SKPOLY
 70
     0
  9
$TDCREATE
 40
2454749.777483715
  9
$TDUCREATE
 40
2454749.694150381
  9
$TDUPDATE
 40
2454749.779655127
  9
$TDUUPDATE
 40
2454749.696321794
  9
$TDINDWG
 40
0.0021714120
  9
$TDUSRTIMER
 40
0.0021714120
  9
$USRTIMER
 70
     1
  9
$ANGBASE
 50
0.0
  9
$ANGDIR
 70
     0
  9
$PDMODE
 70
     0
  9
$PDSIZE
 40
0.0
  9
$PLINEWID
 40
0.0
  9
$SPLFRAME
 70
     0
  9
$SPLINETYPE
 70
     6
  9
$SPLINESEGS
 70
     8
  9
$HANDSEED
  5
450
  9
$SURFTAB1
 70
     6
  9
$SURFTAB2
 70
     6
  9
$SURFTYPE
 70
     6
  9
$SURFU
 70
     6
  9
$SURFV
 70
     6
  9
$UCSBASE
  2

  9
$UCSNAME
  2

  9
$UCSORG
 10
0.0
 20
0.0
 30
0.0
  9
$UCSXDIR
 10
1.0
 20
0.0
 30
0.0
  9
$UCSYDIR
 10
0.0
 20
1.0
 30
0.0
  9
$UCSORTHOREF
  2

  9
$UCSORTHOVIEW
 70
     1
  9
$UCSORGTOP
 10
0.0
 20
0.0
 30
0.0
  9
$UCSORGBOTTOM
 10
0.0
 20
0.0
 30
0.0
  9
$UCSORGLEFT
 10
0.0
 20
0.0
 30
0.0
  9
$UCSORGRIGHT
 10
0.0
 20
0.0
 30
0.0
  9
$UCSORGFRONT
 10
0.0
 20
0.0
 30
0.0
  9
$UCSORGBACK
 10
0.0
 20
0.0
 30
0.0
  9
$PUCSBASE
  2

  9
$PUCSNAME
  2

  9
$PUCSORG
 10
0.0
 20
0.0
 30
0.0
  9
$PUCSXDIR
 10
1.0
 20
0.0
 30
0.0
  9
$PUCSYDIR
 10
0.0
 20
1.0
 30
0.0
  9
$PUCSORTHOREF
  2

  9
$PUCSORTHOVIEW
 70
     0
  9
$PUCSORGTOP
 10
0.0
 20
0.0
 30
0.0
  9
$PUCSORGBOTTOM
 10
0.0
 20
0.0
 30
0.0
  9
$PUCSORGLEFT
 10
0.0
 20
0.0
 30
0.0
  9
$PUCSORGRIGHT
 10
0.0
 20
0.0
 30
0.0
  9
$PUCSORGFRONT
 10
0.0
 20
0.0
 30
0.0
  9
$PUCSORGBACK
 10
0.0
 20
0.0
 30
0.0
  9
$USERI1
 70
     0
  9
$USERI2
 70
     0
  9
$USERI3
 70
     0
  9
$USERI4
 70
     0
  9
$USERI5
 70
     0
  9
$USERR1
 40
0.0
  9
$USERR2
 40
0.0
  9
$USERR3
 40
0.0
  9
$USERR4
 40
0.0
  9
$USERR5
 40
0.0
  9
$WORLDVIEW
 70
     1
  9
$SHADEDGE
 70
     3
  9
$SHADEDIF
 70
    70
  9
$TILEMODE
 70
     1
  9
$MAXACTVP
 70
    64
  9
$PINSBASE
 10
0.0
 20
0.0
 30
0.0
  9
$PLIMCHECK
 70
     0
  9
$PEXTMIN
 10
1.000000000000000E+20
 20
1.000000000000000E+20
 30
1.000000000000000E+20
  9
$PEXTMAX
 10
-1.000000000000000E+20
 20
-1.000000000000000E+20
 30
-1.000000000000000E+20
  9
$PLIMMIN
 10
0.0
 20
0.0
  9
$PLIMMAX
 10
12.0
 20
9.0
  9
$UNITMODE
 70
     0
  9
$VISRETAIN
 70
     1
  9
$PLINEGEN
 70
     0
  9
$PSLTSCALE
 70
     1
  9
$TREEDEPTH
 70
  3020
  9
$CMLSTYLE
  2
Standard
  9
$CMLJUST
 70
     0
  9
$CMLSCALE
 40
1.0
  9
$PROXYGRAPHICS
 70
     1
  9
$MEASUREMENT
 70
     0
  9
$CELWEIGHT
370
    -1
  9
$ENDCAPS
280
     0
  9
$JOINSTYLE
280
     0
  9
$LWDISPLAY
290
     0
  9
$INSUNITS
 70
     0
  9
$HYPERLINKBASE
  1

  9
$STYLESHEET
  1

  9
$XEDIT
290
     1
  9
$CEPSNTYPE
380
     0
  9
$PSTYLEMODE
290
     1
  9
$FINGERPRINTGUID
  2
{B4007D2D-78F8-46FA-9172-4E07E4CF882E}
  9
$VERSIONGUID
  2
{C1910ECD-C9DC-46D9-962F-A3A38CFFDE6D}
  9
$EXTNAMES
290
     1
  9
$PSVPSCALE
 40
0.0
  9
$OLESTARTUP
290
     0
  0
ENDSEC
  0
SECTION
  2
CLASSES
  0
CLASS
  1
ACDBDICTIONARYWDFLT
  2
AcDbDictionaryWithDefault
  3
AutoCAD 2000
 90
        0
280
     0
281
     0
  0
CLASS
  1
ACDBPLACEHOLDER
  2
AcDbPlaceHolder
  3
AutoCAD 2000
 90
        0
280
     0
281
     0
  0
CLASS
  1
LAYOUT
  2
AcDbLayout
  3
AutoCAD 2000
 90
        0
280
     0
281
     0
  0
CLASS
  1
DICTIONARYVAR
  2
AcDbDictionaryVar
  3
AutoCAD 2000
 90
        0
280
     0
281
     0
  0
ENDSEC
  0
SECTION
  2
TABLES
  0
TABLE
  2
VPORT
  5
8
330
0
100
AcDbSymbolTable
 70
     2
  0
VPORT
  5
44F
330
8
100
AcDbSymbolTableRecord
100
AcDbViewportTableRecord
  2
*Active
 70
     0
 10
0.0
 20
0.0
 11
1.0
 21
1.0
 12
43.99999999999999
 22
87.99999999999998
 13
0.0
 23
0.0
 14
1.0
 24
1.0
 15
0.0
 25
0.0
 16
0.0
 26
0.0
 36
1.0
 17
0.0
 27
0.0
 37
0.0
 40
177.3503836317135
 41
2.078104993597951
 42
50.0
 43
0.0
 44
0.0
 50
0.0
 51
0.0
 71
     0
 72
   100
 73
     1
 74
     3
 75
     0
 76
     0
 77
     0
 78
     0
281
     0
 65
     1
110
0.0
120
0.0
130
0.0
111
1.0
121
0.0
131
0.0
112
0.0
122
1.0
132
0.0
 79
     1
146
0.0
  0
ENDTAB
  0
TABLE
  2
LTYPE
  5
5
330
0
100
AcDbSymbolTable
 70
     1
  0
LTYPE
  5
13
330
5
100
AcDbSymbolTableRecord
100
AcDbLinetypeTableRecord
  2
ByBlock
 70
     0
  3

 72
    65
 73
     0
 40
0.0
  0
LTYPE
  5
14
330
5
100
AcDbSymbolTableRecord
100
AcDbLinetypeTableRecord
  2
ByLayer
 70
     0
  3

 72
    65
 73
     0
 40
0.0
  0
LTYPE
  5
15
330
5
100
AcDbSymbolTableRecord
100
AcDbLinetypeTableRecord
  2
Continuous
 70
     0
  3
Solid line
 72
    65
 73
     0
 40
0.0
  0
ENDTAB
  0
TABLE
  2
LAYER
  5
2
330
0
100
AcDbSymbolTable
 70
     1
  0
LAYER
  5
10
330
2
100
AcDbSymbolTableRecord
100
AcDbLayerTableRecord
  2
0
 70
     0
 62
     7
  6
Continuous
370
    -3
390
F
  0
ENDTAB
  0
TABLE
  2
STYLE
  5
3
330
0
100
AcDbSymbolTable
 70
     1
  0
STYLE
  5
11
330
3
100
AcDbSymbolTableRecord
100
AcDbTextStyleTableRecord
  2
Standard
 70
     0
 40
0.0
 41
1.0
 50
0.0
 71
     0
 42
0.2
  3
txt
  4

  0
ENDTAB
  0
TABLE
  2
VIEW
  5
6
330
0
100
AcDbSymbolTable
 70
     0
  0
ENDTAB
  0
TABLE
  2
UCS
  5
7
330
0
100
AcDbSymbolTable
 70
     0
  0
ENDTAB
  0
TABLE
  2
APPID
  5
9
330
0
100
AcDbSymbolTable
 70
     1
  0
APPID
  5
12
330
9
100
AcDbSymbolTableRecord
100
AcDbRegAppTableRecord
  2
ACAD
 70
     0
  0
ENDTAB
  0
TABLE
  2
DIMSTYLE
  5
A
330
0
100
AcDbSymbolTable
 70
     1
100
AcDbDimStyleTable
 71
     0
  0
DIMSTYLE
105
447
330
A
100
AcDbSymbolTableRecord
100
AcDbDimStyleTableRecord
  2
Standard
 70
     0
340
11
  0
ENDTAB
  0
TABLE
  2
BLOCK_RECORD
  5
1
330
0
100
AcDbSymbolTable
 70
     0
  0
BLOCK_RECORD
  5
1E
330
1
100
AcDbSymbolTableRecord
100
AcDbBlockTableRecord
  2
*Model_Space
340
21
  0
BLOCK_RECORD
  5
1A
330
1
100
AcDbSymbolTableRecord
100
AcDbBlockTableRecord
  2
*Paper_Space
340
1D
  0
ENDTAB
  0
ENDSEC
  0
SECTION
  2
BLOCKS
  0
BLOCK
  5
1F
330
1E
100
AcDbEntity
  8
0
100
AcDbBlockBegin
  2
*Model_Space
 70
     0
 10
0.0
 20
0.0
 30
0.0
  3
*Model_Space
  1

  0
ENDBLK
  5
20
330
1E
100
AcDbEntity
  8
0
100
AcDbBlockEnd
  0
BLOCK
  5
1B
330
1A
100
AcDbEntity
 67
     1
  8
0
100
AcDbBlockBegin
  2
*Paper_Space
 70
     0
 10
0.0
 20
0.0
 30
0.0
  3
*Paper_Space
  1

  0
ENDBLK
  5
1C
330
1A
100
AcDbEntity
 67
     1
  8
0
100
AcDbBlockEnd
  0
ENDSEC
  0
SECTION
  2
ENTITIES
  0
LINE
  5
22
330
1E
100
AcDbEntity
  8
0
100
AcDbLine
 10
88.0
 20
-0.0000000000000078
 30
0.0
 11
88.0
 21
0.8999999999999921
 31
0.0
  0
LINE
  5
23
330
1E
100
AcDbEntity
  8
0
100
AcDbLine
 10
0.110999999999993
 20
26.00979999999999
 30
0.0
 11
0.191355368518815
 21
25.7371189655172
 31
0.0
  0
LINE
  5
24
330
1E
100
AcDbEntity
  8
0
100
AcDbLine
 10
0.0919999999999933
 20
26.12519999999999
 30
0.0
 11
0.475999999999993
 21
24.6253
 31
0.0
  0
LINE
  5
25
330
1E
100
AcDbEntity
  8
0
100
AcDbLine
 10
0.0919999999999933
 20
26.12519999999999
 30
0.0
 11
0.211999999999993
 21
28.0229
 31
0.0
  0
LINE
  5
26
330
1E
100
AcDbEntity
  8
0
100
AcDbLine
 10
0.168814607392414
 20
27.33995900373829
 30
0.0
 11
0.192999999999993
 21
27.8964
 31
0.0
  0
LINE
  5
27
330
1E
100
AcDbEntity
  8
0
100
AcDbLine
 10
0.110999999999993
 20
26.00979999999999
 30
0.0
 11
0.191355368518814
 21
25.7371189655172
 31
0.0
  0
LINE
  5
28
330
1E
100
AcDbEntity
  8
0
100
AcDbLine
 10
8.928999999999989
 20
22.3562
 30
0.0
 11
10.044
 21
22.87539999999999
 31
0.0
  0
LINE
  5
29
330
1E
100
AcDbEntity
  8
0
100
AcDbLine
 10
5.99999999999999
 20
22.0
 30
0.0
 11
8.928999999999989
 21
22.3562
 31
0.0
  0
LINE
  5
2B
330
1E
100
AcDbEntity
  8
0
100
AcDbLine
 10
10.044
 20
22.87539999999999
 30
0.0
 11
10.81299999999999
 21
23.5292
 31
0.0
  0
LINE
  5
2C
330
1E
100
AcDbEntity
  8
0
100
AcDbLine
 10
1.955999999999989
 20
22.87539999999999
 30
0.0
 11
3.07099999999999
 21
22.3562
 31
0.0
  0
LINE
  5
2D
330
1E
100
AcDbEntity
  8
0
100
AcDbLine
 10
3.07099999999999
 20
22.3562
 30
0.0
 11
5.99999999999999
 21
22.0
 31
0.0
  0
LINE
  5
2E
330
1E
100
AcDbEntity
  8
0
100
AcDbLine
 10
1.477332755632559
 20
23.2823605258354
 30
0.0
 11
1.955999999999989
 21
22.87539999999999
 31
0.0
  0
LINE
  5
31
330
1E
100
AcDbEntity
  8
0
100
AcDbLine
 10
0.475999999999993
 20
24.6253
 30
0.0
 11
1.18699999999999
 21
23.5292
 31
0.0
  0
LINE
  5
34
330
1E
100
AcDbEntity
  8
0
100
AcDbLine
 10
1.18699999999999
 20
23.5292
 30
0.0
 11
1.955999999999989
 21
22.87539999999999
 31
0.0
  0
LINE
  5
35
330
1E
100
AcDbEntity
  8
0
100
AcDbLine
 10
1.282999999999989
 20
23.433
 30
0.0
 11
1.477332755632559
 21
23.2823605258354
 31
0.0
  0
LINE
  5
36
330
1E
100
AcDbEntity
  8
0
100
AcDbLine
 10
1.282999999999989
 20
23.433
 30
0.0
 11
1.477332755632559
 21
23.2823605258354
 31
0.0
  0
LINE
  5
37
330
1E
100
AcDbEntity
  8
0
100
AcDbLine
 10
62.5
 20
21.0
 30
0.0
 11
63.0
 21
21.0
 31
0.0
  0
LINE
  5
38
330
1E
100
AcDbEntity
  8
0
100
AcDbLine
 10
63.0
 20
21.0
 30
0.0
 11
64.5
 21
21.49999999999999
 31
0.0
  0
LINE
  5
39
330
1E
100
AcDbEntity
  8
0
100
AcDbLine
 10
37.0
 20
23.0
 30
0.0
 11
59.0
 21
23.0
 31
0.0
  0
LINE
  5
3A
330
1E
100
AcDbEntity
  8
0
100
AcDbLine
 10
61.0
 20
22.6
 30
0.0
 11
61.0
 21
25.5
 31
0.0
  0
LINE
  5
3B
330
1E
100
AcDbEntity
  8
0
100
AcDbLine
 10
61.0
 20
22.6
 30
0.0
 11
61.0
 21
21.49999999999999
 31
0.0
  0
LINE
  5
3C
330
1E
100
AcDbEntity
  8
0
100
AcDbLine
 10
59.0
 20
23.0
 30
0.0
 11
60.5
 21
22.5
 31
0.0
  0
LINE
  5
3D
330
1E
100
AcDbEntity
  8
0
100
AcDbLine
 10
60.5
 20
22.5
 30
0.0
 11
61.0
 21
21.49999999999999
 31
0.0
  0
LINE
  5
3E
330
1E
100
AcDbEntity
  8
0
100
AcDbLine
 10
60.5
 20
22.5
 30
0.0
 11
60.5
 21
23.5
 31
0.0
  0
LINE
  5
3F
330
1E
100
AcDbEntity
  8
0
100
AcDbLine
 10
61.0
 20
21.49999999999999
 30
0.0
 11
62.5
 21
21.0
 31
0.0
  0
LINE
  5
40
330
1E
100
AcDbEntity
  8
0
100
AcDbLine
 10
61.0
 20
21.49999999999999
 30
0.0
 11
61.0
 21
22.6
 31
0.0
  0
LINE
  5
41
330
1E
100
AcDbEntity
  8
0
100
AcDbLine
 10
64.5
 20
21.49999999999999
 30
0.0
 11
65.5
 21
22.5
 31
0.0
  0
LINE
  5
42
330
1E
100
AcDbEntity
  8
0
100
AcDbLine
 10
65.5
 20
22.5
 30
0.0
 11
66.0
 21
24.0
 31
0.0
  0
LINE
  5
44
330
1E
100
AcDbEntity
  8
0
100
AcDbLine
 10
11.524
 20
24.6253
 30
0.0
 11
11.908
 21
26.12519999999999
 31
0.0
  0
LINE
  5
45
330
1E
100
AcDbEntity
  8
0
100
AcDbLine
 10
10.81299999999999
 20
23.5292
 30
0.0
 11
11.524
 21
24.6253
 31
0.0
  0
LINE
  5
46
330
1E
100
AcDbEntity
  8
0
100
AcDbLine
 10
11.788
 20
28.0229
 30
0.0
 11
11.908
 21
26.12519999999999
 31
0.0
  0
LINE
  5
47
330
1E
100
AcDbEntity
  8
0
100
AcDbLine
 10
11.807
 20
27.8964
 30
0.0
 11
11.8311853926076
 21
27.3399590037382
 31
0.0
  0
LINE
  5
48
330
1E
100
AcDbEntity
  8
0
100
AcDbLine
 10
60.5
 20
23.5
 30
0.0
 11
60.5
 21
26.3
 31
0.0
  0
LINE
  5
49
330
1E
100
AcDbEntity
  8
0
100
AcDbLine
 10
60.5
 20
23.5
 30
0.0
 11
60.5
 21
22.5
 31
0.0
  0
LINE
  5
4A
330
1E
100
AcDbEntity
  8
0
100
AcDbLine
 10
35.0
 20
25.89999999999999
 30
0.0
 11
35.0
 21
25.0
 31
0.0
  0
LINE
  5
4B
330
1E
100
AcDbEntity
  8
0
100
AcDbLine
 10
35.0
 20
25.89999999999999
 30
0.0
 11
35.0
 21
28.5
 31
0.0
  0
LINE
  5
4C
330
1E
100
AcDbEntity
  8
0
100
AcDbLine
 10
35.5
 20
24.5
 30
0.0
 11
35.5
 21
27.2
 31
0.0
  0
LINE
  5
4D
330
1E
100
AcDbEntity
  8
0
100
AcDbLine
 10
35.5
 20
24.5
 30
0.0
 11
35.5
 21
23.5
 31
0.0
  0
LINE
  5
4E
330
1E
100
AcDbEntity
  8
0
100
AcDbLine
 10
61.0
 20
25.5
 30
0.0
 11
61.0
 21
30.2
 31
0.0
  0
LINE
  5
4F
330
1E
100
AcDbEntity
  8
0
100
AcDbLine
 10
61.0
 20
25.5
 30
0.0
 11
61.0
 21
22.6
 31
0.0
  0
LINE
  5
50
330
1E
100
AcDbEntity
  8
0
100
AcDbLine
 10
35.0
 20
25.0
 30
0.0
 11
35.5
 21
23.5
 31
0.0
  0
LINE
  5
51
330
1E
100
AcDbEntity
  8
0
100
AcDbLine
 10
35.0
 20
25.0
 30
0.0
 11
35.0
 21
25.89999999999999
 31
0.0
  0
LINE
  5
52
330
1E
100
AcDbEntity
  8
0
100
AcDbLine
 10
35.5
 20
23.5
 30
0.0
 11
37.0
 21
23.0
 31
0.0
  0
LINE
  5
53
330
1E
100
AcDbEntity
  8
0
100
AcDbLine
 10
35.5
 20
23.5
 30
0.0
 11
35.5
 21
24.5
 31
0.0
  0
LINE
  5
54
330
1E
100
AcDbEntity
  8
0
100
AcDbLine
 10
66.0
 20
24.0
 30
0.0
 11
66.0
 21
27.6
 31
0.0
  0
LINE
  5
55
330
1E
100
AcDbEntity
  8
0
100
AcDbLine
 10
35.5
 20
27.2
 30
0.0
 11
35.5
 21
31.6
 31
0.0
  0
LINE
  5
56
330
1E
100
AcDbEntity
  8
0
100
AcDbLine
 10
35.5
 20
27.2
 30
0.0
 11
35.5
 21
24.5
 31
0.0
  0
LINE
  5
57
330
1E
100
AcDbEntity
  8
0
100
AcDbLine
 10
60.5
 20
26.3
 30
0.0
 11
60.5
 21
30.89999999999999
 31
0.0
  0
LINE
  5
58
330
1E
100
AcDbEntity
  8
0
100
AcDbLine
 10
60.5
 20
26.3
 30
0.0
 11
60.5
 21
23.5
 31
0.0
  0
LINE
  5
59
330
1E
100
AcDbEntity
  8
0
100
AcDbLine
 10
11.80864463148119
 20
25.7371189655172
 30
0.0
 11
11.889
 21
26.00979999999999
 31
0.0
  0
LINE
  5
5A
330
1E
100
AcDbEntity
  8
0
100
AcDbLine
 10
10.5226672443674
 20
23.2823605258354
 30
0.0
 11
10.717
 21
23.433
 31
0.0
  0
LINE
  5
5B
330
1E
100
AcDbEntity
  8
0
100
AcDbLine
 10
0.211999999999993
 20
28.0229
 30
0.0
 11
0.6899999999999941
 21
31.998
 31
0.0
  0
LINE
  5
5C
330
1E
100
AcDbEntity
  8
0
100
AcDbLine
 10
0.192999999999993
 20
27.8964
 30
0.0
 11
0.27371971575443
 21
28.5361678704926
 31
0.0
  0
LINE
  5
5D
330
1E
100
AcDbEntity
  8
0
100
AcDbLine
 10
0.192999999999993
 20
27.8964
 30
0.0
 11
0.27371971575443
 21
28.5361678704926
 31
0.0
  0
LINE
  5
5E
330
1E
100
AcDbEntity
  8
0
100
AcDbLine
 10
0.499999999999994
 20
40.49999999999999
 30
0.0
 11
1.78380833571012
 21
40.0720638880966
 31
0.0
  0
LINE
  5
5F
330
1E
100
AcDbEntity
  8
0
100
AcDbLine
 10
0.499999999999994
 20
40.49999999999999
 30
0.0
 11
0.499999999999994
 21
40.89999999999999
 31
0.0
  0
LINE
  5
60
330
1E
100
AcDbEntity
  8
0
100
AcDbLine
 10
-0.0000000000000057
 20
42.29999999999999
 30
0.0
 11
-0.0000000000000057
 21
43.2
 31
0.0
  0
LINE
  5
61
330
1E
100
AcDbEntity
  8
0
100
AcDbLine
 10
-0.0000000000000058
 20
42.0
 30
0.0
 11
0.499999999999994
 21
40.49999999999999
 31
0.0
  0
LINE
  5
62
330
1E
100
AcDbEntity
  8
0
100
AcDbLine
 10
-0.0000000000000058
 20
42.0
 30
0.0
 11
-0.0000000000000057
 21
42.29999999999999
 31
0.0
  0
LINE
  5
63
330
1E
100
AcDbEntity
  8
0
100
AcDbLine
 10
-0.0000000000000056
 20
44.59999999999999
 30
0.0
 11
-0.0000000000000055
 21
46.5
 31
0.0
  0
LINE
  5
64
330
1E
100
AcDbEntity
  8
0
100
AcDbLine
 10
-0.0000000000000055
 20
46.5
 30
0.0
 11
-0.0000000000000053
 21
48.7
 31
0.0
  0
LINE
  5
65
330
1E
100
AcDbEntity
  8
0
100
AcDbLine
 10
-0.0000000000000053
 20
48.7
 30
0.0
 11
-0.0000000000000052
 21
51.0
 31
0.0
  0
LINE
  5
66
330
1E
100
AcDbEntity
  8
0
100
AcDbLine
 10
-0.0000000000000057
 20
43.2
 30
0.0
 11
-0.0000000000000056
 21
44.59999999999999
 31
0.0
  0
LINE
  5
67
330
1E
100
AcDbEntity
  8
0
100
AcDbLine
 10
0.499999999999994
 20
43.6
 30
0.0
 11
0.4999999999999951
 21
45.8
 31
0.0
  0
LINE
  5
68
330
1E
100
AcDbEntity
  8
0
100
AcDbLine
 10
0.4999999999999951
 20
45.8
 30
0.0
 11
0.4999999999999951
 21
48.3
 31
0.0
  0
LINE
  5
69
330
1E
100
AcDbEntity
  8
0
100
AcDbLine
 10
0.4999999999999951
 20
48.3
 30
0.0
 11
0.4999999999999951
 21
49.7911823647295
 31
0.0
  0
LINE
  5
6A
330
1E
100
AcDbEntity
  8
0
100
AcDbLine
 10
0.499999999999994
 20
41.9
 30
0.0
 11
0.499999999999994
 21
43.6
 31
0.0
  0
LINE
  5
6B
330
1E
100
AcDbEntity
  8
0
100
AcDbLine
 10
0.499999999999994
 20
40.89999999999999
 30
0.0
 11
0.499999999999994
 21
41.9
 31
0.0
  0
LINE
  5
6C
330
1E
100
AcDbEntity
  8
0
100
AcDbLine
 10
0.590999999999995
 20
49.7
 30
0.0
 11
3.05099999999999
 21
49.2
 31
0.0
  0
LINE
  5
6E
330
1E
100
AcDbEntity
  8
0
100
AcDbLine
 10
0.590999999999995
 20
49.7
 30
0.0
 11
3.05099999999999
 21
49.2
 31
0.0
  0
LINE
  5
6F
330
1E
100
AcDbEntity
  8
0
100
AcDbLine
 10
0.0919999999999948
 20
50.2
 30
0.0
 11
0.475999999999995
 21
50.2
 31
0.0
  0
LINE
  5
70
330
1E
100
AcDbEntity
  8
0
100
AcDbLine
 10
0.0919999999999948
 20
50.2
 30
0.0
 11
0.590999999999995
 21
49.7
 31
0.0
  0
LINE
  5
71
330
1E
100
AcDbEntity
  8
0
100
AcDbLine
 10
0.0919999999999948
 20
50.2
 30
0.0
 11
0.110999999999995
 21
51.0
 31
0.0
  0
LINE
  5
72
330
1E
100
AcDbEntity
  8
0
100
AcDbLine
 10
0.0919999999999948
 20
50.2
 30
0.0
 11
0.475999999999995
 21
50.2
 31
0.0
  0
LINE
  5
73
330
1E
100
AcDbEntity
  8
0
100
AcDbLine
 10
0.0919999999999948
 20
50.2
 30
0.0
 11
0.590999999999995
 21
49.7
 31
0.0
  0
LINE
  5
74
330
1E
100
AcDbEntity
  8
0
100
AcDbLine
 10
0.0919999999999949
 20
51.79999999999999
 30
0.0
 11
0.475999999999995
 21
51.79999999999999
 31
0.0
  0
LINE
  5
75
330
1E
100
AcDbEntity
  8
0
100
AcDbLine
 10
0.0919999999999949
 20
51.79999999999999
 30
0.0
 11
0.590999999999995
 21
52.3
 31
0.0
  0
LINE
  5
76
330
1E
100
AcDbEntity
  8
0
100
AcDbLine
 10
0.0919999999999949
 20
51.79999999999999
 30
0.0
 11
0.110999999999995
 21
51.0
 31
0.0
  0
LINE
  5
77
330
1E
100
AcDbEntity
  8
0
100
AcDbLine
 10
0.0919999999999949
 20
51.79999999999999
 30
0.0
 11
0.475999999999995
 21
51.79999999999999
 31
0.0
  0
LINE
  5
78
330
1E
100
AcDbEntity
  8
0
100
AcDbLine
 10
0.0919999999999949
 20
51.79999999999999
 30
0.0
 11
0.590999999999995
 21
52.3
 31
0.0
  0
LINE
  5
79
330
1E
100
AcDbEntity
  8
0
100
AcDbLine
 10
-0.0000000000000048
 20
57.4
 30
0.0
 11
-0.0000000000000047
 21
58.79999999999999
 31
0.0
  0
LINE
  5
7A
330
1E
100
AcDbEntity
  8
0
100
AcDbLine
 10
-0.0000000000000047
 20
58.79999999999999
 30
0.0
 11
-0.0000000000000047
 21
59.7
 31
0.0
  0
LINE
  5
7B
330
1E
100
AcDbEntity
  8
0
100
AcDbLine
 10
-0.0000000000000047
 20
60.0
 30
0.0
 11
0.4999999999999951
 21
61.5
 31
0.0
  0
LINE
  5
7C
330
1E
100
AcDbEntity
  8
0
100
AcDbLine
 10
-0.0000000000000047
 20
60.0
 30
0.0
 11
0.4999999999999951
 21
61.5
 31
0.0
  0
LINE
  5
7D
330
1E
100
AcDbEntity
  8
0
100
AcDbLine
 10
-0.0000000000000047
 20
59.7
 30
0.0
 11
-0.0000000000000047
 21
60.0
 31
0.0
  0
LINE
  5
7E
330
1E
100
AcDbEntity
  8
0
100
AcDbLine
 10
-0.0000000000000049
 20
55.5
 30
0.0
 11
-0.0000000000000048
 21
57.4
 31
0.0
  0
LINE
  5
7F
330
1E
100
AcDbEntity
  8
0
100
AcDbLine
 10
-0.0000000000000051
 20
53.3
 30
0.0
 11
-0.0000000000000049
 21
55.5
 31
0.0
  0
LINE
  5
80
330
1E
100
AcDbEntity
  8
0
100
AcDbLine
 10
-0.0000000000000052
 20
51.0
 30
0.0
 11
-0.0000000000000051
 21
53.3
 31
0.0
  0
LINE
  5
81
330
1E
100
AcDbEntity
  8
0
100
AcDbLine
 10
0.110999999999996
 20
75.9902
 30
0.0
 11
0.191355368518871
 21
76.262881034483
 31
0.0
  0
LINE
  5
82
330
1E
100
AcDbEntity
  8
0
100
AcDbLine
 10
0.168814607392419
 20
74.6600409962617
 30
0.0
 11
0.192999999999996
 21
74.1036
 31
0.0
  0
LINE
  5
83
330
1E
100
AcDbEntity
  8
0
100
AcDbLine
 10
0.110999999999996
 20
75.9902
 30
0.0
 11
0.191355368518871
 21
76.262881034483
 31
0.0
  0
LINE
  5
84
330
1E
100
AcDbEntity
  8
0
100
AcDbLine
 10
0.0919999999999963
 20
75.87479999999999
 30
0.0
 11
0.4759999999999961
 21
77.3747
 31
0.0
  0
LINE
  5
85
330
1E
100
AcDbEntity
  8
0
100
AcDbLine
 10
0.0919999999999963
 20
75.87479999999999
 30
0.0
 11
0.211999999999996
 21
73.9771
 31
0.0
  0
LINE
  5
86
330
1E
100
AcDbEntity
  8
0
100
AcDbLine
 10
0.192999999999996
 20
74.1036
 30
0.0
 11
0.273719715754428
 21
73.46383212950751
 31
0.0
  0
LINE
  5
87
330
1E
100
AcDbEntity
  8
0
100
AcDbLine
 10
0.475999999999995
 20
51.79999999999999
 30
0.0
 11
1.18699999999999
 21
51.79999999999999
 31
0.0
  0
LINE
  5
89
330
1E
100
AcDbEntity
  8
0
100
AcDbLine
 10
0.590999999999995
 20
52.3
 30
0.0
 11
3.05099999999999
 21
52.8
 31
0.0
  0
LINE
  5
8A
330
1E
100
AcDbEntity
  8
0
100
AcDbLine
 10
0.4999999999999951
 20
58.39999999999999
 30
0.0
 11
0.4999999999999951
 21
60.1
 31
0.0
  0
LINE
  5
8B
330
1E
100
AcDbEntity
  8
0
100
AcDbLine
 10
0.4999999999999951
 20
61.1
 30
0.0
 11
0.4999999999999951
 21
61.5
 31
0.0
  0
LINE
  5
8C
330
1E
100
AcDbEntity
  8
0
100
AcDbLine
 10
0.4999999999999951
 20
60.1
 30
0.0
 11
0.4999999999999951
 21
61.1
 31
0.0
  0
LINE
  5
8D
330
1E
100
AcDbEntity
  8
0
100
AcDbLine
 10
0.4999999999999961
 20
61.5
 30
0.0
 11
1.78380833571012
 21
61.9279361119034
 31
0.0
  0
LINE
  5
8E
330
1E
100
AcDbEntity
  8
0
100
AcDbLine
 10
0.4999999999999951
 20
61.5
 30
0.0
 11
0.4999999999999951
 21
61.1
 31
0.0
  0
LINE
  5
8F
330
1E
100
AcDbEntity
  8
0
100
AcDbLine
 10
0.4999999999999951
 20
61.5
 30
0.0
 11
1.78380833571012
 21
61.9279361119034
 31
0.0
  0
LINE
  5
90
330
1E
100
AcDbEntity
  8
0
100
AcDbLine
 10
0.4999999999999951
 20
56.2
 30
0.0
 11
0.4999999999999951
 21
58.39999999999999
 31
0.0
  0
LINE
  5
91
330
1E
100
AcDbEntity
  8
0
100
AcDbLine
 10
0.4999999999999951
 20
53.7
 30
0.0
 11
0.4999999999999951
 21
56.2
 31
0.0
  0
LINE
  5
92
330
1E
100
AcDbEntity
  8
0
100
AcDbLine
 10
0.4999999999999951
 20
52.20881763527049
 30
0.0
 11
0.4999999999999951
 21
53.7
 31
0.0
  0
LINE
  5
94
330
1E
100
AcDbEntity
  8
0
100
AcDbLine
 10
0.4759999999999961
 20
77.3747
 30
0.0
 11
1.187
 21
78.4708
 31
0.0
  0
LINE
  5
95
330
1E
100
AcDbEntity
  8
0
100
AcDbLine
 10
0.211999999999996
 20
73.9771
 30
0.0
 11
0.689999999999996
 21
70.00199999999999
 31
0.0
  0
LINE
  5
96
330
1E
100
AcDbEntity
  8
0
100
AcDbLine
 10
0.211999999999996
 20
73.9771
 30
0.0
 11
0.689999999999996
 21
70.00199999999999
 31
0.0
  0
LINE
  5
97
330
1E
100
AcDbEntity
  8
0
100
AcDbLine
 10
0.475999999999995
 20
50.2
 30
0.0
 11
1.18699999999999
 21
50.2
 31
0.0
  0
LINE
  5
98
330
1E
100
AcDbEntity
  8
0
100
AcDbLine
 10
-0.0000000000000057
 20
42.0
 30
0.0
 11
0.499999999999994
 21
40.49999999999999
 31
0.0
  0
LINE
  5
99
330
1E
100
AcDbEntity
  8
0
100
AcDbLine
 10
0.499999999999994
 20
40.49999999999999
 30
0.0
 11
1.78380833571012
 21
40.0720638880966
 31
0.0
  0
LINE
  5
9A
330
1E
100
AcDbEntity
  8
0
100
AcDbLine
 10
66.0
 20
30.0
 30
0.0
 11
72.57181571815721
 21
30.0
 31
0.0
  0
LINE
  5
9B
330
1E
100
AcDbEntity
  8
0
100
AcDbLine
 10
60.5
 20
30.89999999999999
 30
0.0
 11
60.5
 21
36.79999999999999
 31
0.0
  0
LINE
  5
9C
330
1E
100
AcDbEntity
  8
0
100
AcDbLine
 10
61.0
 20
30.2
 30
0.0
 11
61.0
 21
25.5
 31
0.0
  0
LINE
  5
9D
330
1E
100
AcDbEntity
  8
0
100
AcDbLine
 10
61.0
 20
30.2
 30
0.0
 11
61.0
 21
36.29999999999999
 31
0.0
  0
LINE
  5
9E
330
1E
100
AcDbEntity
  8
0
100
AcDbLine
 10
35.0
 20
28.5
 30
0.0
 11
35.0
 21
25.89999999999999
 31
0.0
  0
LINE
  5
9F
330
1E
100
AcDbEntity
  8
0
100
AcDbLine
 10
35.0
 20
28.5
 30
0.0
 11
35.0
 21
32.6
 31
0.0
  0
LINE
  5
A0
330
1E
100
AcDbEntity
  8
0
100
AcDbLine
 10
33.5
 20
31.69999999999999
 30
0.0
 11
33.5
 21
33.7
 31
0.0
  0
LINE
  5
A1
330
1E
100
AcDbEntity
  8
0
100
AcDbLine
 10
33.5
 20
31.69999999999999
 30
0.0
 11
33.5
 21
31.0
 31
0.0
  0
LINE
  5
A2
330
1E
100
AcDbEntity
  8
0
100
AcDbLine
 10
35.0
 20
31.2
 30
0.0
 11
35.0
 21
30.5
 31
0.0
  0
LINE
  5
A3
330
1E
100
AcDbEntity
  8
0
100
AcDbLine
 10
35.5
 20
31.6
 30
0.0
 11
35.5
 21
27.2
 31
0.0
  0
LINE
  5
A4
330
1E
100
AcDbEntity
  8
0
100
AcDbLine
 10
35.5
 20
31.6
 30
0.0
 11
35.5
 21
37.29999999999999
 31
0.0
  0
LINE
  5
A5
330
1E
100
AcDbEntity
  8
0
100
AcDbLine
 10
33.5
 20
31.0
 30
0.0
 11
35.0
 21
30.5
 31
0.0
  0
LINE
  5
A6
330
1E
100
AcDbEntity
  8
0
100
AcDbLine
 10
33.5
 20
31.0
 30
0.0
 11
33.5
 21
31.69999999999999
 31
0.0
  0
LINE
  5
A7
330
1E
100
AcDbEntity
  8
0
100
AcDbLine
 10
11.7262802842455
 20
28.5361678704931
 30
0.0
 11
11.807
 21
27.8964
 31
0.0
  0
LINE
  5
A8
330
1E
100
AcDbEntity
  8
0
100
AcDbLine
 10
1.21699999999999
 20
35.54209999999999
 30
0.0
 11
1.551999999999989
 21
38.296
 31
0.0
  0
LINE
  5
A9
330
1E
100
AcDbEntity
  8
0
100
AcDbLine
 10
1.21699999999999
 20
35.54209999999999
 30
0.0
 11
1.24299999999999
 21
35.8618
 31
0.0
  0
LINE
  5
AA
330
1E
100
AcDbEntity
  8
0
100
AcDbLine
 10
1.24299999999999
 20
35.8618
 30
0.0
 11
1.347368270882
 21
36.6138050184536
 31
0.0
  0
LINE
  5
AB
330
1E
100
AcDbEntity
  8
0
100
AcDbLine
 10
1.24299999999999
 20
35.8618
 30
0.0
 11
1.347368270882
 21
36.6138050184536
 31
0.0
  0
LINE
  5
AC
330
1E
100
AcDbEntity
  8
0
100
AcDbLine
 10
1.21699999999999
 20
48.8536
 30
0.0
 11
1.551999999999989
 21
47.0098
 31
0.0
  0
LINE
  5
AD
330
1E
100
AcDbEntity
  8
0
100
AcDbLine
 10
0.8285921411301819
 20
49.62481438998359
 30
0.0
 11
1.21699999999999
 21
48.8536
 31
0.0
  0
LINE
  5
B0
330
1E
100
AcDbEntity
  8
0
100
AcDbLine
 10
0.828592141130184
 20
52.3751856100164
 30
0.0
 11
1.217
 21
53.1464
 31
0.0
  0
LINE
  5
B3
330
1E
100
AcDbEntity
  8
0
100
AcDbLine
 10
0.689999999999996
 20
70.00199999999999
 30
0.0
 11
1.217
 21
66.45789999999999
 31
0.0
  0
LINE
  5
B4
330
1E
100
AcDbEntity
  8
0
100
AcDbLine
 10
0.689999999999996
 20
70.00199999999999
 30
0.0
 11
0.9579524167574071
 21
68.2000072860912
 31
0.0
  0
LINE
  5
B6
330
1E
100
AcDbEntity
  8
0
100
AcDbLine
 10
1.18699999999999
 20
51.79999999999999
 30
0.0
 11
1.955999999999999
 21
51.79999999999999
 31
0.0
  0
LINE
  5
B7
330
1E
100
AcDbEntity
  8
0
100
AcDbLine
 10
1.217
 20
53.1464
 30
0.0
 11
1.551999999999999
 21
54.9902
 31
0.0
  0
LINE
  5
B8
330
1E
100
AcDbEntity
  8
0
100
AcDbLine
 10
1.187
 20
78.4708
 30
0.0
 11
1.955999999999999
 21
79.1246
 31
0.0
  0
LINE
  5
BB
330
1E
100
AcDbEntity
  8
0
100
AcDbLine
 10
1.283
 20
78.567
 30
0.0
 11
1.477332755632689
 21
78.7176394741647
 31
0.0
  0
LINE
  5
BC
330
1E
100
AcDbEntity
  8
0
100
AcDbLine
 10
1.242999999999999
 20
66.1382
 30
0.0
 11
1.34736827088202
 21
65.3861949815463
 31
0.0
  0
LINE
  5
BD
330
1E
100
AcDbEntity
  8
0
100
AcDbLine
 10
1.217
 20
66.45789999999999
 30
0.0
 11
1.551999999999999
 21
63.704
 31
0.0
  0
LINE
  5
BE
330
1E
100
AcDbEntity
  8
0
100
AcDbLine
 10
1.217
 20
66.45789999999999
 30
0.0
 11
1.242999999999999
 21
66.1382
 31
0.0
  0
LINE
  5
C0
330
1E
100
AcDbEntity
  8
0
100
AcDbLine
 10
1.18699999999999
 20
50.2
 30
0.0
 11
1.955999999999999
 21
50.2
 31
0.0
  0
LINE
  5
C2
330
1E
100
AcDbEntity
  8
0
100
AcDbLine
 10
10.757
 20
35.8618
 30
0.0
 11
10.783
 21
35.54209999999999
 31
0.0
  0
LINE
  5
C3
330
1E
100
AcDbEntity
  8
0
100
AcDbLine
 10
1.856999999999989
 20
40.5777
 30
0.0
 11
1.999999999999989
 21
42.5
 31
0.0
  0
LINE
  5
C4
330
1E
100
AcDbEntity
  8
0
100
AcDbLine
 10
1.856999999999989
 20
45.0
 30
0.0
 11
1.999999999999989
 21
42.5
 31
0.0
  0
LINE
  5
C5
330
1E
100
AcDbEntity
  8
0
100
AcDbLine
 10
9.999999999999991
 20
42.5
 30
0.0
 11
10.14299999999999
 21
40.5777
 31
0.0
  0
LINE
  5
C6
330
1E
100
AcDbEntity
  8
0
100
AcDbLine
 10
9.999999999999991
 20
42.5
 30
0.0
 11
10.14299999999999
 21
45.0
 31
0.0
  0
LINE
  5
C7
330
1E
100
AcDbEntity
  8
0
100
AcDbLine
 10
1.551999999999989
 20
47.0098
 30
0.0
 11
1.856999999999989
 21
45.0
 31
0.0
  0
LINE
  5
C8
330
1E
100
AcDbEntity
  8
0
100
AcDbLine
 10
10.14299999999999
 20
45.0
 30
0.0
 11
10.448
 21
47.0098
 31
0.0
  0
LINE
  5
C9
330
1E
100
AcDbEntity
  8
0
100
AcDbLine
 10
10.1695889339598
 20
40.50876680187939
 30
0.0
 11
11.0
 21
43.0
 31
0.0
  0
LINE
  5
CA
330
1E
100
AcDbEntity
  8
0
100
AcDbLine
 10
10.14299999999999
 20
40.5777
 30
0.0
 11
10.448
 21
38.296
 31
0.0
  0
LINE
  5
CB
330
1E
100
AcDbEntity
  8
0
100
AcDbLine
 10
10.448
 20
38.296
 30
0.0
 11
10.783
 21
35.54209999999999
 31
0.0
  0
LINE
  5
CC
330
1E
100
AcDbEntity
  8
0
100
AcDbLine
 10
10.783
 20
35.54209999999999
 30
0.0
 11
11.31
 21
31.998
 31
0.0
  0
LINE
  5
CD
330
1E
100
AcDbEntity
  8
0
100
AcDbLine
 10
3.05099999999999
 20
49.2
 30
0.0
 11
5.99999999999999
 21
49.0
 31
0.0
  0
LINE
  5
CE
330
1E
100
AcDbEntity
  8
0
100
AcDbLine
 10
5.99999999999999
 20
49.0
 30
0.0
 11
8.94899999999999
 21
49.2
 31
0.0
  0
LINE
  5
CF
330
1E
100
AcDbEntity
  8
0
100
AcDbLine
 10
8.94899999999999
 20
49.2
 30
0.0
 11
11.409
 21
49.7
 31
0.0
  0
LINE
  5
D0
330
1E
100
AcDbEntity
  8
0
100
AcDbLine
 10
10.448
 20
47.0098
 30
0.0
 11
10.783
 21
48.8536
 31
0.0
  0
LINE
  5
D1
330
1E
100
AcDbEntity
  8
0
100
AcDbLine
 10
11.0
 20
44.1
 30
0.0
 11
11.0
 21
43.3
 31
0.0
  0
LINE
  5
D2
330
1E
100
AcDbEntity
  8
0
100
AcDbLine
 10
11.0
 20
44.1
 30
0.0
 11
11.0
 21
45.4
 31
0.0
  0
LINE
  5
D3
330
1E
100
AcDbEntity
  8
0
100
AcDbLine
 10
11.0
 20
43.3
 30
0.0
 11
11.0
 21
43.0
 31
0.0
  0
LINE
  5
D4
330
1E
100
AcDbEntity
  8
0
100
AcDbLine
 10
11.0
 20
43.3
 30
0.0
 11
11.0
 21
44.1
 31
0.0
  0
LINE
  5
D5
330
1E
100
AcDbEntity
  8
0
100
AcDbLine
 10
33.0
 20
37.9
 30
0.0
 11
33.0
 21
41.79999999999999
 31
0.0
  0
LINE
  5
D6
330
1E
100
AcDbEntity
  8
0
100
AcDbLine
 10
33.0
 20
37.9
 30
0.0
 11
33.0
 21
35.0
 31
0.0
  0
LINE
  5
D7
330
1E
100
AcDbEntity
  8
0
100
AcDbLine
 10
33.0
 20
35.0
 30
0.0
 11
33.0
 21
33.2
 31
0.0
  0
LINE
  5
D8
330
1E
100
AcDbEntity
  8
0
100
AcDbLine
 10
33.0
 20
35.0
 30
0.0
 11
33.0
 21
37.9
 31
0.0
  0
LINE
  5
D9
330
1E
100
AcDbEntity
  8
0
100
AcDbLine
 10
33.0
 20
33.2
 30
0.0
 11
33.0
 21
32.5
 31
0.0
  0
LINE
  5
DA
330
1E
100
AcDbEntity
  8
0
100
AcDbLine
 10
33.0
 20
33.2
 30
0.0
 11
33.0
 21
35.0
 31
0.0
  0
LINE
  5
DB
330
1E
100
AcDbEntity
  8
0
100
AcDbLine
 10
33.0
 20
32.5
 30
0.0
 11
33.5
 21
31.0
 31
0.0
  0
LINE
  5
DC
330
1E
100
AcDbEntity
  8
0
100
AcDbLine
 10
33.0
 20
32.5
 30
0.0
 11
33.0
 21
33.2
 31
0.0
  0
LINE
  5
DD
330
1E
100
AcDbEntity
  8
0
100
AcDbLine
 10
33.0
 20
41.79999999999999
 30
0.0
 11
33.0
 21
43.0
 31
0.0
  0
LINE
  5
DE
330
1E
100
AcDbEntity
  8
0
100
AcDbLine
 10
33.0
 20
41.79999999999999
 30
0.0
 11
33.0
 21
37.9
 31
0.0
  0
LINE
  5
DF
330
1E
100
AcDbEntity
  8
0
100
AcDbLine
 10
33.0
 20
43.0
 30
0.0
 11
33.0
 21
41.79999999999999
 31
0.0
  0
LINE
  5
E0
330
1E
100
AcDbEntity
  8
0
100
AcDbLine
 10
18.0
 20
44.248
 30
0.0
 11
18.0
 21
45.496
 31
0.0
  0
LINE
  5
E1
330
1E
100
AcDbEntity
  8
0
100
AcDbLine
 10
18.0
 20
44.248
 30
0.0
 11
18.0
 21
43.47999999999999
 31
0.0
  0
LINE
  5
E2
330
1E
100
AcDbEntity
  8
0
100
AcDbLine
 10
18.0
 20
44.248
 30
0.0
 11
18.0
 21
44.5
 31
0.0
  0
LINE
  5
E3
330
1E
100
AcDbEntity
  8
0
100
AcDbLine
 10
18.0
 20
43.47999999999999
 30
0.0
 11
18.0
 21
44.248
 31
0.0
  0
LINE
  5
E4
330
1E
100
AcDbEntity
  8
0
100
AcDbLine
 10
18.0
 20
43.47999999999999
 30
0.0
 11
18.0
 21
43.192
 31
0.0
  0
LINE
  5
E5
330
1E
100
AcDbEntity
  8
0
100
AcDbLine
 10
18.0
 20
43.192
 30
0.0
 11
18.0
 21
43.47999999999999
 31
0.0
  0
LINE
  5
E6
330
1E
100
AcDbEntity
  8
0
100
AcDbLine
 10
18.0
 20
43.192
 30
0.0
 11
18.3333
 21
43.0
 31
0.0
  0
LINE
  5
E7
330
1E
100
AcDbEntity
  8
0
100
AcDbLine
 10
33.0
 20
44.056
 30
0.0
 11
33.0
 21
43.288
 31
0.0
  0
LINE
  5
E8
330
1E
100
AcDbEntity
  8
0
100
AcDbLine
 10
18.3333
 20
43.0
 30
0.0
 11
33.0
 21
43.0
 31
0.0
  0
LINE
  5
E9
330
1E
100
AcDbEntity
  8
0
100
AcDbLine
 10
33.5
 20
33.7
 30
0.0
 11
33.5
 21
36.89999999999999
 31
0.0
  0
LINE
  5
EA
330
1E
100
AcDbEntity
  8
0
100
AcDbLine
 10
33.5
 20
33.7
 30
0.0
 11
33.5
 21
31.69999999999999
 31
0.0
  0
LINE
  5
EB
330
1E
100
AcDbEntity
  8
0
100
AcDbLine
 10
33.5
 20
36.89999999999999
 30
0.0
 11
33.5
 21
41.1
 31
0.0
  0
LINE
  5
EC
330
1E
100
AcDbEntity
  8
0
100
AcDbLine
 10
33.5
 20
36.89999999999999
 30
0.0
 11
33.5
 21
33.7
 31
0.0
  0
LINE
  5
ED
330
1E
100
AcDbEntity
  8
0
100
AcDbLine
 10
35.0
 20
36.5
 30
0.0
 11
35.0
 21
33.2
 31
0.0
  0
LINE
  5
EE
330
1E
100
AcDbEntity
  8
0
100
AcDbLine
 10
35.0
 20
33.2
 30
0.0
 11
35.0
 21
31.2
 31
0.0
  0
LINE
  5
EF
330
1E
100
AcDbEntity
  8
0
100
AcDbLine
 10
35.0
 20
38.1
 30
0.0
 11
35.0
 21
32.6
 31
0.0
  0
LINE
  5
F0
330
1E
100
AcDbEntity
  8
0
100
AcDbLine
 10
35.5
 20
37.29999999999999
 30
0.0
 11
35.5
 21
43.89999999999999
 31
0.0
  0
LINE
  5
F1
330
1E
100
AcDbEntity
  8
0
100
AcDbLine
 10
35.5
 20
37.29999999999999
 30
0.0
 11
35.5
 21
31.6
 31
0.0
  0
LINE
  5
F2
330
1E
100
AcDbEntity
  8
0
100
AcDbLine
 10
60.5
 20
36.79999999999999
 30
0.0
 11
60.5
 21
43.7
 31
0.0
  0
LINE
  5
F3
330
1E
100
AcDbEntity
  8
0
100
AcDbLine
 10
60.5
 20
36.79999999999999
 30
0.0
 11
60.5
 21
30.89999999999999
 31
0.0
  0
LINE
  5
F4
330
1E
100
AcDbEntity
  8
0
100
AcDbLine
 10
61.0
 20
36.29999999999999
 30
0.0
 11
61.0
 21
43.39999999999999
 31
0.0
  0
LINE
  5
F5
330
1E
100
AcDbEntity
  8
0
100
AcDbLine
 10
61.0
 20
36.29999999999999
 30
0.0
 11
61.0
 21
30.2
 31
0.0
  0
LINE
  5
F6
330
1E
100
AcDbEntity
  8
0
100
AcDbLine
 10
35.0
 20
44.29999999999999
 30
0.0
 11
35.0
 21
57.7
 31
0.0
  0
LINE
  5
F7
330
1E
100
AcDbEntity
  8
0
100
AcDbLine
 10
35.5
 20
43.89999999999999
 30
0.0
 11
35.5
 21
51.0
 31
0.0
  0
LINE
  5
F8
330
1E
100
AcDbEntity
  8
0
100
AcDbLine
 10
60.5
 20
43.7
 30
0.0
 11
60.5
 21
51.0
 31
0.0
  0
LINE
  5
F9
330
1E
100
AcDbEntity
  8
0
100
AcDbLine
 10
60.5
 20
43.7
 30
0.0
 11
60.5
 21
36.79999999999999
 31
0.0
  0
LINE
  5
FA
330
1E
100
AcDbEntity
  8
0
100
AcDbLine
 10
61.0
 20
43.39999999999999
 30
0.0
 11
61.0
 21
51.0
 31
0.0
  0
LINE
  5
FB
330
1E
100
AcDbEntity
  8
0
100
AcDbLine
 10
61.0
 20
43.39999999999999
 30
0.0
 11
61.0
 21
36.29999999999999
 31
0.0
  0
LINE
  5
FC
330
1E
100
AcDbEntity
  8
0
100
AcDbLine
 10
66.0
 20
27.6
 30
0.0
 11
66.0
 21
51.0
 31
0.0
  0
LINE
  5
FD
330
1E
100
AcDbEntity
  8
0
100
AcDbLine
 10
35.0
 20
40.8
 30
0.0
 11
35.0
 21
36.5
 31
0.0
  0
LINE
  5
FE
330
1E
100
AcDbEntity
  8
0
100
AcDbLine
 10
33.5
 20
41.1
 30
0.0
 11
33.5
 21
45.89999999999999
 31
0.0
  0
LINE
  5
FF
330
1E
100
AcDbEntity
  8
0
100
AcDbLine
 10
33.5
 20
41.1
 30
0.0
 11
33.5
 21
36.89999999999999
 31
0.0
  0
LINE
  5
100
330
1E
100
AcDbEntity
  8
0
100
AcDbLine
 10
35.0
 20
32.6
 30
0.0
 11
35.0
 21
28.5
 31
0.0
  0
LINE
  5
101
330
1E
100
AcDbEntity
  8
0
100
AcDbLine
 10
35.0
 20
32.6
 30
0.0
 11
35.0
 21
38.1
 31
0.0
  0
LINE
  5
102
330
1E
100
AcDbEntity
  8
0
100
AcDbLine
 10
33.0
 20
43.288
 30
0.0
 11
33.0
 21
43.0
 31
0.0
  0
LINE
  5
103
330
1E
100
AcDbEntity
  8
0
100
AcDbLine
 10
18.0
 20
44.5
 30
0.0
 11
18.0
 21
44.7
 31
0.0
  0
LINE
  5
104
330
1E
100
AcDbEntity
  8
0
100
AcDbLine
 10
18.0
 20
44.5
 30
0.0
 11
18.0
 21
44.248
 31
0.0
  0
LINE
  5
105
330
1E
100
AcDbEntity
  8
0
100
AcDbLine
 10
11.0
 20
43.0
 30
0.0
 11
13.0
 21
44.5
 31
0.0
  0
LINE
  5
106
330
1E
100
AcDbEntity
  8
0
100
AcDbLine
 10
11.0
 20
43.0
 30
0.0
 11
11.0
 21
43.3
 31
0.0
  0
LINE
  5
107
330
1E
100
AcDbEntity
  8
0
100
AcDbLine
 10
11.0
 20
45.4
 30
0.0
 11
11.0
 21
44.1
 31
0.0
  0
LINE
  5
108
330
1E
100
AcDbEntity
  8
0
100
AcDbLine
 10
11.0
 20
45.4
 30
0.0
 11
11.0
 21
47.0
 31
0.0
  0
LINE
  5
109
330
1E
100
AcDbEntity
  8
0
100
AcDbLine
 10
11.0
 20
47.0
 30
0.0
 11
11.0
 21
45.4
 31
0.0
  0
LINE
  5
10A
330
1E
100
AcDbEntity
  8
0
100
AcDbLine
 10
11.0
 20
47.0
 30
0.0
 11
11.0
 21
48.9
 31
0.0
  0
LINE
  5
10B
330
1E
100
AcDbEntity
  8
0
100
AcDbLine
 10
11.0
 20
48.9
 30
0.0
 11
11.0
 21
47.0
 31
0.0
  0
LINE
  5
10C
330
1E
100
AcDbEntity
  8
0
100
AcDbLine
 10
11.0
 20
48.9
 30
0.0
 11
11.0
 21
49.28447058823529
 31
0.0
  0
LINE
  5
10D
330
1E
100
AcDbEntity
  8
0
100
AcDbLine
 10
11.0
 20
49.28447058823529
 30
0.0
 11
11.0
 21
48.9
 31
0.0
  0
LINE
  5
10E
330
1E
100
AcDbEntity
  8
0
100
AcDbLine
 10
13.0
 20
47.8
 30
0.0
 11
13.0
 21
46.39999999999999
 31
0.0
  0
LINE
  5
10F
330
1E
100
AcDbEntity
  8
0
100
AcDbLine
 10
13.0
 20
47.8
 30
0.0
 11
13.0
 21
49.29999999999999
 31
0.0
  0
LINE
  5
110
330
1E
100
AcDbEntity
  8
0
100
AcDbLine
 10
13.0
 20
49.29999999999999
 30
0.0
 11
13.0
 21
47.8
 31
0.0
  0
LINE
  5
111
330
1E
100
AcDbEntity
  8
0
100
AcDbLine
 10
13.0
 20
49.29999999999999
 30
0.0
 11
13.0
 21
51.0
 31
0.0
  0
LINE
  5
112
330
1E
100
AcDbEntity
  8
0
100
AcDbLine
 10
13.0
 20
46.39999999999999
 30
0.0
 11
13.0
 21
45.4
 31
0.0
  0
LINE
  5
113
330
1E
100
AcDbEntity
  8
0
100
AcDbLine
 10
13.0
 20
46.39999999999999
 30
0.0
 11
13.0
 21
47.8
 31
0.0
  0
LINE
  5
114
330
1E
100
AcDbEntity
  8
0
100
AcDbLine
 10
13.0
 20
45.4
 30
0.0
 11
13.0
 21
44.7
 31
0.0
  0
LINE
  5
115
330
1E
100
AcDbEntity
  8
0
100
AcDbLine
 10
13.0
 20
45.4
 30
0.0
 11
13.0
 21
46.39999999999999
 31
0.0
  0
LINE
  5
116
330
1E
100
AcDbEntity
  8
0
100
AcDbLine
 10
18.0
 20
45.496
 30
0.0
 11
18.0
 21
47.128
 31
0.0
  0
LINE
  5
117
330
1E
100
AcDbEntity
  8
0
100
AcDbLine
 10
18.0
 20
45.496
 30
0.0
 11
18.0
 21
44.248
 31
0.0
  0
LINE
  5
118
330
1E
100
AcDbEntity
  8
0
100
AcDbLine
 10
18.0
 20
48.98399999999999
 30
0.0
 11
18.0
 21
51.0
 31
0.0
  0
LINE
  5
119
330
1E
100
AcDbEntity
  8
0
100
AcDbLine
 10
18.0
 20
48.98399999999999
 30
0.0
 11
18.0
 21
47.128
 31
0.0
  0
LINE
  5
11A
330
1E
100
AcDbEntity
  8
0
100
AcDbLine
 10
18.0
 20
47.128
 30
0.0
 11
18.0
 21
47.8
 31
0.0
  0
LINE
  5
11B
330
1E
100
AcDbEntity
  8
0
100
AcDbLine
 10
18.0
 20
47.128
 30
0.0
 11
18.0
 21
48.98399999999999
 31
0.0
  0
LINE
  5
11C
330
1E
100
AcDbEntity
  8
0
100
AcDbLine
 10
33.0
 20
46.2
 30
0.0
 11
33.0
 21
51.0
 31
0.0
  0
LINE
  5
11D
330
1E
100
AcDbEntity
  8
0
100
AcDbLine
 10
33.0
 20
48.95199999999999
 30
0.0
 11
33.0
 21
47.03199999999999
 31
0.0
  0
LINE
  5
11E
330
1E
100
AcDbEntity
  8
0
100
AcDbLine
 10
35.0
 20
45.7
 30
0.0
 11
35.0
 21
40.8
 31
0.0
  0
LINE
  5
11F
330
1E
100
AcDbEntity
  8
0
100
AcDbLine
 10
33.5
 20
45.89999999999999
 30
0.0
 11
33.5
 21
51.0
 31
0.0
  0
LINE
  5
120
330
1E
100
AcDbEntity
  8
0
100
AcDbLine
 10
33.5
 20
45.89999999999999
 30
0.0
 11
33.5
 21
41.1
 31
0.0
  0
LINE
  5
121
330
1E
100
AcDbEntity
  8
0
100
AcDbLine
 10
33.0
 20
47.03199999999999
 30
0.0
 11
33.0
 21
45.336
 31
0.0
  0
LINE
  5
122
330
1E
100
AcDbEntity
  8
0
100
AcDbLine
 10
33.0
 20
45.336
 30
0.0
 11
33.0
 21
44.056
 31
0.0
  0
LINE
  5
123
330
1E
100
AcDbEntity
  8
0
100
AcDbLine
 10
18.0
 20
47.8
 30
0.0
 11
18.0
 21
49.29999999999999
 31
0.0
  0
LINE
  5
124
330
1E
100
AcDbEntity
  8
0
100
AcDbLine
 10
18.0
 20
49.29999999999999
 30
0.0
 11
18.0
 21
51.0
 31
0.0
  0
LINE
  5
125
330
1E
100
AcDbEntity
  8
0
100
AcDbLine
 10
18.0
 20
45.4
 30
0.0
 11
18.0
 21
45.496
 31
0.0
  0
LINE
  5
126
330
1E
100
AcDbEntity
  8
0
100
AcDbLine
 10
18.0
 20
44.7
 30
0.0
 11
18.0
 21
45.4
 31
0.0
  0
LINE
  5
127
330
1E
100
AcDbEntity
  8
0
100
AcDbLine
 10
13.0
 20
44.7
 30
0.0
 11
13.0
 21
44.5
 31
0.0
  0
LINE
  5
128
330
1E
100
AcDbEntity
  8
0
100
AcDbLine
 10
13.0
 20
44.7
 30
0.0
 11
13.0
 21
45.4
 31
0.0
  0
LINE
  5
129
330
1E
100
AcDbEntity
  8
0
100
AcDbLine
 10
13.0
 20
44.5
 30
0.0
 11
18.0
 21
44.5
 31
0.0
  0
LINE
  5
12A
330
1E
100
AcDbEntity
  8
0
100
AcDbLine
 10
13.0
 20
44.5
 30
0.0
 11
13.0
 21
44.7
 31
0.0
  0
LINE
  5
12B
330
1E
100
AcDbEntity
  8
0
100
AcDbLine
 10
10.783
 20
48.8536
 30
0.0
 11
11.1714078588698
 21
49.62481438998359
 31
0.0
  0
LINE
  5
12C
330
1E
100
AcDbEntity
  8
0
100
AcDbLine
 10
1.955999999999999
 20
50.2
 30
0.0
 11
3.07099999999999
 21
50.2
 31
0.0
  0
LINE
  5
12D
330
1E
100
AcDbEntity
  8
0
100
AcDbLine
 10
1.551999999999999
 20
54.9902
 30
0.0
 11
1.857
 21
57.0
 31
0.0
  0
LINE
  5
12E
330
1E
100
AcDbEntity
  8
0
100
AcDbLine
 10
1.551999999999999
 20
63.704
 30
0.0
 11
1.857
 21
61.4223
 31
0.0
  0
LINE
  5
12F
330
1E
100
AcDbEntity
  8
0
100
AcDbLine
 10
1.551999999999999
 20
63.704
 30
0.0
 11
1.76163133605916
 21
62.1357514115207
 31
0.0
  0
LINE
  5
130
330
1E
100
AcDbEntity
  8
0
100
AcDbLine
 10
1.955999999999999
 20
51.79999999999999
 30
0.0
 11
3.07099999999999
 21
51.79999999999999
 31
0.0
  0
LINE
  5
131
330
1E
100
AcDbEntity
  8
0
100
AcDbLine
 10
1.857
 20
57.0
 30
0.0
 11
2.0
 21
59.5
 31
0.0
  0
LINE
  5
132
330
1E
100
AcDbEntity
  8
0
100
AcDbLine
 10
1.857
 20
61.4223
 30
0.0
 11
2.0
 21
59.5
 31
0.0
  0
LINE
  5
133
330
1E
100
AcDbEntity
  8
0
100
AcDbLine
 10
3.07099999999999
 20
51.79999999999999
 30
0.0
 11
5.99999999999999
 21
51.79999999999999
 31
0.0
  0
LINE
  5
134
330
1E
100
AcDbEntity
  8
0
100
AcDbLine
 10
3.05099999999999
 20
52.8
 30
0.0
 11
5.99999999999999
 21
53.0
 31
0.0
  0
LINE
  5
135
330
1E
100
AcDbEntity
  8
0
100
AcDbLine
 10
5.99999999999999
 20
53.0
 30
0.0
 11
8.94899999999999
 21
52.8
 31
0.0
  0
LINE
  5
136
330
1E
100
AcDbEntity
  8
0
100
AcDbLine
 10
5.99999999999999
 20
51.79999999999999
 30
0.0
 11
8.928999999999989
 21
51.79999999999999
 31
0.0
  0
LINE
  5
137
330
1E
100
AcDbEntity
  8
0
100
AcDbLine
 10
1.955999999999999
 20
79.1246
 30
0.0
 11
3.071
 21
79.6438
 31
0.0
  0
LINE
  5
138
330
1E
100
AcDbEntity
  8
0
100
AcDbLine
 10
3.071
 20
79.6438
 30
0.0
 11
6.0
 21
80.0
 31
0.0
  0
LINE
  5
139
330
1E
100
AcDbEntity
  8
0
100
AcDbLine
 10
1.76163133605916
 20
62.1357514115207
 30
0.0
 11
1.9012607395283
 21
60.82731804478829
 31
0.0
  0
LINE
  5
13A
330
1E
100
AcDbEntity
  8
0
100
AcDbLine
 10
1.76163133605916
 20
62.1357514115207
 30
0.0
 11
1.78380833571012
 21
61.9279361119034
 31
0.0
  0
LINE
  5
13B
330
1E
100
AcDbEntity
  8
0
100
AcDbLine
 10
3.07099999999999
 20
50.2
 30
0.0
 11
5.99999999999999
 21
50.2
 31
0.0
  0
LINE
  5
13D
330
1E
100
AcDbEntity
  8
0
100
AcDbLine
 10
11.409
 20
49.7
 30
0.0
 11
11.908
 21
50.2
 31
0.0
  0
LINE
  5
140
330
1E
100
AcDbEntity
  8
0
100
AcDbLine
 10
11.524
 20
50.2
 30
0.0
 11
11.908
 21
50.2
 31
0.0
  0
LINE
  5
141
330
1E
100
AcDbEntity
  8
0
100
AcDbLine
 10
10.81299999999999
 20
50.2
 30
0.0
 11
11.524
 21
50.2
 31
0.0
  0
LINE
  5
142
330
1E
100
AcDbEntity
  8
0
100
AcDbLine
 10
10.044
 20
50.2
 30
0.0
 11
10.81299999999999
 21
50.2
 31
0.0
  0
LINE
  5
143
330
1E
100
AcDbEntity
  8
0
100
AcDbLine
 10
8.94899999999999
 20
52.8
 30
0.0
 11
11.409
 21
52.3
 31
0.0
  0
LINE
  5
145
330
1E
100
AcDbEntity
  8
0
100
AcDbLine
 10
10.044
 20
51.79999999999999
 30
0.0
 11
10.81299999999999
 21
51.79999999999999
 31
0.0
  0
LINE
  5
146
330
1E
100
AcDbEntity
  8
0
100
AcDbLine
 10
8.928999999999989
 20
51.79999999999999
 30
0.0
 11
10.044
 21
51.79999999999999
 31
0.0
  0
LINE
  5
147
330
1E
100
AcDbEntity
  8
0
100
AcDbLine
 10
10.0
 20
59.5
 30
0.0
 11
10.14299999999999
 21
57.0
 31
0.0
  0
LINE
  5
148
330
1E
100
AcDbEntity
  8
0
100
AcDbLine
 10
10.0
 20
59.5
 30
0.0
 11
10.14299999999999
 21
61.4223
 31
0.0
  0
LINE
  5
149
330
1E
100
AcDbEntity
  8
0
100
AcDbLine
 10
10.14299999999999
 20
57.0
 30
0.0
 11
10.448
 21
54.9902
 31
0.0
  0
LINE
  5
14A
330
1E
100
AcDbEntity
  8
0
100
AcDbLine
 10
10.1695889339598
 20
61.4912331981206
 30
0.0
 11
11.0
 21
59.0
 31
0.0
  0
LINE
  5
14B
330
1E
100
AcDbEntity
  8
0
100
AcDbLine
 10
10.2383686639408
 20
62.1357514115207
 30
0.0
 11
10.448
 21
63.704
 31
0.0
  0
LINE
  5
14C
330
1E
100
AcDbEntity
  8
0
100
AcDbLine
 10
10.14299999999999
 20
61.4223
 30
0.0
 11
10.448
 21
63.704
 31
0.0
  0
LINE
  5
14D
330
1E
100
AcDbEntity
  8
0
100
AcDbLine
 10
10.448
 20
54.9902
 30
0.0
 11
10.783
 21
53.1464
 31
0.0
  0
LINE
  5
150
330
1E
100
AcDbEntity
  8
0
100
AcDbLine
 10
11.409
 20
52.3
 30
0.0
 11
11.908
 21
51.79999999999999
 31
0.0
  0
LINE
  5
151
330
1E
100
AcDbEntity
  8
0
100
AcDbLine
 10
11.524
 20
51.79999999999999
 30
0.0
 11
11.908
 21
51.79999999999999
 31
0.0
  0
LINE
  5
152
330
1E
100
AcDbEntity
  8
0
100
AcDbLine
 10
10.81299999999999
 20
51.79999999999999
 30
0.0
 11
11.524
 21
51.79999999999999
 31
0.0
  0
LINE
  5
153
330
1E
100
AcDbEntity
  8
0
100
AcDbLine
 10
11.0
 20
52.7155294117647
 30
0.0
 11
11.0
 21
53.1
 31
0.0
  0
LINE
  5
154
330
1E
100
AcDbEntity
  8
0
100
AcDbLine
 10
11.0
 20
55.0
 30
0.0
 11
11.0
 21
53.1
 31
0.0
  0
LINE
  5
155
330
1E
100
AcDbEntity
  8
0
100
AcDbLine
 10
11.0
 20
55.0
 30
0.0
 11
11.0
 21
56.6
 31
0.0
  0
LINE
  5
156
330
1E
100
AcDbEntity
  8
0
100
AcDbLine
 10
11.0
 20
53.1
 30
0.0
 11
11.0
 21
52.7155294117647
 31
0.0
  0
LINE
  5
157
330
1E
100
AcDbEntity
  8
0
100
AcDbLine
 10
11.0
 20
53.1
 30
0.0
 11
11.0
 21
55.0
 31
0.0
  0
LINE
  5
158
330
1E
100
AcDbEntity
  8
0
100
AcDbLine
 10
11.0
 20
56.6
 30
0.0
 11
11.0
 21
57.9
 31
0.0
  0
LINE
  5
159
330
1E
100
AcDbEntity
  8
0
100
AcDbLine
 10
11.0
 20
56.6
 30
0.0
 11
11.0
 21
55.0
 31
0.0
  0
LINE
  5
15A
330
1E
100
AcDbEntity
  8
0
100
AcDbLine
 10
11.0
 20
57.9
 30
0.0
 11
11.0
 21
56.6
 31
0.0
  0
LINE
  5
15B
330
1E
100
AcDbEntity
  8
0
100
AcDbLine
 10
11.0
 20
57.9
 30
0.0
 11
11.0
 21
58.7
 31
0.0
  0
LINE
  5
15C
330
1E
100
AcDbEntity
  8
0
100
AcDbLine
 10
11.0
 20
58.7
 30
0.0
 11
11.0
 21
57.9
 31
0.0
  0
LINE
  5
15D
330
1E
100
AcDbEntity
  8
0
100
AcDbLine
 10
11.0
 20
58.7
 30
0.0
 11
11.0
 21
59.0
 31
0.0
  0
LINE
  5
15E
330
1E
100
AcDbEntity
  8
0
100
AcDbLine
 10
11.0
 20
59.0
 30
0.0
 11
11.0
 21
58.7
 31
0.0
  0
LINE
  5
15F
330
1E
100
AcDbEntity
  8
0
100
AcDbLine
 10
11.0
 20
59.0
 30
0.0
 11
13.0
 21
57.5
 31
0.0
  0
LINE
  5
160
330
1E
100
AcDbEntity
  8
0
100
AcDbLine
 10
10.783
 20
53.1464
 30
0.0
 11
11.1714078588698
 21
52.3751856100164
 31
0.0
  0
LINE
  5
162
330
1E
100
AcDbEntity
  8
0
100
AcDbLine
 10
10.448
 20
63.704
 30
0.0
 11
10.783
 21
66.45789999999999
 31
0.0
  0
LINE
  5
163
330
1E
100
AcDbEntity
  8
0
100
AcDbLine
 10
10.757
 20
66.1382
 30
0.0
 11
10.783
 21
66.45789999999999
 31
0.0
  0
LINE
  5
166
330
1E
100
AcDbEntity
  8
0
100
AcDbLine
 10
10.81299999999999
 20
78.4708
 30
0.0
 11
11.524
 21
77.3747
 31
0.0
  0
LINE
  5
167
330
1E
100
AcDbEntity
  8
0
100
AcDbLine
 10
10.5226672443673
 20
78.7176394741647
 30
0.0
 11
10.717
 21
78.567
 31
0.0
  0
LINE
  5
168
330
1E
100
AcDbEntity
  8
0
100
AcDbLine
 10
10.044
 20
79.1246
 30
0.0
 11
10.81299999999999
 21
78.4708
 31
0.0
  0
LINE
  5
169
330
1E
100
AcDbEntity
  8
0
100
AcDbLine
 10
8.929
 20
79.6438
 30
0.0
 11
10.044
 21
79.1246
 31
0.0
  0
LINE
  5
16A
330
1E
100
AcDbEntity
  8
0
100
AcDbLine
 10
6.0
 20
80.0
 30
0.0
 11
8.929
 21
79.6438
 31
0.0
  0
LINE
  5
16C
330
1E
100
AcDbEntity
  8
0
100
AcDbLine
 10
11.0420475832426
 20
68.20000728609129
 30
0.0
 11
11.31
 21
70.00199999999999
 31
0.0
  0
LINE
  5
16D
330
1E
100
AcDbEntity
  8
0
100
AcDbLine
 10
10.783
 20
66.45789999999999
 30
0.0
 11
11.31
 21
70.00199999999999
 31
0.0
  0
LINE
  5
16E
330
1E
100
AcDbEntity
  8
0
100
AcDbLine
 10
11.807
 20
74.1036
 30
0.0
 11
11.8311853926076
 21
74.6600409962617
 31
0.0
  0
LINE
  5
16F
330
1E
100
AcDbEntity
  8
0
100
AcDbLine
 10
11.788
 20
73.9771
 30
0.0
 11
11.908
 21
75.87479999999999
 31
0.0
  0
LINE
  5
170
330
1E
100
AcDbEntity
  8
0
100
AcDbLine
 10
11.80864463148109
 20
76.262881034483
 30
0.0
 11
11.889
 21
75.9902
 31
0.0
  0
LINE
  5
171
330
1E
100
AcDbEntity
  8
0
100
AcDbLine
 10
11.524
 20
77.3747
 30
0.0
 11
11.908
 21
75.87479999999999
 31
0.0
  0
LINE
  5
172
330
1E
100
AcDbEntity
  8
0
100
AcDbLine
 10
11.7262802842455
 20
73.46383212950709
 30
0.0
 11
11.807
 21
74.1036
 31
0.0
  0
LINE
  5
173
330
1E
100
AcDbEntity
  8
0
100
AcDbLine
 10
11.31
 20
70.00199999999999
 30
0.0
 11
11.788
 21
73.9771
 31
0.0
  0
LINE
  5
174
330
1E
100
AcDbEntity
  8
0
100
AcDbLine
 10
10.652631729118
 20
65.3861949815462
 30
0.0
 11
10.757
 21
66.1382
 31
0.0
  0
LINE
  5
175
330
1E
100
AcDbEntity
  8
0
100
AcDbLine
 10
33.5
 20
51.0
 30
0.0
 11
33.5
 21
45.89999999999999
 31
0.0
  0
LINE
  5
176
330
1E
100
AcDbEntity
  8
0
100
AcDbLine
 10
33.5
 20
51.0
 30
0.0
 11
33.5
 21
56.1
 31
0.0
  0
LINE
  5
177
330
1E
100
AcDbEntity
  8
0
100
AcDbLine
 10
35.5
 20
51.0
 30
0.0
 11
35.5
 21
43.89999999999999
 31
0.0
  0
LINE
  5
178
330
1E
100
AcDbEntity
  8
0
100
AcDbLine
 10
35.5
 20
51.0
 30
0.0
 11
35.5
 21
58.1
 31
0.0
  0
LINE
  5
179
330
1E
100
AcDbEntity
  8
0
100
AcDbLine
 10
60.5
 20
51.0
 30
0.0
 11
60.5
 21
43.7
 31
0.0
  0
LINE
  5
17A
330
1E
100
AcDbEntity
  8
0
100
AcDbLine
 10
60.5
 20
51.0
 30
0.0
 11
60.5
 21
58.3
 31
0.0
  0
LINE
  5
17B
330
1E
100
AcDbEntity
  8
0
100
AcDbLine
 10
61.0
 20
51.0
 30
0.0
 11
61.0
 21
43.39999999999999
 31
0.0
  0
LINE
  5
17C
330
1E
100
AcDbEntity
  8
0
100
AcDbLine
 10
61.0
 20
51.0
 30
0.0
 11
61.0
 21
58.6
 31
0.0
  0
LINE
  5
17D
330
1E
100
AcDbEntity
  8
0
100
AcDbLine
 10
66.0
 20
51.0
 30
0.0
 11
66.0
 21
27.6
 31
0.0
  0
LINE
  5
17E
330
1E
100
AcDbEntity
  8
0
100
AcDbLine
 10
35.0
 20
57.7
 30
0.0
 11
35.0
 21
45.7
 31
0.0
  0
LINE
  5
17F
330
1E
100
AcDbEntity
  8
0
100
AcDbLine
 10
35.0
 20
57.7
 30
0.0
 11
35.0
 21
44.29999999999999
 31
0.0
  0
LINE
  5
180
330
1E
100
AcDbEntity
  8
0
100
AcDbLine
 10
33.0
 20
51.0
 30
0.0
 11
33.0
 21
48.95199999999999
 31
0.0
  0
LINE
  5
181
330
1E
100
AcDbEntity
  8
0
100
AcDbLine
 10
33.0
 20
51.0
 30
0.0
 11
33.0
 21
46.2
 31
0.0
  0
LINE
  5
182
330
1E
100
AcDbEntity
  8
0
100
AcDbLine
 10
18.0
 20
51.0
 30
0.0
 11
18.0
 21
52.7
 31
0.0
  0
LINE
  5
183
330
1E
100
AcDbEntity
  8
0
100
AcDbLine
 10
18.0
 20
51.0
 30
0.0
 11
18.0
 21
48.98399999999999
 31
0.0
  0
LINE
  5
184
330
1E
100
AcDbEntity
  8
0
100
AcDbLine
 10
18.0
 20
51.0
 30
0.0
 11
18.0
 21
53.016
 31
0.0
  0
LINE
  5
185
330
1E
100
AcDbEntity
  8
0
100
AcDbLine
 10
13.0
 20
54.2
 30
0.0
 11
13.0
 21
52.7
 31
0.0
  0
LINE
  5
186
330
1E
100
AcDbEntity
  8
0
100
AcDbLine
 10
13.0
 20
54.2
 30
0.0
 11
13.0
 21
55.6
 31
0.0
  0
LINE
  5
187
330
1E
100
AcDbEntity
  8
0
100
AcDbLine
 10
13.0
 20
52.7
 30
0.0
 11
13.0
 21
51.0
 31
0.0
  0
LINE
  5
188
330
1E
100
AcDbEntity
  8
0
100
AcDbLine
 10
13.0
 20
52.7
 30
0.0
 11
13.0
 21
54.2
 31
0.0
  0
LINE
  5
189
330
1E
100
AcDbEntity
  8
0
100
AcDbLine
 10
18.0
 20
53.016
 30
0.0
 11
18.0
 21
54.872
 31
0.0
  0
LINE
  5
18A
330
1E
100
AcDbEntity
  8
0
100
AcDbLine
 10
18.0
 20
53.016
 30
0.0
 11
18.0
 21
51.0
 31
0.0
  0
LINE
  5
18B
330
1E
100
AcDbEntity
  8
0
100
AcDbLine
 10
18.0
 20
54.872
 30
0.0
 11
18.0
 21
56.504
 31
0.0
  0
LINE
  5
18C
330
1E
100
AcDbEntity
  8
0
100
AcDbLine
 10
18.0
 20
54.872
 30
0.0
 11
18.0
 21
53.016
 31
0.0
  0
LINE
  5
18D
330
1E
100
AcDbEntity
  8
0
100
AcDbLine
 10
18.0
 20
56.504
 30
0.0
 11
18.0
 21
57.75199999999999
 31
0.0
  0
LINE
  5
18E
330
1E
100
AcDbEntity
  8
0
100
AcDbLine
 10
18.0
 20
56.504
 30
0.0
 11
18.0
 21
54.872
 31
0.0
  0
LINE
  5
18F
330
1E
100
AcDbEntity
  8
0
100
AcDbLine
 10
18.0
 20
54.2
 30
0.0
 11
18.0
 21
55.6
 31
0.0
  0
LINE
  5
190
330
1E
100
AcDbEntity
  8
0
100
AcDbLine
 10
18.0
 20
52.7
 30
0.0
 11
18.0
 21
54.2
 31
0.0
  0
LINE
  5
191
330
1E
100
AcDbEntity
  8
0
100
AcDbLine
 10
13.0
 20
55.6
 30
0.0
 11
13.0
 21
56.6
 31
0.0
  0
LINE
  5
192
330
1E
100
AcDbEntity
  8
0
100
AcDbLine
 10
13.0
 20
55.6
 30
0.0
 11
13.0
 21
54.2
 31
0.0
  0
LINE
  5
193
330
1E
100
AcDbEntity
  8
0
100
AcDbLine
 10
13.0
 20
56.6
 30
0.0
 11
13.0
 21
55.6
 31
0.0
  0
LINE
  5
194
330
1E
100
AcDbEntity
  8
0
100
AcDbLine
 10
13.0
 20
56.6
 30
0.0
 11
13.0
 21
57.3
 31
0.0
  0
LINE
  5
195
330
1E
100
AcDbEntity
  8
0
100
AcDbLine
 10
18.0
 20
55.6
 30
0.0
 11
18.0
 21
56.6
 31
0.0
  0
LINE
  5
196
330
1E
100
AcDbEntity
  8
0
100
AcDbLine
 10
18.0
 20
57.5
 30
0.0
 11
18.0
 21
57.75199999999999
 31
0.0
  0
LINE
  5
197
330
1E
100
AcDbEntity
  8
0
100
AcDbLine
 10
13.0
 20
57.3
 30
0.0
 11
13.0
 21
56.6
 31
0.0
  0
LINE
  5
198
330
1E
100
AcDbEntity
  8
0
100
AcDbLine
 10
13.0
 20
57.3
 30
0.0
 11
13.0
 21
57.5
 31
0.0
  0
LINE
  5
199
330
1E
100
AcDbEntity
  8
0
100
AcDbLine
 10
18.0
 20
56.6
 30
0.0
 11
18.0
 21
57.3
 31
0.0
  0
LINE
  5
19A
330
1E
100
AcDbEntity
  8
0
100
AcDbLine
 10
18.0
 20
57.75199999999999
 30
0.0
 11
18.0
 21
58.52
 31
0.0
  0
LINE
  5
19B
330
1E
100
AcDbEntity
  8
0
100
AcDbLine
 10
18.0
 20
57.75199999999999
 30
0.0
 11
18.0
 21
56.504
 31
0.0
  0
LINE
  5
19C
330
1E
100
AcDbEntity
  8
0
100
AcDbLine
 10
18.0
 20
57.75199999999999
 30
0.0
 11
18.0
 21
57.5
 31
0.0
  0
LINE
  5
19D
330
1E
100
AcDbEntity
  8
0
100
AcDbLine
 10
18.0
 20
58.52
 30
0.0
 11
18.0
 21
58.808
 31
0.0
  0
LINE
  5
19E
330
1E
100
AcDbEntity
  8
0
100
AcDbLine
 10
18.0
 20
58.52
 30
0.0
 11
18.0
 21
57.75199999999999
 31
0.0
  0
LINE
  5
19F
330
1E
100
AcDbEntity
  8
0
100
AcDbLine
 10
18.0
 20
58.808
 30
0.0
 11
18.3333
 21
59.0
 31
0.0
  0
LINE
  5
1A0
330
1E
100
AcDbEntity
  8
0
100
AcDbLine
 10
18.0
 20
58.808
 30
0.0
 11
18.0
 21
58.52
 31
0.0
  0
LINE
  5
1A1
330
1E
100
AcDbEntity
  8
0
100
AcDbLine
 10
13.0
 20
57.5
 30
0.0
 11
13.0
 21
57.3
 31
0.0
  0
LINE
  5
1A2
330
1E
100
AcDbEntity
  8
0
100
AcDbLine
 10
13.0
 20
57.5
 30
0.0
 11
18.0
 21
57.5
 31
0.0
  0
LINE
  5
1A3
330
1E
100
AcDbEntity
  8
0
100
AcDbLine
 10
33.0
 20
55.8
 30
0.0
 11
33.0
 21
60.2
 31
0.0
  0
LINE
  5
1A4
330
1E
100
AcDbEntity
  8
0
100
AcDbLine
 10
33.0
 20
53.048
 30
0.0
 11
33.0
 21
51.0
 31
0.0
  0
LINE
  5
1A5
330
1E
100
AcDbEntity
  8
0
100
AcDbLine
 10
33.0
 20
54.968
 30
0.0
 11
33.0
 21
53.048
 31
0.0
  0
LINE
  5
1A6
330
1E
100
AcDbEntity
  8
0
100
AcDbLine
 10
33.0
 20
56.66399999999999
 30
0.0
 11
33.0
 21
54.968
 31
0.0
  0
LINE
  5
1A7
330
1E
100
AcDbEntity
  8
0
100
AcDbLine
 10
33.5
 20
56.1
 30
0.0
 11
33.5
 21
60.89999999999999
 31
0.0
  0
LINE
  5
1A8
330
1E
100
AcDbEntity
  8
0
100
AcDbLine
 10
33.5
 20
56.1
 30
0.0
 11
33.5
 21
51.0
 31
0.0
  0
LINE
  5
1A9
330
1E
100
AcDbEntity
  8
0
100
AcDbLine
 10
35.0
 20
57.7
 30
0.0
 11
35.0
 21
63.9
 31
0.0
  0
LINE
  5
1AA
330
1E
100
AcDbEntity
  8
0
100
AcDbLine
 10
35.5
 20
58.1
 30
0.0
 11
35.5
 21
64.7
 31
0.0
  0
LINE
  5
1AB
330
1E
100
AcDbEntity
  8
0
100
AcDbLine
 10
35.5
 20
58.1
 30
0.0
 11
35.5
 21
51.0
 31
0.0
  0
LINE
  5
1AC
330
1E
100
AcDbEntity
  8
0
100
AcDbLine
 10
60.5
 20
58.3
 30
0.0
 11
60.5
 21
65.2
 31
0.0
  0
LINE
  5
1AD
330
1E
100
AcDbEntity
  8
0
100
AcDbLine
 10
60.5
 20
58.3
 30
0.0
 11
60.5
 21
51.0
 31
0.0
  0
LINE
  5
1AE
330
1E
100
AcDbEntity
  8
0
100
AcDbLine
 10
61.0
 20
58.6
 30
0.0
 11
61.0
 21
65.7
 31
0.0
  0
LINE
  5
1AF
330
1E
100
AcDbEntity
  8
0
100
AcDbLine
 10
61.0
 20
58.6
 30
0.0
 11
61.0
 21
51.0
 31
0.0
  0
LINE
  5
1B0
330
1E
100
AcDbEntity
  8
0
100
AcDbLine
 10
66.0
 20
51.0
 30
0.0
 11
66.0
 21
64.40000000000001
 31
0.0
  0
LINE
  5
1B1
330
1E
100
AcDbEntity
  8
0
100
AcDbLine
 10
33.0
 20
57.94399999999999
 30
0.0
 11
33.0
 21
56.66399999999999
 31
0.0
  0
LINE
  5
1B2
330
1E
100
AcDbEntity
  8
0
100
AcDbLine
 10
33.0
 20
58.71199999999999
 30
0.0
 11
33.0
 21
57.94399999999999
 31
0.0
  0
LINE
  5
1B3
330
1E
100
AcDbEntity
  8
0
100
AcDbLine
 10
18.3333
 20
59.0
 30
0.0
 11
33.0
 21
59.0
 31
0.0
  0
LINE
  5
1B4
330
1E
100
AcDbEntity
  8
0
100
AcDbLine
 10
33.5
 20
60.89999999999999
 30
0.0
 11
33.5
 21
65.09999999999999
 31
0.0
  0
LINE
  5
1B5
330
1E
100
AcDbEntity
  8
0
100
AcDbLine
 10
33.5
 20
60.89999999999999
 30
0.0
 11
33.5
 21
56.1
 31
0.0
  0
LINE
  5
1B6
330
1E
100
AcDbEntity
  8
0
100
AcDbLine
 10
35.0
 20
61.2
 30
0.0
 11
35.0
 21
57.7
 31
0.0
  0
LINE
  5
1B7
330
1E
100
AcDbEntity
  8
0
100
AcDbLine
 10
33.0
 20
60.2
 30
0.0
 11
33.0
 21
64.1
 31
0.0
  0
LINE
  5
1B8
330
1E
100
AcDbEntity
  8
0
100
AcDbLine
 10
33.0
 20
60.2
 30
0.0
 11
33.0
 21
55.8
 31
0.0
  0
LINE
  5
1B9
330
1E
100
AcDbEntity
  8
0
100
AcDbLine
 10
33.0
 20
67.0
 30
0.0
 11
33.0
 21
64.1
 31
0.0
  0
LINE
  5
1BA
330
1E
100
AcDbEntity
  8
0
100
AcDbLine
 10
33.0
 20
67.0
 30
0.0
 11
33.0
 21
68.79999999999999
 31
0.0
  0
LINE
  5
1BB
330
1E
100
AcDbEntity
  8
0
100
AcDbLine
 10
33.0
 20
69.5
 30
0.0
 11
33.5
 21
71.0
 31
0.0
  0
LINE
  5
1BC
330
1E
100
AcDbEntity
  8
0
100
AcDbLine
 10
33.0
 20
69.5
 30
0.0
 11
33.0
 21
68.79999999999999
 31
0.0
  0
LINE
  5
1BD
330
1E
100
AcDbEntity
  8
0
100
AcDbLine
 10
33.0
 20
68.79999999999999
 30
0.0
 11
33.0
 21
69.5
 31
0.0
  0
LINE
  5
1BE
330
1E
100
AcDbEntity
  8
0
100
AcDbLine
 10
33.0
 20
68.79999999999999
 30
0.0
 11
33.0
 21
67.0
 31
0.0
  0
LINE
  5
1BF
330
1E
100
AcDbEntity
  8
0
100
AcDbLine
 10
33.5
 20
65.09999999999999
 30
0.0
 11
33.5
 21
68.3
 31
0.0
  0
LINE
  5
1C0
330
1E
100
AcDbEntity
  8
0
100
AcDbLine
 10
33.5
 20
65.09999999999999
 30
0.0
 11
33.5
 21
60.89999999999999
 31
0.0
  0
LINE
  5
1C1
330
1E
100
AcDbEntity
  8
0
100
AcDbLine
 10
33.5
 20
68.3
 30
0.0
 11
33.5
 21
70.3
 31
0.0
  0
LINE
  5
1C2
330
1E
100
AcDbEntity
  8
0
100
AcDbLine
 10
33.5
 20
68.3
 30
0.0
 11
33.5
 21
65.09999999999999
 31
0.0
  0
LINE
  5
1C3
330
1E
100
AcDbEntity
  8
0
100
AcDbLine
 10
33.5
 20
70.3
 30
0.0
 11
33.5
 21
71.0
 31
0.0
  0
LINE
  5
1C4
330
1E
100
AcDbEntity
  8
0
100
AcDbLine
 10
33.5
 20
70.3
 30
0.0
 11
33.5
 21
68.3
 31
0.0
  0
LINE
  5
1C5
330
1E
100
AcDbEntity
  8
0
100
AcDbLine
 10
35.0
 20
65.5
 30
0.0
 11
35.0
 21
61.2
 31
0.0
  0
LINE
  5
1C6
330
1E
100
AcDbEntity
  8
0
100
AcDbLine
 10
35.0
 20
68.79999999999999
 30
0.0
 11
35.0
 21
65.5
 31
0.0
  0
LINE
  5
1C7
330
1E
100
AcDbEntity
  8
0
100
AcDbLine
 10
35.0
 20
70.8
 30
0.0
 11
35.0
 21
68.79999999999999
 31
0.0
  0
LINE
  5
1C8
330
1E
100
AcDbEntity
  8
0
100
AcDbLine
 10
33.5
 20
71.0
 30
0.0
 11
35.0
 21
71.5
 31
0.0
  0
LINE
  5
1C9
330
1E
100
AcDbEntity
  8
0
100
AcDbLine
 10
33.5
 20
71.0
 30
0.0
 11
33.5
 21
70.3
 31
0.0
  0
LINE
  5
1CA
330
1E
100
AcDbEntity
  8
0
100
AcDbLine
 10
33.0
 20
64.1
 30
0.0
 11
33.0
 21
60.2
 31
0.0
  0
LINE
  5
1CB
330
1E
100
AcDbEntity
  8
0
100
AcDbLine
 10
33.0
 20
64.1
 30
0.0
 11
33.0
 21
67.0
 31
0.0
  0
LINE
  5
1CC
330
1E
100
AcDbEntity
  8
0
100
AcDbLine
 10
35.0
 20
63.9
 30
0.0
 11
35.0
 21
57.7
 31
0.0
  0
LINE
  5
1CD
330
1E
100
AcDbEntity
  8
0
100
AcDbLine
 10
35.0
 20
71.5
 30
0.0
 11
35.0
 21
73.5
 31
0.0
  0
LINE
  5
1CE
330
1E
100
AcDbEntity
  8
0
100
AcDbLine
 10
35.0
 20
71.5
 30
0.0
 11
35.0
 21
70.8
 31
0.0
  0
LINE
  5
1CF
330
1E
100
AcDbEntity
  8
0
100
AcDbLine
 10
35.0
 20
73.5
 30
0.0
 11
35.0
 21
71.5
 31
0.0
  0
LINE
  5
1D0
330
1E
100
AcDbEntity
  8
0
100
AcDbLine
 10
35.0
 20
73.5
 30
0.0
 11
35.0
 21
76.09999999999999
 31
0.0
  0
LINE
  5
1D1
330
1E
100
AcDbEntity
  8
0
100
AcDbLine
 10
35.0
 20
76.09999999999999
 30
0.0
 11
35.0
 21
73.5
 31
0.0
  0
LINE
  5
1D2
330
1E
100
AcDbEntity
  8
0
100
AcDbLine
 10
35.0
 20
76.09999999999999
 30
0.0
 11
35.0
 21
77.0
 31
0.0
  0
LINE
  5
1D3
330
1E
100
AcDbEntity
  8
0
100
AcDbLine
 10
35.5
 20
74.8
 30
0.0
 11
35.5
 21
77.5
 31
0.0
  0
LINE
  5
1D4
330
1E
100
AcDbEntity
  8
0
100
AcDbLine
 10
35.5
 20
74.8
 30
0.0
 11
35.5
 21
70.4
 31
0.0
  0
LINE
  5
1D5
330
1E
100
AcDbEntity
  8
0
100
AcDbLine
 10
35.5
 20
77.5
 30
0.0
 11
35.5
 21
78.5
 31
0.0
  0
LINE
  5
1D6
330
1E
100
AcDbEntity
  8
0
100
AcDbLine
 10
35.5
 20
77.5
 30
0.0
 11
35.5
 21
74.8
 31
0.0
  0
LINE
  5
1D7
330
1E
100
AcDbEntity
  8
0
100
AcDbLine
 10
35.5
 20
70.4
 30
0.0
 11
35.5
 21
64.7
 31
0.0
  0
LINE
  5
1D8
330
1E
100
AcDbEntity
  8
0
100
AcDbLine
 10
35.5
 20
70.4
 30
0.0
 11
35.5
 21
74.8
 31
0.0
  0
LINE
  5
1D9
330
1E
100
AcDbEntity
  8
0
100
AcDbLine
 10
35.5
 20
64.7
 30
0.0
 11
35.5
 21
70.4
 31
0.0
  0
LINE
  5
1DA
330
1E
100
AcDbEntity
  8
0
100
AcDbLine
 10
35.5
 20
64.7
 30
0.0
 11
35.5
 21
58.1
 31
0.0
  0
LINE
  5
1DB
330
1E
100
AcDbEntity
  8
0
100
AcDbLine
 10
35.0
 20
77.0
 30
0.0
 11
35.5
 21
78.5
 31
0.0
  0
LINE
  5
1DC
330
1E
100
AcDbEntity
  8
0
100
AcDbLine
 10
35.0
 20
77.0
 30
0.0
 11
35.0
 21
76.09999999999999
 31
0.0
  0
LINE
  5
1DD
330
1E
100
AcDbEntity
  8
0
100
AcDbLine
 10
35.5
 20
78.5
 30
0.0
 11
37.0
 21
79.0
 31
0.0
  0
LINE
  5
1DE
330
1E
100
AcDbEntity
  8
0
100
AcDbLine
 10
35.5
 20
78.5
 30
0.0
 11
35.5
 21
77.5
 31
0.0
  0
LINE
  5
1DF
330
1E
100
AcDbEntity
  8
0
100
AcDbLine
 10
45.0
 20
79.0
 30
0.0
 11
45.0
 21
82.7529
 31
0.0
  0
LINE
  5
1E0
330
1E
100
AcDbEntity
  8
0
100
AcDbLine
 10
37.0
 20
79.0
 30
0.0
 11
53.0
 21
79.0
 31
0.0
  0
LINE
  5
1E1
330
1E
100
AcDbEntity
  8
0
100
AcDbLine
 10
53.0
 20
79.0
 30
0.0
 11
59.0
 21
79.0
 31
0.0
  0
LINE
  5
1E2
330
1E
100
AcDbEntity
  8
0
100
AcDbLine
 10
53.0
 20
79.0
 30
0.0
 11
53.0
 21
82.7529
 31
0.0
  0
LINE
  5
1E3
330
1E
100
AcDbEntity
  8
0
100
AcDbLine
 10
60.5
 20
65.2
 30
0.0
 11
60.5
 21
71.09999999999999
 31
0.0
  0
LINE
  5
1E4
330
1E
100
AcDbEntity
  8
0
100
AcDbLine
 10
60.5
 20
65.2
 30
0.0
 11
60.5
 21
58.3
 31
0.0
  0
LINE
  5
1E5
330
1E
100
AcDbEntity
  8
0
100
AcDbLine
 10
60.5
 20
75.7
 30
0.0
 11
60.5
 21
78.5
 31
0.0
  0
LINE
  5
1E6
330
1E
100
AcDbEntity
  8
0
100
AcDbLine
 10
60.5
 20
75.7
 30
0.0
 11
60.5
 21
71.09999999999999
 31
0.0
  0
LINE
  5
1E7
330
1E
100
AcDbEntity
  8
0
100
AcDbLine
 10
60.5
 20
78.5
 30
0.0
 11
60.5
 21
79.5
 31
0.0
  0
LINE
  5
1E8
330
1E
100
AcDbEntity
  8
0
100
AcDbLine
 10
60.5
 20
78.5
 30
0.0
 11
60.5
 21
75.7
 31
0.0
  0
LINE
  5
1E9
330
1E
100
AcDbEntity
  8
0
100
AcDbLine
 10
61.0
 20
76.5
 30
0.0
 11
61.0
 21
79.40000000000001
 31
0.0
  0
LINE
  5
1EA
330
1E
100
AcDbEntity
  8
0
100
AcDbLine
 10
61.0
 20
76.5
 30
0.0
 11
61.0
 21
71.79999999999999
 31
0.0
  0
LINE
  5
1EB
330
1E
100
AcDbEntity
  8
0
100
AcDbLine
 10
61.0
 20
79.40000000000001
 30
0.0
 11
61.0
 21
80.5
 31
0.0
  0
LINE
  5
1EC
330
1E
100
AcDbEntity
  8
0
100
AcDbLine
 10
61.0
 20
79.40000000000001
 30
0.0
 11
61.0
 21
76.5
 31
0.0
  0
LINE
  5
1ED
330
1E
100
AcDbEntity
  8
0
100
AcDbLine
 10
60.5
 20
71.09999999999999
 30
0.0
 11
60.5
 21
65.2
 31
0.0
  0
LINE
  5
1EE
330
1E
100
AcDbEntity
  8
0
100
AcDbLine
 10
60.5
 20
71.09999999999999
 30
0.0
 11
60.5
 21
75.7
 31
0.0
  0
LINE
  5
1EF
330
1E
100
AcDbEntity
  8
0
100
AcDbLine
 10
61.0
 20
71.79999999999999
 30
0.0
 11
61.0
 21
65.7
 31
0.0
  0
LINE
  5
1F0
330
1E
100
AcDbEntity
  8
0
100
AcDbLine
 10
61.0
 20
71.79999999999999
 30
0.0
 11
61.0
 21
76.5
 31
0.0
  0
LINE
  5
1F1
330
1E
100
AcDbEntity
  8
0
100
AcDbLine
 10
61.0
 20
65.7
 30
0.0
 11
61.0
 21
71.79999999999999
 31
0.0
  0
LINE
  5
1F2
330
1E
100
AcDbEntity
  8
0
100
AcDbLine
 10
61.0
 20
65.7
 30
0.0
 11
61.0
 21
58.6
 31
0.0
  0
LINE
  5
1F3
330
1E
100
AcDbEntity
  8
0
100
AcDbLine
 10
59.0
 20
79.0
 30
0.0
 11
60.5
 21
79.5
 31
0.0
  0
LINE
  5
1F4
330
1E
100
AcDbEntity
  8
0
100
AcDbLine
 10
60.5
 20
79.5
 30
0.0
 11
61.0
 21
80.5
 31
0.0
  0
LINE
  5
1F5
330
1E
100
AcDbEntity
  8
0
100
AcDbLine
 10
60.5
 20
79.5
 30
0.0
 11
60.5
 21
78.5
 31
0.0
  0
LINE
  5
1F6
330
1E
100
AcDbEntity
  8
0
100
AcDbLine
 10
61.0
 20
80.5
 30
0.0
 11
62.5
 21
81.0
 31
0.0
  0
LINE
  5
1F7
330
1E
100
AcDbEntity
  8
0
100
AcDbLine
 10
61.0
 20
80.5
 30
0.0
 11
61.0
 21
79.40000000000001
 31
0.0
  0
LINE
  5
1F8
330
1E
100
AcDbEntity
  8
0
100
AcDbLine
 10
45.096
 20
83.0
 30
0.0
 11
45.24
 21
83.0
 31
0.0
  0
LINE
  5
1F9
330
1E
100
AcDbEntity
  8
0
100
AcDbLine
 10
45.24
 20
83.0
 30
0.0
 11
45.62399999999999
 21
83.0
 31
0.0
  0
LINE
  5
1FA
330
1E
100
AcDbEntity
  8
0
100
AcDbLine
 10
45.62399999999999
 20
83.0
 30
0.0
 11
46.248
 21
83.0
 31
0.0
  0
LINE
  5
1FB
330
1E
100
AcDbEntity
  8
0
100
AcDbLine
 10
46.248
 20
83.0
 30
0.0
 11
47.06399999999999
 21
83.0
 31
0.0
  0
LINE
  5
1FC
330
1E
100
AcDbEntity
  8
0
100
AcDbLine
 10
52.75999999999999
 20
83.0
 30
0.0
 11
52.90399999999999
 21
83.0
 31
0.0
  0
LINE
  5
1FD
330
1E
100
AcDbEntity
  8
0
100
AcDbLine
 10
53.0
 20
82.7529
 30
0.0
 11
53.0
 21
79.0
 31
0.0
  0
LINE
  5
1FE
330
1E
100
AcDbEntity
  8
0
100
AcDbLine
 10
52.90399999999999
 20
83.0
 30
0.0
 11
53.0
 21
82.7529
 31
0.0
  0
LINE
  5
1FF
330
1E
100
AcDbEntity
  8
0
100
AcDbLine
 10
52.376
 20
83.0
 30
0.0
 11
52.75999999999999
 21
83.0
 31
0.0
  0
LINE
  5
200
330
1E
100
AcDbEntity
  8
0
100
AcDbLine
 10
51.752
 20
83.0
 30
0.0
 11
52.376
 21
83.0
 31
0.0
  0
LINE
  5
201
330
1E
100
AcDbEntity
  8
0
100
AcDbLine
 10
50.93600000000001
 20
83.0
 30
0.0
 11
51.752
 21
83.0
 31
0.0
  0
LINE
  5
202
330
1E
100
AcDbEntity
  8
0
100
AcDbLine
 10
50.008
 20
83.0
 30
0.0
 11
50.93600000000001
 21
83.0
 31
0.0
  0
LINE
  5
203
330
1E
100
AcDbEntity
  8
0
100
AcDbLine
 10
49.0
 20
83.0
 30
0.0
 11
50.008
 21
83.0
 31
0.0
  0
LINE
  5
204
330
1E
100
AcDbEntity
  8
0
100
AcDbLine
 10
47.06399999999999
 20
83.0
 30
0.0
 11
47.99199999999999
 21
83.0
 31
0.0
  0
LINE
  5
205
330
1E
100
AcDbEntity
  8
0
100
AcDbLine
 10
47.99199999999999
 20
83.0
 30
0.0
 11
49.0
 21
83.0
 31
0.0
  0
LINE
  5
206
330
1E
100
AcDbEntity
  8
0
100
AcDbLine
 10
45.0
 20
82.7529
 30
0.0
 11
45.096
 21
83.0
 31
0.0
  0
LINE
  5
207
330
1E
100
AcDbEntity
  8
0
100
AcDbLine
 10
45.0
 20
82.7529
 30
0.0
 11
45.0
 21
79.0
 31
0.0
  0
LINE
  5
208
330
1E
100
AcDbEntity
  8
0
100
AcDbLine
 10
62.5
 20
81.0
 30
0.0
 11
63.0
 21
81.0
 31
0.0
  0
LINE
  5
209
330
1E
100
AcDbEntity
  8
0
100
AcDbLine
 10
63.0
 20
81.0
 30
0.0
 11
64.5
 21
80.5
 31
0.0
  0
LINE
  5
20A
330
1E
100
AcDbEntity
  8
0
100
AcDbLine
 10
64.5
 20
80.5
 30
0.0
 11
65.5
 21
79.5
 31
0.0
  0
LINE
  5
20B
330
1E
100
AcDbEntity
  8
0
100
AcDbLine
 10
66.0
 20
72.0
 30
0.0
 11
71.4336043360434
 21
72.0
 31
0.0
  0
LINE
  5
20C
330
1E
100
AcDbEntity
  8
0
100
AcDbLine
 10
66.0
 20
78.0
 30
0.0
 11
66.0
 21
64.40000000000001
 31
0.0
  0
LINE
  5
20D
330
1E
100
AcDbEntity
  8
0
100
AcDbLine
 10
66.0
 20
64.40000000000001
 30
0.0
 11
66.0
 21
78.0
 31
0.0
  0
LINE
  5
20E
330
1E
100
AcDbEntity
  8
0
100
AcDbLine
 10
66.0
 20
64.40000000000001
 30
0.0
 11
66.0
 21
51.0
 31
0.0
  0
LINE
  5
20F
330
1E
100
AcDbEntity
  8
0
100
AcDbLine
 10
65.5
 20
79.5
 30
0.0
 11
66.0
 21
78.0
 31
0.0
  0
LINE
  5
210
330
1E
100
AcDbEntity
  8
0
100
AcDbLine
 10
33.0
 20
59.0
 30
0.0
 11
33.0
 21
58.71199999999999
 31
0.0
  0
LINE
  5
211
330
1E
100
AcDbEntity
  8
0
100
AcDbLine
 10
18.0
 20
57.3
 30
0.0
 11
18.0
 21
57.5
 31
0.0
  0
LINE
  5
212
330
1E
100
AcDbEntity
  8
0
100
AcDbLine
 10
13.0
 20
51.0
 30
0.0
 11
13.0
 21
49.29999999999999
 31
0.0
  0
LINE
  5
213
330
1E
100
AcDbEntity
  8
0
100
AcDbLine
 10
13.0
 20
51.0
 30
0.0
 11
13.0
 21
52.7
 31
0.0
  0
LINE
  5
214
330
1E
100
AcDbEntity
  8
0
100
AcDbLine
 10
11.889
 20
51.0
 30
0.0
 11
11.908
 21
50.2
 31
0.0
  0
LINE
  5
215
330
1E
100
AcDbEntity
  8
0
100
AcDbLine
 10
11.889
 20
51.0
 30
0.0
 11
11.908
 21
51.79999999999999
 31
0.0
  0
LINE
  5
216
330
1E
100
AcDbEntity
  8
0
100
AcDbLine
 10
8.928999999999989
 20
50.2
 30
0.0
 11
10.044
 21
50.2
 31
0.0
  0
LINE
  5
217
330
1E
100
AcDbEntity
  8
0
100
AcDbLine
 10
5.99999999999999
 20
50.2
 30
0.0
 11
8.928999999999989
 21
50.2
 31
0.0
  0
LINE
  5
219
330
1E
100
AcDbEntity
  8
0
100
AcDbLine
 10
1.551999999999989
 20
38.296
 30
0.0
 11
1.76163133605916
 21
39.86424858847939
 31
0.0
  0
LINE
  5
21A
330
1E
100
AcDbEntity
  8
0
100
AcDbLine
 10
1.551999999999989
 20
38.296
 30
0.0
 11
1.856999999999989
 21
40.5777
 31
0.0
  0
LINE
  5
21B
330
1E
100
AcDbEntity
  8
0
100
AcDbLine
 10
11.31
 20
31.998
 30
0.0
 11
11.788
 21
28.0229
 31
0.0
  0
LINE
  5
21C
330
1E
100
AcDbEntity
  8
0
100
AcDbLine
 10
0.6899999999999941
 20
31.998
 30
0.0
 11
0.9579524167574192
 21
33.79999271390889
 31
0.0
  0
LINE
  5
21D
330
1E
100
AcDbEntity
  8
0
100
AcDbLine
 10
0.6899999999999941
 20
31.998
 30
0.0
 11
1.21699999999999
 21
35.54209999999999
 31
0.0
  0
LINE
  5
21E
330
1E
100
AcDbEntity
  8
0
100
AcDbLine
 10
0.211999999999993
 20
28.0229
 30
0.0
 11
0.6899999999999941
 21
31.998
 31
0.0
  0
LINE
  5
21F
330
1E
100
AcDbEntity
  8
0
100
AcDbLine
 10
72.5570469798658
 20
30.0
 30
0.0
 11
73.0
 21
13.5
 31
0.0
  0
LINE
  5
220
330
1E
100
AcDbEntity
  8
0
100
AcDbLine
 10
7.0
 20
113.1939999999999
 30
0.0
 11
7.0
 21
113.592
 31
0.0
  0
LINE
  5
221
330
1E
100
AcDbEntity
  8
0
100
AcDbLine
 10
7.0
 20
113.1939999999999
 30
0.0
 11
7.5
 21
112.697
 31
0.0
  0
LINE
  5
222
330
1E
100
AcDbEntity
  8
0
100
AcDbLine
 10
7.5
 20
112.697
 30
0.0
 11
9.0
 21
112.199
 31
0.0
  0
LINE
  5
223
330
1E
100
AcDbEntity
  8
0
100
AcDbLine
 10
15.0
 20
113.1939999999999
 30
0.0
 11
15.0
 21
113.592
 31
0.0
  0
LINE
  5
224
330
1E
100
AcDbEntity
  8
0
100
AcDbLine
 10
14.5
 20
112.697
 30
0.0
 11
15.0
 21
113.1939999999999
 31
0.0
  0
LINE
  5
225
330
1E
100
AcDbEntity
  8
0
100
AcDbLine
 10
13.0
 20
112.199
 30
0.0
 11
14.5
 21
112.697
 31
0.0
  0
LINE
  5
226
330
1E
100
AcDbEntity
  8
0
100
AcDbLine
 10
11.0
 20
112.0
 30
0.0
 11
13.0
 21
112.199
 31
0.0
  0
LINE
  5
227
330
1E
100
AcDbEntity
  8
0
100
AcDbLine
 10
9.0
 20
112.199
 30
0.0
 11
11.0
 21
112.0
 31
0.0
  0
LINE
  5
228
330
1E
100
AcDbEntity
  8
0
100
AcDbLine
 10
15.0
 20
113.592
 30
0.0
 11
15.0
 21
113.1939999999999
 31
0.0
  0
LINE
  5
229
330
1E
100
AcDbEntity
  8
0
100
AcDbLine
 10
15.0
 20
113.592
 30
0.0
 11
15.0
 21
114.787
 31
0.0
  0
LINE
  5
22A
330
1E
100
AcDbEntity
  8
0
100
AcDbLine
 10
7.0
 20
113.592
 30
0.0
 11
7.0
 21
114.787
 31
0.0
  0
LINE
  5
22B
330
1E
100
AcDbEntity
  8
0
100
AcDbLine
 10
7.0
 20
113.592
 30
0.0
 11
7.0
 21
113.1939999999999
 31
0.0
  0
LINE
  5
22C
330
1E
100
AcDbEntity
  8
0
100
AcDbLine
 10
7.0
 20
113.592
 30
0.0
 11
7.0
 21
114.1899999999999
 31
0.0
  0
LINE
  5
22D
330
1E
100
AcDbEntity
  8
0
100
AcDbLine
 10
15.0
 20
114.787
 30
0.0
 11
15.0
 21
113.592
 31
0.0
  0
LINE
  5
22E
330
1E
100
AcDbEntity
  8
0
100
AcDbLine
 10
15.0
 20
114.787
 30
0.0
 11
15.0
 21
116.6779999999999
 31
0.0
  0
LINE
  5
22F
330
1E
100
AcDbEntity
  8
0
100
AcDbLine
 10
7.0
 20
114.787
 30
0.0
 11
7.0
 21
116.6779999999999
 31
0.0
  0
LINE
  5
230
330
1E
100
AcDbEntity
  8
0
100
AcDbLine
 10
7.0
 20
114.787
 30
0.0
 11
7.0
 21
113.592
 31
0.0
  0
LINE
  5
231
330
1E
100
AcDbEntity
  8
0
100
AcDbLine
 10
7.0
 20
114.588
 30
0.0
 11
7.0
 21
115.683
 31
0.0
  0
LINE
  5
232
330
1E
100
AcDbEntity
  8
0
100
AcDbLine
 10
5.5
 20
114.687
 30
0.0
 11
7.0
 21
114.1899999999999
 31
0.0
  0
LINE
  5
233
330
1E
100
AcDbEntity
  8
0
100
AcDbLine
 10
5.5
 20
114.687
 30
0.0
 11
5.5
 21
115.0849999999999
 31
0.0
  0
LINE
  5
234
330
1E
100
AcDbEntity
  8
0
100
AcDbLine
 10
7.0
 20
114.1899999999999
 30
0.0
 11
7.0
 21
114.588
 31
0.0
  0
LINE
  5
235
330
1E
100
AcDbEntity
  8
0
100
AcDbLine
 10
7.0
 20
114.1899999999999
 30
0.0
 11
7.0
 21
113.592
 31
0.0
  0
LINE
  5
236
330
1E
100
AcDbEntity
  8
0
100
AcDbLine
 10
15.0
 20
114.1899999999999
 30
0.0
 11
16.0
 21
117.175
 31
0.0
  0
LINE
  5
237
330
1E
100
AcDbEntity
  8
0
100
AcDbLine
 10
5.0
 20
116.4789999999999
 30
0.0
 11
5.0
 21
116.18
 31
0.0
  0
LINE
  5
238
330
1E
100
AcDbEntity
  8
0
100
AcDbLine
 10
5.0
 20
116.4789999999999
 30
0.0
 11
5.0
 21
117.374
 31
0.0
  0
LINE
  5
239
330
1E
100
AcDbEntity
  8
0
100
AcDbLine
 10
5.0
 20
116.18
 30
0.0
 11
5.5
 21
114.687
 31
0.0
  0
LINE
  5
23A
330
1E
100
AcDbEntity
  8
0
100
AcDbLine
 10
5.0
 20
116.18
 30
0.0
 11
5.0
 21
116.4789999999999
 31
0.0
  0
LINE
  5
23B
330
1E
100
AcDbEntity
  8
0
100
AcDbLine
 10
5.5
 20
116.081
 30
0.0
 11
5.5
 21
115.0849999999999
 31
0.0
  0
LINE
  5
23C
330
1E
100
AcDbEntity
  8
0
100
AcDbLine
 10
5.5
 20
116.081
 30
0.0
 11
5.5
 21
117.772
 31
0.0
  0
LINE
  5
23D
330
1E
100
AcDbEntity
  8
0
100
AcDbLine
 10
23.3692
 20
117.0
 30
0.0
 11
38.0
 21
117.0
 31
0.0
  0
LINE
  5
23E
330
1E
100
AcDbEntity
  8
0
100
AcDbLine
 10
15.0
 20
116.6779999999999
 30
0.0
 11
15.0
 21
114.787
 31
0.0
  0
LINE
  5
23F
330
1E
100
AcDbEntity
  8
0
100
AcDbLine
 10
15.0
 20
116.6779999999999
 30
0.0
 11
15.0
 21
119.1659999999999
 31
0.0
  0
LINE
  5
240
330
1E
100
AcDbEntity
  8
0
100
AcDbLine
 10
7.0
 20
116.6779999999999
 30
0.0
 11
7.0
 21
114.787
 31
0.0
  0
LINE
  5
241
330
1E
100
AcDbEntity
  8
0
100
AcDbLine
 10
7.0
 20
116.6779999999999
 30
0.0
 11
7.0
 21
119.1659999999999
 31
0.0
  0
LINE
  5
242
330
1E
100
AcDbEntity
  8
0
100
AcDbLine
 10
7.0
 20
115.683
 30
0.0
 11
7.0
 21
117.374
 31
0.0
  0
LINE
  5
243
330
1E
100
AcDbEntity
  8
0
100
AcDbLine
 10
5.5
 20
115.0849999999999
 30
0.0
 11
5.5
 21
114.687
 31
0.0
  0
LINE
  5
244
330
1E
100
AcDbEntity
  8
0
100
AcDbLine
 10
5.5
 20
115.0849999999999
 30
0.0
 11
5.5
 21
116.081
 31
0.0
  0
LINE
  5
245
330
1E
100
AcDbEntity
  8
0
100
AcDbLine
 10
38.0
 20
114.867
 30
0.0
 11
38.0
 21
116.703
 31
0.0
  0
LINE
  5
246
330
1E
100
AcDbEntity
  8
0
100
AcDbLine
 10
38.0
 20
114.867
 30
0.0
 11
38.0
 21
113.727
 31
0.0
  0
LINE
  5
247
330
1E
100
AcDbEntity
  8
0
100
AcDbLine
 10
38.0
 20
113.727
 30
0.0
 11
38.0
 21
113.283
 31
0.0
  0
LINE
  5
248
330
1E
100
AcDbEntity
  8
0
100
AcDbLine
 10
38.0
 20
113.727
 30
0.0
 11
38.0
 21
114.867
 31
0.0
  0
LINE
  5
249
330
1E
100
AcDbEntity
  8
0
100
AcDbLine
 10
38.0
 20
113.283
 30
0.0
 11
38.38459999999999
 21
112.3329999999999
 31
0.0
  0
LINE
  5
24A
330
1E
100
AcDbEntity
  8
0
100
AcDbLine
 10
38.0
 20
113.283
 30
0.0
 11
38.0
 21
113.727
 31
0.0
  0
LINE
  5
24B
330
1E
100
AcDbEntity
  8
0
100
AcDbLine
 10
63.5385
 20
106.317
 30
0.0
 11
64.6923
 21
106.0
 31
0.0
  0
LINE
  5
24C
330
1E
100
AcDbEntity
  8
0
100
AcDbLine
 10
63.5385
 20
106.317
 30
0.0
 11
63.5385
 21
107.013
 31
0.0
  0
LINE
  5
24D
330
1E
100
AcDbEntity
  8
0
100
AcDbLine
 10
64.6923
 20
106.0
 30
0.0
 11
65.0769
 21
106.0
 31
0.0
  0
LINE
  5
24E
330
1E
100
AcDbEntity
  8
0
100
AcDbLine
 10
65.0769
 20
106.0
 30
0.0
 11
66.2308
 21
106.317
 31
0.0
  0
LINE
  5
24F
330
1E
100
AcDbEntity
  8
0
100
AcDbLine
 10
41.0769
 20
107.267
 30
0.0
 11
62.0
 21
107.267
 31
0.0
  0
LINE
  5
250
330
1E
100
AcDbEntity
  8
0
100
AcDbLine
 10
39.92309999999999
 20
108.217
 30
0.0
 11
39.92309999999999
 21
109.927
 31
0.0
  0
LINE
  5
251
330
1E
100
AcDbEntity
  8
0
100
AcDbLine
 10
39.92309999999999
 20
108.217
 30
0.0
 11
39.92309999999999
 21
107.583
 31
0.0
  0
LINE
  5
252
330
1E
100
AcDbEntity
  8
0
100
AcDbLine
 10
39.5385
 20
110.7499999999999
 30
0.0
 11
39.5385
 21
112.017
 31
0.0
  0
LINE
  5
253
330
1E
100
AcDbEntity
  8
0
100
AcDbLine
 10
39.5385
 20
110.7499999999999
 30
0.0
 11
39.5385
 21
109.1029999999999
 31
0.0
  0
LINE
  5
254
330
1E
100
AcDbEntity
  8
0
100
AcDbLine
 10
39.5385
 20
112.017
 30
0.0
 11
39.5385
 21
110.7499999999999
 31
0.0
  0
LINE
  5
255
330
1E
100
AcDbEntity
  8
0
100
AcDbLine
 10
39.92309999999999
 20
109.927
 30
0.0
 11
39.92309999999999
 21
112.7129999999999
 31
0.0
  0
LINE
  5
256
330
1E
100
AcDbEntity
  8
0
100
AcDbLine
 10
39.92309999999999
 20
109.927
 30
0.0
 11
39.92309999999999
 21
108.217
 31
0.0
  0
LINE
  5
257
330
1E
100
AcDbEntity
  8
0
100
AcDbLine
 10
39.5385
 20
109.1029999999999
 30
0.0
 11
39.5385
 21
108.5329999999999
 31
0.0
  0
LINE
  5
258
330
1E
100
AcDbEntity
  8
0
100
AcDbLine
 10
39.5385
 20
109.1029999999999
 30
0.0
 11
39.5385
 21
110.7499999999999
 31
0.0
  0
LINE
  5
259
330
1E
100
AcDbEntity
  8
0
100
AcDbLine
 10
39.5385
 20
108.5329999999999
 30
0.0
 11
39.92309999999999
 21
107.583
 31
0.0
  0
LINE
  5
25A
330
1E
100
AcDbEntity
  8
0
100
AcDbLine
 10
39.5385
 20
108.5329999999999
 30
0.0
 11
39.5385
 21
109.1029999999999
 31
0.0
  0
LINE
  5
25B
330
1E
100
AcDbEntity
  8
0
100
AcDbLine
 10
63.1538
 20
112.27
 30
0.0
 11
63.1538
 21
109.357
 31
0.0
  0
LINE
  5
25C
330
1E
100
AcDbEntity
  8
0
100
AcDbLine
 10
63.1538
 20
112.27
 30
0.0
 11
63.1538
 21
116.007
 31
0.0
  0
LINE
  5
25D
330
1E
100
AcDbEntity
  8
0
100
AcDbLine
 10
63.1538
 20
109.357
 30
0.0
 11
63.1538
 21
112.27
 31
0.0
  0
LINE
  5
25E
330
1E
100
AcDbEntity
  8
0
100
AcDbLine
 10
63.1538
 20
109.357
 30
0.0
 11
63.1538
 21
107.583
 31
0.0
  0
LINE
  5
25F
330
1E
100
AcDbEntity
  8
0
100
AcDbLine
 10
63.1538
 20
107.583
 30
0.0
 11
63.1538
 21
109.357
 31
0.0
  0
LINE
  5
260
330
1E
100
AcDbEntity
  8
0
100
AcDbLine
 10
63.1538
 20
107.583
 30
0.0
 11
63.1538
 21
106.95
 31
0.0
  0
LINE
  5
261
330
1E
100
AcDbEntity
  8
0
100
AcDbLine
 10
39.92309999999999
 20
107.583
 30
0.0
 11
41.0769
 21
107.267
 31
0.0
  0
LINE
  5
262
330
1E
100
AcDbEntity
  8
0
100
AcDbLine
 10
39.92309999999999
 20
107.583
 30
0.0
 11
39.92309999999999
 21
108.217
 31
0.0
  0
LINE
  5
263
330
1E
100
AcDbEntity
  8
0
100
AcDbLine
 10
62.0
 20
107.267
 30
0.0
 11
63.1538
 21
106.95
 31
0.0
  0
LINE
  5
264
330
1E
100
AcDbEntity
  8
0
100
AcDbLine
 10
63.5385
 20
111.827
 30
0.0
 11
63.5385
 21
108.85
 31
0.0
  0
LINE
  5
265
330
1E
100
AcDbEntity
  8
0
100
AcDbLine
 10
63.5385
 20
111.827
 30
0.0
 11
63.5385
 21
115.69
 31
0.0
  0
LINE
  5
266
330
1E
100
AcDbEntity
  8
0
100
AcDbLine
 10
63.5385
 20
108.85
 30
0.0
 11
63.5385
 21
111.827
 31
0.0
  0
LINE
  5
267
330
1E
100
AcDbEntity
  8
0
100
AcDbLine
 10
63.5385
 20
108.85
 30
0.0
 11
63.5385
 21
107.013
 31
0.0
  0
LINE
  5
268
330
1E
100
AcDbEntity
  8
0
100
AcDbLine
 10
63.5385
 20
107.013
 30
0.0
 11
63.5385
 21
108.85
 31
0.0
  0
LINE
  5
269
330
1E
100
AcDbEntity
  8
0
100
AcDbLine
 10
63.5385
 20
107.013
 30
0.0
 11
63.5385
 21
106.317
 31
0.0
  0
LINE
  5
26A
330
1E
100
AcDbEntity
  8
0
100
AcDbLine
 10
63.1538
 20
106.95
 30
0.0
 11
63.5385
 21
106.317
 31
0.0
  0
LINE
  5
26B
330
1E
100
AcDbEntity
  8
0
100
AcDbLine
 10
63.1538
 20
106.95
 30
0.0
 11
63.1538
 21
107.583
 31
0.0
  0
LINE
  5
26C
330
1E
100
AcDbEntity
  8
0
100
AcDbLine
 10
66.2308
 20
106.317
 30
0.0
 11
67.0
 21
106.95
 31
0.0
  0
LINE
  5
26D
330
1E
100
AcDbEntity
  8
0
100
AcDbLine
 10
67.3846
 20
111.6999999999999
 30
0.0
 11
71.64227642276421
 21
111.6999999999999
 31
0.0
  0
LINE
  5
26E
330
1E
100
AcDbEntity
  8
0
100
AcDbLine
 10
67.0
 20
106.95
 30
0.0
 11
67.3846
 21
107.9
 31
0.0
  0
LINE
  5
26F
330
1E
100
AcDbEntity
  8
0
100
AcDbLine
 10
38.38459999999999
 20
112.7769999999999
 30
0.0
 11
38.38459999999999
 21
114.043
 31
0.0
  0
LINE
  5
270
330
1E
100
AcDbEntity
  8
0
100
AcDbLine
 10
38.38459999999999
 20
112.7769999999999
 30
0.0
 11
38.38459999999999
 21
112.3329999999999
 31
0.0
  0
LINE
  5
271
330
1E
100
AcDbEntity
  8
0
100
AcDbLine
 10
38.38459999999999
 20
114.043
 30
0.0
 11
38.38459999999999
 21
116.07
 31
0.0
  0
LINE
  5
272
330
1E
100
AcDbEntity
  8
0
100
AcDbLine
 10
38.38459999999999
 20
114.043
 30
0.0
 11
38.38459999999999
 21
112.7769999999999
 31
0.0
  0
LINE
  5
273
330
1E
100
AcDbEntity
  8
0
100
AcDbLine
 10
39.5385
 20
115.817
 30
0.0
 11
39.5385
 21
113.727
 31
0.0
  0
LINE
  5
274
330
1E
100
AcDbEntity
  8
0
100
AcDbLine
 10
39.5385
 20
113.727
 30
0.0
 11
39.5385
 21
112.46
 31
0.0
  0
LINE
  5
275
330
1E
100
AcDbEntity
  8
0
100
AcDbLine
 10
39.5385
 20
112.46
 30
0.0
 11
39.5385
 21
112.017
 31
0.0
  0
LINE
  5
276
330
1E
100
AcDbEntity
  8
0
100
AcDbLine
 10
39.92309999999999
 20
116.3229999999999
 30
0.0
 11
39.92309999999999
 21
120.5029999999999
 31
0.0
  0
LINE
  5
277
330
1E
100
AcDbEntity
  8
0
100
AcDbLine
 10
39.92309999999999
 20
116.3229999999999
 30
0.0
 11
39.92309999999999
 21
112.7129999999999
 31
0.0
  0
LINE
  5
278
330
1E
100
AcDbEntity
  8
0
100
AcDbLine
 10
38.38459999999999
 20
116.07
 30
0.0
 11
38.38459999999999
 21
118.73
 31
0.0
  0
LINE
  5
279
330
1E
100
AcDbEntity
  8
0
100
AcDbLine
 10
38.38459999999999
 20
116.07
 30
0.0
 11
38.38459999999999
 21
114.043
 31
0.0
  0
LINE
  5
27A
330
1E
100
AcDbEntity
  8
0
100
AcDbLine
 10
63.1538
 20
116.007
 30
0.0
 11
63.1538
 21
120.377
 31
0.0
  0
LINE
  5
27B
330
1E
100
AcDbEntity
  8
0
100
AcDbLine
 10
63.1538
 20
116.007
 30
0.0
 11
63.1538
 21
112.27
 31
0.0
  0
LINE
  5
27C
330
1E
100
AcDbEntity
  8
0
100
AcDbLine
 10
63.5385
 20
115.69
 30
0.0
 11
63.5385
 21
120.187
 31
0.0
  0
LINE
  5
27D
330
1E
100
AcDbEntity
  8
0
100
AcDbLine
 10
63.5385
 20
115.69
 30
0.0
 11
63.5385
 21
111.827
 31
0.0
  0
LINE
  5
27E
330
1E
100
AcDbEntity
  8
0
100
AcDbLine
 10
67.3846
 20
107.9
 30
0.0
 11
67.3846
 21
120.6299999999999
 31
0.0
  0
LINE
  5
27F
330
1E
100
AcDbEntity
  8
0
100
AcDbLine
 10
39.92309999999999
 20
112.7129999999999
 30
0.0
 11
39.92309999999999
 21
109.927
 31
0.0
  0
LINE
  5
280
330
1E
100
AcDbEntity
  8
0
100
AcDbLine
 10
39.92309999999999
 20
112.7129999999999
 30
0.0
 11
39.92309999999999
 21
116.3229999999999
 31
0.0
  0
LINE
  5
281
330
1E
100
AcDbEntity
  8
0
100
AcDbLine
 10
38.38459999999999
 20
112.3329999999999
 30
0.0
 11
39.5385
 21
112.017
 31
0.0
  0
LINE
  5
282
330
1E
100
AcDbEntity
  8
0
100
AcDbLine
 10
38.38459999999999
 20
112.3329999999999
 30
0.0
 11
38.38459999999999
 21
112.7769999999999
 31
0.0
  0
LINE
  5
283
330
1E
100
AcDbEntity
  8
0
100
AcDbLine
 10
38.0
 20
116.703
 30
0.0
 11
38.0
 21
117.0
 31
0.0
  0
LINE
  5
284
330
1E
100
AcDbEntity
  8
0
100
AcDbLine
 10
38.0
 20
116.703
 30
0.0
 11
38.0
 21
114.867
 31
0.0
  0
LINE
  5
285
330
1E
100
AcDbEntity
  8
0
100
AcDbLine
 10
5.0
 20
117.374
 30
0.0
 11
5.0
 21
116.4789999999999
 31
0.0
  0
LINE
  5
286
330
1E
100
AcDbEntity
  8
0
100
AcDbLine
 10
5.0
 20
117.374
 30
0.0
 11
5.0
 21
118.7679999999999
 31
0.0
  0
LINE
  5
287
330
1E
100
AcDbEntity
  8
0
100
AcDbLine
 10
7.0
 20
117.374
 30
0.0
 11
7.0
 21
119.663
 31
0.0
  0
LINE
  5
288
330
1E
100
AcDbEntity
  8
0
100
AcDbLine
 10
5.5
 20
117.772
 30
0.0
 11
5.5
 21
116.081
 31
0.0
  0
LINE
  5
289
330
1E
100
AcDbEntity
  8
0
100
AcDbLine
 10
5.5
 20
117.772
 30
0.0
 11
5.5
 21
119.962
 31
0.0
  0
LINE
  5
28A
330
1E
100
AcDbEntity
  8
0
100
AcDbLine
 10
16.0
 20
118.27
 30
0.0
 11
16.0
 21
117.4739999999999
 31
0.0
  0
LINE
  5
28B
330
1E
100
AcDbEntity
  8
0
100
AcDbLine
 10
16.0
 20
118.27
 30
0.0
 11
16.0
 21
119.564
 31
0.0
  0
LINE
  5
28C
330
1E
100
AcDbEntity
  8
0
100
AcDbLine
 10
16.0
 20
117.4739999999999
 30
0.0
 11
16.0
 21
117.175
 31
0.0
  0
LINE
  5
28D
330
1E
100
AcDbEntity
  8
0
100
AcDbLine
 10
16.0
 20
117.4739999999999
 30
0.0
 11
16.0
 21
118.27
 31
0.0
  0
LINE
  5
28E
330
1E
100
AcDbEntity
  8
0
100
AcDbLine
 10
16.0
 20
117.175
 30
0.0
 11
18.0
 21
118.6679999999999
 31
0.0
  0
LINE
  5
28F
330
1E
100
AcDbEntity
  8
0
100
AcDbLine
 10
16.0
 20
117.175
 30
0.0
 11
16.0
 21
117.4739999999999
 31
0.0
  0
LINE
  5
290
330
1E
100
AcDbEntity
  8
0
100
AcDbLine
 10
23.0
 20
117.48
 30
0.0
 11
23.0
 21
117.192
 31
0.0
  0
LINE
  5
291
330
1E
100
AcDbEntity
  8
0
100
AcDbLine
 10
23.0
 20
117.48
 30
0.0
 11
23.0
 21
118.2479999999999
 31
0.0
  0
LINE
  5
292
330
1E
100
AcDbEntity
  8
0
100
AcDbLine
 10
23.0
 20
117.192
 30
0.0
 11
23.3692
 21
117.0
 31
0.0
  0
LINE
  5
293
330
1E
100
AcDbEntity
  8
0
100
AcDbLine
 10
23.0
 20
117.192
 30
0.0
 11
23.0
 21
117.48
 31
0.0
  0
LINE
  5
294
330
1E
100
AcDbEntity
  8
0
100
AcDbLine
 10
23.0
 20
118.2479999999999
 30
0.0
 11
23.0
 21
117.48
 31
0.0
  0
LINE
  5
295
330
1E
100
AcDbEntity
  8
0
100
AcDbLine
 10
23.0
 20
118.2479999999999
 30
0.0
 11
23.0
 21
119.496
 31
0.0
  0
LINE
  5
296
330
1E
100
AcDbEntity
  8
0
100
AcDbLine
 10
23.0
 20
118.2479999999999
 30
0.0
 11
23.0
 21
118.6679999999999
 31
0.0
  0
LINE
  5
297
330
1E
100
AcDbEntity
  8
0
100
AcDbLine
 10
38.0
 20
118.056
 30
0.0
 11
38.0
 21
119.3359999999999
 31
0.0
  0
LINE
  5
298
330
1E
100
AcDbEntity
  8
0
100
AcDbLine
 10
38.0
 20
117.2879999999999
 30
0.0
 11
38.0
 21
118.056
 31
0.0
  0
LINE
  5
299
330
1E
100
AcDbEntity
  8
0
100
AcDbLine
 10
23.0
 20
118.6679999999999
 30
0.0
 11
23.0
 21
118.867
 31
0.0
  0
LINE
  5
29A
330
1E
100
AcDbEntity
  8
0
100
AcDbLine
 10
23.0
 20
118.6679999999999
 30
0.0
 11
23.0
 21
118.2479999999999
 31
0.0
  0
LINE
  5
29B
330
1E
100
AcDbEntity
  8
0
100
AcDbLine
 10
18.0
 20
118.6679999999999
 30
0.0
 11
23.0
 21
118.6679999999999
 31
0.0
  0
LINE
  5
29C
330
1E
100
AcDbEntity
  8
0
100
AcDbLine
 10
18.0
 20
118.6679999999999
 30
0.0
 11
18.0
 21
118.867
 31
0.0
  0
LINE
  5
29D
330
1E
100
AcDbEntity
  8
0
100
AcDbLine
 10
5.0
 20
118.7679999999999
 30
0.0
 11
5.0
 21
117.374
 31
0.0
  0
LINE
  5
29E
330
1E
100
AcDbEntity
  8
0
100
AcDbLine
 10
5.0
 20
118.7679999999999
 30
0.0
 11
5.0
 21
120.659
 31
0.0
  0
LINE
  5
29F
330
1E
100
AcDbEntity
  8
0
100
AcDbLine
 10
23.0
 20
118.867
 30
0.0
 11
23.0
 21
119.564
 31
0.0
  0
LINE
  5
2A0
330
1E
100
AcDbEntity
  8
0
100
AcDbLine
 10
15.0
 20
119.1659999999999
 30
0.0
 11
15.0
 21
116.6779999999999
 31
0.0
  0
LINE
  5
2A1
330
1E
100
AcDbEntity
  8
0
100
AcDbLine
 10
15.0
 20
119.1659999999999
 30
0.0
 11
15.0
 21
122.052
 31
0.0
  0
LINE
  5
2A2
330
1E
100
AcDbEntity
  8
0
100
AcDbLine
 10
7.0
 20
119.1659999999999
 30
0.0
 11
7.0
 21
122.052
 31
0.0
  0
LINE
  5
2A3
330
1E
100
AcDbEntity
  8
0
100
AcDbLine
 10
7.0
 20
119.1659999999999
 30
0.0
 11
7.0
 21
116.6779999999999
 31
0.0
  0
LINE
  5
2A4
330
1E
100
AcDbEntity
  8
0
100
AcDbLine
 10
5.5
 20
119.962
 30
0.0
 11
5.5
 21
122.45
 31
0.0
  0
LINE
  5
2A5
330
1E
100
AcDbEntity
  8
0
100
AcDbLine
 10
7.0
 20
119.663
 30
0.0
 11
7.0
 21
122.351
 31
0.0
  0
LINE
  5
2A6
330
1E
100
AcDbEntity
  8
0
100
AcDbLine
 10
7.0
 20
119.663
 30
0.0
 11
7.0
 21
122.052
 31
0.0
  0
LINE
  5
2A7
330
1E
100
AcDbEntity
  8
0
100
AcDbLine
 10
16.0
 20
119.564
 30
0.0
 11
16.0
 21
118.27
 31
0.0
  0
LINE
  5
2A8
330
1E
100
AcDbEntity
  8
0
100
AcDbLine
 10
16.0
 20
119.564
 30
0.0
 11
16.0
 21
121.156
 31
0.0
  0
LINE
  5
2A9
330
1E
100
AcDbEntity
  8
0
100
AcDbLine
 10
15.0
 20
122.052
 30
0.0
 11
15.0
 21
119.1659999999999
 31
0.0
  0
LINE
  5
2AA
330
1E
100
AcDbEntity
  8
0
100
AcDbLine
 10
15.0
 20
122.052
 30
0.0
 11
15.0
 21
125.137
 31
0.0
  0
LINE
  5
2AB
330
1E
100
AcDbEntity
  8
0
100
AcDbLine
 10
7.0
 20
122.052
 30
0.0
 11
7.0
 21
125.137
 31
0.0
  0
LINE
  5
2AC
330
1E
100
AcDbEntity
  8
0
100
AcDbLine
 10
7.0
 20
122.052
 30
0.0
 11
7.0
 21
122.351
 31
0.0
  0
LINE
  5
2AD
330
1E
100
AcDbEntity
  8
0
100
AcDbLine
 10
5.0
 20
120.659
 30
0.0
 11
5.0
 21
118.7679999999999
 31
0.0
  0
LINE
  5
2AE
330
1E
100
AcDbEntity
  8
0
100
AcDbLine
 10
5.0
 20
120.659
 30
0.0
 11
5.0
 21
122.848
 31
0.0
  0
LINE
  5
2AF
330
1E
100
AcDbEntity
  8
0
100
AcDbLine
 10
5.0
 20
122.848
 30
0.0
 11
5.0
 21
120.659
 31
0.0
  0
LINE
  5
2B0
330
1E
100
AcDbEntity
  8
0
100
AcDbLine
 10
5.0
 20
122.848
 30
0.0
 11
5.0
 21
125.137
 31
0.0
  0
LINE
  5
2B1
330
1E
100
AcDbEntity
  8
0
100
AcDbLine
 10
5.5
 20
122.45
 30
0.0
 11
5.5
 21
119.962
 31
0.0
  0
LINE
  5
2B2
330
1E
100
AcDbEntity
  8
0
100
AcDbLine
 10
5.5
 20
122.45
 30
0.0
 11
5.5
 21
125.137
 31
0.0
  0
LINE
  5
2B3
330
1E
100
AcDbEntity
  8
0
100
AcDbLine
 10
7.0
 20
122.351
 30
0.0
 11
7.0
 21
125.137
 31
0.0
  0
LINE
  5
2B4
330
1E
100
AcDbEntity
  8
0
100
AcDbLine
 10
7.0
 20
122.351
 30
0.0
 11
7.0
 21
122.052
 31
0.0
  0
LINE
  5
2B5
330
1E
100
AcDbEntity
  8
0
100
AcDbLine
 10
16.0
 20
121.156
 30
0.0
 11
16.0
 21
119.564
 31
0.0
  0
LINE
  5
2B6
330
1E
100
AcDbEntity
  8
0
100
AcDbLine
 10
16.0
 20
121.156
 30
0.0
 11
16.0
 21
123.047
 31
0.0
  0
LINE
  5
2B7
330
1E
100
AcDbEntity
  8
0
100
AcDbLine
 10
16.0
 20
123.047
 30
0.0
 11
16.0
 21
121.156
 31
0.0
  0
LINE
  5
2B8
330
1E
100
AcDbEntity
  8
0
100
AcDbLine
 10
16.0
 20
123.047
 30
0.0
 11
16.0
 21
125.137
 31
0.0
  0
LINE
  5
2B9
330
1E
100
AcDbEntity
  8
0
100
AcDbLine
 10
18.0
 20
121.953
 30
0.0
 11
18.0
 21
120.5589999999999
 31
0.0
  0
LINE
  5
2BA
330
1E
100
AcDbEntity
  8
0
100
AcDbLine
 10
18.0
 20
121.953
 30
0.0
 11
18.0
 21
123.446
 31
0.0
  0
LINE
  5
2BB
330
1E
100
AcDbEntity
  8
0
100
AcDbLine
 10
5.0
 20
125.137
 30
0.0
 11
5.0
 21
127.4259999999999
 31
0.0
  0
LINE
  5
2BC
330
1E
100
AcDbEntity
  8
0
100
AcDbLine
 10
5.0
 20
125.137
 30
0.0
 11
5.0
 21
122.848
 31
0.0
  0
LINE
  5
2BD
330
1E
100
AcDbEntity
  8
0
100
AcDbLine
 10
5.5
 20
125.137
 30
0.0
 11
5.5
 21
127.825
 31
0.0
  0
LINE
  5
2BE
330
1E
100
AcDbEntity
  8
0
100
AcDbLine
 10
5.5
 20
125.137
 30
0.0
 11
5.5
 21
122.45
 31
0.0
  0
LINE
  5
2BF
330
1E
100
AcDbEntity
  8
0
100
AcDbLine
 10
15.0
 20
125.137
 30
0.0
 11
15.0
 21
128.2229999999999
 31
0.0
  0
LINE
  5
2C0
330
1E
100
AcDbEntity
  8
0
100
AcDbLine
 10
15.0
 20
125.137
 30
0.0
 11
15.0
 21
122.052
 31
0.0
  0
LINE
  5
2C1
330
1E
100
AcDbEntity
  8
0
100
AcDbLine
 10
7.0
 20
125.137
 30
0.0
 11
7.0
 21
127.9239999999999
 31
0.0
  0
LINE
  5
2C2
330
1E
100
AcDbEntity
  8
0
100
AcDbLine
 10
7.0
 20
125.137
 30
0.0
 11
7.0
 21
122.052
 31
0.0
  0
LINE
  5
2C3
330
1E
100
AcDbEntity
  8
0
100
AcDbLine
 10
7.0
 20
125.137
 30
0.0
 11
7.0
 21
128.2229999999999
 31
0.0
  0
LINE
  5
2C4
330
1E
100
AcDbEntity
  8
0
100
AcDbLine
 10
5.0
 20
127.4259999999999
 30
0.0
 11
5.0
 21
129.616
 31
0.0
  0
LINE
  5
2C5
330
1E
100
AcDbEntity
  8
0
100
AcDbLine
 10
7.0
 20
128.2229999999999
 30
0.0
 11
7.0
 21
131.109
 31
0.0
  0
LINE
  5
2C6
330
1E
100
AcDbEntity
  8
0
100
AcDbLine
 10
7.0
 20
128.2229999999999
 30
0.0
 11
7.0
 21
125.137
 31
0.0
  0
LINE
  5
2C7
330
1E
100
AcDbEntity
  8
0
100
AcDbLine
 10
5.5
 20
130.3129999999999
 30
0.0
 11
5.5
 21
132.502
 31
0.0
  0
LINE
  5
2C8
330
1E
100
AcDbEntity
  8
0
100
AcDbLine
 10
5.0
 20
129.616
 30
0.0
 11
5.0
 21
127.4259999999999
 31
0.0
  0
LINE
  5
2C9
330
1E
100
AcDbEntity
  8
0
100
AcDbLine
 10
5.0
 20
129.616
 30
0.0
 11
5.0
 21
131.507
 31
0.0
  0
LINE
  5
2CA
330
1E
100
AcDbEntity
  8
0
100
AcDbLine
 10
7.0
 20
131.109
 30
0.0
 11
7.0
 21
133.597
 31
0.0
  0
LINE
  5
2CB
330
1E
100
AcDbEntity
  8
0
100
AcDbLine
 10
7.0
 20
131.109
 30
0.0
 11
7.0
 21
128.2229999999999
 31
0.0
  0
LINE
  5
2CC
330
1E
100
AcDbEntity
  8
0
100
AcDbLine
 10
5.0
 20
131.507
 30
0.0
 11
5.0
 21
129.616
 31
0.0
  0
LINE
  5
2CD
330
1E
100
AcDbEntity
  8
0
100
AcDbLine
 10
5.0
 20
131.507
 30
0.0
 11
5.0
 21
132.9
 31
0.0
  0
LINE
  5
2CE
330
1E
100
AcDbEntity
  8
0
100
AcDbLine
 10
7.0
 20
130.6109999999999
 30
0.0
 11
7.0
 21
132.9
 31
0.0
  0
LINE
  5
2CF
330
1E
100
AcDbEntity
  8
0
100
AcDbLine
 10
15.0
 20
131.109
 30
0.0
 11
15.0
 21
133.597
 31
0.0
  0
LINE
  5
2D0
330
1E
100
AcDbEntity
  8
0
100
AcDbLine
 10
15.0
 20
128.2229999999999
 30
0.0
 11
15.0
 21
125.137
 31
0.0
  0
LINE
  5
2D1
330
1E
100
AcDbEntity
  8
0
100
AcDbLine
 10
15.0
 20
128.2229999999999
 30
0.0
 11
15.0
 21
131.109
 31
0.0
  0
LINE
  5
2D2
330
1E
100
AcDbEntity
  8
0
100
AcDbLine
 10
7.0
 20
127.9239999999999
 30
0.0
 11
7.0
 21
130.6109999999999
 31
0.0
  0
LINE
  5
2D3
330
1E
100
AcDbEntity
  8
0
100
AcDbLine
 10
5.5
 20
127.825
 30
0.0
 11
5.5
 21
125.137
 31
0.0
  0
LINE
  5
2D4
330
1E
100
AcDbEntity
  8
0
100
AcDbLine
 10
5.5
 20
127.825
 30
0.0
 11
5.5
 21
130.3129999999999
 31
0.0
  0
LINE
  5
2D5
330
1E
100
AcDbEntity
  8
0
100
AcDbLine
 10
16.0
 20
129.1179999999999
 30
0.0
 11
16.0
 21
127.228
 31
0.0
  0
LINE
  5
2D6
330
1E
100
AcDbEntity
  8
0
100
AcDbLine
 10
16.0
 20
129.1179999999999
 30
0.0
 11
16.0
 21
130.711
 31
0.0
  0
LINE
  5
2D7
330
1E
100
AcDbEntity
  8
0
100
AcDbLine
 10
16.0
 20
127.228
 30
0.0
 11
16.0
 21
125.137
 31
0.0
  0
LINE
  5
2D8
330
1E
100
AcDbEntity
  8
0
100
AcDbLine
 10
16.0
 20
127.228
 30
0.0
 11
16.0
 21
129.1179999999999
 31
0.0
  0
LINE
  5
2D9
330
1E
100
AcDbEntity
  8
0
100
AcDbLine
 10
16.0
 20
130.711
 30
0.0
 11
16.0
 21
132.0049999999999
 31
0.0
  0
LINE
  5
2DA
330
1E
100
AcDbEntity
  8
0
100
AcDbLine
 10
16.0
 20
130.711
 30
0.0
 11
16.0
 21
129.1179999999999
 31
0.0
  0
LINE
  5
2DB
330
1E
100
AcDbEntity
  8
0
100
AcDbLine
 10
5.0
 20
132.9
 30
0.0
 11
5.0
 21
131.507
 31
0.0
  0
LINE
  5
2DC
330
1E
100
AcDbEntity
  8
0
100
AcDbLine
 10
5.0
 20
132.9
 30
0.0
 11
5.0
 21
133.796
 31
0.0
  0
LINE
  5
2DD
330
1E
100
AcDbEntity
  8
0
100
AcDbLine
 10
7.0
 20
132.9
 30
0.0
 11
7.0
 21
133.0
 31
0.0
  0
LINE
  5
2DE
330
1E
100
AcDbEntity
  8
0
100
AcDbLine
 10
5.5
 20
132.502
 30
0.0
 11
5.5
 21
130.3129999999999
 31
0.0
  0
LINE
  5
2DF
330
1E
100
AcDbEntity
  8
0
100
AcDbLine
 10
5.5
 20
132.502
 30
0.0
 11
5.5
 21
134.1939999999999
 31
0.0
  0
LINE
  5
2E0
330
1E
100
AcDbEntity
  8
0
100
AcDbLine
 10
16.0
 20
132.0049999999999
 30
0.0
 11
16.0
 21
130.711
 31
0.0
  0
LINE
  5
2E1
330
1E
100
AcDbEntity
  8
0
100
AcDbLine
 10
16.0
 20
132.0049999999999
 30
0.0
 11
16.0
 21
132.801
 31
0.0
  0
LINE
  5
2E2
330
1E
100
AcDbEntity
  8
0
100
AcDbLine
 10
16.0
 20
132.801
 30
0.0
 11
16.0
 21
132.0049999999999
 31
0.0
  0
LINE
  5
2E3
330
1E
100
AcDbEntity
  8
0
100
AcDbLine
 10
16.0
 20
132.801
 30
0.0
 11
16.0
 21
133.0999999999999
 31
0.0
  0
LINE
  5
2E4
330
1E
100
AcDbEntity
  8
0
100
AcDbLine
 10
16.0
 20
133.0999999999999
 30
0.0
 11
16.0
 21
132.801
 31
0.0
  0
LINE
  5
2E5
330
1E
100
AcDbEntity
  8
0
100
AcDbLine
 10
16.0
 20
133.0999999999999
 30
0.0
 11
18.0
 21
131.607
 31
0.0
  0
LINE
  5
2E6
330
1E
100
AcDbEntity
  8
0
100
AcDbLine
 10
16.0
 20
125.137
 30
0.0
 11
16.0
 21
123.047
 31
0.0
  0
LINE
  5
2E7
330
1E
100
AcDbEntity
  8
0
100
AcDbLine
 10
16.0
 20
125.137
 30
0.0
 11
16.0
 21
127.228
 31
0.0
  0
LINE
  5
2E8
330
1E
100
AcDbEntity
  8
0
100
AcDbLine
 10
18.0
 20
123.446
 30
0.0
 11
18.0
 21
121.953
 31
0.0
  0
LINE
  5
2E9
330
1E
100
AcDbEntity
  8
0
100
AcDbLine
 10
18.0
 20
123.446
 30
0.0
 11
18.0
 21
125.137
 31
0.0
  0
LINE
  5
2EA
330
1E
100
AcDbEntity
  8
0
100
AcDbLine
 10
18.0
 20
125.137
 30
0.0
 11
18.0
 21
123.446
 31
0.0
  0
LINE
  5
2EB
330
1E
100
AcDbEntity
  8
0
100
AcDbLine
 10
18.0
 20
125.137
 30
0.0
 11
18.0
 21
126.8289999999999
 31
0.0
  0
LINE
  5
2EC
330
1E
100
AcDbEntity
  8
0
100
AcDbLine
 10
18.0
 20
120.5589999999999
 30
0.0
 11
18.0
 21
119.564
 31
0.0
  0
LINE
  5
2ED
330
1E
100
AcDbEntity
  8
0
100
AcDbLine
 10
18.0
 20
120.5589999999999
 30
0.0
 11
18.0
 21
121.953
 31
0.0
  0
LINE
  5
2EE
330
1E
100
AcDbEntity
  8
0
100
AcDbLine
 10
23.0
 20
119.496
 30
0.0
 11
23.0
 21
118.2479999999999
 31
0.0
  0
LINE
  5
2EF
330
1E
100
AcDbEntity
  8
0
100
AcDbLine
 10
23.0
 20
119.496
 30
0.0
 11
23.0
 21
121.1279999999999
 31
0.0
  0
LINE
  5
2F0
330
1E
100
AcDbEntity
  8
0
100
AcDbLine
 10
38.0
 20
119.3359999999999
 30
0.0
 11
38.0
 21
121.032
 31
0.0
  0
LINE
  5
2F1
330
1E
100
AcDbEntity
  8
0
100
AcDbLine
 10
23.0
 20
121.1279999999999
 30
0.0
 11
23.0
 21
119.496
 31
0.0
  0
LINE
  5
2F2
330
1E
100
AcDbEntity
  8
0
100
AcDbLine
 10
23.0
 20
121.1279999999999
 30
0.0
 11
23.0
 21
122.984
 31
0.0
  0
LINE
  5
2F3
330
1E
100
AcDbEntity
  8
0
100
AcDbLine
 10
23.0
 20
120.5589999999999
 30
0.0
 11
23.0
 21
121.953
 31
0.0
  0
LINE
  5
2F4
330
1E
100
AcDbEntity
  8
0
100
AcDbLine
 10
18.0
 20
126.8289999999999
 30
0.0
 11
18.0
 21
128.322
 31
0.0
  0
LINE
  5
2F5
330
1E
100
AcDbEntity
  8
0
100
AcDbLine
 10
18.0
 20
128.322
 30
0.0
 11
18.0
 21
126.8289999999999
 31
0.0
  0
LINE
  5
2F6
330
1E
100
AcDbEntity
  8
0
100
AcDbLine
 10
18.0
 20
128.322
 30
0.0
 11
18.0
 21
129.716
 31
0.0
  0
LINE
  5
2F7
330
1E
100
AcDbEntity
  8
0
100
AcDbLine
 10
23.0
 20
125.0
 30
0.0
 11
23.0
 21
122.984
 31
0.0
  0
LINE
  5
2F8
330
1E
100
AcDbEntity
  8
0
100
AcDbLine
 10
23.0
 20
125.0
 30
0.0
 11
23.0
 21
127.016
 31
0.0
  0
LINE
  5
2F9
330
1E
100
AcDbEntity
  8
0
100
AcDbLine
 10
23.0
 20
122.984
 30
0.0
 11
23.0
 21
121.1279999999999
 31
0.0
  0
LINE
  5
2FA
330
1E
100
AcDbEntity
  8
0
100
AcDbLine
 10
23.0
 20
122.984
 30
0.0
 11
23.0
 21
125.0
 31
0.0
  0
LINE
  5
2FB
330
1E
100
AcDbEntity
  8
0
100
AcDbLine
 10
23.0
 20
127.016
 30
0.0
 11
23.0
 21
125.0
 31
0.0
  0
LINE
  5
2FC
330
1E
100
AcDbEntity
  8
0
100
AcDbLine
 10
23.0
 20
127.016
 30
0.0
 11
23.0
 21
128.872
 31
0.0
  0
LINE
  5
2FD
330
1E
100
AcDbEntity
  8
0
100
AcDbLine
 10
23.0
 20
128.872
 30
0.0
 11
23.0
 21
127.016
 31
0.0
  0
LINE
  5
2FE
330
1E
100
AcDbEntity
  8
0
100
AcDbLine
 10
23.0
 20
128.872
 30
0.0
 11
23.0
 21
130.5039999999999
 31
0.0
  0
LINE
  5
2FF
330
1E
100
AcDbEntity
  8
0
100
AcDbLine
 10
23.0
 20
130.5039999999999
 30
0.0
 11
23.0
 21
128.872
 31
0.0
  0
LINE
  5
300
330
1E
100
AcDbEntity
  8
0
100
AcDbLine
 10
23.0
 20
130.5039999999999
 30
0.0
 11
23.0
 21
131.752
 31
0.0
  0
LINE
  5
301
330
1E
100
AcDbEntity
  8
0
100
AcDbLine
 10
23.0
 20
128.322
 30
0.0
 11
23.0
 21
129.716
 31
0.0
  0
LINE
  5
302
330
1E
100
AcDbEntity
  8
0
100
AcDbLine
 10
23.0
 20
126.8289999999999
 30
0.0
 11
23.0
 21
128.322
 31
0.0
  0
LINE
  5
303
330
1E
100
AcDbEntity
  8
0
100
AcDbLine
 10
23.0
 20
125.137
 30
0.0
 11
23.0
 21
126.8289999999999
 31
0.0
  0
LINE
  5
304
330
1E
100
AcDbEntity
  8
0
100
AcDbLine
 10
18.0
 20
129.716
 30
0.0
 11
18.0
 21
130.711
 31
0.0
  0
LINE
  5
305
330
1E
100
AcDbEntity
  8
0
100
AcDbLine
 10
18.0
 20
129.716
 30
0.0
 11
18.0
 21
128.322
 31
0.0
  0
LINE
  5
306
330
1E
100
AcDbEntity
  8
0
100
AcDbLine
 10
18.0
 20
130.711
 30
0.0
 11
18.0
 21
129.716
 31
0.0
  0
LINE
  5
307
330
1E
100
AcDbEntity
  8
0
100
AcDbLine
 10
18.0
 20
130.711
 30
0.0
 11
18.0
 21
131.4079999999999
 31
0.0
  0
LINE
  5
308
330
1E
100
AcDbEntity
  8
0
100
AcDbLine
 10
23.0
 20
129.716
 30
0.0
 11
23.0
 21
130.711
 31
0.0
  0
LINE
  5
309
330
1E
100
AcDbEntity
  8
0
100
AcDbLine
 10
23.0
 20
131.607
 30
0.0
 11
23.0
 21
131.752
 31
0.0
  0
LINE
  5
30A
330
1E
100
AcDbEntity
  8
0
100
AcDbLine
 10
18.0
 20
131.4079999999999
 30
0.0
 11
18.0
 21
130.711
 31
0.0
  0
LINE
  5
30B
330
1E
100
AcDbEntity
  8
0
100
AcDbLine
 10
18.0
 20
131.4079999999999
 30
0.0
 11
18.0
 21
131.607
 31
0.0
  0
LINE
  5
30C
330
1E
100
AcDbEntity
  8
0
100
AcDbLine
 10
23.0
 20
130.711
 30
0.0
 11
23.0
 21
131.4079999999999
 31
0.0
  0
LINE
  5
30D
330
1E
100
AcDbEntity
  8
0
100
AcDbLine
 10
23.0
 20
131.752
 30
0.0
 11
23.0
 21
130.5039999999999
 31
0.0
  0
LINE
  5
30E
330
1E
100
AcDbEntity
  8
0
100
AcDbLine
 10
23.0
 20
131.752
 30
0.0
 11
23.0
 21
132.52
 31
0.0
  0
LINE
  5
30F
330
1E
100
AcDbEntity
  8
0
100
AcDbLine
 10
23.0
 20
131.752
 30
0.0
 11
23.0
 21
131.607
 31
0.0
  0
LINE
  5
310
330
1E
100
AcDbEntity
  8
0
100
AcDbLine
 10
23.0
 20
132.52
 30
0.0
 11
23.0
 21
131.752
 31
0.0
  0
LINE
  5
311
330
1E
100
AcDbEntity
  8
0
100
AcDbLine
 10
23.0
 20
132.52
 30
0.0
 11
23.0
 21
132.8079999999999
 31
0.0
  0
LINE
  5
312
330
1E
100
AcDbEntity
  8
0
100
AcDbLine
 10
23.0
 20
132.8079999999999
 30
0.0
 11
23.0
 21
132.52
 31
0.0
  0
LINE
  5
313
330
1E
100
AcDbEntity
  8
0
100
AcDbLine
 10
23.0
 20
132.8079999999999
 30
0.0
 11
23.3692
 21
133.0
 31
0.0
  0
LINE
  5
314
330
1E
100
AcDbEntity
  8
0
100
AcDbLine
 10
18.0
 20
131.607
 30
0.0
 11
18.0
 21
131.4079999999999
 31
0.0
  0
LINE
  5
315
330
1E
100
AcDbEntity
  8
0
100
AcDbLine
 10
18.0
 20
131.607
 30
0.0
 11
23.0
 21
131.607
 31
0.0
  0
LINE
  5
316
330
1E
100
AcDbEntity
  8
0
100
AcDbLine
 10
23.0
 20
131.4079999999999
 30
0.0
 11
23.0
 21
131.607
 31
0.0
  0
LINE
  5
317
330
1E
100
AcDbEntity
  8
0
100
AcDbLine
 10
23.0
 20
121.953
 30
0.0
 11
23.0
 21
123.446
 31
0.0
  0
LINE
  5
318
330
1E
100
AcDbEntity
  8
0
100
AcDbLine
 10
38.0
 20
125.0
 30
0.0
 11
38.0
 21
127.0479999999999
 31
0.0
  0
LINE
  5
319
330
1E
100
AcDbEntity
  8
0
100
AcDbLine
 10
38.0
 20
127.0479999999999
 30
0.0
 11
38.0
 21
128.9679999999999
 31
0.0
  0
LINE
  5
31A
330
1E
100
AcDbEntity
  8
0
100
AcDbLine
 10
38.0
 20
128.9679999999999
 30
0.0
 11
38.0
 21
130.6639999999999
 31
0.0
  0
LINE
  5
31B
330
1E
100
AcDbEntity
  8
0
100
AcDbLine
 10
38.0
 20
130.6639999999999
 30
0.0
 11
38.0
 21
131.9439999999999
 31
0.0
  0
LINE
  5
31C
330
1E
100
AcDbEntity
  8
0
100
AcDbLine
 10
38.0
 20
131.9439999999999
 30
0.0
 11
38.0
 21
132.712
 31
0.0
  0
LINE
  5
31D
330
1E
100
AcDbEntity
  8
0
100
AcDbLine
 10
23.3692
 20
133.0
 30
0.0
 11
38.0
 21
133.0
 31
0.0
  0
LINE
  5
31E
330
1E
100
AcDbEntity
  8
0
100
AcDbLine
 10
38.0
 20
132.712
 30
0.0
 11
38.0
 21
133.0
 31
0.0
  0
LINE
  5
31F
330
1E
100
AcDbEntity
  8
0
100
AcDbLine
 10
38.0
 20
122.952
 30
0.0
 11
38.0
 21
125.0
 31
0.0
  0
LINE
  5
320
330
1E
100
AcDbEntity
  8
0
100
AcDbLine
 10
38.0
 20
121.032
 30
0.0
 11
38.0
 21
122.952
 31
0.0
  0
LINE
  5
321
330
1E
100
AcDbEntity
  8
0
100
AcDbLine
 10
23.0
 20
123.446
 30
0.0
 11
23.0
 21
125.137
 31
0.0
  0
LINE
  5
322
330
1E
100
AcDbEntity
  8
0
100
AcDbLine
 10
23.0
 20
119.564
 30
0.0
 11
23.0
 21
120.5589999999999
 31
0.0
  0
LINE
  5
323
330
1E
100
AcDbEntity
  8
0
100
AcDbLine
 10
18.0
 20
119.564
 30
0.0
 11
18.0
 21
118.867
 31
0.0
  0
LINE
  5
324
330
1E
100
AcDbEntity
  8
0
100
AcDbLine
 10
18.0
 20
119.564
 30
0.0
 11
18.0
 21
120.5589999999999
 31
0.0
  0
LINE
  5
325
330
1E
100
AcDbEntity
  8
0
100
AcDbLine
 10
18.0
 20
118.867
 30
0.0
 11
18.0
 21
118.6679999999999
 31
0.0
  0
LINE
  5
326
330
1E
100
AcDbEntity
  8
0
100
AcDbLine
 10
18.0
 20
118.867
 30
0.0
 11
18.0
 21
119.564
 31
0.0
  0
LINE
  5
327
330
1E
100
AcDbEntity
  8
0
100
AcDbLine
 10
38.38459999999999
 20
128.23
 30
0.0
 11
38.38459999999999
 21
131.27
 31
0.0
  0
LINE
  5
328
330
1E
100
AcDbEntity
  8
0
100
AcDbLine
 10
38.38459999999999
 20
128.23
 30
0.0
 11
38.38459999999999
 21
125.0
 31
0.0
  0
LINE
  5
329
330
1E
100
AcDbEntity
  8
0
100
AcDbLine
 10
38.0
 20
133.0
 30
0.0
 11
38.0
 21
133.2969999999999
 31
0.0
  0
LINE
  5
32A
330
1E
100
AcDbEntity
  8
0
100
AcDbLine
 10
5.0
 20
133.796
 30
0.0
 11
5.0
 21
132.9
 31
0.0
  0
LINE
  5
32B
330
1E
100
AcDbEntity
  8
0
100
AcDbLine
 10
5.0
 20
133.796
 30
0.0
 11
5.0
 21
134.095
 31
0.0
  0
LINE
  5
32C
330
1E
100
AcDbEntity
  8
0
100
AcDbLine
 10
5.0
 20
134.095
 30
0.0
 11
5.0
 21
133.796
 31
0.0
  0
LINE
  5
32D
330
1E
100
AcDbEntity
  8
0
100
AcDbLine
 10
5.0
 20
134.095
 30
0.0
 11
5.5
 21
135.5879999999999
 31
0.0
  0
LINE
  5
32E
330
1E
100
AcDbEntity
  8
0
100
AcDbLine
 10
7.0
 20
133.597
 30
0.0
 11
7.0
 21
131.109
 31
0.0
  0
LINE
  5
32F
330
1E
100
AcDbEntity
  8
0
100
AcDbLine
 10
15.0
 20
133.597
 30
0.0
 11
15.1433
 21
135.5099999999999
 31
0.0
  0
LINE
  5
330
330
1E
100
AcDbEntity
  8
0
100
AcDbLine
 10
15.0
 20
133.597
 30
0.0
 11
15.0
 21
131.109
 31
0.0
  0
LINE
  5
331
330
1E
100
AcDbEntity
  8
0
100
AcDbLine
 10
5.5
 20
134.1939999999999
 30
0.0
 11
5.5
 21
132.502
 31
0.0
  0
LINE
  5
332
330
1E
100
AcDbEntity
  8
0
100
AcDbLine
 10
5.5
 20
134.1939999999999
 30
0.0
 11
5.5
 21
135.19
 31
0.0
  0
LINE
  5
333
330
1E
100
AcDbEntity
  8
0
100
AcDbLine
 10
6.85672
 20
135.5099999999999
 30
0.0
 11
7.0
 21
133.597
 31
0.0
  0
LINE
  5
334
330
1E
100
AcDbEntity
  8
0
100
AcDbLine
 10
5.5
 20
135.19
 30
0.0
 11
5.5
 21
134.1939999999999
 31
0.0
  0
LINE
  5
335
330
1E
100
AcDbEntity
  8
0
100
AcDbLine
 10
5.5
 20
135.19
 30
0.0
 11
5.5
 21
135.5879999999999
 31
0.0
  0
LINE
  5
336
330
1E
100
AcDbEntity
  8
0
100
AcDbLine
 10
15.1433
 20
135.5099999999999
 30
0.0
 11
15.448
 21
137.7809999999999
 31
0.0
  0
LINE
  5
337
330
1E
100
AcDbEntity
  8
0
100
AcDbLine
 10
15.099767107282
 20
134.928852590582
 30
0.0
 11
15.2374044434668
 21
136.2113823141219
 31
0.0
  0
LINE
  5
338
330
1E
100
AcDbEntity
  8
0
100
AcDbLine
 10
5.5
 20
135.5879999999999
 30
0.0
 11
5.5
 21
135.19
 31
0.0
  0
LINE
  5
339
330
1E
100
AcDbEntity
  8
0
100
AcDbLine
 10
5.5
 20
135.5879999999999
 30
0.0
 11
6.783850466313749
 21
136.013382454505
 31
0.0
  0
LINE
  5
33A
330
1E
100
AcDbEntity
  8
0
100
AcDbLine
 10
15.2374044434668
 20
136.2113823141219
 30
0.0
 11
15.448
 21
137.7809999999999
 31
0.0
  0
LINE
  5
33B
330
1E
100
AcDbEntity
  8
0
100
AcDbLine
 10
6.762551836141179
 20
136.2118111713159
 30
0.0
 11
6.900216307290269
 21
134.929259939655
 31
0.0
  0
LINE
  5
33C
330
1E
100
AcDbEntity
  8
0
100
AcDbLine
 10
6.762551836141179
 20
136.2118111713159
 30
0.0
 11
6.783850466313749
 21
136.013382454505
 31
0.0
  0
LINE
  5
33D
330
1E
100
AcDbEntity
  8
0
100
AcDbLine
 10
15.1695330106772
 20
135.578943963129
 30
0.0
 11
16.0
 21
133.0999999999999
 31
0.0
  0
LINE
  5
33E
330
1E
100
AcDbEntity
  8
0
100
AcDbLine
 10
38.0
 20
135.1329999999999
 30
0.0
 11
38.0
 21
133.2969999999999
 31
0.0
  0
LINE
  5
33F
330
1E
100
AcDbEntity
  8
0
100
AcDbLine
 10
38.0
 20
135.1329999999999
 30
0.0
 11
38.0
 21
136.2729999999999
 31
0.0
  0
LINE
  5
340
330
1E
100
AcDbEntity
  8
0
100
AcDbLine
 10
5.169839743631699
 20
148.663833893985
 30
0.0
 11
5.19319
 21
148.132
 31
0.0
  0
LINE
  5
341
330
1E
100
AcDbEntity
  8
0
100
AcDbLine
 10
5.11078
 20
150.0089999999999
 30
0.0
 11
5.19042007604337
 21
150.277980055498
 31
0.0
  0
LINE
  5
342
330
1E
100
AcDbEntity
  8
0
100
AcDbLine
 10
5.091559999999999
 20
149.894
 30
0.0
 11
5.47595
 21
151.387
 31
0.0
  0
LINE
  5
343
330
1E
100
AcDbEntity
  8
0
100
AcDbLine
 10
5.091559999999999
 20
149.894
 30
0.0
 11
5.2117
 21
148.0059999999999
 31
0.0
  0
LINE
  5
344
330
1E
100
AcDbEntity
  8
0
100
AcDbLine
 10
5.95394708999811
 20
142.283543487944
 30
0.0
 11
6.242799999999999
 21
140.204
 31
0.0
  0
LINE
  5
345
330
1E
100
AcDbEntity
  8
0
100
AcDbLine
 10
6.552
 20
137.7809999999999
 30
0.0
 11
6.85672
 21
135.5099999999999
 31
0.0
  0
LINE
  5
346
330
1E
100
AcDbEntity
  8
0
100
AcDbLine
 10
6.552
 20
137.7809999999999
 30
0.0
 11
6.762551836141179
 21
136.2118111713159
 31
0.0
  0
LINE
  5
347
330
1E
100
AcDbEntity
  8
0
100
AcDbLine
 10
15.448
 20
137.7809999999999
 30
0.0
 11
15.7831
 21
140.522
 31
0.0
  0
LINE
  5
348
330
1E
100
AcDbEntity
  8
0
100
AcDbLine
 10
15.7831
 20
140.522
 30
0.0
 11
16.30959999999999
 21
144.049
 31
0.0
  0
LINE
  5
349
330
1E
100
AcDbEntity
  8
0
100
AcDbLine
 10
16.30959999999999
 20
144.049
 30
0.0
 11
16.7883
 21
148.0059999999999
 31
0.0
  0
LINE
  5
34A
330
1E
100
AcDbEntity
  8
0
100
AcDbLine
 10
15.7572
 20
140.204
 30
0.0
 11
16.0459049224223
 21
142.282518445172
 31
0.0
  0
LINE
  5
34B
330
1E
100
AcDbEntity
  8
0
100
AcDbLine
 10
15.7572
 20
140.204
 30
0.0
 11
15.7831
 21
140.522
 31
0.0
  0
LINE
  5
34C
330
1E
100
AcDbEntity
  8
0
100
AcDbLine
 10
6.21693
 20
140.522
 30
0.0
 11
6.552
 21
137.7809999999999
 31
0.0
  0
LINE
  5
34D
330
1E
100
AcDbEntity
  8
0
100
AcDbLine
 10
6.21693
 20
140.522
 30
0.0
 11
6.242799999999999
 21
140.204
 31
0.0
  0
LINE
  5
351
330
1E
100
AcDbEntity
  8
0
100
AcDbLine
 10
5.47595
 20
151.387
 30
0.0
 11
6.187069999999999
 21
152.4779999999999
 31
0.0
  0
LINE
  5
352
330
1E
100
AcDbEntity
  8
0
100
AcDbLine
 10
6.28317
 20
152.5739999999999
 30
0.0
 11
6.477036127418379
 21
152.7235390274969
 31
0.0
  0
LINE
  5
353
330
1E
100
AcDbEntity
  8
0
100
AcDbLine
 10
6.187069999999999
 20
152.4779999999999
 30
0.0
 11
6.95586
 21
153.129
 31
0.0
  0
LINE
  5
354
330
1E
100
AcDbEntity
  8
0
100
AcDbLine
 10
6.95586
 20
153.129
 30
0.0
 11
8.070589999999999
 21
153.645
 31
0.0
  0
LINE
  5
355
330
1E
100
AcDbEntity
  8
0
100
AcDbLine
 10
8.070589999999999
 20
153.645
 30
0.0
 11
11.0
 21
154.0
 31
0.0
  0
LINE
  5
359
330
1E
100
AcDbEntity
  8
0
100
AcDbLine
 10
16.5241
 20
151.387
 30
0.0
 11
16.9084
 21
149.894
 31
0.0
  0
LINE
  5
35A
330
1E
100
AcDbEntity
  8
0
100
AcDbLine
 10
15.8129
 20
152.4779999999999
 30
0.0
 11
16.5241
 21
151.387
 31
0.0
  0
LINE
  5
35B
330
1E
100
AcDbEntity
  8
0
100
AcDbLine
 10
15.5229431034484
 20
152.723528017241
 30
0.0
 11
15.71679999999999
 21
152.5739999999999
 31
0.0
  0
LINE
  5
35C
330
1E
100
AcDbEntity
  8
0
100
AcDbLine
 10
15.0441
 20
153.129
 30
0.0
 11
15.8129
 21
152.4779999999999
 31
0.0
  0
LINE
  5
35D
330
1E
100
AcDbEntity
  8
0
100
AcDbLine
 10
13.9294
 20
153.645
 30
0.0
 11
15.0441
 21
153.129
 31
0.0
  0
LINE
  5
35E
330
1E
100
AcDbEntity
  8
0
100
AcDbLine
 10
11.0
 20
154.0
 30
0.0
 11
13.9294
 21
153.645
 31
0.0
  0
LINE
  5
35F
330
1E
100
AcDbEntity
  8
0
100
AcDbLine
 10
16.80679999999999
 20
148.132
 30
0.0
 11
16.8301498809703
 21
148.663889885695
 31
0.0
  0
LINE
  5
360
330
1E
100
AcDbEntity
  8
0
100
AcDbLine
 10
16.7883
 20
148.0059999999999
 30
0.0
 11
16.9084
 21
149.894
 31
0.0
  0
LINE
  5
361
330
1E
100
AcDbEntity
  8
0
100
AcDbLine
 10
16.8095240332412
 20
150.278131715771
 30
0.0
 11
16.88919999999999
 21
150.0089999999999
 31
0.0
  0
LINE
  5
362
330
1E
100
AcDbEntity
  8
0
100
AcDbLine
 10
16.7344231735058
 20
147.560646746527
 30
0.0
 11
16.80679999999999
 21
148.132
 31
0.0
  0
LINE
  5
363
330
1E
100
AcDbEntity
  8
0
100
AcDbLine
 10
16.7344231735058
 20
147.560646746527
 30
0.0
 11
16.7883
 21
148.0059999999999
 31
0.0
  0
LINE
  5
364
330
1E
100
AcDbEntity
  8
0
100
AcDbLine
 10
5.69038
 20
144.049
 30
0.0
 11
6.21693
 21
140.522
 31
0.0
  0
LINE
  5
365
330
1E
100
AcDbEntity
  8
0
100
AcDbLine
 10
5.69038
 20
144.049
 30
0.0
 11
5.95394708999811
 21
142.283543487944
 31
0.0
  0
LINE
  5
366
330
1E
100
AcDbEntity
  8
0
100
AcDbLine
 10
5.2117
 20
148.0059999999999
 30
0.0
 11
5.69038
 21
144.049
 31
0.0
  0
LINE
  5
367
330
1E
100
AcDbEntity
  8
0
100
AcDbLine
 10
5.2117
 20
148.0059999999999
 30
0.0
 11
5.2657388678024
 21
147.5592886272789
 31
0.0
  0
LINE
  5
368
330
1E
100
AcDbEntity
  8
0
100
AcDbLine
 10
38.0
 20
136.2729999999999
 30
0.0
 11
38.0
 21
135.1329999999999
 31
0.0
  0
LINE
  5
369
330
1E
100
AcDbEntity
  8
0
100
AcDbLine
 10
38.0
 20
136.2729999999999
 30
0.0
 11
38.0
 21
136.717
 31
0.0
  0
LINE
  5
36A
330
1E
100
AcDbEntity
  8
0
100
AcDbLine
 10
38.0
 20
136.717
 30
0.0
 11
38.38459999999999
 21
137.667
 31
0.0
  0
LINE
  5
36B
330
1E
100
AcDbEntity
  8
0
100
AcDbLine
 10
38.0
 20
136.717
 30
0.0
 11
38.0
 21
136.2729999999999
 31
0.0
  0
LINE
  5
36C
330
1E
100
AcDbEntity
  8
0
100
AcDbLine
 10
38.0
 20
133.2969999999999
 30
0.0
 11
38.0
 21
133.0
 31
0.0
  0
LINE
  5
36D
330
1E
100
AcDbEntity
  8
0
100
AcDbLine
 10
38.0
 20
133.2969999999999
 30
0.0
 11
38.0
 21
135.1329999999999
 31
0.0
  0
LINE
  5
36E
330
1E
100
AcDbEntity
  8
0
100
AcDbLine
 10
38.38459999999999
 20
125.0
 30
0.0
 11
38.38459999999999
 21
121.77
 31
0.0
  0
LINE
  5
36F
330
1E
100
AcDbEntity
  8
0
100
AcDbLine
 10
38.38459999999999
 20
125.0
 30
0.0
 11
38.38459999999999
 21
128.23
 31
0.0
  0
LINE
  5
370
330
1E
100
AcDbEntity
  8
0
100
AcDbLine
 10
38.38459999999999
 20
118.73
 30
0.0
 11
38.38459999999999
 21
121.77
 31
0.0
  0
LINE
  5
371
330
1E
100
AcDbEntity
  8
0
100
AcDbLine
 10
38.38459999999999
 20
118.73
 30
0.0
 11
38.38459999999999
 21
116.07
 31
0.0
  0
LINE
  5
372
330
1E
100
AcDbEntity
  8
0
100
AcDbLine
 10
39.5385
 20
118.54
 30
0.0
 11
39.5385
 21
115.817
 31
0.0
  0
LINE
  5
373
330
1E
100
AcDbEntity
  8
0
100
AcDbLine
 10
39.92309999999999
 20
120.5029999999999
 30
0.0
 11
39.92309999999999
 21
125.0
 31
0.0
  0
LINE
  5
374
330
1E
100
AcDbEntity
  8
0
100
AcDbLine
 10
39.92309999999999
 20
120.5029999999999
 30
0.0
 11
39.92309999999999
 21
116.3229999999999
 31
0.0
  0
LINE
  5
375
330
1E
100
AcDbEntity
  8
0
100
AcDbLine
 10
63.1538
 20
120.377
 30
0.0
 11
63.1538
 21
125.0
 31
0.0
  0
LINE
  5
376
330
1E
100
AcDbEntity
  8
0
100
AcDbLine
 10
63.1538
 20
120.377
 30
0.0
 11
63.1538
 21
116.007
 31
0.0
  0
LINE
  5
377
330
1E
100
AcDbEntity
  8
0
100
AcDbLine
 10
63.5385
 20
120.187
 30
0.0
 11
63.5385
 21
125.0
 31
0.0
  0
LINE
  5
378
330
1E
100
AcDbEntity
  8
0
100
AcDbLine
 10
63.5385
 20
120.187
 30
0.0
 11
63.5385
 21
115.69
 31
0.0
  0
LINE
  5
379
330
1E
100
AcDbEntity
  8
0
100
AcDbLine
 10
39.92309999999999
 20
125.0
 30
0.0
 11
39.92309999999999
 21
120.5029999999999
 31
0.0
  0
LINE
  5
37A
330
1E
100
AcDbEntity
  8
0
100
AcDbLine
 10
39.92309999999999
 20
125.0
 30
0.0
 11
39.92309999999999
 21
129.497
 31
0.0
  0
LINE
  5
37B
330
1E
100
AcDbEntity
  8
0
100
AcDbLine
 10
63.1538
 20
125.0
 30
0.0
 11
63.1538
 21
120.377
 31
0.0
  0
LINE
  5
37C
330
1E
100
AcDbEntity
  8
0
100
AcDbLine
 10
63.1538
 20
125.0
 30
0.0
 11
63.1538
 21
129.6229999999999
 31
0.0
  0
LINE
  5
37D
330
1E
100
AcDbEntity
  8
0
100
AcDbLine
 10
63.5385
 20
125.0
 30
0.0
 11
63.5385
 21
120.187
 31
0.0
  0
LINE
  5
37E
330
1E
100
AcDbEntity
  8
0
100
AcDbLine
 10
63.5385
 20
125.0
 30
0.0
 11
63.5385
 21
129.813
 31
0.0
  0
LINE
  5
37F
330
1E
100
AcDbEntity
  8
0
100
AcDbLine
 10
67.3846
 20
133.487
 30
0.0
 11
67.3846
 21
120.6299999999999
 31
0.0
  0
LINE
  5
380
330
1E
100
AcDbEntity
  8
0
100
AcDbLine
 10
67.3846
 20
120.6299999999999
 30
0.0
 11
67.3846
 21
133.487
 31
0.0
  0
LINE
  5
381
330
1E
100
AcDbEntity
  8
0
100
AcDbLine
 10
67.3846
 20
120.6299999999999
 30
0.0
 11
67.3846
 21
107.9
 31
0.0
  0
LINE
  5
382
330
1E
100
AcDbEntity
  8
0
100
AcDbLine
 10
39.5385
 20
121.6429999999999
 30
0.0
 11
39.5385
 21
118.54
 31
0.0
  0
LINE
  5
383
330
1E
100
AcDbEntity
  8
0
100
AcDbLine
 10
39.5385
 20
128.357
 30
0.0
 11
39.5385
 21
125.0
 31
0.0
  0
LINE
  5
384
330
1E
100
AcDbEntity
  8
0
100
AcDbLine
 10
38.38459999999999
 20
131.27
 30
0.0
 11
38.38459999999999
 21
133.93
 31
0.0
  0
LINE
  5
385
330
1E
100
AcDbEntity
  8
0
100
AcDbLine
 10
38.38459999999999
 20
133.93
 30
0.0
 11
38.38459999999999
 21
135.9569999999999
 31
0.0
  0
LINE
  5
386
330
1E
100
AcDbEntity
  8
0
100
AcDbLine
 10
38.38459999999999
 20
133.93
 30
0.0
 11
38.38459999999999
 21
131.27
 31
0.0
  0
LINE
  5
387
330
1E
100
AcDbEntity
  8
0
100
AcDbLine
 10
39.5385
 20
134.1829999999999
 30
0.0
 11
39.5385
 21
131.46
 31
0.0
  0
LINE
  5
388
330
1E
100
AcDbEntity
  8
0
100
AcDbLine
 10
39.5385
 20
131.46
 30
0.0
 11
39.5385
 21
128.357
 31
0.0
  0
LINE
  5
389
330
1E
100
AcDbEntity
  8
0
100
AcDbLine
 10
39.5385
 20
136.2729999999999
 30
0.0
 11
39.5385
 21
134.1829999999999
 31
0.0
  0
LINE
  5
38A
330
1E
100
AcDbEntity
  8
0
100
AcDbLine
 10
38.38459999999999
 20
135.9569999999999
 30
0.0
 11
38.38459999999999
 21
137.2229999999999
 31
0.0
  0
LINE
  5
38B
330
1E
100
AcDbEntity
  8
0
100
AcDbLine
 10
38.38459999999999
 20
135.9569999999999
 30
0.0
 11
38.38459999999999
 21
133.93
 31
0.0
  0
LINE
  5
38C
330
1E
100
AcDbEntity
  8
0
100
AcDbLine
 10
39.5385
 20
137.5399999999999
 30
0.0
 11
39.5385
 21
136.2729999999999
 31
0.0
  0
LINE
  5
38D
330
1E
100
AcDbEntity
  8
0
100
AcDbLine
 10
38.38459999999999
 20
137.2229999999999
 30
0.0
 11
38.38459999999999
 21
137.667
 31
0.0
  0
LINE
  5
38E
330
1E
100
AcDbEntity
  8
0
100
AcDbLine
 10
38.38459999999999
 20
137.2229999999999
 30
0.0
 11
38.38459999999999
 21
135.9569999999999
 31
0.0
  0
LINE
  5
38F
330
1E
100
AcDbEntity
  8
0
100
AcDbLine
 10
38.38459999999999
 20
137.667
 30
0.0
 11
39.5385
 21
137.983
 31
0.0
  0
LINE
  5
390
330
1E
100
AcDbEntity
  8
0
100
AcDbLine
 10
38.38459999999999
 20
137.667
 30
0.0
 11
38.38459999999999
 21
137.2229999999999
 31
0.0
  0
LINE
  5
391
330
1E
100
AcDbEntity
  8
0
100
AcDbLine
 10
39.5385
 20
137.983
 30
0.0
 11
39.5385
 21
137.5399999999999
 31
0.0
  0
LINE
  5
392
330
1E
100
AcDbEntity
  8
0
100
AcDbLine
 10
39.5385
 20
136.653
 30
0.0
 11
39.5385
 21
133.1699999999999
 31
0.0
  0
LINE
  5
393
330
1E
100
AcDbEntity
  8
0
100
AcDbLine
 10
39.5385
 20
136.653
 30
0.0
 11
39.5385
 21
139.25
 31
0.0
  0
LINE
  5
394
330
1E
100
AcDbEntity
  8
0
100
AcDbLine
 10
39.5385
 20
133.1699999999999
 30
0.0
 11
39.5385
 21
136.653
 31
0.0
  0
LINE
  5
395
330
1E
100
AcDbEntity
  8
0
100
AcDbLine
 10
39.5385
 20
133.1699999999999
 30
0.0
 11
39.5385
 21
129.2429999999999
 31
0.0
  0
LINE
  5
396
330
1E
100
AcDbEntity
  8
0
100
AcDbLine
 10
39.5385
 20
129.2429999999999
 30
0.0
 11
39.5385
 21
133.1699999999999
 31
0.0
  0
LINE
  5
397
330
1E
100
AcDbEntity
  8
0
100
AcDbLine
 10
39.5385
 20
139.25
 30
0.0
 11
39.5385
 21
140.897
 31
0.0
  0
LINE
  5
398
330
1E
100
AcDbEntity
  8
0
100
AcDbLine
 10
39.5385
 20
139.25
 30
0.0
 11
39.5385
 21
136.653
 31
0.0
  0
LINE
  5
399
330
1E
100
AcDbEntity
  8
0
100
AcDbLine
 10
39.5385
 20
140.897
 30
0.0
 11
39.5385
 21
139.25
 31
0.0
  0
LINE
  5
39A
330
1E
100
AcDbEntity
  8
0
100
AcDbLine
 10
39.5385
 20
140.897
 30
0.0
 11
39.5385
 21
141.467
 31
0.0
  0
LINE
  5
39B
330
1E
100
AcDbEntity
  8
0
100
AcDbLine
 10
39.92309999999999
 20
140.0729999999999
 30
0.0
 11
39.92309999999999
 21
141.7829999999999
 31
0.0
  0
LINE
  5
39C
330
1E
100
AcDbEntity
  8
0
100
AcDbLine
 10
39.92309999999999
 20
140.0729999999999
 30
0.0
 11
39.92309999999999
 21
137.287
 31
0.0
  0
LINE
  5
39D
330
1E
100
AcDbEntity
  8
0
100
AcDbLine
 10
39.92309999999999
 20
141.7829999999999
 30
0.0
 11
39.92309999999999
 21
142.4169999999999
 31
0.0
  0
LINE
  5
39E
330
1E
100
AcDbEntity
  8
0
100
AcDbLine
 10
39.92309999999999
 20
141.7829999999999
 30
0.0
 11
39.92309999999999
 21
140.0729999999999
 31
0.0
  0
LINE
  5
39F
330
1E
100
AcDbEntity
  8
0
100
AcDbLine
 10
39.92309999999999
 20
137.287
 30
0.0
 11
39.92309999999999
 21
133.677
 31
0.0
  0
LINE
  5
3A0
330
1E
100
AcDbEntity
  8
0
100
AcDbLine
 10
39.92309999999999
 20
137.287
 30
0.0
 11
39.92309999999999
 21
140.0729999999999
 31
0.0
  0
LINE
  5
3A1
330
1E
100
AcDbEntity
  8
0
100
AcDbLine
 10
39.92309999999999
 20
133.677
 30
0.0
 11
39.92309999999999
 21
137.287
 31
0.0
  0
LINE
  5
3A2
330
1E
100
AcDbEntity
  8
0
100
AcDbLine
 10
39.92309999999999
 20
133.677
 30
0.0
 11
39.92309999999999
 21
129.497
 31
0.0
  0
LINE
  5
3A3
330
1E
100
AcDbEntity
  8
0
100
AcDbLine
 10
39.92309999999999
 20
129.497
 30
0.0
 11
39.92309999999999
 21
133.677
 31
0.0
  0
LINE
  5
3A4
330
1E
100
AcDbEntity
  8
0
100
AcDbLine
 10
39.92309999999999
 20
129.497
 30
0.0
 11
39.92309999999999
 21
125.0
 31
0.0
  0
LINE
  5
3A5
330
1E
100
AcDbEntity
  8
0
100
AcDbLine
 10
39.5385
 20
141.467
 30
0.0
 11
39.92309999999999
 21
142.4169999999999
 31
0.0
  0
LINE
  5
3A6
330
1E
100
AcDbEntity
  8
0
100
AcDbLine
 10
39.5385
 20
141.467
 30
0.0
 11
39.5385
 21
140.897
 31
0.0
  0
LINE
  5
3A7
330
1E
100
AcDbEntity
  8
0
100
AcDbLine
 10
39.92309999999999
 20
142.4169999999999
 30
0.0
 11
41.0769
 21
142.7329999999999
 31
0.0
  0
LINE
  5
3A8
330
1E
100
AcDbEntity
  8
0
100
AcDbLine
 10
39.92309999999999
 20
142.4169999999999
 30
0.0
 11
39.92309999999999
 21
141.7829999999999
 31
0.0
  0
LINE
  5
3A9
330
1E
100
AcDbEntity
  8
0
100
AcDbLine
 10
63.1538
 20
140.643
 30
0.0
 11
63.1538
 21
142.4169999999999
 31
0.0
  0
LINE
  5
3AA
330
1E
100
AcDbEntity
  8
0
100
AcDbLine
 10
63.1538
 20
140.643
 30
0.0
 11
63.1538
 21
137.7299999999999
 31
0.0
  0
LINE
  5
3AB
330
1E
100
AcDbEntity
  8
0
100
AcDbLine
 10
63.1538
 20
142.4169999999999
 30
0.0
 11
63.1538
 21
143.05
 31
0.0
  0
LINE
  5
3AC
330
1E
100
AcDbEntity
  8
0
100
AcDbLine
 10
63.1538
 20
142.4169999999999
 30
0.0
 11
63.1538
 21
140.643
 31
0.0
  0
LINE
  5
3AD
330
1E
100
AcDbEntity
  8
0
100
AcDbLine
 10
63.1538
 20
137.7299999999999
 30
0.0
 11
63.1538
 21
133.993
 31
0.0
  0
LINE
  5
3AE
330
1E
100
AcDbEntity
  8
0
100
AcDbLine
 10
63.1538
 20
137.7299999999999
 30
0.0
 11
63.1538
 21
140.643
 31
0.0
  0
LINE
  5
3AF
330
1E
100
AcDbEntity
  8
0
100
AcDbLine
 10
63.1538
 20
133.993
 30
0.0
 11
63.1538
 21
137.7299999999999
 31
0.0
  0
LINE
  5
3B0
330
1E
100
AcDbEntity
  8
0
100
AcDbLine
 10
63.1538
 20
133.993
 30
0.0
 11
63.1538
 21
129.6229999999999
 31
0.0
  0
LINE
  5
3B1
330
1E
100
AcDbEntity
  8
0
100
AcDbLine
 10
63.1538
 20
129.6229999999999
 30
0.0
 11
63.1538
 21
133.993
 31
0.0
  0
LINE
  5
3B2
330
1E
100
AcDbEntity
  8
0
100
AcDbLine
 10
63.1538
 20
129.6229999999999
 30
0.0
 11
63.1538
 21
125.0
 31
0.0
  0
LINE
  5
3B3
330
1E
100
AcDbEntity
  8
0
100
AcDbLine
 10
41.0769
 20
142.7329999999999
 30
0.0
 11
62.0
 21
142.7329999999999
 31
0.0
  0
LINE
  5
3B4
330
1E
100
AcDbEntity
  8
0
100
AcDbLine
 10
62.0
 20
142.7329999999999
 30
0.0
 11
63.1538
 21
143.05
 31
0.0
  0
LINE
  5
3B5
330
1E
100
AcDbEntity
  8
0
100
AcDbLine
 10
63.5385
 20
129.813
 30
0.0
 11
63.5385
 21
134.3099999999999
 31
0.0
  0
LINE
  5
3B6
330
1E
100
AcDbEntity
  8
0
100
AcDbLine
 10
63.5385
 20
129.813
 30
0.0
 11
63.5385
 21
125.0
 31
0.0
  0
LINE
  5
3B7
330
1E
100
AcDbEntity
  8
0
100
AcDbLine
 10
63.5385
 20
141.15
 30
0.0
 11
63.5385
 21
142.987
 31
0.0
  0
LINE
  5
3B8
330
1E
100
AcDbEntity
  8
0
100
AcDbLine
 10
63.5385
 20
141.15
 30
0.0
 11
63.5385
 21
138.173
 31
0.0
  0
LINE
  5
3B9
330
1E
100
AcDbEntity
  8
0
100
AcDbLine
 10
63.5385
 20
142.987
 30
0.0
 11
63.5385
 21
143.683
 31
0.0
  0
LINE
  5
3BA
330
1E
100
AcDbEntity
  8
0
100
AcDbLine
 10
63.5385
 20
142.987
 30
0.0
 11
63.5385
 21
141.15
 31
0.0
  0
LINE
  5
3BB
330
1E
100
AcDbEntity
  8
0
100
AcDbLine
 10
67.3846
 20
138.3
 30
0.0
 11
72.3631436314363
 21
138.3
 31
0.0
  0
LINE
  5
3BC
330
1E
100
AcDbEntity
  8
0
100
AcDbLine
 10
67.3846
 20
139.8199999999999
 30
0.0
 11
67.3846
 21
137.0329999999999
 31
0.0
  0
LINE
  5
3BD
330
1E
100
AcDbEntity
  8
0
100
AcDbLine
 10
63.5385
 20
138.173
 30
0.0
 11
63.5385
 21
134.3099999999999
 31
0.0
  0
LINE
  5
3BE
330
1E
100
AcDbEntity
  8
0
100
AcDbLine
 10
63.5385
 20
138.173
 30
0.0
 11
63.5385
 21
141.15
 31
0.0
  0
LINE
  5
3BF
330
1E
100
AcDbEntity
  8
0
100
AcDbLine
 10
63.5385
 20
134.3099999999999
 30
0.0
 11
63.5385
 21
138.173
 31
0.0
  0
LINE
  5
3C0
330
1E
100
AcDbEntity
  8
0
100
AcDbLine
 10
63.5385
 20
134.3099999999999
 30
0.0
 11
63.5385
 21
129.813
 31
0.0
  0
LINE
  5
3C1
330
1E
100
AcDbEntity
  8
0
100
AcDbLine
 10
67.3846
 20
137.0329999999999
 30
0.0
 11
67.3846
 21
133.487
 31
0.0
  0
LINE
  5
3C2
330
1E
100
AcDbEntity
  8
0
100
AcDbLine
 10
67.3846
 20
137.0329999999999
 30
0.0
 11
67.3846
 21
141.467
 31
0.0
  0
LINE
  5
3C3
330
1E
100
AcDbEntity
  8
0
100
AcDbLine
 10
67.3846
 20
133.487
 30
0.0
 11
67.3846
 21
137.0329999999999
 31
0.0
  0
LINE
  5
3C4
330
1E
100
AcDbEntity
  8
0
100
AcDbLine
 10
63.1538
 20
143.05
 30
0.0
 11
63.5385
 21
143.683
 31
0.0
  0
LINE
  5
3C5
330
1E
100
AcDbEntity
  8
0
100
AcDbLine
 10
63.1538
 20
143.05
 30
0.0
 11
63.1538
 21
142.4169999999999
 31
0.0
  0
LINE
  5
3C6
330
1E
100
AcDbEntity
  8
0
100
AcDbLine
 10
63.5385
 20
143.683
 30
0.0
 11
64.6923
 21
144.0
 31
0.0
  0
LINE
  5
3C7
330
1E
100
AcDbEntity
  8
0
100
AcDbLine
 10
63.5385
 20
143.683
 30
0.0
 11
63.5385
 21
142.987
 31
0.0
  0
LINE
  5
3C8
330
1E
100
AcDbEntity
  8
0
100
AcDbLine
 10
64.6923
 20
144.0
 30
0.0
 11
65.0769
 21
144.0
 31
0.0
  0
LINE
  5
3C9
330
1E
100
AcDbEntity
  8
0
100
AcDbLine
 10
65.0769
 20
144.0
 30
0.0
 11
66.2308
 21
143.683
 31
0.0
  0
LINE
  5
3CA
330
1E
100
AcDbEntity
  8
0
100
AcDbLine
 10
66.2308
 20
143.683
 30
0.0
 11
67.0
 21
143.05
 31
0.0
  0
LINE
  5
3CB
330
1E
100
AcDbEntity
  8
0
100
AcDbLine
 10
67.0
 20
143.05
 30
0.0
 11
67.3846
 21
142.1
 31
0.0
  0
LINE
  5
3CC
330
1E
100
AcDbEntity
  8
0
100
AcDbLine
 10
67.3846
 20
141.467
 30
0.0
 11
67.3846
 21
142.1
 31
0.0
  0
LINE
  5
3CD
330
1E
100
AcDbEntity
  8
0
100
AcDbLine
 10
39.5385
 20
125.0
 30
0.0
 11
39.5385
 21
121.6429999999999
 31
0.0
  0
LINE
  5
3CE
330
1E
100
AcDbEntity
  8
0
100
AcDbLine
 10
38.38459999999999
 20
121.77
 30
0.0
 11
38.38459999999999
 21
125.0
 31
0.0
  0
LINE
  5
3CF
330
1E
100
AcDbEntity
  8
0
100
AcDbLine
 10
38.38459999999999
 20
121.77
 30
0.0
 11
38.38459999999999
 21
118.73
 31
0.0
  0
LINE
  5
3D0
330
1E
100
AcDbEntity
  8
0
100
AcDbLine
 10
38.0
 20
117.0
 30
0.0
 11
38.0
 21
116.703
 31
0.0
  0
LINE
  5
3D1
330
1E
100
AcDbEntity
  8
0
100
AcDbLine
 10
38.0
 20
117.0
 30
0.0
 11
38.0
 21
117.2879999999999
 31
0.0
  0
LINE
  5
3D2
330
1E
100
AcDbEntity
  8
0
100
AcDbLine
 10
72.35033557046979
 20
138.3
 30
0.0
 11
73.0
 21
162.5
 31
0.0
  0
LINE
  5
3D3
330
1E
100
AcDbEntity
  8
0
100
AcDbLine
 10
71.0
 20
88.0
 30
0.0
 11
71.4295302013423
 21
72.0
 31
0.0
  0
LINE
  5
3D4
330
1E
100
AcDbEntity
  8
0
100
AcDbLine
 10
71.0
 20
88.0
 30
0.0
 11
71.6362416107383
 21
111.6999999999999
 31
0.0
  0
LINE
  5
3D5
330
1E
100
AcDbEntity
  8
0
100
AcDbLine
 10
73.0
 20
162.5
 30
0.0
 11
73.5
 21
164.0
 31
0.0
  0
LINE
  5
3D6
330
1E
100
AcDbEntity
  8
0
100
AcDbLine
 10
72.5570469798658
 20
30.0
 30
0.0
 11
73.0
 21
13.5
 31
0.0
  0
LINE
  5
3D7
330
1E
100
AcDbEntity
  8
0
100
AcDbLine
 10
73.0
 20
13.5
 30
0.0
 11
73.5
 21
12.0
 31
0.0
  0
LINE
  5
3D8
330
1E
100
AcDbEntity
  8
0
100
AcDbLine
 10
73.5
 20
164.0
 30
0.0
 11
74.5
 21
165.0
 31
0.0
  0
LINE
  5
3D9
330
1E
100
AcDbEntity
  8
0
100
AcDbLine
 10
74.5
 20
165.0
 30
0.0
 11
76.0
 21
165.5
 31
0.0
  0
LINE
  5
3DA
330
1E
100
AcDbEntity
  8
0
100
AcDbLine
 10
73.5
 20
12.0
 30
0.0
 11
74.5
 21
11.0
 31
0.0
  0
LINE
  5
3DB
330
1E
100
AcDbEntity
  8
0
100
AcDbLine
 10
74.5
 20
11.0
 30
0.0
 11
76.0
 21
10.5
 31
0.0
  0
LINE
  5
3DC
330
1E
100
AcDbEntity
  8
0
100
AcDbLine
 10
76.0
 20
165.5
 30
0.0
 11
77.0
 21
166.0
 31
0.0
  0
LINE
  5
3DD
330
1E
100
AcDbEntity
  8
0
100
AcDbLine
 10
77.0
 20
20.4
 30
0.0
 11
77.0
 21
16.1
 31
0.0
  0
LINE
  5
3DE
330
1E
100
AcDbEntity
  8
0
100
AcDbLine
 10
77.0
 20
20.4
 30
0.0
 11
77.0
 21
26.2
 31
0.0
  0
LINE
  5
3DF
330
1E
100
AcDbEntity
  8
0
100
AcDbLine
 10
77.0
 20
16.1
 30
0.0
 11
77.0
 21
12.8
 31
0.0
  0
LINE
  5
3E0
330
1E
100
AcDbEntity
  8
0
100
AcDbLine
 10
77.0
 20
16.1
 30
0.0
 11
77.0
 21
20.4
 31
0.0
  0
LINE
  5
3E1
330
1E
100
AcDbEntity
  8
0
100
AcDbLine
 10
77.0
 20
26.2
 30
0.0
 11
77.0
 21
32.9
 31
0.0
  0
LINE
  5
3E2
330
1E
100
AcDbEntity
  8
0
100
AcDbLine
 10
77.0
 20
40.6
 30
0.0
 11
77.0
 21
32.9
 31
0.0
  0
LINE
  5
3E3
330
1E
100
AcDbEntity
  8
0
100
AcDbLine
 10
77.0
 20
40.6
 30
0.0
 11
77.0
 21
49.2
 31
0.0
  0
LINE
  5
3E4
330
1E
100
AcDbEntity
  8
0
100
AcDbLine
 10
77.0
 20
49.2
 30
0.0
 11
77.0
 21
40.6
 31
0.0
  0
LINE
  5
3E5
330
1E
100
AcDbEntity
  8
0
100
AcDbLine
 10
77.0
 20
49.2
 30
0.0
 11
77.0
 21
58.2
 31
0.0
  0
LINE
  5
3E6
330
1E
100
AcDbEntity
  8
0
100
AcDbLine
 10
77.0
 20
58.2
 30
0.0
 11
77.0
 21
49.2
 31
0.0
  0
LINE
  5
3E7
330
1E
100
AcDbEntity
  8
0
100
AcDbLine
 10
77.0
 20
58.2
 30
0.0
 11
77.0
 21
67.9
 31
0.0
  0
LINE
  5
3E8
330
1E
100
AcDbEntity
  8
0
100
AcDbLine
 10
77.0
 20
67.9
 30
0.0
 11
77.0
 21
58.2
 31
0.0
  0
LINE
  5
3E9
330
1E
100
AcDbEntity
  8
0
100
AcDbLine
 10
77.0
 20
67.9
 30
0.0
 11
77.0
 21
77.9
 31
0.0
  0
LINE
  5
3EA
330
1E
100
AcDbEntity
  8
0
100
AcDbLine
 10
77.0
 20
149.8
 30
0.0
 11
77.0
 21
143.1
 31
0.0
  0
LINE
  5
3EB
330
1E
100
AcDbEntity
  8
0
100
AcDbLine
 10
77.0
 20
149.8
 30
0.0
 11
77.0
 21
155.6
 31
0.0
  0
LINE
  5
3EC
330
1E
100
AcDbEntity
  8
0
100
AcDbLine
 10
77.0
 20
155.6
 30
0.0
 11
77.0
 21
149.8
 31
0.0
  0
LINE
  5
3ED
330
1E
100
AcDbEntity
  8
0
100
AcDbLine
 10
77.0
 20
155.6
 30
0.0
 11
77.0
 21
159.9
 31
0.0
  0
LINE
  5
3EE
330
1E
100
AcDbEntity
  8
0
100
AcDbLine
 10
77.0
 20
159.9
 30
0.0
 11
77.0
 21
155.6
 31
0.0
  0
LINE
  5
3EF
330
1E
100
AcDbEntity
  8
0
100
AcDbLine
 10
77.0
 20
159.9
 30
0.0
 11
77.0
 21
163.1999999999999
 31
0.0
  0
LINE
  5
3F0
330
1E
100
AcDbEntity
  8
0
100
AcDbLine
 10
77.0
 20
163.1999999999999
 30
0.0
 11
77.0
 21
159.9
 31
0.0
  0
LINE
  5
3F1
330
1E
100
AcDbEntity
  8
0
100
AcDbLine
 10
77.0
 20
163.1999999999999
 30
0.0
 11
77.0
 21
165.1999999999999
 31
0.0
  0
LINE
  5
3F2
330
1E
100
AcDbEntity
  8
0
100
AcDbLine
 10
77.0
 20
165.1999999999999
 30
0.0
 11
77.0
 21
163.1999999999999
 31
0.0
  0
LINE
  5
3F3
330
1E
100
AcDbEntity
  8
0
100
AcDbLine
 10
77.0
 20
165.1999999999999
 30
0.0
 11
77.0
 21
166.0
 31
0.0
  0
LINE
  5
3F4
330
1E
100
AcDbEntity
  8
0
100
AcDbLine
 10
77.0
 20
143.1
 30
0.0
 11
77.0
 21
135.4
 31
0.0
  0
LINE
  5
3F5
330
1E
100
AcDbEntity
  8
0
100
AcDbLine
 10
77.0
 20
143.1
 30
0.0
 11
77.0
 21
149.8
 31
0.0
  0
LINE
  5
3F6
330
1E
100
AcDbEntity
  8
0
100
AcDbLine
 10
77.0
 20
135.4
 30
0.0
 11
77.0
 21
126.8
 31
0.0
  0
LINE
  5
3F7
330
1E
100
AcDbEntity
  8
0
100
AcDbLine
 10
77.0
 20
135.4
 30
0.0
 11
77.0
 21
143.1
 31
0.0
  0
LINE
  5
3F8
330
1E
100
AcDbEntity
  8
0
100
AcDbLine
 10
77.0
 20
126.8
 30
0.0
 11
77.0
 21
117.7999999999999
 31
0.0
  0
LINE
  5
3F9
330
1E
100
AcDbEntity
  8
0
100
AcDbLine
 10
77.0
 20
126.8
 30
0.0
 11
77.0
 21
135.4
 31
0.0
  0
LINE
  5
3FA
330
1E
100
AcDbEntity
  8
0
100
AcDbLine
 10
77.0
 20
117.7999999999999
 30
0.0
 11
77.0
 21
108.0999999999999
 31
0.0
  0
LINE
  5
3FB
330
1E
100
AcDbEntity
  8
0
100
AcDbLine
 10
77.0
 20
117.7999999999999
 30
0.0
 11
77.0
 21
126.8
 31
0.0
  0
LINE
  5
3FC
330
1E
100
AcDbEntity
  8
0
100
AcDbLine
 10
77.0
 20
108.0999999999999
 30
0.0
 11
77.0
 21
98.1
 31
0.0
  0
LINE
  5
3FD
330
1E
100
AcDbEntity
  8
0
100
AcDbLine
 10
77.0
 20
108.0999999999999
 30
0.0
 11
77.0
 21
117.7999999999999
 31
0.0
  0
LINE
  5
3FE
330
1E
100
AcDbEntity
  8
0
100
AcDbLine
 10
77.0
 20
98.1
 30
0.0
 11
77.0
 21
88.0
 31
0.0
  0
LINE
  5
3FF
330
1E
100
AcDbEntity
  8
0
100
AcDbLine
 10
77.0
 20
98.1
 30
0.0
 11
77.0
 21
108.0999999999999
 31
0.0
  0
LINE
  5
400
330
1E
100
AcDbEntity
  8
0
100
AcDbLine
 10
77.0
 20
166.0
 30
0.0
 11
78.0
 21
168.0
 31
0.0
  0
LINE
  5
401
330
1E
100
AcDbEntity
  8
0
100
AcDbLine
 10
77.0
 20
166.0
 30
0.0
 11
77.0
 21
165.1999999999999
 31
0.0
  0
LINE
  5
402
330
1E
100
AcDbEntity
  8
0
100
AcDbLine
 10
77.0
 20
77.9
 30
0.0
 11
77.0
 21
67.9
 31
0.0
  0
LINE
  5
403
330
1E
100
AcDbEntity
  8
0
100
AcDbLine
 10
77.0
 20
77.9
 30
0.0
 11
77.0
 21
88.0
 31
0.0
  0
LINE
  5
404
330
1E
100
AcDbEntity
  8
0
100
AcDbLine
 10
77.0
 20
88.0
 30
0.0
 11
77.0
 21
77.9
 31
0.0
  0
LINE
  5
405
330
1E
100
AcDbEntity
  8
0
100
AcDbLine
 10
77.0
 20
88.0
 30
0.0
 11
77.0
 21
98.1
 31
0.0
  0
LINE
  5
406
330
1E
100
AcDbEntity
  8
0
100
AcDbLine
 10
77.0
 20
32.9
 30
0.0
 11
77.0
 21
26.2
 31
0.0
  0
LINE
  5
407
330
1E
100
AcDbEntity
  8
0
100
AcDbLine
 10
77.0
 20
32.9
 30
0.0
 11
77.0
 21
40.6
 31
0.0
  0
LINE
  5
408
330
1E
100
AcDbEntity
  8
0
100
AcDbLine
 10
77.0
 20
12.8
 30
0.0
 11
77.0
 21
10.8
 31
0.0
  0
LINE
  5
409
330
1E
100
AcDbEntity
  8
0
100
AcDbLine
 10
77.0
 20
12.8
 30
0.0
 11
77.0
 21
16.1
 31
0.0
  0
LINE
  5
40A
330
1E
100
AcDbEntity
  8
0
100
AcDbLine
 10
77.0
 20
10.8
 30
0.0
 11
77.0
 21
9.999999999999991
 31
0.0
  0
LINE
  5
40B
330
1E
100
AcDbEntity
  8
0
100
AcDbLine
 10
77.0
 20
10.8
 30
0.0
 11
77.0
 21
12.8
 31
0.0
  0
LINE
  5
40C
330
1E
100
AcDbEntity
  8
0
100
AcDbLine
 10
76.0
 20
10.5
 30
0.0
 11
77.0
 21
9.999999999999991
 31
0.0
  0
LINE
  5
40D
330
1E
100
AcDbEntity
  8
0
100
AcDbLine
 10
77.0
 20
9.999999999999991
 30
0.0
 11
78.0
 21
7.99999999999999
 31
0.0
  0
LINE
  5
40E
330
1E
100
AcDbEntity
  8
0
100
AcDbLine
 10
77.0
 20
9.999999999999991
 30
0.0
 11
77.0
 21
10.8
 31
0.0
  0
LINE
  5
40F
330
1E
100
AcDbEntity
  8
0
100
AcDbLine
 10
78.0
 20
168.0
 30
0.0
 11
79.0
 21
172.0
 31
0.0
  0
LINE
  5
410
330
1E
100
AcDbEntity
  8
0
100
AcDbLine
 10
79.0
 20
172.0
 30
0.0
 11
82.0
 21
175.0
 31
0.0
  0
LINE
  5
411
330
1E
100
AcDbEntity
  8
0
100
AcDbLine
 10
78.0
 20
7.99999999999999
 30
0.0
 11
79.0
 21
3.99999999999999
 31
0.0
  0
LINE
  5
412
330
1E
100
AcDbEntity
  8
0
100
AcDbLine
 10
79.0
 20
3.99999999999999
 30
0.0
 11
82.0
 21
0.9999999999999928
 31
0.0
  0
LINE
  5
413
330
1E
100
AcDbEntity
  8
0
100
AcDbLine
 10
79.0
 20
3.99999999999999
 30
0.0
 11
82.0
 21
0.9999999999999921
 31
0.0
  0
LINE
  5
414
330
1E
100
AcDbEntity
  8
0
100
AcDbLine
 10
82.0
 20
175.0
 30
0.0
 11
86.0
 21
176.0
 31
0.0
  0
LINE
  5
415
330
1E
100
AcDbEntity
  8
0
100
AcDbLine
 10
86.0
 20
176.0
 30
0.0
 11
88.0
 21
176.0
 31
0.0
  0
LINE
  5
416
330
1E
100
AcDbEntity
  8
0
100
AcDbLine
 10
88.0
 20
6.89999999999999
 30
0.0
 11
88.0
 21
3.19999999999999
 31
0.0
  0
LINE
  5
417
330
1E
100
AcDbEntity
  8
0
100
AcDbLine
 10
88.0
 20
6.89999999999999
 30
0.0
 11
88.0
 21
11.8
 31
0.0
  0
LINE
  5
418
330
1E
100
AcDbEntity
  8
0
100
AcDbLine
 10
88.0
 20
3.19999999999999
 30
0.0
 11
88.0
 21
0.8999999999999921
 31
0.0
  0
LINE
  5
419
330
1E
100
AcDbEntity
  8
0
100
AcDbLine
 10
88.0
 20
3.19999999999999
 30
0.0
 11
88.0
 21
6.89999999999999
 31
0.0
  0
LINE
  5
41A
330
1E
100
AcDbEntity
  8
0
100
AcDbLine
 10
88.0
 20
0.8999999999999921
 30
0.0
 11
88.0
 21
-0.0000000000000078
 31
0.0
  0
LINE
  5
41B
330
1E
100
AcDbEntity
  8
0
100
AcDbLine
 10
88.0
 20
0.8999999999999921
 30
0.0
 11
88.0
 21
3.19999999999999
 31
0.0
  0
LINE
  5
41C
330
1E
100
AcDbEntity
  8
0
100
AcDbLine
 10
82.0
 20
0.9999999999999928
 30
0.0
 11
86.0
 21
-0.0000000000000077
 31
0.0
  0
LINE
  5
41D
330
1E
100
AcDbEntity
  8
0
100
AcDbLine
 10
82.0
 20
0.9999999999999928
 30
0.0
 11
86.0
 21
-0.0000000000000076
 31
0.0
  0
LINE
  5
41E
330
1E
100
AcDbEntity
  8
0
100
AcDbLine
 10
86.0
 20
-0.0000000000000077
 30
0.0
 11
88.0
 21
-0.0000000000000078
 31
0.0
  0
LINE
  5
41F
330
1E
100
AcDbEntity
  8
0
100
AcDbLine
 10
88.0
 20
18.3
 30
0.0
 11
88.0
 21
25.89999999999999
 31
0.0
  0
LINE
  5
420
330
1E
100
AcDbEntity
  8
0
100
AcDbLine
 10
88.0
 20
34.5
 30
0.0
 11
88.0
 21
25.89999999999999
 31
0.0
  0
LINE
  5
421
330
1E
100
AcDbEntity
  8
0
100
AcDbLine
 10
88.0
 20
34.5
 30
0.0
 11
88.0
 21
44.2
 31
0.0
  0
LINE
  5
422
330
1E
100
AcDbEntity
  8
0
100
AcDbLine
 10
88.0
 20
44.2
 30
0.0
 11
88.0
 21
34.5
 31
0.0
  0
LINE
  5
423
330
1E
100
AcDbEntity
  8
0
100
AcDbLine
 10
88.0
 20
44.2
 30
0.0
 11
88.0
 21
54.4
 31
0.0
  0
LINE
  5
424
330
1E
100
AcDbEntity
  8
0
100
AcDbLine
 10
88.0
 20
54.4
 30
0.0
 11
88.0
 21
44.2
 31
0.0
  0
LINE
  5
425
330
1E
100
AcDbEntity
  8
0
100
AcDbLine
 10
88.0
 20
54.4
 30
0.0
 11
88.0
 21
65.3
 31
0.0
  0
LINE
  5
426
330
1E
100
AcDbEntity
  8
0
100
AcDbLine
 10
88.0
 20
65.3
 30
0.0
 11
88.0
 21
54.4
 31
0.0
  0
LINE
  5
427
330
1E
100
AcDbEntity
  8
0
100
AcDbLine
 10
88.0
 20
65.3
 30
0.0
 11
88.0
 21
76.5
 31
0.0
  0
LINE
  5
428
330
1E
100
AcDbEntity
  8
0
100
AcDbLine
 10
88.0
 20
157.6999999999999
 30
0.0
 11
88.0
 21
150.0999999999999
 31
0.0
  0
LINE
  5
429
330
1E
100
AcDbEntity
  8
0
100
AcDbLine
 10
88.0
 20
157.6999999999999
 30
0.0
 11
88.0
 21
164.1999999999999
 31
0.0
  0
LINE
  5
42A
330
1E
100
AcDbEntity
  8
0
100
AcDbLine
 10
88.0
 20
164.1999999999999
 30
0.0
 11
88.0
 21
157.6999999999999
 31
0.0
  0
LINE
  5
42B
330
1E
100
AcDbEntity
  8
0
100
AcDbLine
 10
88.0
 20
164.1999999999999
 30
0.0
 11
88.0
 21
169.1
 31
0.0
  0
LINE
  5
42C
330
1E
100
AcDbEntity
  8
0
100
AcDbLine
 10
88.0
 20
169.1
 30
0.0
 11
88.0
 21
164.1999999999999
 31
0.0
  0
LINE
  5
42D
330
1E
100
AcDbEntity
  8
0
100
AcDbLine
 10
88.0
 20
169.1
 30
0.0
 11
88.0
 21
172.8
 31
0.0
  0
LINE
  5
42E
330
1E
100
AcDbEntity
  8
0
100
AcDbLine
 10
88.0
 20
172.8
 30
0.0
 11
88.0
 21
169.1
 31
0.0
  0
LINE
  5
42F
330
1E
100
AcDbEntity
  8
0
100
AcDbLine
 10
88.0
 20
172.8
 30
0.0
 11
88.0
 21
175.0999999999999
 31
0.0
  0
LINE
  5
430
330
1E
100
AcDbEntity
  8
0
100
AcDbLine
 10
88.0
 20
175.0999999999999
 30
0.0
 11
88.0
 21
172.8
 31
0.0
  0
LINE
  5
431
330
1E
100
AcDbEntity
  8
0
100
AcDbLine
 10
88.0
 20
175.0999999999999
 30
0.0
 11
88.0
 21
176.0
 31
0.0
  0
LINE
  5
432
330
1E
100
AcDbEntity
  8
0
100
AcDbLine
 10
88.0
 20
176.0
 30
0.0
 11
88.0
 21
175.0999999999999
 31
0.0
  0
LINE
  5
433
330
1E
100
AcDbEntity
  8
0
100
AcDbLine
 10
88.0
 20
150.0999999999999
 30
0.0
 11
88.0
 21
141.5
 31
0.0
  0
LINE
  5
434
330
1E
100
AcDbEntity
  8
0
100
AcDbLine
 10
88.0
 20
150.0999999999999
 30
0.0
 11
88.0
 21
157.6999999999999
 31
0.0
  0
LINE
  5
435
330
1E
100
AcDbEntity
  8
0
100
AcDbLine
 10
88.0
 20
141.5
 30
0.0
 11
88.0
 21
131.8
 31
0.0
  0
LINE
  5
436
330
1E
100
AcDbEntity
  8
0
100
AcDbLine
 10
88.0
 20
141.5
 30
0.0
 11
88.0
 21
150.0999999999999
 31
0.0
  0
LINE
  5
437
330
1E
100
AcDbEntity
  8
0
100
AcDbLine
 10
88.0
 20
131.8
 30
0.0
 11
88.0
 21
121.5999999999999
 31
0.0
  0
LINE
  5
438
330
1E
100
AcDbEntity
  8
0
100
AcDbLine
 10
88.0
 20
131.8
 30
0.0
 11
88.0
 21
141.5
 31
0.0
  0
LINE
  5
439
330
1E
100
AcDbEntity
  8
0
100
AcDbLine
 10
88.0
 20
121.5999999999999
 30
0.0
 11
88.0
 21
110.6999999999999
 31
0.0
  0
LINE
  5
43A
330
1E
100
AcDbEntity
  8
0
100
AcDbLine
 10
88.0
 20
121.5999999999999
 30
0.0
 11
88.0
 21
131.8
 31
0.0
  0
LINE
  5
43B
330
1E
100
AcDbEntity
  8
0
100
AcDbLine
 10
88.0
 20
110.6999999999999
 30
0.0
 11
88.0
 21
99.50000000000001
 31
0.0
  0
LINE
  5
43C
330
1E
100
AcDbEntity
  8
0
100
AcDbLine
 10
88.0
 20
110.6999999999999
 30
0.0
 11
88.0
 21
121.5999999999999
 31
0.0
  0
LINE
  5
43D
330
1E
100
AcDbEntity
  8
0
100
AcDbLine
 10
88.0
 20
99.50000000000001
 30
0.0
 11
88.0
 21
88.0
 31
0.0
  0
LINE
  5
43E
330
1E
100
AcDbEntity
  8
0
100
AcDbLine
 10
88.0
 20
99.50000000000001
 30
0.0
 11
88.0
 21
110.6999999999999
 31
0.0
  0
LINE
  5
43F
330
1E
100
AcDbEntity
  8
0
100
AcDbLine
 10
88.0
 20
76.5
 30
0.0
 11
88.0
 21
65.3
 31
0.0
  0
LINE
  5
440
330
1E
100
AcDbEntity
  8
0
100
AcDbLine
 10
88.0
 20
76.5
 30
0.0
 11
88.0
 21
88.0
 31
0.0
  0
LINE
  5
441
330
1E
100
AcDbEntity
  8
0
100
AcDbLine
 10
88.0
 20
88.0
 30
0.0
 11
88.0
 21
76.5
 31
0.0
  0
LINE
  5
442
330
1E
100
AcDbEntity
  8
0
100
AcDbLine
 10
88.0
 20
88.0
 30
0.0
 11
88.0
 21
99.50000000000001
 31
0.0
  0
LINE
  5
443
330
1E
100
AcDbEntity
  8
0
100
AcDbLine
 10
88.0
 20
25.89999999999999
 30
0.0
 11
88.0
 21
18.3
 31
0.0
  0
LINE
  5
444
330
1E
100
AcDbEntity
  8
0
100
AcDbLine
 10
88.0
 20
25.89999999999999
 30
0.0
 11
88.0
 21
34.5
 31
0.0
  0
LINE
  5
445
330
1E
100
AcDbEntity
  8
0
100
AcDbLine
 10
88.0
 20
11.8
 30
0.0
 11
88.0
 21
18.3
 31
0.0
  0
LINE
  5
446
330
1E
100
AcDbEntity
  8
0
100
AcDbLine
 10
88.0
 20
11.8
 30
0.0
 11
88.0
 21
6.89999999999999
 31
0.0
  0
LINE
  5
44B
330
1E
100
AcDbEntity
  8
0
100
AcDbLine
 10
72.3631436314363
 20
138.3
 30
0.0
 11
71.64227642276421
 21
111.6999999999999
 31
0.0
  0
LINE
  5
44C
330
1E
100
AcDbEntity
  8
0
100
AcDbLine
 10
71.4295302013423
 20
72.0
 30
0.0
 11
72.5570469798658
 21
30.0
 31
0.0
  0
ENDSEC
  0
SECTION
  2
OBJECTS
  0
DICTIONARY
  5
C
330
0
100
AcDbDictionary
281
     1
  3
ACAD_GROUP
350
D
  3
ACAD_LAYOUT
350
19
  3
ACAD_MLINESTYLE
350
16
  3
ACAD_PLOTSETTINGS
350
18
  3
ACAD_PLOTSTYLENAME
350
E
  3
AcDbVariableDictionary
350
44D
  0
DICTIONARY
  5
D
102
{ACAD_REACTORS
330
C
102
}
330
C
100
AcDbDictionary
281
     1
  0
DICTIONARY
  5
19
102
{ACAD_REACTORS
330
C
102
}
330
C
100
AcDbDictionary
281
     1
  3
Layout1
350
1D
  3
Model
350
21
  0
DICTIONARY
  5
16
102
{ACAD_REACTORS
330
C
102
}
330
C
100
AcDbDictionary
281
     1
  3
Standard
350
17
  0
DICTIONARY
  5
18
102
{ACAD_REACTORS
330
C
102
}
330
C
100
AcDbDictionary
281
     1
  0
ACDBDICTIONARYWDFLT
  5
E
102
{ACAD_REACTORS
330
C
102
}
330
C
100
AcDbDictionary
281
     1
  3
Normal
350
F
100
AcDbDictionaryWithDefault
340
F
  0
DICTIONARY
  5
44D
102
{ACAD_REACTORS
330
C
102
}
330
C
100
AcDbDictionary
281
     1
  3
DIMASSOC
350
44E
  0
LAYOUT
  5
1D
102
{ACAD_REACTORS
330
19
102
}
330
19
100
AcDbPlotSettings
  1

  2
hp deskjet 980c series
  4

  6

 40
0.0
 41
0.0
 42
0.0
 43
0.0
 44
0.0
 45
0.0
 46
0.0
 47
0.0
 48
0.0
 49
0.0
140
0.0
141
0.0
142
1.0
143
1.0
 70
   688
 72
     0
 73
     0
 74
     5
  7

 75
    16
147
1.0
148
0.0
149
0.0
100
AcDbLayout
  1
Layout1
 70
     1
 71
     1
 10
0.0
 20
0.0
 11
12.0
 21
9.0
 12
0.0
 22
0.0
 32
0.0
 14
1.000000000000000E+20
 24
1.000000000000000E+20
 34
1.000000000000000E+20
 15
-1.000000000000000E+20
 25
-1.000000000000000E+20
 35
-1.000000000000000E+20
146
0.0
 13
0.0
 23
0.0
 33
0.0
 16
1.0
 26
0.0
 36
0.0
 17
0.0
 27
1.0
 37
0.0
 76
     0
330
1A
  0
LAYOUT
  5
21
102
{ACAD_REACTORS
330
19
102
}
330
19
100
AcDbPlotSettings
  1

  2
hp deskjet 980c series
  4

  6

 40
0.0
 41
0.0
 42
0.0
 43
0.0
 44
0.0
 45
0.0
 46
0.0
 47
0.0
 48
0.0
 49
0.0
140
0.0
141
0.0
142
1.0
143
1.0
 70
  1712
 72
     0
 73
     0
 74
     0
  7

 75
     0
147
1.0
148
0.0
149
0.0
100
AcDbLayout
  1
Model
 70
     1
 71
     0
 10
0.0
 20
0.0
 11
12.0
 21
9.0
 12
0.0
 22
0.0
 32
0.0
 14
0.0
 24
0.0
 34
0.0
 15
0.0
 25
0.0
 35
0.0
146
0.0
 13
0.0
 23
0.0
 33
0.0
 16
1.0
 26
0.0
 36
0.0
 17
0.0
 27
1.0
 37
0.0
 76
     0
330
1E
  0
MLINESTYLE
  5
17
102
{ACAD_REACTORS
330
16
102
}
330
16
100
AcDbMlineStyle
  2
STANDARD
 70
     0
  3

 62
   256
 51
90.0
 52
90.0
 71
     2
 49
0.5
 62
   256
  6
BYLAYER
 49
-0.5
 62
   256
  6
BYLAYER
  0
ACDBPLACEHOLDER
  5
F
102
{ACAD_REACTORS
330
E
102
}
330
E
  0
DICTIONARYVAR
  5
44E
102
{ACAD_REACTORS
330
44D
102
}
330
44D
100
DictionaryVariables
280
     0
  1
1
  0
ENDSEC
  0
EOF
