  0
SECTION
  2
HEADER
  9
$ACADVER
  1
AC1015
  9
$ACADMAINTVER
 70
    13
  9
$DWGCODEPAGE
  3
ANSI_1252
  9
$INSBASE
 10
0.0
 20
0.0
 30
0.0
  9
$EXTMIN
 10
0.0000000000000338
 20
0.220000000000034
 30
0.0
  9
$EXTMAX
 10
196.0
 20
902.7799999999999
 30
0.0
  9
$LIMMIN
 10
0.0
 20
0.0
  9
$LIMMAX
 10
12.0
 20
9.0
  9
$ORTHOMODE
 70
     0
  9
$REGENMODE
 70
     1
  9
$FILLMODE
 70
     1
  9
$QTEXTMODE
 70
     0
  9
$MIRRTEXT
 70
     1
  9
$LTSCALE
 40
1.0
  9
$ATTMODE
 70
     1
  9
$TEXTSIZE
 40
0.2
  9
$TRACEWID
 40
0.05
  9
$TEXTSTYLE
  7
Standard
  9
$CLAYER
  8
0
  9
$CELTYPE
  6
Continuous
  9
$CECOLOR
 62
   256
  9
$CELTSCALE
 40
1.0
  9
$DISPSILH
 70
     0
  9
$DIMSCALE
 40
1.0
  9
$DIMASZ
 40
0.18
  9
$DIMEXO
 40
0.0625
  9
$DIMDLI
 40
0.38
  9
$DIMRND
 40
0.0
  9
$DIMDLE
 40
0.0
  9
$DIMEXE
 40
0.18
  9
$DIMTP
 40
0.0
  9
$DIMTM
 40
0.0
  9
$DIMTXT
 40
0.18
  9
$DIMCEN
 40
0.09
  9
$DIMTSZ
 40
0.0
  9
$DIMTOL
 70
     0
  9
$DIMLIM
 70
     0
  9
$DIMTIH
 70
     1
  9
$DIMTOH
 70
     1
  9
$DIMSE1
 70
     0
  9
$DIMSE2
 70
     0
  9
$DIMTAD
 70
     0
  9
$DIMZIN
 70
     0
  9
$DIMBLK
  1

  9
$DIMASO
 70
     1
  9
$DIMSHO
 70
     1
  9
$DIMPOST
  1

  9
$DIMAPOST
  1

  9
$DIMALT
 70
     0
  9
$DIMALTD
 70
     2
  9
$DIMALTF
 40
25.4
  9
$DIMLFAC
 40
1.0
  9
$DIMTOFL
 70
     0
  9
$DIMTVP
 40
0.0
  9
$DIMTIX
 70
     0
  9
$DIMSOXD
 70
     0
  9
$DIMSAH
 70
     0
  9
$DIMBLK1
  1

  9
$DIMBLK2
  1

  9
$DIMSTYLE
  2
Standard
  9
$DIMCLRD
 70
     0
  9
$DIMCLRE
 70
     0
  9
$DIMCLRT
 70
     0
  9
$DIMTFAC
 40
1.0
  9
$DIMGAP
 40
0.09
  9
$DIMJUST
 70
     0
  9
$DIMSD1
 70
     0
  9
$DIMSD2
 70
     0
  9
$DIMTOLJ
 70
     1
  9
$DIMTZIN
 70
     0
  9
$DIMALTZ
 70
     0
  9
$DIMALTTZ
 70
     0
  9
$DIMUPT
 70
     0
  9
$DIMDEC
 70
     4
  9
$DIMTDEC
 70
     4
  9
$DIMALTU
 70
     2
  9
$DIMALTTD
 70
     2
  9
$DIMTXSTY
  7
Standard
  9
$DIMAUNIT
 70
     0
  9
$DIMADEC
 70
     0
  9
$DIMALTRND
 40
0.0
  9
$DIMAZIN
 70
     0
  9
$DIMDSEP
 70
    46
  9
$DIMATFIT
 70
     3
  9
$DIMFRAC
 70
     0
  9
$DIMLDRBLK
  1

  9
$DIMLUNIT
 70
     2
  9
$DIMLWD
 70
    -2
  9
$DIMLWE
 70
    -2
  9
$DIMTMOVE
 70
     0
  9
$LUNITS
 70
     2
  9
$LUPREC
 70
     4
  9
$SKETCHINC
 40
0.1
  9
$FILLETRAD
 40
0.0
  9
$AUNITS
 70
     0
  9
$AUPREC
 70
     0
  9
$MENU
  1
.
  9
$ELEVATION
 40
0.0
  9
$PELEVATION
 40
0.0
  9
$THICKNESS
 40
0.0
  9
$LIMCHECK
 70
     0
  9
$CHAMFERA
 40
0.0
  9
$CHAMFERB
 40
0.0
  9
$CHAMFERC
 40
0.0
  9
$CHAMFERD
 40
0.0
  9
$SKPOLY
 70
     0
  9
$TDCREATE
 40
2454745.656342951
  9
$TDUCREATE
 40
2454745.573009618
  9
$TDUPDATE
 40
2454745.660434745
  9
$TDUUPDATE
 40
2454745.577101412
  9
$TDINDWG
 40
0.0040917940
  9
$TDUSRTIMER
 40
0.0040917940
  9
$USRTIMER
 70
     1
  9
$ANGBASE
 50
0.0
  9
$ANGDIR
 70
     0
  9
$PDMODE
 70
     0
  9
$PDSIZE
 40
0.0
  9
$PLINEWID
 40
0.0
  9
$SPLFRAME
 70
     0
  9
$SPLINETYPE
 70
     6
  9
$SPLINESEGS
 70
     8
  9
$HANDSEED
  5
1E2
  9
$SURFTAB1
 70
     6
  9
$SURFTAB2
 70
     6
  9
$SURFTYPE
 70
     6
  9
$SURFU
 70
     6
  9
$SURFV
 70
     6
  9
$UCSBASE
  2

  9
$UCSNAME
  2

  9
$UCSORG
 10
0.0
 20
0.0
 30
0.0
  9
$UCSXDIR
 10
1.0
 20
0.0
 30
0.0
  9
$UCSYDIR
 10
0.0
 20
1.0
 30
0.0
  9
$UCSORTHOREF
  2

  9
$UCSORTHOVIEW
 70
     1
  9
$UCSORGTOP
 10
0.0
 20
0.0
 30
0.0
  9
$UCSORGBOTTOM
 10
0.0
 20
0.0
 30
0.0
  9
$UCSORGLEFT
 10
0.0
 20
0.0
 30
0.0
  9
$UCSORGRIGHT
 10
0.0
 20
0.0
 30
0.0
  9
$UCSORGFRONT
 10
0.0
 20
0.0
 30
0.0
  9
$UCSORGBACK
 10
0.0
 20
0.0
 30
0.0
  9
$PUCSBASE
  2

  9
$PUCSNAME
  2

  9
$PUCSORG
 10
0.0
 20
0.0
 30
0.0
  9
$PUCSXDIR
 10
1.0
 20
0.0
 30
0.0
  9
$PUCSYDIR
 10
0.0
 20
1.0
 30
0.0
  9
$PUCSORTHOREF
  2

  9
$PUCSORTHOVIEW
 70
     0
  9
$PUCSORGTOP
 10
0.0
 20
0.0
 30
0.0
  9
$PUCSORGBOTTOM
 10
0.0
 20
0.0
 30
0.0
  9
$PUCSORGLEFT
 10
0.0
 20
0.0
 30
0.0
  9
$PUCSORGRIGHT
 10
0.0
 20
0.0
 30
0.0
  9
$PUCSORGFRONT
 10
0.0
 20
0.0
 30
0.0
  9
$PUCSORGBACK
 10
0.0
 20
0.0
 30
0.0
  9
$USERI1
 70
     0
  9
$USERI2
 70
     0
  9
$USERI3
 70
     0
  9
$USERI4
 70
     0
  9
$USERI5
 70
     0
  9
$USERR1
 40
0.0
  9
$USERR2
 40
0.0
  9
$USERR3
 40
0.0
  9
$USERR4
 40
0.0
  9
$USERR5
 40
0.0
  9
$WORLDVIEW
 70
     1
  9
$SHADEDGE
 70
     3
  9
$SHADEDIF
 70
    70
  9
$TILEMODE
 70
     1
  9
$MAXACTVP
 70
    64
  9
$PINSBASE
 10
0.0
 20
0.0
 30
0.0
  9
$PLIMCHECK
 70
     0
  9
$PEXTMIN
 10
1.000000000000000E+20
 20
1.000000000000000E+20
 30
1.000000000000000E+20
  9
$PEXTMAX
 10
-1.000000000000000E+20
 20
-1.000000000000000E+20
 30
-1.000000000000000E+20
  9
$PLIMMIN
 10
0.0
 20
0.0
  9
$PLIMMAX
 10
12.0
 20
9.0
  9
$UNITMODE
 70
     0
  9
$VISRETAIN
 70
     1
  9
$PLINEGEN
 70
     0
  9
$PSLTSCALE
 70
     1
  9
$TREEDEPTH
 70
  3020
  9
$CMLSTYLE
  2
Standard
  9
$CMLJUST
 70
     0
  9
$CMLSCALE
 40
1.0
  9
$PROXYGRAPHICS
 70
     1
  9
$MEASUREMENT
 70
     0
  9
$CELWEIGHT
370
    -1
  9
$ENDCAPS
280
     0
  9
$JOINSTYLE
280
     0
  9
$LWDISPLAY
290
     0
  9
$INSUNITS
 70
     0
  9
$HYPERLINKBASE
  1

  9
$STYLESHEET
  1

  9
$XEDIT
290
     1
  9
$CEPSNTYPE
380
     0
  9
$PSTYLEMODE
290
     1
  9
$FINGERPRINTGUID
  2
{71F47D23-19F6-4B66-8613-95BA4FF3E8F2}
  9
$VERSIONGUID
  2
{AE8CA4E0-08A4-47B8-87A9-DF18F8CE23E5}
  9
$EXTNAMES
290
     1
  9
$PSVPSCALE
 40
0.0
  9
$OLESTARTUP
290
     0
  0
ENDSEC
  0
SECTION
  2
CLASSES
  0
CLASS
  1
ACDBDICTIONARYWDFLT
  2
AcDbDictionaryWithDefault
  3
AutoCAD 2000
 90
        0
280
     0
281
     0
  0
CLASS
  1
ACDBPLACEHOLDER
  2
AcDbPlaceHolder
  3
AutoCAD 2000
 90
        0
280
     0
281
     0
  0
CLASS
  1
LAYOUT
  2
AcDbLayout
  3
AutoCAD 2000
 90
        0
280
     0
281
     0
  0
CLASS
  1
DICTIONARYVAR
  2
AcDbDictionaryVar
  3
AutoCAD 2000
 90
        0
280
     0
281
     0
  0
ENDSEC
  0
SECTION
  2
TABLES
  0
TABLE
  2
VPORT
  5
8
330
0
100
AcDbSymbolTable
 70
     2
  0
VPORT
  5
1E1
330
8
100
AcDbSymbolTableRecord
100
AcDbViewportTableRecord
  2
*Active
 70
     0
 10
0.0
 20
0.0
 11
1.0
 21
1.0
 12
98.00000000000002
 22
451.4999999999999
 13
0.0
 23
0.0
 14
1.0
 24
1.0
 15
0.0
 25
0.0
 16
0.0
 26
0.0
 36
1.0
 17
0.0
 27
0.0
 37
0.0
 40
909.4850127877236
 41
2.078104993597951
 42
50.0
 43
0.0
 44
0.0
 50
0.0
 51
0.0
 71
     0
 72
   100
 73
     1
 74
     3
 75
     0
 76
     0
 77
     0
 78
     0
281
     0
 65
     1
110
0.0
120
0.0
130
0.0
111
1.0
121
0.0
131
0.0
112
0.0
122
1.0
132
0.0
 79
     1
146
0.0
  0
ENDTAB
  0
TABLE
  2
LTYPE
  5
5
330
0
100
AcDbSymbolTable
 70
     1
  0
LTYPE
  5
13
330
5
100
AcDbSymbolTableRecord
100
AcDbLinetypeTableRecord
  2
ByBlock
 70
     0
  3

 72
    65
 73
     0
 40
0.0
  0
LTYPE
  5
14
330
5
100
AcDbSymbolTableRecord
100
AcDbLinetypeTableRecord
  2
ByLayer
 70
     0
  3

 72
    65
 73
     0
 40
0.0
  0
LTYPE
  5
15
330
5
100
AcDbSymbolTableRecord
100
AcDbLinetypeTableRecord
  2
Continuous
 70
     0
  3
Solid line
 72
    65
 73
     0
 40
0.0
  0
ENDTAB
  0
TABLE
  2
LAYER
  5
2
330
0
100
AcDbSymbolTable
 70
     1
  0
LAYER
  5
10
330
2
100
AcDbSymbolTableRecord
100
AcDbLayerTableRecord
  2
0
 70
     0
 62
     7
  6
Continuous
370
    -3
390
F
  0
ENDTAB
  0
TABLE
  2
STYLE
  5
3
330
0
100
AcDbSymbolTable
 70
     1
  0
STYLE
  5
11
330
3
100
AcDbSymbolTableRecord
100
AcDbTextStyleTableRecord
  2
Standard
 70
     0
 40
0.0
 41
1.0
 50
0.0
 71
     0
 42
0.2
  3
txt
  4

  0
ENDTAB
  0
TABLE
  2
VIEW
  5
6
330
0
100
AcDbSymbolTable
 70
     0
  0
ENDTAB
  0
TABLE
  2
UCS
  5
7
330
0
100
AcDbSymbolTable
 70
     0
  0
ENDTAB
  0
TABLE
  2
APPID
  5
9
330
0
100
AcDbSymbolTable
 70
     1
  0
APPID
  5
12
330
9
100
AcDbSymbolTableRecord
100
AcDbRegAppTableRecord
  2
ACAD
 70
     0
  0
ENDTAB
  0
TABLE
  2
DIMSTYLE
  5
A
330
0
100
AcDbSymbolTable
 70
     1
100
AcDbDimStyleTable
 71
     0
  0
DIMSTYLE
105
1D7
330
A
100
AcDbSymbolTableRecord
100
AcDbDimStyleTableRecord
  2
Standard
 70
     0
340
11
  0
ENDTAB
  0
TABLE
  2
BLOCK_RECORD
  5
1
330
0
100
AcDbSymbolTable
 70
     0
  0
BLOCK_RECORD
  5
1E
330
1
100
AcDbSymbolTableRecord
100
AcDbBlockTableRecord
  2
*Model_Space
340
21
  0
BLOCK_RECORD
  5
1A
330
1
100
AcDbSymbolTableRecord
100
AcDbBlockTableRecord
  2
*Paper_Space
340
1D
  0
ENDTAB
  0
ENDSEC
  0
SECTION
  2
BLOCKS
  0
BLOCK
  5
1F
330
1E
100
AcDbEntity
  8
0
100
AcDbBlockBegin
  2
*Model_Space
 70
     0
 10
0.0
 20
0.0
 30
0.0
  3
*Model_Space
  1

  0
ENDBLK
  5
20
330
1E
100
AcDbEntity
  8
0
100
AcDbBlockEnd
  0
BLOCK
  5
1B
330
1A
100
AcDbEntity
 67
     1
  8
0
100
AcDbBlockBegin
  2
*Paper_Space
 70
     0
 10
0.0
 20
0.0
 30
0.0
  3
*Paper_Space
  1

  0
ENDBLK
  5
1C
330
1A
100
AcDbEntity
 67
     1
  8
0
100
AcDbBlockEnd
  0
ENDSEC
  0
SECTION
  2
ENTITIES
  0
LINE
  5
22
330
1E
100
AcDbEntity
  8
0
100
AcDbLine
 10
1.00704000000003
 20
887.2200000000001
 30
0.0
 11
1.30915000000003
 21
887.2200000000001
 31
0.0
  0
LINE
  5
23
330
1E
100
AcDbEntity
  8
0
100
AcDbLine
 10
1.30915000000003
 20
887.2200000000001
 30
0.0
 11
2.01409000000003
 21
887.2200000000001
 31
0.0
  0
LINE
  5
24
330
1E
100
AcDbEntity
  8
0
100
AcDbLine
 10
2.014090000000039
 20
887.2200000000001
 30
0.0
 11
167.9859999999999
 21
887.2200000000001
 31
0.0
  0
LINE
  5
25
330
1E
100
AcDbEntity
  8
0
100
AcDbLine
 10
2.01409000000003
 20
887.2200000000001
 30
0.0
 11
167.9859999999999
 21
887.2200000000001
 31
0.0
  0
LINE
  5
26
330
1E
100
AcDbEntity
  8
0
100
AcDbLine
 10
0.302113000000034
 20
887.5449999999998
 30
0.0
 11
0.8056340000000341
 21
887.5449999999998
 31
0.0
  0
LINE
  5
27
330
1E
100
AcDbEntity
  8
0
100
AcDbLine
 10
0.302113000000034
 20
887.5449999999998
 30
0.0
 11
1.00704000000003
 21
887.2200000000001
 31
0.0
  0
LINE
  5
28
330
1E
100
AcDbEntity
  8
0
100
AcDbLine
 10
0.8056340000000341
 20
887.5449999999998
 30
0.0
 11
2.01409000000003
 21
887.5449999999998
 31
0.0
  0
LINE
  5
29
330
1E
100
AcDbEntity
  8
0
100
AcDbLine
 10
0.0000000000000338
 20
888.3029999999999
 30
0.0
 11
0.302113000000034
 21
887.5449999999998
 31
0.0
  0
LINE
  5
2A
330
1E
100
AcDbEntity
  8
0
100
AcDbLine
 10
0.0000000000000344
 20
899.1369999999999
 30
0.0
 11
0.302113000000034
 21
899.895
 31
0.0
  0
LINE
  5
2B
330
1E
100
AcDbEntity
  8
0
100
AcDbLine
 10
0.302113000000034
 20
899.895
 30
0.0
 11
0.8056340000000341
 21
899.895
 31
0.0
  0
LINE
  5
2C
330
1E
100
AcDbEntity
  8
0
100
AcDbLine
 10
0.302113000000034
 20
899.895
 30
0.0
 11
1.00704000000003
 21
900.22
 31
0.0
  0
LINE
  5
2D
330
1E
100
AcDbEntity
  8
0
100
AcDbLine
 10
0.0000000000000344
 20
899.1369999999999
 30
0.0
 11
0.302113000000034
 21
899.895
 31
0.0
  0
LINE
  5
2E
330
1E
100
AcDbEntity
  8
0
100
AcDbLine
 10
0.0000000000000338
 20
888.3029999999999
 30
0.0
 11
0.302113000000034
 21
887.5449999999998
 31
0.0
  0
LINE
  5
2F
330
1E
100
AcDbEntity
  8
0
100
AcDbLine
 10
0.0000000000000338
 20
888.3029999999999
 30
0.0
 11
0.0000000000000344
 21
899.1369999999999
 31
0.0
  0
LINE
  5
30
330
1E
100
AcDbEntity
  8
0
100
AcDbLine
 10
0.8056340000000341
 20
899.895
 30
0.0
 11
2.01409000000003
 21
899.895
 31
0.0
  0
LINE
  5
34
330
1E
100
AcDbEntity
  8
0
100
AcDbLine
 10
2.01409000000003
 20
900.22
 30
0.0
 11
167.9859999999999
 21
900.22
 31
0.0
  0
LINE
  5
35
330
1E
100
AcDbEntity
  8
0
100
AcDbLine
 10
1.00704000000003
 20
900.22
 30
0.0
 11
1.30915000000003
 21
900.22
 31
0.0
  0
LINE
  5
36
330
1E
100
AcDbEntity
  8
0
100
AcDbLine
 10
1.30915000000003
 20
900.22
 30
0.0
 11
2.01409000000003
 21
900.22
 31
0.0
  0
LINE
  5
37
330
1E
100
AcDbEntity
  8
0
100
AcDbLine
 10
2.014090000000039
 20
900.22
 30
0.0
 11
167.9859999999999
 21
900.22
 31
0.0
  0
LINE
  5
38
330
1E
100
AcDbEntity
  8
0
100
AcDbLine
 10
2.01409000000003
 20
899.895
 30
0.0
 11
167.9859999999999
 21
899.895
 31
0.0
  0
LINE
  5
39
330
1E
100
AcDbEntity
  8
0
100
AcDbLine
 10
2.014090000000039
 20
899.895
 30
0.0
 11
167.9859999999999
 21
899.895
 31
0.0
  0
LINE
  5
3A
330
1E
100
AcDbEntity
  8
0
100
AcDbLine
 10
2.01409000000003
 20
887.5449999999998
 30
0.0
 11
167.9859999999999
 21
887.5449999999998
 31
0.0
  0
LINE
  5
3B
330
1E
100
AcDbEntity
  8
0
100
AcDbLine
 10
2.014090000000039
 20
887.5449999999998
 30
0.0
 11
167.9859999999999
 21
887.5449999999998
 31
0.0
  0
LINE
  5
3C
330
1E
100
AcDbEntity
  8
0
100
AcDbLine
 10
3.000000000000029
 20
887.2200000000001
 30
0.0
 11
10.0
 21
887.2200000000001
 31
0.0
  0
LINE
  5
3D
330
1E
100
AcDbEntity
  8
0
100
AcDbLine
 10
72.30209999999999
 20
11.91999999999999
 30
0.0
 11
72.8056
 21
11.91999999999999
 31
0.0
  0
LINE
  5
3E
330
1E
100
AcDbEntity
  8
0
100
AcDbLine
 10
72.30209999999999
 20
11.91999999999999
 30
0.0
 11
73.007
 21
12.22
 31
0.0
  0
LINE
  5
3F
330
1E
100
AcDbEntity
  8
0
100
AcDbLine
 10
72.0
 20
11.22
 30
0.0
 11
72.0
 21
1.22000000000004
 31
0.0
  0
LINE
  5
40
330
1E
100
AcDbEntity
  8
0
100
AcDbLine
 10
72.0
 20
11.22
 30
0.0
 11
72.30209999999999
 21
11.91999999999999
 31
0.0
  0
LINE
  5
41
330
1E
100
AcDbEntity
  8
0
100
AcDbLine
 10
72.0
 20
1.22000000000004
 30
0.0
 11
72.30209999999999
 21
0.5200000000000421
 31
0.0
  0
LINE
  5
42
330
1E
100
AcDbEntity
  8
0
100
AcDbLine
 10
72.0
 20
1.22000000000004
 30
0.0
 11
72.0
 21
11.22
 31
0.0
  0
LINE
  5
43
330
1E
100
AcDbEntity
  8
0
100
AcDbLine
 10
73.007
 20
0.220000000000042
 30
0.0
 11
73.3092
 21
0.220000000000042
 31
0.0
  0
LINE
  5
44
330
1E
100
AcDbEntity
  8
0
100
AcDbLine
 10
73.3092
 20
0.220000000000042
 30
0.0
 11
74.0141
 21
0.220000000000042
 31
0.0
  0
LINE
  5
45
330
1E
100
AcDbEntity
  8
0
100
AcDbLine
 10
74.0141
 20
0.220000000000042
 30
0.0
 11
193.9859999999999
 21
0.220000000000034
 31
0.0
  0
LINE
  5
48
330
1E
100
AcDbEntity
  8
0
100
AcDbLine
 10
72.8056
 20
11.91999999999999
 30
0.0
 11
74.0141
 21
11.91999999999999
 31
0.0
  0
LINE
  5
4B
330
1E
100
AcDbEntity
  8
0
100
AcDbLine
 10
72.8056
 20
0.5200000000000421
 30
0.0
 11
74.0141
 21
0.5200000000000421
 31
0.0
  0
LINE
  5
4C
330
1E
100
AcDbEntity
  8
0
100
AcDbLine
 10
74.0141
 20
11.91999999999999
 30
0.0
 11
193.9859999999999
 21
11.91999999999999
 31
0.0
  0
LINE
  5
4D
330
1E
100
AcDbEntity
  8
0
100
AcDbLine
 10
74.0141
 20
0.5200000000000421
 30
0.0
 11
193.9859999999999
 21
0.5200000000000341
 31
0.0
  0
LINE
  5
4E
330
1E
100
AcDbEntity
  8
0
100
AcDbLine
 10
72.30209999999999
 20
0.5200000000000421
 30
0.0
 11
73.007
 21
0.220000000000042
 31
0.0
  0
LINE
  5
4F
330
1E
100
AcDbEntity
  8
0
100
AcDbLine
 10
72.30209999999999
 20
0.5200000000000421
 30
0.0
 11
72.8056
 21
0.5200000000000421
 31
0.0
  0
LINE
  5
50
330
1E
100
AcDbEntity
  8
0
100
AcDbLine
 10
72.30209999999999
 20
0.5200000000000421
 30
0.0
 11
73.007
 21
0.220000000000042
 31
0.0
  0
LINE
  5
51
330
1E
100
AcDbEntity
  8
0
100
AcDbLine
 10
73.007
 20
12.22
 30
0.0
 11
73.3092
 21
12.22
 31
0.0
  0
LINE
  5
52
330
1E
100
AcDbEntity
  8
0
100
AcDbLine
 10
73.3092
 20
12.22
 30
0.0
 11
74.0141
 21
12.22
 31
0.0
  0
LINE
  5
53
330
1E
100
AcDbEntity
  8
0
100
AcDbLine
 10
89.14799999999999
 20
165.919
 30
0.0
 11
89.715
 21
172.395
 31
0.0
  0
LINE
  5
54
330
1E
100
AcDbEntity
  8
0
100
AcDbLine
 10
89.0
 20
164.2249999999999
 30
0.0
 11
89.32700000000002
 21
161.085
 31
0.0
  0
LINE
  5
55
330
1E
100
AcDbEntity
  8
0
100
AcDbLine
 10
89.0
 20
164.2249999999999
 30
0.0
 11
89.14799999999999
 21
165.919
 31
0.0
  0
LINE
  5
56
330
1E
100
AcDbEntity
  8
0
100
AcDbLine
 10
91.972
 20
198.1959999999999
 30
0.0
 11
93.366
 21
214.135
 31
0.0
  0
LINE
  5
57
330
1E
100
AcDbEntity
  8
0
100
AcDbLine
 10
90.54299999999999
 20
181.858
 30
0.0
 11
91.972
 21
198.1959999999999
 31
0.0
  0
LINE
  5
58
330
1E
100
AcDbEntity
  8
0
100
AcDbLine
 10
89.715
 20
172.395
 30
0.0
 11
90.54299999999999
 21
181.858
 31
0.0
  0
LINE
  5
59
330
1E
100
AcDbEntity
  8
0
100
AcDbLine
 10
89.32700000000002
 20
161.085
 30
0.0
 11
90.90299999999999
 21
158.437
 31
0.0
  0
LINE
  5
5A
330
1E
100
AcDbEntity
  8
0
100
AcDbLine
 10
90.90299999999999
 20
158.437
 30
0.0
 11
93.236
 21
156.426
 31
0.0
  0
LINE
  5
5B
330
1E
100
AcDbEntity
  8
0
100
AcDbLine
 10
104.071
 20
159.7949999999999
 30
0.0
 11
104.939
 21
162.831
 31
0.0
  0
LINE
  5
5C
330
1E
100
AcDbEntity
  8
0
100
AcDbLine
 10
107.911
 20
196.802
 30
0.0
 11
109.3059999999999
 21
212.7409999999999
 31
0.0
  0
LINE
  5
5D
330
1E
100
AcDbEntity
  8
0
100
AcDbLine
 10
107.911
 20
196.802
 30
0.0
 11
108.56913107371
 21
204.321678267999
 31
0.0
  0
LINE
  5
5E
330
1E
100
AcDbEntity
  8
0
100
AcDbLine
 10
106.482
 20
180.464
 30
0.0
 11
107.911
 21
196.802
 31
0.0
  0
LINE
  5
5F
330
1E
100
AcDbEntity
  8
0
100
AcDbLine
 10
105.654
 20
171.0
 30
0.0
 11
106.482
 21
180.464
 31
0.0
  0
LINE
  5
60
330
1E
100
AcDbEntity
  8
0
100
AcDbLine
 10
105.0869999999999
 20
164.524
 30
0.0
 11
105.654
 21
171.0
 31
0.0
  0
LINE
  5
61
330
1E
100
AcDbEntity
  8
0
100
AcDbLine
 10
104.939
 20
162.831
 30
0.0
 11
105.0869999999999
 21
164.524
 31
0.0
  0
LINE
  5
62
330
1E
100
AcDbEntity
  8
0
100
AcDbLine
 10
102.0599999999999
 20
157.461
 30
0.0
 11
104.071
 21
159.7949999999999
 31
0.0
  0
LINE
  5
63
330
1E
100
AcDbEntity
  8
0
100
AcDbLine
 10
99.413
 20
155.8859999999999
 30
0.0
 11
102.0599999999999
 21
157.461
 31
0.0
  0
LINE
  5
64
330
1E
100
AcDbEntity
  8
0
100
AcDbLine
 10
96.27200000000001
 20
155.559
 30
0.0
 11
99.413
 21
155.8859999999999
 31
0.0
  0
LINE
  5
65
330
1E
100
AcDbEntity
  8
0
100
AcDbLine
 10
102.6829999999999
 20
320.628
 30
0.0
 11
104.392
 21
340.154
 31
0.0
  0
LINE
  5
66
330
1E
100
AcDbEntity
  8
0
100
AcDbLine
 10
104.392
 20
340.154
 30
0.0
 11
106.3439999999999
 21
362.469
 31
0.0
  0
LINE
  5
67
330
1E
100
AcDbEntity
  8
0
100
AcDbLine
 10
106.3439999999999
 20
362.469
 30
0.0
 11
108.296
 21
384.783
 31
0.0
  0
LINE
  5
68
330
1E
100
AcDbEntity
  8
0
100
AcDbLine
 10
106.3439999999999
 20
362.469
 30
0.0
 11
108.259038800109
 21
384.3604834967369
 31
0.0
  0
LINE
  5
69
330
1E
100
AcDbEntity
  8
0
100
AcDbLine
 10
108.296
 20
384.783
 30
0.0
 11
110.257
 21
407.198
 31
0.0
  0
LINE
  5
6A
330
1E
100
AcDbEntity
  8
0
100
AcDbLine
 10
100.9749999999999
 20
301.103
 30
0.0
 11
102.6829999999999
 21
320.628
 31
0.0
  0
LINE
  5
6B
330
1E
100
AcDbEntity
  8
0
100
AcDbLine
 10
99.023
 20
278.788
 30
0.0
 11
100.9749999999999
 21
301.103
 31
0.0
  0
LINE
  5
6C
330
1E
100
AcDbEntity
  8
0
100
AcDbLine
 10
97.071
 20
256.473
 30
0.0
 11
99.023
 21
278.788
 31
0.0
  0
LINE
  5
6D
330
1E
100
AcDbEntity
  8
0
100
AcDbLine
 10
95.11000000000001
 20
234.059
 30
0.0
 11
97.071
 21
256.473
 31
0.0
  0
LINE
  5
6E
330
1E
100
AcDbEntity
  8
0
100
AcDbLine
 10
93.366
 20
214.135
 30
0.0
 11
95.11000000000001
 21
234.059
 31
0.0
  0
LINE
  5
6F
330
1E
100
AcDbEntity
  8
0
100
AcDbLine
 10
93.236
 20
156.426
 30
0.0
 11
96.27200000000001
 21
155.559
 31
0.0
  0
LINE
  5
70
330
1E
100
AcDbEntity
  8
0
100
AcDbLine
 10
74.0141
 20
12.22
 30
0.0
 11
193.9859999999999
 21
12.22
 31
0.0
  0
LINE
  5
71
330
1E
100
AcDbEntity
  8
0
100
AcDbLine
 10
108.56913107371
 20
204.321678267999
 30
0.0
 11
108.9
 21
12.2200000000001
 31
0.0
  0
LINE
  5
72
330
1E
100
AcDbEntity
  8
0
100
AcDbLine
 10
49.1622
 20
726.6319999999999
 30
0.0
 11
49.2702
 21
726.6319999999999
 31
0.0
  0
LINE
  5
73
330
1E
100
AcDbEntity
  8
0
100
AcDbLine
 10
49.1622
 20
726.6319999999999
 30
0.0
 11
49.1622
 21
798.7451428571429
 31
0.0
  0
LINE
  5
74
330
1E
100
AcDbEntity
  8
0
100
AcDbLine
 10
49.2702
 20
726.6319999999999
 30
0.0
 11
49.5582
 21
726.6319999999999
 31
0.0
  0
LINE
  5
75
330
1E
100
AcDbEntity
  8
0
100
AcDbLine
 10
49.5582
 20
726.6319999999999
 30
0.0
 11
50.03820000000001
 21
726.6319999999999
 31
0.0
  0
LINE
  5
76
330
1E
100
AcDbEntity
  8
0
100
AcDbLine
 10
50.03820000000001
 20
726.6319999999999
 30
0.0
 11
50.6742
 21
726.6319999999999
 31
0.0
  0
LINE
  5
77
330
1E
100
AcDbEntity
  8
0
100
AcDbLine
 10
50.6742
 20
726.6319999999999
 30
0.0
 11
51.3942
 21
726.6319999999999
 31
0.0
  0
LINE
  5
78
330
1E
100
AcDbEntity
  8
0
100
AcDbLine
 10
55.1622
 20
726.6319999999999
 30
0.0
 11
55.1622
 21
798.632
 31
0.0
  0
LINE
  5
79
330
1E
100
AcDbEntity
  8
0
100
AcDbLine
 10
55.0542
 20
726.6319999999999
 30
0.0
 11
55.1622
 21
726.6319999999999
 31
0.0
  0
LINE
  5
7A
330
1E
100
AcDbEntity
  8
0
100
AcDbLine
 10
54.7662
 20
726.6319999999999
 30
0.0
 11
55.0542
 21
726.6319999999999
 31
0.0
  0
LINE
  5
7B
330
1E
100
AcDbEntity
  8
0
100
AcDbLine
 10
54.2862
 20
726.6319999999999
 30
0.0
 11
54.7662
 21
726.6319999999999
 31
0.0
  0
LINE
  5
7C
330
1E
100
AcDbEntity
  8
0
100
AcDbLine
 10
53.6502
 20
726.6319999999999
 30
0.0
 11
54.2862
 21
726.6319999999999
 31
0.0
  0
LINE
  5
7D
330
1E
100
AcDbEntity
  8
0
100
AcDbLine
 10
52.9302
 20
726.6319999999999
 30
0.0
 11
53.6502
 21
726.6319999999999
 31
0.0
  0
LINE
  5
7E
330
1E
100
AcDbEntity
  8
0
100
AcDbLine
 10
52.16219999999999
 20
726.6319999999999
 30
0.0
 11
52.9302
 21
726.6319999999999
 31
0.0
  0
LINE
  5
7F
330
1E
100
AcDbEntity
  8
0
100
AcDbLine
 10
51.3942
 20
726.6319999999999
 30
0.0
 11
52.16219999999999
 21
726.6319999999999
 31
0.0
  0
LINE
  5
80
330
1E
100
AcDbEntity
  8
0
100
AcDbLine
 10
44.1622
 20
814.3399999999999
 30
0.0
 11
44.1622
 21
819.632
 31
0.0
  0
LINE
  5
81
330
1E
100
AcDbEntity
  8
0
100
AcDbLine
 10
44.1622
 20
814.3399999999999
 30
0.0
 11
44.1622
 21
809.468
 31
0.0
  0
LINE
  5
82
330
1E
100
AcDbEntity
  8
0
100
AcDbLine
 10
44.1622
 20
809.468
 30
0.0
 11
44.1622
 21
814.3399999999999
 31
0.0
  0
LINE
  5
83
330
1E
100
AcDbEntity
  8
0
100
AcDbLine
 10
44.1622
 20
809.468
 30
0.0
 11
44.1622
 21
805.184
 31
0.0
  0
LINE
  5
84
330
1E
100
AcDbEntity
  8
0
100
AcDbLine
 10
44.1622
 20
805.184
 30
0.0
 11
44.1622
 21
809.468
 31
0.0
  0
LINE
  5
85
330
1E
100
AcDbEntity
  8
0
100
AcDbLine
 10
44.1622
 20
805.184
 30
0.0
 11
44.1622
 21
801.908
 31
0.0
  0
LINE
  5
86
330
1E
100
AcDbEntity
  8
0
100
AcDbLine
 10
44.1622
 20
801.908
 30
0.0
 11
44.1622
 21
805.184
 31
0.0
  0
LINE
  5
87
330
1E
100
AcDbEntity
  8
0
100
AcDbLine
 10
44.1622
 20
801.908
 30
0.0
 11
44.1622
 21
799.8919999999999
 31
0.0
  0
LINE
  5
88
330
1E
100
AcDbEntity
  8
0
100
AcDbLine
 10
44.1622
 20
799.8919999999999
 30
0.0
 11
44.1622
 21
801.908
 31
0.0
  0
LINE
  5
89
330
1E
100
AcDbEntity
  8
0
100
AcDbLine
 10
44.1622
 20
799.8919999999999
 30
0.0
 11
44.1622
 21
799.1360000000001
 31
0.0
  0
LINE
  5
8A
330
1E
100
AcDbEntity
  8
0
100
AcDbLine
 10
44.1622
 20
799.1360000000001
 30
0.0
 11
44.1622
 21
799.8919999999999
 31
0.0
  0
LINE
  5
8B
330
1E
100
AcDbEntity
  8
0
100
AcDbLine
 10
44.1622
 20
799.1360000000001
 30
0.0
 11
44.7622
 21
798.632
 31
0.0
  0
LINE
  5
8C
330
1E
100
AcDbEntity
  8
0
100
AcDbLine
 10
44.1622
 20
819.632
 30
0.0
 11
44.1622
 21
824.924
 31
0.0
  0
LINE
  5
8D
330
1E
100
AcDbEntity
  8
0
100
AcDbLine
 10
44.1622
 20
819.632
 30
0.0
 11
44.1622
 21
814.3399999999999
 31
0.0
  0
LINE
  5
8E
330
1E
100
AcDbEntity
  8
0
100
AcDbLine
 10
44.1622
 20
824.924
 30
0.0
 11
44.1622
 21
829.7959999999999
 31
0.0
  0
LINE
  5
8F
330
1E
100
AcDbEntity
  8
0
100
AcDbLine
 10
44.1622
 20
824.924
 30
0.0
 11
44.1622
 21
819.632
 31
0.0
  0
LINE
  5
90
330
1E
100
AcDbEntity
  8
0
100
AcDbLine
 10
44.1622
 20
829.7959999999999
 30
0.0
 11
44.1622
 21
834.0799999999999
 31
0.0
  0
LINE
  5
91
330
1E
100
AcDbEntity
  8
0
100
AcDbLine
 10
44.1622
 20
829.7959999999999
 30
0.0
 11
44.1622
 21
824.924
 31
0.0
  0
LINE
  5
92
330
1E
100
AcDbEntity
  8
0
100
AcDbLine
 10
44.1622
 20
834.0799999999999
 30
0.0
 11
44.1622
 21
837.3560000000001
 31
0.0
  0
LINE
  5
93
330
1E
100
AcDbEntity
  8
0
100
AcDbLine
 10
44.1622
 20
834.0799999999999
 30
0.0
 11
44.1622
 21
829.7959999999999
 31
0.0
  0
LINE
  5
94
330
1E
100
AcDbEntity
  8
0
100
AcDbLine
 10
44.1622
 20
837.3560000000001
 30
0.0
 11
44.1622
 21
839.372
 31
0.0
  0
LINE
  5
95
330
1E
100
AcDbEntity
  8
0
100
AcDbLine
 10
44.1622
 20
837.3560000000001
 30
0.0
 11
44.1622
 21
834.0799999999999
 31
0.0
  0
LINE
  5
96
330
1E
100
AcDbEntity
  8
0
100
AcDbLine
 10
44.1622
 20
839.372
 30
0.0
 11
44.1622
 21
840.1279999999999
 31
0.0
  0
LINE
  5
97
330
1E
100
AcDbEntity
  8
0
100
AcDbLine
 10
44.1622
 20
839.372
 30
0.0
 11
44.1622
 21
837.3560000000001
 31
0.0
  0
LINE
  5
98
330
1E
100
AcDbEntity
  8
0
100
AcDbLine
 10
44.7622
 20
798.632
 30
0.0
 11
49.1622
 21
798.632
 31
0.0
  0
LINE
  5
99
330
1E
100
AcDbEntity
  8
0
100
AcDbLine
 10
44.7622
 20
798.632
 30
0.0
 11
44.7622
 21
799.388
 31
0.0
  0
LINE
  5
9A
330
1E
100
AcDbEntity
  8
0
100
AcDbLine
 10
44.7622
 20
814.2560000000001
 30
0.0
 11
44.7622
 21
809.2159999999999
 31
0.0
  0
LINE
  5
9B
330
1E
100
AcDbEntity
  8
0
100
AcDbLine
 10
44.7622
 20
814.2560000000001
 30
0.0
 11
44.7622
 21
819.632
 31
0.0
  0
LINE
  5
9C
330
1E
100
AcDbEntity
  8
0
100
AcDbLine
 10
44.7622
 20
809.2159999999999
 30
0.0
 11
44.7622
 21
804.7639999999999
 31
0.0
  0
LINE
  5
9D
330
1E
100
AcDbEntity
  8
0
100
AcDbLine
 10
44.7622
 20
809.2159999999999
 30
0.0
 11
44.7622
 21
814.2560000000001
 31
0.0
  0
LINE
  5
9E
330
1E
100
AcDbEntity
  8
0
100
AcDbLine
 10
44.7622
 20
804.7639999999999
 30
0.0
 11
44.7622
 21
801.4039999999999
 31
0.0
  0
LINE
  5
9F
330
1E
100
AcDbEntity
  8
0
100
AcDbLine
 10
44.7622
 20
804.7639999999999
 30
0.0
 11
44.7622
 21
809.2159999999999
 31
0.0
  0
LINE
  5
A0
330
1E
100
AcDbEntity
  8
0
100
AcDbLine
 10
44.7622
 20
801.4039999999999
 30
0.0
 11
44.7622
 21
799.388
 31
0.0
  0
LINE
  5
A1
330
1E
100
AcDbEntity
  8
0
100
AcDbLine
 10
44.7622
 20
801.4039999999999
 30
0.0
 11
44.7622
 21
804.7639999999999
 31
0.0
  0
LINE
  5
A2
330
1E
100
AcDbEntity
  8
0
100
AcDbLine
 10
44.7622
 20
799.388
 30
0.0
 11
44.7622
 21
798.632
 31
0.0
  0
LINE
  5
A3
330
1E
100
AcDbEntity
  8
0
100
AcDbLine
 10
44.7622
 20
799.388
 30
0.0
 11
44.7622
 21
801.4039999999999
 31
0.0
  0
LINE
  5
A4
330
1E
100
AcDbEntity
  8
0
100
AcDbLine
 10
44.7622
 20
819.632
 30
0.0
 11
44.7622
 21
825.008
 31
0.0
  0
LINE
  5
A5
330
1E
100
AcDbEntity
  8
0
100
AcDbLine
 10
44.7622
 20
819.632
 30
0.0
 11
44.7622
 21
814.2560000000001
 31
0.0
  0
LINE
  5
A6
330
1E
100
AcDbEntity
  8
0
100
AcDbLine
 10
44.7622
 20
825.008
 30
0.0
 11
44.7622
 21
819.632
 31
0.0
  0
LINE
  5
A7
330
1E
100
AcDbEntity
  8
0
100
AcDbLine
 10
44.7622
 20
825.008
 30
0.0
 11
44.7622
 21
830.048
 31
0.0
  0
LINE
  5
A8
330
1E
100
AcDbEntity
  8
0
100
AcDbLine
 10
44.7622
 20
830.048
 30
0.0
 11
44.7622
 21
825.008
 31
0.0
  0
LINE
  5
A9
330
1E
100
AcDbEntity
  8
0
100
AcDbLine
 10
44.7622
 20
830.048
 30
0.0
 11
44.7622
 21
834.5
 31
0.0
  0
LINE
  5
AA
330
1E
100
AcDbEntity
  8
0
100
AcDbLine
 10
44.7622
 20
834.5
 30
0.0
 11
44.7622
 21
830.048
 31
0.0
  0
LINE
  5
AB
330
1E
100
AcDbEntity
  8
0
100
AcDbLine
 10
44.7622
 20
834.5
 30
0.0
 11
44.7622
 21
837.86
 31
0.0
  0
LINE
  5
AC
330
1E
100
AcDbEntity
  8
0
100
AcDbLine
 10
44.7622
 20
837.86
 30
0.0
 11
44.7622
 21
834.5
 31
0.0
  0
LINE
  5
AD
330
1E
100
AcDbEntity
  8
0
100
AcDbLine
 10
44.7622
 20
837.86
 30
0.0
 11
44.7622
 21
839.8760000000001
 31
0.0
  0
LINE
  5
AE
330
1E
100
AcDbEntity
  8
0
100
AcDbLine
 10
44.7622
 20
839.8760000000001
 30
0.0
 11
44.7622
 21
837.86
 31
0.0
  0
LINE
  5
AF
330
1E
100
AcDbEntity
  8
0
100
AcDbLine
 10
44.7622
 20
839.8760000000001
 30
0.0
 11
44.7622
 21
840.6319999999999
 31
0.0
  0
LINE
  5
B0
330
1E
100
AcDbEntity
  8
0
100
AcDbLine
 10
49.1622
 20
798.632
 30
0.0
 11
74.1622
 21
798.632
 31
0.0
  0
LINE
  5
B1
330
1E
100
AcDbEntity
  8
0
100
AcDbLine
 10
44.1622
 20
840.1279999999999
 30
0.0
 11
44.7622
 21
840.6319999999999
 31
0.0
  0
LINE
  5
B2
330
1E
100
AcDbEntity
  8
0
100
AcDbLine
 10
44.1622
 20
840.1279999999999
 30
0.0
 11
44.1622
 21
839.372
 31
0.0
  0
LINE
  5
B3
330
1E
100
AcDbEntity
  8
0
100
AcDbLine
 10
44.7622
 20
840.6319999999999
 30
0.0
 11
74.1622
 21
840.6319999999999
 31
0.0
  0
LINE
  5
B4
330
1E
100
AcDbEntity
  8
0
100
AcDbLine
 10
44.7622
 20
840.6319999999999
 30
0.0
 11
44.7622
 21
839.8760000000001
 31
0.0
  0
LINE
  5
B5
330
1E
100
AcDbEntity
  8
0
100
AcDbLine
 10
74.1622
 20
798.632
 30
0.0
 11
74.1622
 21
799.388
 31
0.0
  0
LINE
  5
B6
330
1E
100
AcDbEntity
  8
0
100
AcDbLine
 10
74.1622
 20
801.4039999999999
 30
0.0
 11
74.1622
 21
804.7639999999999
 31
0.0
  0
LINE
  5
B7
330
1E
100
AcDbEntity
  8
0
100
AcDbLine
 10
74.1622
 20
814.2560000000001
 30
0.0
 11
74.1622
 21
809.2159999999999
 31
0.0
  0
LINE
  5
B8
330
1E
100
AcDbEntity
  8
0
100
AcDbLine
 10
74.1622
 20
814.2560000000001
 30
0.0
 11
74.1622
 21
819.632
 31
0.0
  0
LINE
  5
B9
330
1E
100
AcDbEntity
  8
0
100
AcDbLine
 10
74.1622
 20
809.2159999999999
 30
0.0
 11
74.1622
 21
804.7639999999999
 31
0.0
  0
LINE
  5
BA
330
1E
100
AcDbEntity
  8
0
100
AcDbLine
 10
74.1622
 20
809.2159999999999
 30
0.0
 11
74.1622
 21
814.2560000000001
 31
0.0
  0
LINE
  5
BB
330
1E
100
AcDbEntity
  8
0
100
AcDbLine
 10
74.1622
 20
804.7639999999999
 30
0.0
 11
74.1622
 21
801.4039999999999
 31
0.0
  0
LINE
  5
BC
330
1E
100
AcDbEntity
  8
0
100
AcDbLine
 10
74.1622
 20
804.7639999999999
 30
0.0
 11
74.1622
 21
809.2159999999999
 31
0.0
  0
LINE
  5
BD
330
1E
100
AcDbEntity
  8
0
100
AcDbLine
 10
74.1622
 20
819.632
 30
0.0
 11
74.1622
 21
825.008
 31
0.0
  0
LINE
  5
BE
330
1E
100
AcDbEntity
  8
0
100
AcDbLine
 10
74.1622
 20
819.632
 30
0.0
 11
74.1622
 21
814.2560000000001
 31
0.0
  0
LINE
  5
BF
330
1E
100
AcDbEntity
  8
0
100
AcDbLine
 10
74.1622
 20
825.008
 30
0.0
 11
74.1622
 21
819.632
 31
0.0
  0
LINE
  5
C0
330
1E
100
AcDbEntity
  8
0
100
AcDbLine
 10
74.1622
 20
825.008
 30
0.0
 11
74.1622
 21
830.048
 31
0.0
  0
LINE
  5
C1
330
1E
100
AcDbEntity
  8
0
100
AcDbLine
 10
74.1622
 20
830.048
 30
0.0
 11
74.1622
 21
825.008
 31
0.0
  0
LINE
  5
C2
330
1E
100
AcDbEntity
  8
0
100
AcDbLine
 10
74.1622
 20
830.048
 30
0.0
 11
74.1622
 21
834.5
 31
0.0
  0
LINE
  5
C3
330
1E
100
AcDbEntity
  8
0
100
AcDbLine
 10
74.1622
 20
834.5
 30
0.0
 11
74.1622
 21
830.048
 31
0.0
  0
LINE
  5
C4
330
1E
100
AcDbEntity
  8
0
100
AcDbLine
 10
74.1622
 20
834.5
 30
0.0
 11
74.1622
 21
837.86
 31
0.0
  0
LINE
  5
C5
330
1E
100
AcDbEntity
  8
0
100
AcDbLine
 10
74.1622
 20
837.86
 30
0.0
 11
74.1622
 21
834.5
 31
0.0
  0
LINE
  5
C6
330
1E
100
AcDbEntity
  8
0
100
AcDbLine
 10
74.1622
 20
837.86
 30
0.0
 11
74.1622
 21
839.8760000000001
 31
0.0
  0
LINE
  5
C7
330
1E
100
AcDbEntity
  8
0
100
AcDbLine
 10
74.1622
 20
799.388
 30
0.0
 11
74.1622
 21
800.6319999999998
 31
0.0
  0
LINE
  5
C8
330
1E
100
AcDbEntity
  8
0
100
AcDbLine
 10
74.1622
 20
799.388
 30
0.0
 11
74.1622
 21
798.632
 31
0.0
  0
LINE
  5
C9
330
1E
100
AcDbEntity
  8
0
100
AcDbLine
 10
74.1622
 20
799.388
 30
0.0
 11
74.1622
 21
801.4039999999999
 31
0.0
  0
LINE
  5
CA
330
1E
100
AcDbEntity
  8
0
100
AcDbLine
 10
77.16219999999999
 20
803.808
 30
0.0
 11
77.16219999999999
 21
800.22
 31
0.0
  0
LINE
  5
CB
330
1E
100
AcDbEntity
  8
0
100
AcDbLine
 10
77.16219999999999
 20
803.808
 30
0.0
 11
77.16219999999999
 21
808.5
 31
0.0
  0
LINE
  5
CC
330
1E
100
AcDbEntity
  8
0
100
AcDbLine
 10
77.16219999999999
 20
813.836
 30
0.0
 11
77.16219999999999
 21
808.5
 31
0.0
  0
LINE
  5
CD
330
1E
100
AcDbEntity
  8
0
100
AcDbLine
 10
77.16219999999999
 20
813.836
 30
0.0
 11
77.16219999999999
 21
819.632
 31
0.0
  0
LINE
  5
CE
330
1E
100
AcDbEntity
  8
0
100
AcDbLine
 10
77.16219999999999
 20
808.5
 30
0.0
 11
77.16219999999999
 21
803.808
 31
0.0
  0
LINE
  5
CF
330
1E
100
AcDbEntity
  8
0
100
AcDbLine
 10
77.16219999999999
 20
808.5
 30
0.0
 11
77.16219999999999
 21
813.836
 31
0.0
  0
LINE
  5
D0
330
1E
100
AcDbEntity
  8
0
100
AcDbLine
 10
77.16219999999999
 20
814.7680000000001
 30
0.0
 11
77.16219999999999
 21
819.632
 31
0.0
  0
LINE
  5
D1
330
1E
100
AcDbEntity
  8
0
100
AcDbLine
 10
77.16219999999999
 20
810.208
 30
0.0
 11
77.16219999999999
 21
814.7680000000001
 31
0.0
  0
LINE
  5
D2
330
1E
100
AcDbEntity
  8
0
100
AcDbLine
 10
77.16219999999999
 20
806.1799999999999
 30
0.0
 11
77.16219999999999
 21
810.208
 31
0.0
  0
LINE
  5
D3
330
1E
100
AcDbEntity
  8
0
100
AcDbLine
 10
77.16219999999999
 20
803.1399999999999
 30
0.0
 11
77.16219999999999
 21
806.1799999999999
 31
0.0
  0
LINE
  5
D4
330
1E
100
AcDbEntity
  8
0
100
AcDbLine
 10
77.16219999999999
 20
801.316
 30
0.0
 11
77.16219999999999
 21
803.1399999999999
 31
0.0
  0
LINE
  5
D5
330
1E
100
AcDbEntity
  8
0
100
AcDbLine
 10
77.16219999999999
 20
819.632
 30
0.0
 11
77.16219999999999
 21
824.496
 31
0.0
  0
LINE
  5
D6
330
1E
100
AcDbEntity
  8
0
100
AcDbLine
 10
77.16219999999999
 20
819.632
 30
0.0
 11
77.16219999999999
 21
825.4279999999999
 31
0.0
  0
LINE
  5
D7
330
1E
100
AcDbEntity
  8
0
100
AcDbLine
 10
77.16219999999999
 20
819.632
 30
0.0
 11
77.16219999999999
 21
813.836
 31
0.0
  0
LINE
  5
D8
330
1E
100
AcDbEntity
  8
0
100
AcDbLine
 10
77.16219999999999
 20
825.4279999999999
 30
0.0
 11
77.16219999999999
 21
819.632
 31
0.0
  0
LINE
  5
D9
330
1E
100
AcDbEntity
  8
0
100
AcDbLine
 10
77.16219999999999
 20
825.4279999999999
 30
0.0
 11
77.16219999999999
 21
830.7639999999999
 31
0.0
  0
LINE
  5
DA
330
1E
100
AcDbEntity
  8
0
100
AcDbLine
 10
77.16219999999999
 20
830.7639999999999
 30
0.0
 11
77.16219999999999
 21
825.4279999999999
 31
0.0
  0
LINE
  5
DB
330
1E
100
AcDbEntity
  8
0
100
AcDbLine
 10
77.16219999999999
 20
830.7639999999999
 30
0.0
 11
77.16219999999999
 21
835.4560000000001
 31
0.0
  0
LINE
  5
DC
330
1E
100
AcDbEntity
  8
0
100
AcDbLine
 10
77.16219999999999
 20
824.496
 30
0.0
 11
77.16219999999999
 21
829.0560000000001
 31
0.0
  0
LINE
  5
DD
330
1E
100
AcDbEntity
  8
0
100
AcDbLine
 10
77.16219999999999
 20
829.0560000000001
 30
0.0
 11
77.16219999999999
 21
833.084
 31
0.0
  0
LINE
  5
DE
330
1E
100
AcDbEntity
  8
0
100
AcDbLine
 10
77.16219999999999
 20
835.4560000000001
 30
0.0
 11
77.16219999999999
 21
830.7639999999999
 31
0.0
  0
LINE
  5
DF
330
1E
100
AcDbEntity
  8
0
100
AcDbLine
 10
77.16219999999999
 20
835.4560000000001
 30
0.0
 11
77.16219999999999
 21
839.0439999999999
 31
0.0
  0
LINE
  5
E0
330
1E
100
AcDbEntity
  8
0
100
AcDbLine
 10
77.16219999999999
 20
833.084
 30
0.0
 11
77.16219999999999
 21
836.1239999999998
 31
0.0
  0
LINE
  5
E1
330
1E
100
AcDbEntity
  8
0
100
AcDbLine
 10
77.16219999999999
 20
836.1239999999998
 30
0.0
 11
77.16219999999999
 21
837.9479999999999
 31
0.0
  0
LINE
  5
E2
330
1E
100
AcDbEntity
  8
0
100
AcDbLine
 10
77.16219999999999
 20
837.9479999999999
 30
0.0
 11
77.16219999999999
 21
838.6319999999999
 31
0.0
  0
LINE
  5
E3
330
1E
100
AcDbEntity
  8
0
100
AcDbLine
 10
77.16219999999999
 20
800.6319999999998
 30
0.0
 11
77.16219999999999
 21
800.22
 31
0.0
  0
LINE
  5
E4
330
1E
100
AcDbEntity
  8
0
100
AcDbLine
 10
77.16219999999999
 20
800.6319999999998
 30
0.0
 11
77.16219999999999
 21
801.316
 31
0.0
  0
LINE
  5
E5
330
1E
100
AcDbEntity
  8
0
100
AcDbLine
 10
77.16219999999999
 20
800.22
 30
0.0
 11
77.16219999999999
 21
800.6319999999998
 31
0.0
  0
LINE
  5
E6
330
1E
100
AcDbEntity
  8
0
100
AcDbLine
 10
77.16219999999999
 20
800.22
 30
0.0
 11
77.16219999999999
 21
798.0119999999999
 31
0.0
  0
LINE
  5
E7
330
1E
100
AcDbEntity
  8
0
100
AcDbLine
 10
77.16219999999999
 20
800.22
 30
0.0
 11
77.16219999999999
 21
803.808
 31
0.0
  0
LINE
  5
E8
330
1E
100
AcDbEntity
  8
0
100
AcDbLine
 10
77.76220000000001
 20
813.7439999999999
 30
0.0
 11
77.76220000000001
 21
808.2239999999998
 31
0.0
  0
LINE
  5
E9
330
1E
100
AcDbEntity
  8
0
100
AcDbLine
 10
77.76220000000001
 20
813.7439999999999
 30
0.0
 11
77.76220000000001
 21
819.632
 31
0.0
  0
LINE
  5
EA
330
1E
100
AcDbEntity
  8
0
100
AcDbLine
 10
77.76220000000001
 20
808.2239999999998
 30
0.0
 11
77.76220000000001
 21
803.348
 31
0.0
  0
LINE
  5
EB
330
1E
100
AcDbEntity
  8
0
100
AcDbLine
 10
77.76220000000001
 20
808.2239999999998
 30
0.0
 11
77.76220000000001
 21
813.7439999999999
 31
0.0
  0
LINE
  5
EC
330
1E
100
AcDbEntity
  8
0
100
AcDbLine
 10
77.76220000000001
 20
803.348
 30
0.0
 11
77.76220000000001
 21
799.668
 31
0.0
  0
LINE
  5
ED
330
1E
100
AcDbEntity
  8
0
100
AcDbLine
 10
77.76220000000001
 20
803.348
 30
0.0
 11
77.76220000000001
 21
808.2239999999998
 31
0.0
  0
LINE
  5
EE
330
1E
100
AcDbEntity
  8
0
100
AcDbLine
 10
77.76220000000001
 20
799.668
 30
0.0
 11
77.76220000000001
 21
797.46
 31
0.0
  0
LINE
  5
EF
330
1E
100
AcDbEntity
  8
0
100
AcDbLine
 10
77.76220000000001
 20
799.668
 30
0.0
 11
77.76220000000001
 21
803.348
 31
0.0
  0
LINE
  5
F0
330
1E
100
AcDbEntity
  8
0
100
AcDbLine
 10
77.76220000000001
 20
797.46
 30
0.0
 11
77.76220000000001
 21
796.6319999999999
 31
0.0
  0
LINE
  5
F1
330
1E
100
AcDbEntity
  8
0
100
AcDbLine
 10
77.76220000000001
 20
797.46
 30
0.0
 11
77.76220000000001
 21
799.668
 31
0.0
  0
LINE
  5
F2
330
1E
100
AcDbEntity
  8
0
100
AcDbLine
 10
77.76220000000001
 20
819.632
 30
0.0
 11
77.76220000000001
 21
825.52
 31
0.0
  0
LINE
  5
F3
330
1E
100
AcDbEntity
  8
0
100
AcDbLine
 10
77.76220000000001
 20
819.632
 30
0.0
 11
77.76220000000001
 21
813.7439999999999
 31
0.0
  0
LINE
  5
F4
330
1E
100
AcDbEntity
  8
0
100
AcDbLine
 10
77.76220000000001
 20
825.52
 30
0.0
 11
77.76220000000001
 21
819.632
 31
0.0
  0
LINE
  5
F5
330
1E
100
AcDbEntity
  8
0
100
AcDbLine
 10
77.76220000000001
 20
825.52
 30
0.0
 11
77.76220000000001
 21
831.0399999999999
 31
0.0
  0
LINE
  5
F6
330
1E
100
AcDbEntity
  8
0
100
AcDbLine
 10
77.76220000000001
 20
831.0399999999999
 30
0.0
 11
77.76220000000001
 21
825.52
 31
0.0
  0
LINE
  5
F7
330
1E
100
AcDbEntity
  8
0
100
AcDbLine
 10
77.76220000000001
 20
831.0399999999999
 30
0.0
 11
77.76220000000001
 21
835.9160000000001
 31
0.0
  0
LINE
  5
F8
330
1E
100
AcDbEntity
  8
0
100
AcDbLine
 10
77.76220000000001
 20
835.9160000000001
 30
0.0
 11
77.76220000000001
 21
839.596
 31
0.0
  0
LINE
  5
F9
330
1E
100
AcDbEntity
  8
0
100
AcDbLine
 10
77.76220000000001
 20
835.9160000000001
 30
0.0
 11
77.76220000000001
 21
831.0399999999999
 31
0.0
  0
LINE
  5
FA
330
1E
100
AcDbEntity
  8
0
100
AcDbLine
 10
77.16219999999999
 20
798.0119999999999
 30
0.0
 11
77.16219999999999
 21
800.22
 31
0.0
  0
LINE
  5
FB
330
1E
100
AcDbEntity
  8
0
100
AcDbLine
 10
77.16219999999999
 20
798.0119999999999
 30
0.0
 11
77.16219999999999
 21
797.184
 31
0.0
  0
LINE
  5
FC
330
1E
100
AcDbEntity
  8
0
100
AcDbLine
 10
77.16219999999999
 20
797.184
 30
0.0
 11
77.16219999999999
 21
798.0119999999999
 31
0.0
  0
LINE
  5
FD
330
1E
100
AcDbEntity
  8
0
100
AcDbLine
 10
77.16219999999999
 20
797.184
 30
0.0
 11
77.76220000000001
 21
796.6319999999999
 31
0.0
  0
LINE
  5
FE
330
1E
100
AcDbEntity
  8
0
100
AcDbLine
 10
77.76220000000001
 20
796.6319999999999
 30
0.0
 11
94.45713596536981
 21
796.6319999999999
 31
0.0
  0
LINE
  5
FF
330
1E
100
AcDbEntity
  8
0
100
AcDbLine
 10
77.76220000000001
 20
796.6319999999999
 30
0.0
 11
77.76220000000001
 21
797.46
 31
0.0
  0
LINE
  5
100
330
1E
100
AcDbEntity
  8
0
100
AcDbLine
 10
77.16219999999999
 20
838.6319999999999
 30
0.0
 11
77.16219999999999
 21
839.0439999999999
 31
0.0
  0
LINE
  5
101
330
1E
100
AcDbEntity
  8
0
100
AcDbLine
 10
74.1622
 20
800.6319999999998
 30
0.0
 11
77.16219999999999
 21
800.6319999999998
 31
0.0
  0
LINE
  5
102
330
1E
100
AcDbEntity
  8
0
100
AcDbLine
 10
74.1622
 20
839.8760000000001
 30
0.0
 11
74.1622
 21
837.86
 31
0.0
  0
LINE
  5
103
330
1E
100
AcDbEntity
  8
0
100
AcDbLine
 10
74.1622
 20
839.8760000000001
 30
0.0
 11
74.1622
 21
840.6319999999999
 31
0.0
  0
LINE
  5
104
330
1E
100
AcDbEntity
  8
0
100
AcDbLine
 10
74.1622
 20
840.6319999999999
 30
0.0
 11
74.1622
 21
839.8760000000001
 31
0.0
  0
LINE
  5
105
330
1E
100
AcDbEntity
  8
0
100
AcDbLine
 10
77.16219999999999
 20
839.0439999999999
 30
0.0
 11
77.16219999999999
 21
841.2519999999998
 31
0.0
  0
LINE
  5
106
330
1E
100
AcDbEntity
  8
0
100
AcDbLine
 10
77.16219999999999
 20
839.0439999999999
 30
0.0
 11
77.16219999999999
 21
838.6319999999999
 31
0.0
  0
LINE
  5
107
330
1E
100
AcDbEntity
  8
0
100
AcDbLine
 10
77.16219999999999
 20
839.0439999999999
 30
0.0
 11
77.16219999999999
 21
835.4560000000001
 31
0.0
  0
LINE
  5
108
330
1E
100
AcDbEntity
  8
0
100
AcDbLine
 10
77.76220000000001
 20
839.596
 30
0.0
 11
77.76220000000001
 21
841.8039999999999
 31
0.0
  0
LINE
  5
109
330
1E
100
AcDbEntity
  8
0
100
AcDbLine
 10
77.76220000000001
 20
841.8039999999999
 30
0.0
 11
77.76220000000001
 21
839.596
 31
0.0
  0
LINE
  5
10A
330
1E
100
AcDbEntity
  8
0
100
AcDbLine
 10
77.76220000000001
 20
841.8039999999999
 30
0.0
 11
77.76220000000001
 21
842.632
 31
0.0
  0
LINE
  5
10B
330
1E
100
AcDbEntity
  8
0
100
AcDbLine
 10
77.16219999999999
 20
841.2519999999998
 30
0.0
 11
77.16219999999999
 21
842.0799999999999
 31
0.0
  0
LINE
  5
10C
330
1E
100
AcDbEntity
  8
0
100
AcDbLine
 10
77.16219999999999
 20
841.2519999999998
 30
0.0
 11
77.16219999999999
 21
839.0439999999999
 31
0.0
  0
LINE
  5
10D
330
1E
100
AcDbEntity
  8
0
100
AcDbLine
 10
77.16219999999999
 20
842.0799999999999
 30
0.0
 11
77.76220000000001
 21
842.632
 31
0.0
  0
LINE
  5
10E
330
1E
100
AcDbEntity
  8
0
100
AcDbLine
 10
77.16219999999999
 20
842.0799999999999
 30
0.0
 11
77.16219999999999
 21
841.2519999999998
 31
0.0
  0
LINE
  5
10F
330
1E
100
AcDbEntity
  8
0
100
AcDbLine
 10
77.76220000000001
 20
842.632
 30
0.0
 11
79.28238833084001
 21
842.632
 31
0.0
  0
LINE
  5
110
330
1E
100
AcDbEntity
  8
0
100
AcDbLine
 10
77.76220000000001
 20
842.632
 30
0.0
 11
77.76220000000001
 21
841.8039999999999
 31
0.0
  0
LINE
  5
111
330
1E
100
AcDbEntity
  8
0
100
AcDbLine
 10
74.1622
 20
838.6319999999999
 30
0.0
 11
77.16219999999999
 21
838.6319999999999
 31
0.0
  0
LINE
  5
112
330
1E
100
AcDbEntity
  8
0
100
AcDbLine
 10
55.1622
 20
798.632
 30
0.0
 11
55.1622
 21
726.6319999999999
 31
0.0
  0
LINE
  5
113
330
1E
100
AcDbEntity
  8
0
100
AcDbLine
 10
65.34
 20
870.706
 30
0.0
 11
71.39
 21
859.697
 31
0.0
  0
LINE
  5
114
330
1E
100
AcDbEntity
  8
0
100
AcDbLine
 10
71.39
 20
859.697
 30
0.0
 11
74.90999999999999
 21
852.1739999999999
 31
0.0
  0
LINE
  5
115
330
1E
100
AcDbEntity
  8
0
100
AcDbLine
 10
74.90999999999999
 20
852.1739999999999
 30
0.0
 11
78.98
 21
843.3669999999999
 31
0.0
  0
LINE
  5
116
330
1E
100
AcDbEntity
  8
0
100
AcDbLine
 10
78.98
 20
843.3669999999999
 30
0.0
 11
81.8062692283347
 21
836.4973305353881
 31
0.0
  0
LINE
  5
117
330
1E
100
AcDbEntity
  8
0
100
AcDbLine
 10
94.2600116966717
 20
797.50188739425
 30
0.0
 11
100.54
 21
769.789
 31
0.0
  0
LINE
  5
118
330
1E
100
AcDbEntity
  8
0
100
AcDbLine
 10
100.54
 20
769.789
 30
0.0
 11
104.9399999999999
 21
742.266
 31
0.0
  0
LINE
  5
119
330
1E
100
AcDbEntity
  8
0
100
AcDbLine
 10
104.9399999999999
 20
742.266
 30
0.0
 11
107.6899999999999
 21
714.743
 31
0.0
  0
LINE
  5
11A
330
1E
100
AcDbEntity
  8
0
100
AcDbLine
 10
107.6899999999999
 20
714.743
 30
0.0
 11
108.259038800109
 21
384.3604834967369
 31
0.0
  0
LINE
  5
11B
330
1E
100
AcDbEntity
  8
0
100
AcDbLine
 10
110.257
 20
407.198
 30
0.0
 11
112.0
 21
428.1219999999999
 31
0.0
  0
LINE
  5
11E
330
1E
100
AcDbEntity
  8
0
100
AcDbLine
 10
112.0
 20
428.1219999999999
 30
0.0
 11
113.9259999999999
 21
450.1369999999999
 31
0.0
  0
LINE
  5
123
330
1E
100
AcDbEntity
  8
0
100
AcDbLine
 10
113.9259999999999
 20
450.1369999999999
 30
0.0
 11
115.67
 21
470.061
 31
0.0
  0
LINE
  5
126
330
1E
100
AcDbEntity
  8
0
100
AcDbLine
 10
115.67
 20
470.061
 30
0.0
 11
117.683
 21
493.073
 31
0.0
  0
LINE
  5
127
330
1E
100
AcDbEntity
  8
0
100
AcDbLine
 10
118.622
 20
319.234
 30
0.0
 11
120.331
 21
338.759
 31
0.0
  0
LINE
  5
129
330
1E
100
AcDbEntity
  8
0
100
AcDbLine
 10
120.331
 20
338.759
 30
0.0
 11
122.2829999999999
 21
361.074
 31
0.0
  0
LINE
  5
12A
330
1E
100
AcDbEntity
  8
0
100
AcDbLine
 10
122.2829999999999
 20
361.074
 30
0.0
 11
124.235
 21
383.389
 31
0.0
  0
LINE
  5
12C
330
1E
100
AcDbEntity
  8
0
100
AcDbLine
 10
124.235
 20
383.389
 30
0.0
 11
126.1959999999999
 21
405.803
 31
0.0
  0
LINE
  5
12F
330
1E
100
AcDbEntity
  8
0
100
AcDbLine
 10
126.1959999999999
 20
405.803
 30
0.0
 11
127.939
 21
426.7269999999999
 31
0.0
  0
LINE
  5
134
330
1E
100
AcDbEntity
  8
0
100
AcDbLine
 10
126.913
 20
598.57
 30
0.0
 11
134.023
 21
807.559
 31
0.0
  0
LINE
  5
135
330
1E
100
AcDbEntity
  8
0
100
AcDbLine
 10
124.036
 20
565.696
 30
0.0
 11
126.913
 21
598.57
 31
0.0
  0
LINE
  5
136
330
1E
100
AcDbEntity
  8
0
100
AcDbLine
 10
122.032
 20
542.7839999999999
 30
0.0
 11
124.036
 21
565.696
 31
0.0
  0
LINE
  5
137
330
1E
100
AcDbEntity
  8
0
100
AcDbLine
 10
119.87
 20
518.0779999999999
 30
0.0
 11
122.032
 21
542.7839999999999
 31
0.0
  0
LINE
  5
138
330
1E
100
AcDbEntity
  8
0
100
AcDbLine
 10
117.683
 20
493.073
 30
0.0
 11
119.87
 21
518.0779999999999
 31
0.0
  0
LINE
  5
13A
330
1E
100
AcDbEntity
  8
0
100
AcDbLine
 10
116.914
 20
299.708
 30
0.0
 11
118.622
 21
319.234
 31
0.0
  0
LINE
  5
13B
330
1E
100
AcDbEntity
  8
0
100
AcDbLine
 10
114.962
 20
277.394
 30
0.0
 11
116.914
 21
299.708
 31
0.0
  0
LINE
  5
13C
330
1E
100
AcDbEntity
  8
0
100
AcDbLine
 10
113.01
 20
255.079
 30
0.0
 11
114.962
 21
277.394
 31
0.0
  0
LINE
  5
13D
330
1E
100
AcDbEntity
  8
0
100
AcDbLine
 10
111.0489999999999
 20
232.6649999999999
 30
0.0
 11
113.01
 21
255.079
 31
0.0
  0
LINE
  5
13E
330
1E
100
AcDbEntity
  8
0
100
AcDbLine
 10
109.3059999999999
 20
212.7409999999999
 30
0.0
 11
111.0489999999999
 21
232.6649999999999
 31
0.0
  0
LINE
  5
13F
330
1E
100
AcDbEntity
  8
0
100
AcDbLine
 10
108.56913107371
 20
204.321678267999
 30
0.0
 11
108.9
 21
12.22
 31
0.0
  0
LINE
  5
140
330
1E
100
AcDbEntity
  8
0
100
AcDbLine
 10
121.6599999999999
 20
12.22
 30
0.0
 11
127.7099999999999
 21
12.22
 31
0.0
  0
LINE
  5
141
330
1E
100
AcDbEntity
  8
0
100
AcDbLine
 10
193.9859999999999
 20
12.22
 30
0.0
 11
194.6909999999999
 21
12.22
 31
0.0
  0
LINE
  5
142
330
1E
100
AcDbEntity
  8
0
100
AcDbLine
 10
193.9859999999999
 20
11.91999999999999
 30
0.0
 11
195.194
 21
11.91999999999999
 31
0.0
  0
LINE
  5
143
330
1E
100
AcDbEntity
  8
0
100
AcDbLine
 10
193.9859999999999
 20
0.220000000000034
 30
0.0
 11
194.6909999999999
 21
0.220000000000034
 31
0.0
  0
LINE
  5
144
330
1E
100
AcDbEntity
  8
0
100
AcDbLine
 10
195.6979999999999
 20
0.5200000000000341
 30
0.0
 11
196.0
 21
1.22000000000003
 31
0.0
  0
LINE
  5
145
330
1E
100
AcDbEntity
  8
0
100
AcDbLine
 10
194.6909999999999
 20
0.220000000000034
 30
0.0
 11
194.9929999999999
 21
0.220000000000034
 31
0.0
  0
LINE
  5
146
330
1E
100
AcDbEntity
  8
0
100
AcDbLine
 10
194.6909999999999
 20
12.22
 30
0.0
 11
194.9929999999999
 21
12.22
 31
0.0
  0
LINE
  5
148
330
1E
100
AcDbEntity
  8
0
100
AcDbLine
 10
195.194
 20
11.91999999999999
 30
0.0
 11
195.6979999999999
 21
11.91999999999999
 31
0.0
  0
LINE
  5
14A
330
1E
100
AcDbEntity
  8
0
100
AcDbLine
 10
196.0
 20
11.22
 30
0.0
 11
196.0
 21
1.22000000000003
 31
0.0
  0
LINE
  5
14B
330
1E
100
AcDbEntity
  8
0
100
AcDbLine
 10
196.0
 20
1.22000000000003
 30
0.0
 11
196.0
 21
11.22
 31
0.0
  0
LINE
  5
14D
330
1E
100
AcDbEntity
  8
0
100
AcDbLine
 10
195.194
 20
0.5200000000000341
 30
0.0
 11
195.6979999999999
 21
0.5200000000000341
 31
0.0
  0
LINE
  5
14F
330
1E
100
AcDbEntity
  8
0
100
AcDbLine
 10
193.9859999999999
 20
0.5200000000000341
 30
0.0
 11
195.194
 21
0.5200000000000341
 31
0.0
  0
LINE
  5
150
330
1E
100
AcDbEntity
  8
0
100
AcDbLine
 10
159.4999999999999
 20
12.22
 30
0.0
 11
159.61
 21
714.743
 31
0.0
  0
LINE
  5
151
330
1E
100
AcDbEntity
  8
0
100
AcDbLine
 10
159.3899999999999
 20
12.22
 30
0.0
 11
159.4999999999999
 21
12.22
 31
0.0
  0
LINE
  5
152
330
1E
100
AcDbEntity
  8
0
100
AcDbLine
 10
159.06
 20
12.22
 30
0.0
 11
159.3899999999999
 21
12.22
 31
0.0
  0
LINE
  5
153
330
1E
100
AcDbEntity
  8
0
100
AcDbLine
 10
158.5099999999999
 20
12.22
 30
0.0
 11
159.06
 21
12.22
 31
0.0
  0
LINE
  5
154
330
1E
100
AcDbEntity
  8
0
100
AcDbLine
 10
157.85
 20
12.22
 30
0.0
 11
158.5099999999999
 21
12.22
 31
0.0
  0
LINE
  5
155
330
1E
100
AcDbEntity
  8
0
100
AcDbLine
 10
157.08
 20
12.22
 30
0.0
 11
157.85
 21
12.22
 31
0.0
  0
LINE
  5
156
330
1E
100
AcDbEntity
  8
0
100
AcDbLine
 10
134.1999999999999
 20
12.22
 30
0.0
 11
156.1999999999999
 21
12.22
 31
0.0
  0
LINE
  5
158
330
1E
100
AcDbEntity
  8
0
100
AcDbLine
 10
131.609
 20
468.6669999999999
 30
0.0
 11
133.622
 21
491.679
 31
0.0
  0
LINE
  5
159
330
1E
100
AcDbEntity
  8
0
100
AcDbLine
 10
129.866
 20
448.743
 30
0.0
 11
131.609
 21
468.6669999999999
 31
0.0
  0
LINE
  5
15A
330
1E
100
AcDbEntity
  8
0
100
AcDbLine
 10
127.939
 20
426.7269999999999
 30
0.0
 11
129.866
 21
448.743
 31
0.0
  0
LINE
  5
15B
330
1E
100
AcDbEntity
  8
0
100
AcDbLine
 10
131.264
 20
807.559
 30
0.0
 11
131.6599999999999
 21
807.559
 31
0.0
  0
LINE
  5
15C
330
1E
100
AcDbEntity
  8
0
100
AcDbLine
 10
133.622
 20
491.679
 30
0.0
 11
135.81
 21
516.683
 31
0.0
  0
LINE
  5
15D
330
1E
100
AcDbEntity
  8
0
100
AcDbLine
 10
134.023
 20
807.559
 30
0.0
 11
134.621
 21
807.559
 31
0.0
  0
LINE
  5
15E
330
1E
100
AcDbEntity
  8
0
100
AcDbLine
 10
131.6599999999999
 20
807.559
 30
0.0
 11
132.716
 21
807.559
 31
0.0
  0
LINE
  5
15F
330
1E
100
AcDbEntity
  8
0
100
AcDbLine
 10
132.716
 20
807.559
 30
0.0
 11
134.432
 21
807.559
 31
0.0
  0
LINE
  5
160
330
1E
100
AcDbEntity
  8
0
100
AcDbLine
 10
132.716
 20
807.559
 30
0.0
 11
134.023
 21
807.559
 31
0.0
  0
LINE
  5
161
330
1E
100
AcDbEntity
  8
0
100
AcDbLine
 10
135.81
 20
516.683
 30
0.0
 11
137.9709999999999
 21
541.389
 31
0.0
  0
LINE
  5
162
330
1E
100
AcDbEntity
  8
0
100
AcDbLine
 10
134.621
 20
807.559
 30
0.0
 11
136.416
 21
807.559
 31
0.0
  0
LINE
  5
163
330
1E
100
AcDbEntity
  8
0
100
AcDbLine
 10
137.9709999999999
 20
541.389
 30
0.0
 11
139.976
 21
564.3019999999999
 31
0.0
  0
LINE
  5
164
330
1E
100
AcDbEntity
  8
0
100
AcDbLine
 10
136.416
 20
807.559
 30
0.0
 11
138.9079999999999
 21
807.559
 31
0.0
  0
LINE
  5
165
330
1E
100
AcDbEntity
  8
0
100
AcDbLine
 10
138.9079999999999
 20
807.559
 30
0.0
 11
141.9979999999999
 21
807.559
 31
0.0
  0
LINE
  5
166
330
1E
100
AcDbEntity
  8
0
100
AcDbLine
 10
134.432
 20
807.559
 30
0.0
 11
136.676
 21
807.559
 31
0.0
  0
LINE
  5
167
330
1E
100
AcDbEntity
  8
0
100
AcDbLine
 10
136.676
 20
807.559
 30
0.0
 11
139.2279999999999
 21
807.559
 31
0.0
  0
LINE
  5
168
330
1E
100
AcDbEntity
  8
0
100
AcDbLine
 10
142.8519999999999
 20
597.1759999999999
 30
0.0
 11
149.972
 21
807.559
 31
0.0
  0
LINE
  5
169
330
1E
100
AcDbEntity
  8
0
100
AcDbLine
 10
141.9979999999999
 20
807.559
 30
0.0
 11
145.0879999999999
 21
807.559
 31
0.0
  0
LINE
  5
16A
330
1E
100
AcDbEntity
  8
0
100
AcDbLine
 10
139.976
 20
564.3019999999999
 30
0.0
 11
142.8519999999999
 21
597.1759999999999
 31
0.0
  0
LINE
  5
16B
330
1E
100
AcDbEntity
  8
0
100
AcDbLine
 10
149.374
 20
807.559
 30
0.0
 11
149.972
 21
807.559
 31
0.0
  0
LINE
  5
16C
330
1E
100
AcDbEntity
  8
0
100
AcDbLine
 10
147.58
 20
807.559
 30
0.0
 11
149.374
 21
807.559
 31
0.0
  0
LINE
  5
16D
330
1E
100
AcDbEntity
  8
0
100
AcDbLine
 10
145.0879999999999
 20
807.559
 30
0.0
 11
147.58
 21
807.559
 31
0.0
  0
LINE
  5
16E
330
1E
100
AcDbEntity
  8
0
100
AcDbLine
 10
149.5679999999999
 20
807.559
 30
0.0
 11
151.2839999999999
 21
807.559
 31
0.0
  0
LINE
  5
16F
330
1E
100
AcDbEntity
  8
0
100
AcDbLine
 10
147.3239999999999
 20
807.559
 30
0.0
 11
149.5679999999999
 21
807.559
 31
0.0
  0
LINE
  5
170
330
1E
100
AcDbEntity
  8
0
100
AcDbLine
 10
144.772
 20
807.559
 30
0.0
 11
147.3239999999999
 21
807.559
 31
0.0
  0
LINE
  5
171
330
1E
100
AcDbEntity
  8
0
100
AcDbLine
 10
142.0
 20
807.559
 30
0.0
 11
144.772
 21
807.559
 31
0.0
  0
LINE
  5
172
330
1E
100
AcDbEntity
  8
0
100
AcDbLine
 10
152.34
 20
807.559
 30
0.0
 11
152.7359999999999
 21
807.559
 31
0.0
  0
LINE
  5
173
330
1E
100
AcDbEntity
  8
0
100
AcDbLine
 10
152.7359999999999
 20
807.559
 30
0.0
 11
153.0
 21
808.15
 31
0.0
  0
LINE
  5
174
330
1E
100
AcDbEntity
  8
0
100
AcDbLine
 10
151.2839999999999
 20
807.559
 30
0.0
 11
152.34
 21
807.559
 31
0.0
  0
LINE
  5
175
330
1E
100
AcDbEntity
  8
0
100
AcDbLine
 10
149.972
 20
807.559
 30
0.0
 11
151.2839999999999
 21
807.559
 31
0.0
  0
LINE
  5
176
330
1E
100
AcDbEntity
  8
0
100
AcDbLine
 10
153.0
 20
808.15
 30
0.0
 11
153.0
 21
843.3669999999999
 31
0.0
  0
LINE
  5
177
330
1E
100
AcDbEntity
  8
0
100
AcDbLine
 10
139.2279999999999
 20
807.559
 30
0.0
 11
142.0
 21
807.559
 31
0.0
  0
LINE
  5
178
330
1E
100
AcDbEntity
  8
0
100
AcDbLine
 10
131.0
 20
840.964239829897
 30
0.0
 11
131.0
 21
808.15
 31
0.0
  0
LINE
  5
179
330
1E
100
AcDbEntity
  8
0
100
AcDbLine
 10
131.0
 20
808.15
 30
0.0
 11
131.0
 21
840.964239829897
 31
0.0
  0
LINE
  5
17A
330
1E
100
AcDbEntity
  8
0
100
AcDbLine
 10
131.0
 20
808.15
 30
0.0
 11
131.264
 21
807.559
 31
0.0
  0
LINE
  5
187
330
1E
100
AcDbEntity
  8
0
100
AcDbLine
 10
164.0099999999999
 20
870.706
 30
0.0
 11
165.0
 21
887.2200000000001
 31
0.0
  0
LINE
  5
188
330
1E
100
AcDbEntity
  8
0
100
AcDbLine
 10
163.3499999999999
 20
859.697
 30
0.0
 11
164.0099999999999
 21
870.706
 31
0.0
  0
LINE
  5
189
330
1E
100
AcDbEntity
  8
0
100
AcDbLine
 10
163.02
 20
852.1739999999999
 30
0.0
 11
163.3499999999999
 21
859.697
 31
0.0
  0
LINE
  5
18A
330
1E
100
AcDbEntity
  8
0
100
AcDbLine
 10
162.58
 20
843.3669999999999
 30
0.0
 11
163.02
 21
852.1739999999999
 31
0.0
  0
LINE
  5
18B
330
1E
100
AcDbEntity
  8
0
100
AcDbLine
 10
162.1399999999999
 20
834.009
 30
0.0
 11
162.58
 21
843.3669999999999
 31
0.0
  0
LINE
  5
18C
330
1E
100
AcDbEntity
  8
0
100
AcDbLine
 10
161.81
 20
824.468
 30
0.0
 11
162.1399999999999
 21
834.009
 31
0.0
  0
LINE
  5
18D
330
1E
100
AcDbEntity
  8
0
100
AcDbLine
 10
161.4799999999999
 20
815.6599999999999
 30
0.0
 11
161.81
 21
824.468
 31
0.0
  0
LINE
  5
18E
330
1E
100
AcDbEntity
  8
0
100
AcDbLine
 10
161.26
 20
808.1369999999999
 30
0.0
 11
161.4799999999999
 21
815.6599999999999
 31
0.0
  0
LINE
  5
18F
330
1E
100
AcDbEntity
  8
0
100
AcDbLine
 10
160.3799999999999
 20
769.789
 30
0.0
 11
161.26
 21
808.1369999999999
 31
0.0
  0
LINE
  5
190
330
1E
100
AcDbEntity
  8
0
100
AcDbLine
 10
159.9399999999999
 20
742.266
 30
0.0
 11
160.3799999999999
 21
769.789
 31
0.0
  0
LINE
  5
191
330
1E
100
AcDbEntity
  8
0
100
AcDbLine
 10
159.61
 20
714.743
 30
0.0
 11
159.9399999999999
 21
742.266
 31
0.0
  0
LINE
  5
192
330
1E
100
AcDbEntity
  8
0
100
AcDbLine
 10
159.4999999999999
 20
12.2200000000001
 30
0.0
 11
159.61
 21
714.743
 31
0.0
  0
LINE
  5
193
330
1E
100
AcDbEntity
  8
0
100
AcDbLine
 10
156.1999999999999
 20
12.22
 30
0.0
 11
157.08
 21
12.22
 31
0.0
  0
LINE
  5
195
330
1E
100
AcDbEntity
  8
0
100
AcDbLine
 10
127.7099999999999
 20
12.22
 30
0.0
 11
134.1999999999999
 21
12.22
 31
0.0
  0
LINE
  5
196
330
1E
100
AcDbEntity
  8
0
100
AcDbLine
 10
134.1999999999999
 20
887.2200000000001
 30
0.0
 11
161.6999999999999
 21
887.2200000000001
 31
0.0
  0
LINE
  5
197
330
1E
100
AcDbEntity
  8
0
100
AcDbLine
 10
161.6999999999999
 20
887.2200000000001
 30
0.0
 11
162.58
 21
887.2200000000001
 31
0.0
  0
LINE
  5
198
330
1E
100
AcDbEntity
  8
0
100
AcDbLine
 10
162.58
 20
887.2200000000001
 30
0.0
 11
163.3499999999999
 21
887.2200000000001
 31
0.0
  0
LINE
  5
199
330
1E
100
AcDbEntity
  8
0
100
AcDbLine
 10
163.3499999999999
 20
887.2200000000001
 30
0.0
 11
164.0099999999999
 21
887.2200000000001
 31
0.0
  0
LINE
  5
19A
330
1E
100
AcDbEntity
  8
0
100
AcDbLine
 10
164.0099999999999
 20
887.2200000000001
 30
0.0
 11
164.5599999999999
 21
887.2200000000001
 31
0.0
  0
LINE
  5
19B
330
1E
100
AcDbEntity
  8
0
100
AcDbLine
 10
164.5599999999999
 20
887.2200000000001
 30
0.0
 11
164.8899999999999
 21
887.2200000000001
 31
0.0
  0
LINE
  5
19C
330
1E
100
AcDbEntity
  8
0
100
AcDbLine
 10
164.8899999999999
 20
887.2200000000001
 30
0.0
 11
165.0
 21
887.2200000000001
 31
0.0
  0
LINE
  5
19D
330
1E
100
AcDbEntity
  8
0
100
AcDbLine
 10
113.85
 20
887.2200000000001
 30
0.0
 11
134.1999999999999
 21
887.2200000000001
 31
0.0
  0
LINE
  5
19E
330
1E
100
AcDbEntity
  8
0
100
AcDbLine
 10
94.81999999999999
 20
887.2200000000001
 30
0.0
 11
113.85
 21
887.2200000000001
 31
0.0
  0
LINE
  5
19F
330
1E
100
AcDbEntity
  8
0
100
AcDbLine
 10
78.31999999999999
 20
887.2200000000001
 30
0.0
 11
94.81999999999999
 21
887.2200000000001
 31
0.0
  0
LINE
  5
1A0
330
1E
100
AcDbEntity
  8
0
100
AcDbLine
 10
65.67
 20
887.2200000000001
 30
0.0
 11
78.31999999999999
 21
887.2200000000001
 31
0.0
  0
LINE
  5
1A1
330
1E
100
AcDbEntity
  8
0
100
AcDbLine
 10
57.86
 20
887.2200000000001
 30
0.0
 11
65.67
 21
887.2200000000001
 31
0.0
  0
LINE
  5
1A2
330
1E
100
AcDbEntity
  8
0
100
AcDbLine
 10
55.0
 20
887.2200000000001
 30
0.0
 11
65.34
 21
870.706
 31
0.0
  0
LINE
  5
1A3
330
1E
100
AcDbEntity
  8
0
100
AcDbLine
 10
55.0
 20
887.2200000000001
 30
0.0
 11
57.86
 21
887.2200000000001
 31
0.0
  0
LINE
  5
1A4
330
1E
100
AcDbEntity
  8
0
100
AcDbLine
 10
154.277
 20
900.22
 30
0.0
 11
154.277
 21
902.28
 31
0.0
  0
LINE
  5
1A5
330
1E
100
AcDbEntity
  8
0
100
AcDbLine
 10
130.277
 20
900.22
 30
0.0
 11
130.277
 21
902.28
 31
0.0
  0
LINE
  5
1A6
330
1E
100
AcDbEntity
  8
0
100
AcDbLine
 10
133.777
 20
902.28
 30
0.0
 11
136.277
 21
902.28
 31
0.0
  0
LINE
  5
1A7
330
1E
100
AcDbEntity
  8
0
100
AcDbLine
 10
150.777
 20
902.28
 30
0.0
 11
152.677
 21
902.28
 31
0.0
  0
LINE
  5
1A8
330
1E
100
AcDbEntity
  8
0
100
AcDbLine
 10
152.677
 20
902.28
 30
0.0
 11
153.877
 21
902.28
 31
0.0
  0
LINE
  5
1A9
330
1E
100
AcDbEntity
  8
0
100
AcDbLine
 10
154.277
 20
902.28
 30
0.0
 11
154.277
 21
900.22
 31
0.0
  0
LINE
  5
1AA
330
1E
100
AcDbEntity
  8
0
100
AcDbLine
 10
153.877
 20
902.28
 30
0.0
 11
154.277
 21
902.28
 31
0.0
  0
LINE
  5
1AB
330
1E
100
AcDbEntity
  8
0
100
AcDbLine
 10
148.277
 20
902.28
 30
0.0
 11
150.777
 21
902.28
 31
0.0
  0
LINE
  5
1AC
330
1E
100
AcDbEntity
  8
0
100
AcDbLine
 10
145.377
 20
902.28
 30
0.0
 11
148.277
 21
902.28
 31
0.0
  0
LINE
  5
1AD
330
1E
100
AcDbEntity
  8
0
100
AcDbLine
 10
142.277
 20
902.28
 30
0.0
 11
145.377
 21
902.28
 31
0.0
  0
LINE
  5
1AE
330
1E
100
AcDbEntity
  8
0
100
AcDbLine
 10
136.277
 20
902.28
 30
0.0
 11
139.177
 21
902.28
 31
0.0
  0
LINE
  5
1AF
330
1E
100
AcDbEntity
  8
0
100
AcDbLine
 10
139.177
 20
902.28
 30
0.0
 11
142.277
 21
902.28
 31
0.0
  0
LINE
  5
1B0
330
1E
100
AcDbEntity
  8
0
100
AcDbLine
 10
131.877
 20
902.28
 30
0.0
 11
133.777
 21
902.28
 31
0.0
  0
LINE
  5
1B1
330
1E
100
AcDbEntity
  8
0
100
AcDbLine
 10
134.177
 20
902.7799999999999
 30
0.0
 11
136.5769999999999
 21
902.7799999999999
 31
0.0
  0
LINE
  5
1B2
330
1E
100
AcDbEntity
  8
0
100
AcDbLine
 10
150.377
 20
902.7799999999999
 30
0.0
 11
152.277
 21
902.7799999999999
 31
0.0
  0
LINE
  5
1B3
330
1E
100
AcDbEntity
  8
0
100
AcDbLine
 10
152.277
 20
902.7799999999999
 30
0.0
 11
153.377
 21
902.7799999999999
 31
0.0
  0
LINE
  5
1B4
330
1E
100
AcDbEntity
  8
0
100
AcDbLine
 10
153.777
 20
902.7799999999999
 30
0.0
 11
154.277
 21
902.28
 31
0.0
  0
LINE
  5
1B5
330
1E
100
AcDbEntity
  8
0
100
AcDbLine
 10
153.377
 20
902.7799999999999
 30
0.0
 11
153.777
 21
902.7799999999999
 31
0.0
  0
LINE
  5
1B6
330
1E
100
AcDbEntity
  8
0
100
AcDbLine
 10
147.977
 20
902.7799999999999
 30
0.0
 11
150.377
 21
902.7799999999999
 31
0.0
  0
LINE
  5
1B7
330
1E
100
AcDbEntity
  8
0
100
AcDbLine
 10
145.277
 20
902.7799999999999
 30
0.0
 11
147.977
 21
902.7799999999999
 31
0.0
  0
LINE
  5
1B8
330
1E
100
AcDbEntity
  8
0
100
AcDbLine
 10
142.277
 20
902.7799999999999
 30
0.0
 11
145.277
 21
902.7799999999999
 31
0.0
  0
LINE
  5
1B9
330
1E
100
AcDbEntity
  8
0
100
AcDbLine
 10
136.5769999999999
 20
902.7799999999999
 30
0.0
 11
139.277
 21
902.7799999999999
 31
0.0
  0
LINE
  5
1BA
330
1E
100
AcDbEntity
  8
0
100
AcDbLine
 10
139.277
 20
902.7799999999999
 30
0.0
 11
142.277
 21
902.7799999999999
 31
0.0
  0
LINE
  5
1BB
330
1E
100
AcDbEntity
  8
0
100
AcDbLine
 10
132.277
 20
902.7799999999999
 30
0.0
 11
134.177
 21
902.7799999999999
 31
0.0
  0
LINE
  5
1BC
330
1E
100
AcDbEntity
  8
0
100
AcDbLine
 10
131.177
 20
902.7799999999999
 30
0.0
 11
132.277
 21
902.7799999999999
 31
0.0
  0
LINE
  5
1BD
330
1E
100
AcDbEntity
  8
0
100
AcDbLine
 10
130.777
 20
902.7799999999999
 30
0.0
 11
131.177
 21
902.7799999999999
 31
0.0
  0
LINE
  5
1BE
330
1E
100
AcDbEntity
  8
0
100
AcDbLine
 10
130.677
 20
902.28
 30
0.0
 11
131.877
 21
902.28
 31
0.0
  0
LINE
  5
1BF
330
1E
100
AcDbEntity
  8
0
100
AcDbLine
 10
130.277
 20
902.28
 30
0.0
 11
130.777
 21
902.7799999999999
 31
0.0
  0
LINE
  5
1C0
330
1E
100
AcDbEntity
  8
0
100
AcDbLine
 10
130.277
 20
902.28
 30
0.0
 11
130.277
 21
900.22
 31
0.0
  0
LINE
  5
1C1
330
1E
100
AcDbEntity
  8
0
100
AcDbLine
 10
130.277
 20
902.28
 30
0.0
 11
130.677
 21
902.28
 31
0.0
  0
LINE
  5
1C2
330
1E
100
AcDbEntity
  8
0
100
AcDbLine
 10
167.9859999999999
 20
900.22
 30
0.0
 11
168.6909999999999
 21
900.22
 31
0.0
  0
LINE
  5
1C3
330
1E
100
AcDbEntity
  8
0
100
AcDbLine
 10
167.9859999999999
 20
899.895
 30
0.0
 11
169.194
 21
899.895
 31
0.0
  0
LINE
  5
1C4
330
1E
100
AcDbEntity
  8
0
100
AcDbLine
 10
167.9859999999999
 20
887.2200000000001
 30
0.0
 11
168.6909999999999
 21
887.2200000000001
 31
0.0
  0
LINE
  5
1C5
330
1E
100
AcDbEntity
  8
0
100
AcDbLine
 10
168.6909999999999
 20
887.2200000000001
 30
0.0
 11
168.9929999999999
 21
887.2200000000001
 31
0.0
  0
LINE
  5
1C6
330
1E
100
AcDbEntity
  8
0
100
AcDbLine
 10
169.6979999999999
 20
887.5449999999998
 30
0.0
 11
170.0
 21
888.3029999999999
 31
0.0
  0
LINE
  5
1C7
330
1E
100
AcDbEntity
  8
0
100
AcDbLine
 10
168.9929999999999
 20
887.2200000000001
 30
0.0
 11
169.6979999999999
 21
887.5449999999998
 31
0.0
  0
LINE
  5
1C8
330
1E
100
AcDbEntity
  8
0
100
AcDbLine
 10
168.9929999999999
 20
900.22
 30
0.0
 11
169.6979999999999
 21
899.895
 31
0.0
  0
LINE
  5
1C9
330
1E
100
AcDbEntity
  8
0
100
AcDbLine
 10
168.6909999999999
 20
900.22
 30
0.0
 11
168.9929999999999
 21
900.22
 31
0.0
  0
LINE
  5
1CB
330
1E
100
AcDbEntity
  8
0
100
AcDbLine
 10
169.194
 20
899.895
 30
0.0
 11
169.6979999999999
 21
899.895
 31
0.0
  0
LINE
  5
1CD
330
1E
100
AcDbEntity
  8
0
100
AcDbLine
 10
169.6979999999999
 20
899.895
 30
0.0
 11
170.0
 21
899.1369999999999
 31
0.0
  0
LINE
  5
1CE
330
1E
100
AcDbEntity
  8
0
100
AcDbLine
 10
170.0
 20
899.1369999999999
 30
0.0
 11
170.0
 21
888.3029999999999
 31
0.0
  0
LINE
  5
1CF
330
1E
100
AcDbEntity
  8
0
100
AcDbLine
 10
170.0
 20
888.3029999999999
 30
0.0
 11
170.0
 21
899.1369999999999
 31
0.0
  0
LINE
  5
1D1
330
1E
100
AcDbEntity
  8
0
100
AcDbLine
 10
169.194
 20
887.5449999999998
 30
0.0
 11
169.6979999999999
 21
887.5449999999998
 31
0.0
  0
LINE
  5
1D3
330
1E
100
AcDbEntity
  8
0
100
AcDbLine
 10
167.9859999999999
 20
887.5449999999998
 30
0.0
 11
169.194
 21
887.5449999999998
 31
0.0
  0
LINE
  5
1D4
330
1E
100
AcDbEntity
  8
0
100
AcDbLine
 10
4.00000000000003
 20
884.22
 30
0.0
 11
10.0
 21
887.2200000000001
 31
0.0
  0
LINE
  5
1D5
330
1E
100
AcDbEntity
  8
0
100
AcDbLine
 10
3.000000000000029
 20
887.2200000000001
 30
0.0
 11
4.00000000000003
 21
884.22
 31
0.0
  0
LINE
  5
1D6
330
1E
100
AcDbEntity
  8
0
100
AcDbLine
 10
3.000000000000029
 20
887.2200000000001
 30
0.0
 11
10.0
 21
887.2200000000001
 31
0.0
  0
LINE
  5
1DB
330
1E
100
AcDbEntity
  8
0
100
AcDbLine
 10
94.2600116966717
 20
797.50188739425
 30
0.0
 11
81.8062692283347
 21
836.4973305353881
 31
0.0
  0
LINE
  5
1DC
330
1E
100
AcDbEntity
  8
0
100
AcDbLine
 10
194.9929999999999
 20
12.22
 30
0.0
 11
195.6979999999999
 21
11.91999999999999
 31
0.0
  0
LINE
  5
1DD
330
1E
100
AcDbEntity
  8
0
100
AcDbLine
 10
195.6979999999999
 20
11.91999999999999
 30
0.0
 11
196.0
 21
11.22
 31
0.0
  0
LINE
  5
1DE
330
1E
100
AcDbEntity
  8
0
100
AcDbLine
 10
194.9929999999999
 20
0.220000000000034
 30
0.0
 11
195.6979999999999
 21
0.5200000000000341
 31
0.0
  0
ENDSEC
  0
SECTION
  2
OBJECTS
  0
DICTIONARY
  5
C
330
0
100
AcDbDictionary
281
     1
  3
ACAD_GROUP
350
D
  3
ACAD_LAYOUT
350
19
  3
ACAD_MLINESTYLE
350
16
  3
ACAD_PLOTSETTINGS
350
18
  3
ACAD_PLOTSTYLENAME
350
E
  3
AcDbVariableDictionary
350
1DF
  0
DICTIONARY
  5
D
102
{ACAD_REACTORS
330
C
102
}
330
C
100
AcDbDictionary
281
     1
  0
DICTIONARY
  5
19
102
{ACAD_REACTORS
330
C
102
}
330
C
100
AcDbDictionary
281
     1
  3
Layout1
350
1D
  3
Model
350
21
  0
DICTIONARY
  5
16
102
{ACAD_REACTORS
330
C
102
}
330
C
100
AcDbDictionary
281
     1
  3
Standard
350
17
  0
DICTIONARY
  5
18
102
{ACAD_REACTORS
330
C
102
}
330
C
100
AcDbDictionary
281
     1
  0
ACDBDICTIONARYWDFLT
  5
E
102
{ACAD_REACTORS
330
C
102
}
330
C
100
AcDbDictionary
281
     1
  3
Normal
350
F
100
AcDbDictionaryWithDefault
340
F
  0
DICTIONARY
  5
1DF
102
{ACAD_REACTORS
330
C
102
}
330
C
100
AcDbDictionary
281
     1
  3
DIMASSOC
350
1E0
  0
LAYOUT
  5
1D
102
{ACAD_REACTORS
330
19
102
}
330
19
100
AcDbPlotSettings
  1

  2
hp deskjet 980c series
  4

  6

 40
0.0
 41
0.0
 42
0.0
 43
0.0
 44
0.0
 45
0.0
 46
0.0
 47
0.0
 48
0.0
 49
0.0
140
0.0
141
0.0
142
1.0
143
1.0
 70
   688
 72
     0
 73
     0
 74
     5
  7

 75
    16
147
1.0
148
0.0
149
0.0
100
AcDbLayout
  1
Layout1
 70
     1
 71
     1
 10
0.0
 20
0.0
 11
12.0
 21
9.0
 12
0.0
 22
0.0
 32
0.0
 14
1.000000000000000E+20
 24
1.000000000000000E+20
 34
1.000000000000000E+20
 15
-1.000000000000000E+20
 25
-1.000000000000000E+20
 35
-1.000000000000000E+20
146
0.0
 13
0.0
 23
0.0
 33
0.0
 16
1.0
 26
0.0
 36
0.0
 17
0.0
 27
1.0
 37
0.0
 76
     0
330
1A
  0
LAYOUT
  5
21
102
{ACAD_REACTORS
330
19
102
}
330
19
100
AcDbPlotSettings
  1

  2
hp deskjet 980c series
  4

  6

 40
0.0
 41
0.0
 42
0.0
 43
0.0
 44
0.0
 45
0.0
 46
0.0
 47
0.0
 48
0.0
 49
0.0
140
0.0
141
0.0
142
1.0
143
1.0
 70
  1712
 72
     0
 73
     0
 74
     0
  7

 75
     0
147
1.0
148
0.0
149
0.0
100
AcDbLayout
  1
Model
 70
     1
 71
     0
 10
0.0
 20
0.0
 11
12.0
 21
9.0
 12
0.0
 22
0.0
 32
0.0
 14
0.0
 24
0.0
 34
0.0
 15
0.0
 25
0.0
 35
0.0
146
0.0
 13
0.0
 23
0.0
 33
0.0
 16
1.0
 26
0.0
 36
0.0
 17
0.0
 27
1.0
 37
0.0
 76
     0
330
1E
  0
MLINESTYLE
  5
17
102
{ACAD_REACTORS
330
16
102
}
330
16
100
AcDbMlineStyle
  2
STANDARD
 70
     0
  3

 62
   256
 51
90.0
 52
90.0
 71
     2
 49
0.5
 62
   256
  6
BYLAYER
 49
-0.5
 62
   256
  6
BYLAYER
  0
ACDBPLACEHOLDER
  5
F
102
{ACAD_REACTORS
330
E
102
}
330
E
  0
DICTIONARYVAR
  5
1E0
102
{ACAD_REACTORS
330
1DF
102
}
330
1DF
100
DictionaryVariables
280
     0
  1
1
  0
ENDSEC
  0
EOF
