  0
SECTION
  2
HEADER
  9
$ACADVER
  1
AC1015
  9
$ACADMAINTVER
 70
    13
  9
$DWGCODEPAGE
  3
ANSI_1252
  9
$INSBASE
 10
0.0
 20
0.0
 30
0.0
  9
$EXTMIN
 10
-0.171700000000016
 20
0.0000000000000338
 30
0.0
  9
$EXTMAX
 10
512.1717
 20
196.0
 30
0.0
  9
$LIMMIN
 10
0.0
 20
0.0
  9
$LIMMAX
 10
12.0
 20
9.0
  9
$ORTHOMODE
 70
     0
  9
$REGENMODE
 70
     1
  9
$FILLMODE
 70
     1
  9
$QTEXTMODE
 70
     0
  9
$MIRRTEXT
 70
     1
  9
$LTSCALE
 40
1.0
  9
$ATTMODE
 70
     1
  9
$TEXTSIZE
 40
0.2
  9
$TRACEWID
 40
0.05
  9
$TEXTSTYLE
  7
Standard
  9
$CLAYER
  8
0
  9
$CELTYPE
  6
Continuous
  9
$CECOLOR
 62
   256
  9
$CELTSCALE
 40
1.0
  9
$DISPSILH
 70
     0
  9
$DIMSCALE
 40
1.0
  9
$DIMASZ
 40
0.18
  9
$DIMEXO
 40
0.0625
  9
$DIMDLI
 40
0.38
  9
$DIMRND
 40
0.0
  9
$DIMDLE
 40
0.0
  9
$DIMEXE
 40
0.18
  9
$DIMTP
 40
0.0
  9
$DIMTM
 40
0.0
  9
$DIMTXT
 40
0.18
  9
$DIMCEN
 40
0.09
  9
$DIMTSZ
 40
0.0
  9
$DIMTOL
 70
     0
  9
$DIMLIM
 70
     0
  9
$DIMTIH
 70
     1
  9
$DIMTOH
 70
     1
  9
$DIMSE1
 70
     0
  9
$DIMSE2
 70
     0
  9
$DIMTAD
 70
     0
  9
$DIMZIN
 70
     0
  9
$DIMBLK
  1

  9
$DIMASO
 70
     1
  9
$DIMSHO
 70
     1
  9
$DIMPOST
  1

  9
$DIMAPOST
  1

  9
$DIMALT
 70
     0
  9
$DIMALTD
 70
     2
  9
$DIMALTF
 40
25.4
  9
$DIMLFAC
 40
1.0
  9
$DIMTOFL
 70
     0
  9
$DIMTVP
 40
0.0
  9
$DIMTIX
 70
     0
  9
$DIMSOXD
 70
     0
  9
$DIMSAH
 70
     0
  9
$DIMBLK1
  1

  9
$DIMBLK2
  1

  9
$DIMSTYLE
  2
Standard
  9
$DIMCLRD
 70
     0
  9
$DIMCLRE
 70
     0
  9
$DIMCLRT
 70
     0
  9
$DIMTFAC
 40
1.0
  9
$DIMGAP
 40
0.09
  9
$DIMJUST
 70
     0
  9
$DIMSD1
 70
     0
  9
$DIMSD2
 70
     0
  9
$DIMTOLJ
 70
     1
  9
$DIMTZIN
 70
     0
  9
$DIMALTZ
 70
     0
  9
$DIMALTTZ
 70
     0
  9
$DIMUPT
 70
     0
  9
$DIMDEC
 70
     4
  9
$DIMTDEC
 70
     4
  9
$DIMALTU
 70
     2
  9
$DIMALTTD
 70
     2
  9
$DIMTXSTY
  7
Standard
  9
$DIMAUNIT
 70
     0
  9
$DIMADEC
 70
     0
  9
$DIMALTRND
 40
0.0
  9
$DIMAZIN
 70
     0
  9
$DIMDSEP
 70
    46
  9
$DIMATFIT
 70
     3
  9
$DIMFRAC
 70
     0
  9
$DIMLDRBLK
  1

  9
$DIMLUNIT
 70
     2
  9
$DIMLWD
 70
    -2
  9
$DIMLWE
 70
    -2
  9
$DIMTMOVE
 70
     0
  9
$LUNITS
 70
     2
  9
$LUPREC
 70
     4
  9
$SKETCHINC
 40
0.1
  9
$FILLETRAD
 40
0.0
  9
$AUNITS
 70
     0
  9
$AUPREC
 70
     0
  9
$MENU
  1
.
  9
$ELEVATION
 40
0.0
  9
$PELEVATION
 40
0.0
  9
$THICKNESS
 40
0.0
  9
$LIMCHECK
 70
     0
  9
$CHAMFERA
 40
0.0
  9
$CHAMFERB
 40
0.0
  9
$CHAMFERC
 40
0.0
  9
$CHAMFERD
 40
0.0
  9
$SKPOLY
 70
     0
  9
$TDCREATE
 40
2454745.656345115
  9
$TDUCREATE
 40
2454745.573011782
  9
$TDUPDATE
 40
2454745.659349317
  9
$TDUUPDATE
 40
2454745.576015983
  9
$TDINDWG
 40
0.0030042014
  9
$TDUSRTIMER
 40
0.0030042014
  9
$USRTIMER
 70
     1
  9
$ANGBASE
 50
0.0
  9
$ANGDIR
 70
     0
  9
$PDMODE
 70
     0
  9
$PDSIZE
 40
0.0
  9
$PLINEWID
 40
0.0
  9
$SPLFRAME
 70
     0
  9
$SPLINETYPE
 70
     6
  9
$SPLINESEGS
 70
     8
  9
$HANDSEED
  5
2D8
  9
$SURFTAB1
 70
     6
  9
$SURFTAB2
 70
     6
  9
$SURFTYPE
 70
     6
  9
$SURFU
 70
     6
  9
$SURFV
 70
     6
  9
$UCSBASE
  2

  9
$UCSNAME
  2

  9
$UCSORG
 10
0.0
 20
0.0
 30
0.0
  9
$UCSXDIR
 10
1.0
 20
0.0
 30
0.0
  9
$UCSYDIR
 10
0.0
 20
1.0
 30
0.0
  9
$UCSORTHOREF
  2

  9
$UCSORTHOVIEW
 70
     1
  9
$UCSORGTOP
 10
0.0
 20
0.0
 30
0.0
  9
$UCSORGBOTTOM
 10
0.0
 20
0.0
 30
0.0
  9
$UCSORGLEFT
 10
0.0
 20
0.0
 30
0.0
  9
$UCSORGRIGHT
 10
0.0
 20
0.0
 30
0.0
  9
$UCSORGFRONT
 10
0.0
 20
0.0
 30
0.0
  9
$UCSORGBACK
 10
0.0
 20
0.0
 30
0.0
  9
$PUCSBASE
  2

  9
$PUCSNAME
  2

  9
$PUCSORG
 10
0.0
 20
0.0
 30
0.0
  9
$PUCSXDIR
 10
1.0
 20
0.0
 30
0.0
  9
$PUCSYDIR
 10
0.0
 20
1.0
 30
0.0
  9
$PUCSORTHOREF
  2

  9
$PUCSORTHOVIEW
 70
     0
  9
$PUCSORGTOP
 10
0.0
 20
0.0
 30
0.0
  9
$PUCSORGBOTTOM
 10
0.0
 20
0.0
 30
0.0
  9
$PUCSORGLEFT
 10
0.0
 20
0.0
 30
0.0
  9
$PUCSORGRIGHT
 10
0.0
 20
0.0
 30
0.0
  9
$PUCSORGFRONT
 10
0.0
 20
0.0
 30
0.0
  9
$PUCSORGBACK
 10
0.0
 20
0.0
 30
0.0
  9
$USERI1
 70
     0
  9
$USERI2
 70
     0
  9
$USERI3
 70
     0
  9
$USERI4
 70
     0
  9
$USERI5
 70
     0
  9
$USERR1
 40
0.0
  9
$USERR2
 40
0.0
  9
$USERR3
 40
0.0
  9
$USERR4
 40
0.0
  9
$USERR5
 40
0.0
  9
$WORLDVIEW
 70
     1
  9
$SHADEDGE
 70
     3
  9
$SHADEDIF
 70
    70
  9
$TILEMODE
 70
     1
  9
$MAXACTVP
 70
    64
  9
$PINSBASE
 10
0.0
 20
0.0
 30
0.0
  9
$PLIMCHECK
 70
     0
  9
$PEXTMIN
 10
1.000000000000000E+20
 20
1.000000000000000E+20
 30
1.000000000000000E+20
  9
$PEXTMAX
 10
-1.000000000000000E+20
 20
-1.000000000000000E+20
 30
-1.000000000000000E+20
  9
$PLIMMIN
 10
0.0
 20
0.0
  9
$PLIMMAX
 10
12.0
 20
9.0
  9
$UNITMODE
 70
     0
  9
$VISRETAIN
 70
     1
  9
$PLINEGEN
 70
     0
  9
$PSLTSCALE
 70
     1
  9
$TREEDEPTH
 70
  3020
  9
$CMLSTYLE
  2
Standard
  9
$CMLJUST
 70
     0
  9
$CMLSCALE
 40
1.0
  9
$PROXYGRAPHICS
 70
     1
  9
$MEASUREMENT
 70
     0
  9
$CELWEIGHT
370
    -1
  9
$ENDCAPS
280
     0
  9
$JOINSTYLE
280
     0
  9
$LWDISPLAY
290
     0
  9
$INSUNITS
 70
     0
  9
$HYPERLINKBASE
  1

  9
$STYLESHEET
  1

  9
$XEDIT
290
     1
  9
$CEPSNTYPE
380
     0
  9
$PSTYLEMODE
290
     1
  9
$FINGERPRINTGUID
  2
{5E53F257-9464-4B4A-A142-594917F916EB}
  9
$VERSIONGUID
  2
{49BB8475-C62E-42DB-A2E6-9961226CFE82}
  9
$EXTNAMES
290
     1
  9
$PSVPSCALE
 40
0.0
  9
$OLESTARTUP
290
     0
  0
ENDSEC
  0
SECTION
  2
CLASSES
  0
CLASS
  1
ACDBDICTIONARYWDFLT
  2
AcDbDictionaryWithDefault
  3
AutoCAD 2000
 90
        0
280
     0
281
     0
  0
CLASS
  1
ACDBPLACEHOLDER
  2
AcDbPlaceHolder
  3
AutoCAD 2000
 90
        0
280
     0
281
     0
  0
CLASS
  1
LAYOUT
  2
AcDbLayout
  3
AutoCAD 2000
 90
        0
280
     0
281
     0
  0
CLASS
  1
DICTIONARYVAR
  2
AcDbDictionaryVar
  3
AutoCAD 2000
 90
        0
280
     0
281
     0
  0
ENDSEC
  0
SECTION
  2
TABLES
  0
TABLE
  2
VPORT
  5
8
330
0
100
AcDbSymbolTable
 70
     2
  0
VPORT
  5
2D7
330
8
100
AcDbSymbolTableRecord
100
AcDbViewportTableRecord
  2
*Active
 70
     0
 10
0.0
 20
0.0
 11
1.0
 21
1.0
 12
255.9999999999999
 22
98.00000000000002
 13
0.0
 23
0.0
 14
1.0
 24
1.0
 15
0.0
 25
0.0
 16
0.0
 26
0.0
 36
1.0
 17
0.0
 27
0.0
 37
0.0
 40
247.4544336879949
 41
2.078104993597951
 42
50.0
 43
0.0
 44
0.0
 50
0.0
 51
0.0
 71
     0
 72
   100
 73
     1
 74
     3
 75
     0
 76
     0
 77
     0
 78
     0
281
     0
 65
     1
110
0.0
120
0.0
130
0.0
111
1.0
121
0.0
131
0.0
112
0.0
122
1.0
132
0.0
 79
     1
146
0.0
  0
ENDTAB
  0
TABLE
  2
LTYPE
  5
5
330
0
100
AcDbSymbolTable
 70
     1
  0
LTYPE
  5
13
330
5
100
AcDbSymbolTableRecord
100
AcDbLinetypeTableRecord
  2
ByBlock
 70
     0
  3

 72
    65
 73
     0
 40
0.0
  0
LTYPE
  5
14
330
5
100
AcDbSymbolTableRecord
100
AcDbLinetypeTableRecord
  2
ByLayer
 70
     0
  3

 72
    65
 73
     0
 40
0.0
  0
LTYPE
  5
15
330
5
100
AcDbSymbolTableRecord
100
AcDbLinetypeTableRecord
  2
Continuous
 70
     0
  3
Solid line
 72
    65
 73
     0
 40
0.0
  0
ENDTAB
  0
TABLE
  2
LAYER
  5
2
330
0
100
AcDbSymbolTable
 70
     1
  0
LAYER
  5
10
330
2
100
AcDbSymbolTableRecord
100
AcDbLayerTableRecord
  2
0
 70
     0
 62
     7
  6
Continuous
370
    -3
390
F
  0
ENDTAB
  0
TABLE
  2
STYLE
  5
3
330
0
100
AcDbSymbolTable
 70
     1
  0
STYLE
  5
11
330
3
100
AcDbSymbolTableRecord
100
AcDbTextStyleTableRecord
  2
Standard
 70
     0
 40
0.0
 41
1.0
 50
0.0
 71
     0
 42
0.2
  3
txt
  4

  0
ENDTAB
  0
TABLE
  2
VIEW
  5
6
330
0
100
AcDbSymbolTable
 70
     0
  0
ENDTAB
  0
TABLE
  2
UCS
  5
7
330
0
100
AcDbSymbolTable
 70
     0
  0
ENDTAB
  0
TABLE
  2
APPID
  5
9
330
0
100
AcDbSymbolTable
 70
     1
  0
APPID
  5
12
330
9
100
AcDbSymbolTableRecord
100
AcDbRegAppTableRecord
  2
ACAD
 70
     0
  0
ENDTAB
  0
TABLE
  2
DIMSTYLE
  5
A
330
0
100
AcDbSymbolTable
 70
     1
100
AcDbDimStyleTable
 71
     0
  0
DIMSTYLE
105
2D1
330
A
100
AcDbSymbolTableRecord
100
AcDbDimStyleTableRecord
  2
Standard
 70
     0
340
11
  0
ENDTAB
  0
TABLE
  2
BLOCK_RECORD
  5
1
330
0
100
AcDbSymbolTable
 70
     0
  0
BLOCK_RECORD
  5
1E
330
1
100
AcDbSymbolTableRecord
100
AcDbBlockTableRecord
  2
*Model_Space
340
21
  0
BLOCK_RECORD
  5
1A
330
1
100
AcDbSymbolTableRecord
100
AcDbBlockTableRecord
  2
*Paper_Space
340
1D
  0
ENDTAB
  0
ENDSEC
  0
SECTION
  2
BLOCKS
  0
BLOCK
  5
1F
330
1E
100
AcDbEntity
  8
0
100
AcDbBlockBegin
  2
*Model_Space
 70
     0
 10
0.0
 20
0.0
 30
0.0
  3
*Model_Space
  1

  0
ENDBLK
  5
20
330
1E
100
AcDbEntity
  8
0
100
AcDbBlockEnd
  0
BLOCK
  5
1B
330
1A
100
AcDbEntity
 67
     1
  8
0
100
AcDbBlockBegin
  2
*Paper_Space
 70
     0
 10
0.0
 20
0.0
 30
0.0
  3
*Paper_Space
  1

  0
ENDBLK
  5
1C
330
1A
100
AcDbEntity
 67
     1
  8
0
100
AcDbBlockEnd
  0
ENDSEC
  0
SECTION
  2
ENTITIES
  0
LINE
  5
22
330
1E
100
AcDbEntity
  8
0
100
AcDbLine
 10
132.4716999999999
 20
2.01409000000003
 30
0.0
 11
132.9717
 21
0.8056340000000341
 31
0.0
  0
LINE
  5
23
330
1E
100
AcDbEntity
  8
0
100
AcDbLine
 10
132.4716999999999
 20
2.01409000000003
 30
0.0
 11
132.4716999999999
 21
167.9859999999999
 31
0.0
  0
LINE
  5
24
330
1E
100
AcDbEntity
  8
0
100
AcDbLine
 10
97.4717
 20
74.0141
 30
0.0
 11
97.97170000000001
 21
72.8056
 31
0.0
  0
LINE
  5
25
330
1E
100
AcDbEntity
  8
0
100
AcDbLine
 10
97.4717
 20
74.0141
 30
0.0
 11
97.4717
 21
89.59197159813079
 31
0.0
  0
LINE
  5
26
330
1E
100
AcDbEntity
  8
0
100
AcDbLine
 10
99.1717
 20
72.30209999999999
 30
0.0
 11
132.1716999999999
 21
72.30209999999999
 31
0.0
  0
LINE
  5
27
330
1E
100
AcDbEntity
  8
0
100
AcDbLine
 10
99.1717
 20
72.0
 30
0.0
 11
132.1716999999999
 21
72.0
 31
0.0
  0
LINE
  5
28
330
1E
100
AcDbEntity
  8
0
100
AcDbLine
 10
97.97170000000001
 20
72.8056
 30
0.0
 11
99.1717
 21
72.30209999999999
 31
0.0
  0
LINE
  5
29
330
1E
100
AcDbEntity
  8
0
100
AcDbLine
 10
97.77169999999999
 20
72.6042
 30
0.0
 11
99.1717
 21
72.0
 31
0.0
  0
LINE
  5
2B
330
1E
100
AcDbEntity
  8
0
100
AcDbLine
 10
29.0283
 20
95.11000000000001
 30
0.0
 11
40.22829999999999
 21
93.366
 31
0.0
  0
LINE
  5
2C
330
1E
100
AcDbEntity
  8
0
100
AcDbLine
 10
0.428299999999979
 20
113.741
 30
0.0
 11
1.62829999999998
 21
115.4839999999999
 31
0.0
  0
LINE
  5
2D
330
1E
100
AcDbEntity
  8
0
100
AcDbLine
 10
1.62829999999998
 20
115.4839999999999
 30
0.0
 11
3.328299999999979
 21
117.966
 31
0.0
  0
LINE
  5
2E
330
1E
100
AcDbEntity
  8
0
100
AcDbLine
 10
-0.171700000000016
 20
110.653
 30
0.0
 11
0.428299999999979
 21
107.5649999999999
 31
0.0
  0
LINE
  5
2F
330
1E
100
AcDbEntity
  8
0
100
AcDbLine
 10
-0.171700000000016
 20
110.653
 30
0.0
 11
0.428299999999979
 21
113.741
 31
0.0
  0
LINE
  5
30
330
1E
100
AcDbEntity
  8
0
100
AcDbLine
 10
0.428299999999979
 20
107.5649999999999
 30
0.0
 11
1.62829999999998
 21
105.8219999999999
 31
0.0
  0
LINE
  5
31
330
1E
100
AcDbEntity
  8
0
100
AcDbLine
 10
3.328299999999979
 20
117.966
 30
0.0
 11
5.92829999999998
 21
119.75
 31
0.0
  0
LINE
  5
32
330
1E
100
AcDbEntity
  8
0
100
AcDbLine
 10
12.0283
 20
104.972
 30
0.0
 11
15.8283
 21
106.898
 31
0.0
  0
LINE
  5
33
330
1E
100
AcDbEntity
  8
0
100
AcDbLine
 10
5.92829999999998
 20
119.75
 30
0.0
 11
9.828299999999989
 21
121.7289999999999
 31
0.0
  0
LINE
  5
34
330
1E
100
AcDbEntity
  8
0
100
AcDbLine
 10
9.828299999999989
 20
121.7289999999999
 30
0.0
 11
16.12829999999999
 21
123.7329999999999
 31
0.0
  0
LINE
  5
35
330
1E
100
AcDbEntity
  8
0
100
AcDbLine
 10
16.12829999999999
 20
123.7329999999999
 30
0.0
 11
26.4283
 21
125.729
 31
0.0
  0
LINE
  5
36
330
1E
100
AcDbEntity
  8
0
100
AcDbLine
 10
15.8283
 20
106.898
 30
0.0
 11
21.8283
 21
108.807
 31
0.0
  0
LINE
  5
37
330
1E
100
AcDbEntity
  8
0
100
AcDbLine
 10
3.328299999999979
 20
103.34
 30
0.0
 11
5.92829999999998
 21
101.555
 31
0.0
  0
LINE
  5
38
330
1E
100
AcDbEntity
  8
0
100
AcDbLine
 10
5.92829999999998
 20
101.555
 30
0.0
 11
9.828299999999989
 21
99.57700000000002
 31
0.0
  0
LINE
  5
39
330
1E
100
AcDbEntity
  8
0
100
AcDbLine
 10
1.62829999999998
 20
105.8219999999999
 30
0.0
 11
3.328299999999979
 21
103.34
 31
0.0
  0
LINE
  5
3A
330
1E
100
AcDbEntity
  8
0
100
AcDbLine
 10
9.828299999999989
 20
99.57700000000002
 30
0.0
 11
16.12829999999999
 21
97.572
 31
0.0
  0
LINE
  5
3B
330
1E
100
AcDbEntity
  8
0
100
AcDbLine
 10
21.8283
 20
108.807
 30
0.0
 11
30.7091575803978
 21
110.518583460949
 31
0.0
  0
LINE
  5
3D
330
1E
100
AcDbEntity
  8
0
100
AcDbLine
 10
31.572878313253
 20
110.653
 30
0.0
 11
40.22829999999999
 21
109.3059999999999
 31
0.0
  0
LINE
  5
3E
330
1E
100
AcDbEntity
  8
0
100
AcDbLine
 10
30.70915758040882
 20
110.5185834609511
 30
0.0
 11
40.22829999999999
 21
112.0
 31
0.0
  0
LINE
  5
3F
330
1E
100
AcDbEntity
  8
0
100
AcDbLine
 10
40.22829999999999
 20
109.3059999999999
 30
0.0
 11
55.12830000000001
 21
107.911
 31
0.0
  0
LINE
  5
41
330
1E
100
AcDbEntity
  8
0
100
AcDbLine
 10
40.22829999999999
 20
112.0
 30
0.0
 11
52.9283
 21
113.9259999999999
 31
0.0
  0
LINE
  5
45
330
1E
100
AcDbEntity
  8
0
100
AcDbLine
 10
29.0283
 20
126.1959999999999
 30
0.0
 11
40.22829999999999
 21
127.939
 31
0.0
  0
LINE
  5
46
330
1E
100
AcDbEntity
  8
0
100
AcDbLine
 10
26.4283
 20
125.729
 30
0.0
 11
29.0283
 21
126.1959999999999
 31
0.0
  0
LINE
  5
47
330
1E
100
AcDbEntity
  8
0
100
AcDbLine
 10
40.22829999999999
 20
127.939
 30
0.0
 11
52.15246070445779
 21
129.7482801320859
 31
0.0
  0
LINE
  5
4C
330
1E
100
AcDbEntity
  8
0
100
AcDbLine
 10
16.12829999999999
 20
97.572
 30
0.0
 11
26.4283
 21
95.57700000000002
 31
0.0
  0
LINE
  5
4D
330
1E
100
AcDbEntity
  8
0
100
AcDbLine
 10
26.4283
 20
95.57700000000002
 30
0.0
 11
29.0283
 21
95.11000000000001
 31
0.0
  0
LINE
  5
4E
330
1E
100
AcDbEntity
  8
0
100
AcDbLine
 10
55.12830000000001
 20
107.911
 30
0.0
 11
74.128334
 21
106.482
 31
0.0
  0
LINE
  5
4F
330
1E
100
AcDbEntity
  8
0
100
AcDbLine
 10
74.128334
 20
106.482
 30
0.0
 11
92.8283
 21
105.654
 31
0.0
  0
LINE
  5
50
330
1E
100
AcDbEntity
  8
0
100
AcDbLine
 10
52.15246070445779
 20
129.7482801320859
 30
0.0
 11
59.6283
 21
131.15
 31
0.0
  0
LINE
  5
51
330
1E
100
AcDbEntity
  8
0
100
AcDbLine
 10
72.92833399999999
 20
118.1499999999999
 30
0.0
 11
79.52833000000001
 21
120.355
 31
0.0
  0
LINE
  5
52
330
1E
100
AcDbEntity
  8
0
100
AcDbLine
 10
64.72833
 20
116.1189999999999
 30
0.0
 11
72.92833399999999
 21
118.1499999999999
 31
0.0
  0
LINE
  5
53
330
1E
100
AcDbEntity
  8
0
100
AcDbLine
 10
55.4283
 20
114.3669999999999
 30
0.0
 11
64.72833
 21
116.1189999999999
 31
0.0
  0
LINE
  5
54
330
1E
100
AcDbEntity
  8
0
100
AcDbLine
 10
52.9283
 20
113.9259999999999
 30
0.0
 11
55.4283
 21
114.3669999999999
 31
0.0
  0
LINE
  5
55
330
1E
100
AcDbEntity
  8
0
100
AcDbLine
 10
40.22829999999999
 20
93.366
 30
0.0
 11
55.12830000000001
 21
91.972
 31
0.0
  0
LINE
  5
56
330
1E
100
AcDbEntity
  8
0
100
AcDbLine
 10
55.12830000000001
 20
91.972
 30
0.0
 11
74.128334
 21
90.54299999999999
 31
0.0
  0
LINE
  5
57
330
1E
100
AcDbEntity
  8
0
100
AcDbLine
 10
79.72833
 20
129.9
 30
0.0
 11
83.22830000000001
 21
128.4999999999999
 31
0.0
  0
LINE
  5
58
330
1E
100
AcDbEntity
  8
0
100
AcDbLine
 10
83.22830000000001
 20
128.4999999999999
 30
0.0
 11
86.8283
 21
128.0
 31
0.0
  0
LINE
  5
59
330
1E
100
AcDbEntity
  8
0
100
AcDbLine
 10
84.42829999999998
 20
122.5339999999999
 30
0.0
 11
87.9283
 21
124.591
 31
0.0
  0
LINE
  5
5A
330
1E
100
AcDbEntity
  8
0
100
AcDbLine
 10
79.52833000000001
 20
120.355
 30
0.0
 11
84.42829999999998
 21
122.5339999999999
 31
0.0
  0
LINE
  5
5B
330
1E
100
AcDbEntity
  8
0
100
AcDbLine
 10
74.128334
 20
90.54299999999999
 30
0.0
 11
92.8283
 21
89.715
 31
0.0
  0
LINE
  5
5C
330
1E
100
AcDbEntity
  8
0
100
AcDbLine
 10
59.6283
 20
131.15
 30
0.0
 11
67.62833
 21
133.1639999999999
 31
0.0
  0
LINE
  5
5D
330
1E
100
AcDbEntity
  8
0
100
AcDbLine
 10
76.92833
 20
132.0999999999999
 30
0.0
 11
79.72833
 21
129.9
 31
0.0
  0
LINE
  5
5E
330
1E
100
AcDbEntity
  8
0
100
AcDbLine
 10
81.06796000000001
 20
132.277
 30
0.0
 11
83.76799999999999
 21
131.177
 31
0.0
  0
LINE
  5
5F
330
1E
100
AcDbEntity
  8
0
100
AcDbLine
 10
80.76795
 20
131.877
 30
0.0
 11
83.66799999999999
 21
130.677
 31
0.0
  0
LINE
  5
60
330
1E
100
AcDbEntity
  8
0
100
AcDbLine
 10
81.48017000000001
 20
130.8869999999999
 30
0.0
 11
82.27914
 21
130.581
 31
0.0
  0
LINE
  5
62
330
1E
100
AcDbEntity
  8
0
100
AcDbLine
 10
81.08069999999999
 20
131.04
 30
0.0
 11
81.48017000000001
 21
130.8869999999999
 31
0.0
  0
LINE
  5
63
330
1E
100
AcDbEntity
  8
0
100
AcDbLine
 10
81.08069999999999
 20
131.04
 30
0.0
 11
81.48017000000001
 21
130.8869999999999
 31
0.0
  0
LINE
  5
64
330
1E
100
AcDbEntity
  8
0
100
AcDbLine
 10
81.08069999999999
 20
131.04
 30
0.0
 11
81.32061694531859
 21
131.6483141723819
 31
0.0
  0
LINE
  5
65
330
1E
100
AcDbEntity
  8
0
100
AcDbLine
 10
81.48017000000001
 20
130.8869999999999
 30
0.0
 11
82.27914
 21
130.581
 31
0.0
  0
LINE
  5
66
330
1E
100
AcDbEntity
  8
0
100
AcDbLine
 10
83.96799999999998
 20
131.677
 30
0.0
 11
86.76799999999998
 21
131.277
 31
0.0
  0
LINE
  5
67
330
1E
100
AcDbEntity
  8
0
100
AcDbLine
 10
83.96799999999998
 20
131.677
 30
0.0
 11
86.51799999999999
 21
131.312714285714
 31
0.0
  0
LINE
  5
68
330
1E
100
AcDbEntity
  8
0
100
AcDbLine
 10
83.76799999999999
 20
131.177
 30
0.0
 11
86.76799999999998
 21
130.777
 31
0.0
  0
LINE
  5
69
330
1E
100
AcDbEntity
  8
0
100
AcDbLine
 10
83.66799999999999
 20
130.677
 30
0.0
 11
85.91089999999999
 21
130.387593548387
 31
0.0
  0
LINE
  5
6A
330
1E
100
AcDbEntity
  8
0
100
AcDbLine
 10
83.66799999999999
 20
130.677
 30
0.0
 11
86.76799999999998
 21
130.277
 31
0.0
  0
LINE
  5
6B
330
1E
100
AcDbEntity
  8
0
100
AcDbLine
 10
82.67861999999999
 20
130.428
 30
0.0
 11
82.9018622958948
 21
130.9940170324399
 31
0.0
  0
LINE
  5
6C
330
1E
100
AcDbEntity
  8
0
100
AcDbLine
 10
82.27914
 20
130.581
 30
0.0
 11
82.67861999999999
 21
130.428
 31
0.0
  0
LINE
  5
6D
330
1E
100
AcDbEntity
  8
0
100
AcDbLine
 10
82.27914
 20
130.581
 30
0.0
 11
82.67861999999999
 21
130.428
 31
0.0
  0
LINE
  5
6F
330
1E
100
AcDbEntity
  8
0
100
AcDbLine
 10
85.91089999999999
 20
130.387593548387
 30
0.0
 11
85.91089999999999
 21
129.777
 31
0.0
  0
LINE
  5
70
330
1E
100
AcDbEntity
  8
0
100
AcDbLine
 10
86.8283
 20
128.0
 30
0.0
 11
90.4283
 21
128.4999999999999
 31
0.0
  0
LINE
  5
71
330
1E
100
AcDbEntity
  8
0
100
AcDbLine
 10
92.8283
 20
105.654
 30
0.0
 11
114.2283
 21
105.0869999999999
 31
0.0
  0
LINE
  5
72
330
1E
100
AcDbEntity
  8
0
100
AcDbLine
 10
90.4283
 20
128.4999999999999
 30
0.0
 11
93.8283
 21
129.9
 31
0.0
  0
LINE
  5
73
330
1E
100
AcDbEntity
  8
0
100
AcDbLine
 10
92.1283
 20
128.805
 30
0.0
 11
92.51878265167672
 21
129.3607869742199
 31
0.0
  0
LINE
  5
74
330
1E
100
AcDbEntity
  8
0
100
AcDbLine
 10
90.4283
 20
126.34
 30
0.0
 11
92.1283
 21
128.805
 31
0.0
  0
LINE
  5
75
330
1E
100
AcDbEntity
  8
0
100
AcDbLine
 10
87.9283
 20
124.591
 30
0.0
 11
90.4283
 21
126.34
 31
0.0
  0
LINE
  5
76
330
1E
100
AcDbEntity
  8
0
100
AcDbLine
 10
92.8283
 20
89.715
 30
0.0
 11
114.2283
 21
89.14799999999999
 31
0.0
  0
LINE
  5
77
330
1E
100
AcDbEntity
  8
0
100
AcDbLine
 10
87.6251
 20
129.777
 30
0.0
 11
87.6251
 21
130.387593548387
 31
0.0
  0
LINE
  5
78
330
1E
100
AcDbEntity
  8
0
100
AcDbLine
 10
87.19660000000001
 20
129.777
 30
0.0
 11
87.6251
 21
129.777
 31
0.0
  0
LINE
  5
7A
330
1E
100
AcDbEntity
  8
0
100
AcDbLine
 10
86.76799999999998
 20
130.277
 30
0.0
 11
89.868
 21
130.677
 31
0.0
  0
LINE
  5
7D
330
1E
100
AcDbEntity
  8
0
100
AcDbLine
 10
87.6251
 20
130.387593548387
 30
0.0
 11
87.6251
 21
129.777
 31
0.0
  0
LINE
  5
7E
330
1E
100
AcDbEntity
  8
0
100
AcDbLine
 10
86.76799999999998
 20
131.277
 30
0.0
 11
89.56799999999999
 21
131.677
 31
0.0
  0
LINE
  5
7F
330
1E
100
AcDbEntity
  8
0
100
AcDbLine
 10
86.51799999999999
 20
131.312714285714
 30
0.0
 11
86.51799999999999
 21
133.811090909091
 31
0.0
  0
LINE
  5
80
330
1E
100
AcDbEntity
  8
0
100
AcDbLine
 10
86.51799999999999
 20
131.312714285714
 30
0.0
 11
86.51799999999999
 21
140.027
 31
0.0
  0
LINE
  5
81
330
1E
100
AcDbEntity
  8
0
100
AcDbLine
 10
89.56799999999999
 20
131.677
 30
0.0
 11
92.26799999999999
 21
132.777
 31
0.0
  0
LINE
  5
82
330
1E
100
AcDbEntity
  8
0
100
AcDbLine
 10
89.56799999999999
 20
131.677
 30
0.0
 11
92.02191409874659
 21
132.6767427809709
 31
0.0
  0
LINE
  5
83
330
1E
100
AcDbEntity
  8
0
100
AcDbLine
 10
87.01799999999998
 20
131.312714285714
 30
0.0
 11
87.01799999999998
 21
140.027
 31
0.0
  0
LINE
  5
84
330
1E
100
AcDbEntity
  8
0
100
AcDbLine
 10
87.01799999999998
 20
131.312714285714
 30
0.0
 11
89.56799999999999
 21
131.677
 31
0.0
  0
LINE
  5
85
330
1E
100
AcDbEntity
  8
0
100
AcDbLine
 10
89.76799999999999
 20
131.177
 30
0.0
 11
92.46799999999998
 21
132.277
 31
0.0
  0
LINE
  5
86
330
1E
100
AcDbEntity
  8
0
100
AcDbLine
 10
86.76799999999998
 20
130.777
 30
0.0
 11
89.76799999999999
 21
131.177
 31
0.0
  0
LINE
  5
87
330
1E
100
AcDbEntity
  8
0
100
AcDbLine
 10
89.868
 20
130.677
 30
0.0
 11
92.76799999999999
 21
131.877
 31
0.0
  0
LINE
  5
88
330
1E
100
AcDbEntity
  8
0
100
AcDbLine
 10
90.6341289053965
 20
130.994018857405
 30
0.0
 11
90.85729999999999
 21
130.428
 31
0.0
  0
LINE
  5
89
330
1E
100
AcDbEntity
  8
0
100
AcDbLine
 10
90.85729999999999
 20
130.428
 30
0.0
 11
91.2568
 21
130.581
 31
0.0
  0
LINE
  5
8A
330
1E
100
AcDbEntity
  8
0
100
AcDbLine
 10
93.8283
 20
129.9
 30
0.0
 11
96.8283
 21
132.0
 31
0.0
  0
LINE
  5
8D
330
1E
100
AcDbEntity
  8
0
100
AcDbLine
 10
92.05580000000001
 20
130.8869999999999
 30
0.0
 11
92.4552
 21
131.04
 31
0.0
  0
LINE
  5
8E
330
1E
100
AcDbEntity
  8
0
100
AcDbLine
 10
96.8283
 20
132.0
 30
0.0
 11
97.52830000000001
 21
133.0
 31
0.0
  0
LINE
  5
8F
330
1E
100
AcDbEntity
  8
0
100
AcDbLine
 10
92.46799999999998
 20
132.277
 30
0.0
 11
94.868
 21
134.177
 31
0.0
  0
LINE
  5
90
330
1E
100
AcDbEntity
  8
0
100
AcDbLine
 10
92.76799999999999
 20
131.877
 30
0.0
 11
94.29600567969819
 21
133.038284316571
 31
0.0
  0
LINE
  5
91
330
1E
100
AcDbEntity
  8
0
100
AcDbLine
 10
92.76799999999999
 20
131.877
 30
0.0
 11
95.26799999999999
 21
133.777
 31
0.0
  0
LINE
  5
92
330
1E
100
AcDbEntity
  8
0
100
AcDbLine
 10
92.21535121258471
 20
131.6483177431389
 30
0.0
 11
92.4552
 21
131.04
 31
0.0
  0
LINE
  5
93
330
1E
100
AcDbEntity
  8
0
100
AcDbLine
 10
91.2568
 20
130.581
 30
0.0
 11
92.05580000000001
 21
130.8869999999999
 31
0.0
  0
LINE
  5
94
330
1E
100
AcDbEntity
  8
0
100
AcDbLine
 10
91.2568
 20
130.581
 30
0.0
 11
92.05580000000001
 21
130.8869999999999
 31
0.0
  0
LINE
  5
95
330
1E
100
AcDbEntity
  8
0
100
AcDbLine
 10
90.85729999999999
 20
130.428
 30
0.0
 11
91.2568
 21
130.581
 31
0.0
  0
LINE
  5
96
330
1E
100
AcDbEntity
  8
0
100
AcDbLine
 10
86.3394
 20
129.777
 30
0.0
 11
87.19660000000001
 21
129.777
 31
0.0
  0
LINE
  5
98
330
1E
100
AcDbEntity
  8
0
100
AcDbLine
 10
85.91089999999999
 20
129.777
 30
0.0
 11
86.3394
 21
129.777
 31
0.0
  0
LINE
  5
99
330
1E
100
AcDbEntity
  8
0
100
AcDbLine
 10
85.91089999999999
 20
129.777
 30
0.0
 11
85.91089999999999
 21
130.387593548387
 31
0.0
  0
LINE
  5
9A
330
1E
100
AcDbEntity
  8
0
100
AcDbLine
 10
92.459603807446
 20
132.918620205504
 30
0.0
 11
94.56799999999999
 21
134.477
 31
0.0
  0
LINE
  5
9B
330
1E
100
AcDbEntity
  8
0
100
AcDbLine
 10
92.26799999999999
 20
132.777
 30
0.0
 11
94.56799999999999
 21
134.477
 31
0.0
  0
LINE
  5
9C
330
1E
100
AcDbEntity
  8
0
100
AcDbLine
 10
81.26796
 20
132.777
 30
0.0
 11
83.96799999999998
 21
131.677
 31
0.0
  0
LINE
  5
9D
330
1E
100
AcDbEntity
  8
0
100
AcDbLine
 10
81.51405552553709
 20
132.6767403452949
 30
0.0
 11
85.8595
 21
140.203
 31
0.0
  0
LINE
  5
9E
330
1E
100
AcDbEntity
  8
0
100
AcDbLine
 10
81.51405552553709
 20
132.6767403452949
 30
0.0
 11
83.96799999999998
 21
131.677
 31
0.0
  0
LINE
  5
9F
330
1E
100
AcDbEntity
  8
0
100
AcDbLine
 10
81.07635035098329
 20
132.9186245231859
 30
0.0
 11
82.3189035669505
 21
135.070702781261
 31
0.0
  0
LINE
  5
A0
330
1E
100
AcDbEntity
  8
0
100
AcDbLine
 10
81.07635035098329
 20
132.9186245231859
 30
0.0
 11
85.4265
 21
140.453
 31
0.0
  0
LINE
  5
A1
330
1E
100
AcDbEntity
  8
0
100
AcDbLine
 10
94.71200000000001
 20
132.606
 30
0.0
 11
95.02299999999999
 21
132.897
 31
0.0
  0
LINE
  5
A2
330
1E
100
AcDbEntity
  8
0
100
AcDbLine
 10
78.824
 20
132.606
 30
0.0
 11
79.2399365412253
 21
133.0382902286689
 31
0.0
  0
LINE
  5
A3
330
1E
100
AcDbEntity
  8
0
100
AcDbLine
 10
78.824
 20
132.606
 30
0.0
 11
79.2399365412253
 21
133.0382902286689
 31
0.0
  0
LINE
  5
A4
330
1E
100
AcDbEntity
  8
0
100
AcDbLine
 10
78.51302
 20
132.897
 30
0.0
 11
78.824
 21
132.606
 31
0.0
  0
LINE
  5
A5
330
1E
100
AcDbEntity
  8
0
100
AcDbLine
 10
78.51302
 20
132.897
 30
0.0
 11
78.824
 21
132.606
 31
0.0
  0
LINE
  5
A7
330
1E
100
AcDbEntity
  8
0
100
AcDbLine
 10
67.62833
 20
133.1639999999999
 30
0.0
 11
73.92833399999999
 21
135.316
 31
0.0
  0
LINE
  5
A8
330
1E
100
AcDbEntity
  8
0
100
AcDbLine
 10
73.92833399999999
 20
135.316
 30
0.0
 11
76.323004086316
 21
136.385620196571
 31
0.0
  0
LINE
  5
A9
330
1E
100
AcDbEntity
  8
0
100
AcDbLine
 10
74.76795
 20
142.277
 30
0.0
 11
75.16795999999999
 21
139.177
 31
0.0
  0
LINE
  5
AA
330
1E
100
AcDbEntity
  8
0
100
AcDbLine
 10
74.76795
 20
142.277
 30
0.0
 11
75.16795999999999
 21
145.377
 31
0.0
  0
LINE
  5
AB
330
1E
100
AcDbEntity
  8
0
100
AcDbLine
 10
75.42833
 20
134.0
 30
0.0
 11
76.92833
 21
132.0999999999999
 31
0.0
  0
LINE
  5
AC
330
1E
100
AcDbEntity
  8
0
100
AcDbLine
 10
75.42833
 20
134.0
 30
0.0
 11
77.80236495921691
 21
134.0
 31
0.0
  0
LINE
  5
AD
330
1E
100
AcDbEntity
  8
0
100
AcDbLine
 10
76.36794999999999
 20
136.277
 30
0.0
 11
78.26795
 21
133.777
 31
0.0
  0
LINE
  5
AE
330
1E
100
AcDbEntity
  8
0
100
AcDbLine
 10
77.26795
 20
136.777
 30
0.0
 11
78.96795999999999
 21
134.477
 31
0.0
  0
LINE
  5
AF
330
1E
100
AcDbEntity
  8
0
100
AcDbLine
 10
77.4098979125149
 20
136.584953953927
 30
0.0
 11
79.5620256362805
 21
137.8274852568199
 31
0.0
  0
LINE
  5
B0
330
1E
100
AcDbEntity
  8
0
100
AcDbLine
 10
77.4098979125149
 20
136.584953953927
 30
0.0
 11
84.9444
 21
140.935
 31
0.0
  0
LINE
  5
B1
330
1E
100
AcDbEntity
  8
0
100
AcDbLine
 10
77.4098979125149
 20
136.584953953927
 30
0.0
 11
78.96795999999999
 21
134.477
 31
0.0
  0
LINE
  5
B2
330
1E
100
AcDbEntity
  8
0
100
AcDbLine
 10
77.1679010924671
 20
137.022574591217
 30
0.0
 11
84.6944
 21
141.368
 31
0.0
  0
LINE
  5
B3
330
1E
100
AcDbEntity
  8
0
100
AcDbLine
 10
76.76796
 20
136.5769999999999
 30
0.0
 11
78.66795
 21
134.177
 31
0.0
  0
LINE
  5
B4
330
1E
100
AcDbEntity
  8
0
100
AcDbLine
 10
76.36794999999999
 20
136.277
 30
0.0
 11
77.96779896050009
 21
134.1719355782889
 31
0.0
  0
LINE
  5
B5
330
1E
100
AcDbEntity
  8
0
100
AcDbLine
 10
75.16795999999999
 20
145.377
 30
0.0
 11
76.36794999999999
 21
148.277
 31
0.0
  0
LINE
  5
B6
330
1E
100
AcDbEntity
  8
0
100
AcDbLine
 10
75.76796
 20
142.277
 30
0.0
 11
76.16795
 21
139.477
 31
0.0
  0
LINE
  5
B7
330
1E
100
AcDbEntity
  8
0
100
AcDbLine
 10
75.76796
 20
142.277
 30
0.0
 11
76.16795
 21
145.077
 31
0.0
  0
LINE
  5
B8
330
1E
100
AcDbEntity
  8
0
100
AcDbLine
 10
75.80367339285709
 20
142.527
 30
0.0
 11
84.51799999999998
 21
142.527
 31
0.0
  0
LINE
  5
B9
330
1E
100
AcDbEntity
  8
0
100
AcDbLine
 10
75.80367339285709
 20
142.527
 30
0.0
 11
76.16795
 21
145.077
 31
0.0
  0
LINE
  5
BA
330
1E
100
AcDbEntity
  8
0
100
AcDbLine
 10
76.16795
 20
139.477
 30
0.0
 11
77.26795
 21
136.777
 31
0.0
  0
LINE
  5
BB
330
1E
100
AcDbEntity
  8
0
100
AcDbLine
 10
75.80367339285709
 20
142.027
 30
0.0
 11
84.51799999999998
 21
142.027
 31
0.0
  0
LINE
  5
BC
330
1E
100
AcDbEntity
  8
0
100
AcDbLine
 10
75.80367339285709
 20
142.027
 30
0.0
 11
78.3020420454545
 21
142.027
 31
0.0
  0
LINE
  5
BD
330
1E
100
AcDbEntity
  8
0
100
AcDbLine
 10
75.42833
 20
150.0
 30
0.0
 11
77.67743
 21
150.0
 31
0.0
  0
LINE
  5
BE
330
1E
100
AcDbEntity
  8
0
100
AcDbLine
 10
75.42833
 20
150.0
 30
0.0
 11
76.92833
 21
151.9
 31
0.0
  0
LINE
  5
BF
330
1E
100
AcDbEntity
  8
0
100
AcDbLine
 10
75.66795
 20
145.277
 30
0.0
 11
76.76796
 21
147.977
 31
0.0
  0
LINE
  5
C0
330
1E
100
AcDbEntity
  8
0
100
AcDbLine
 10
77.26795
 20
147.777
 30
0.0
 11
78.96795999999999
 21
150.0769999999999
 31
0.0
  0
LINE
  5
C1
330
1E
100
AcDbEntity
  8
0
100
AcDbLine
 10
77.40937985386759
 20
147.9683451473199
 30
0.0
 11
79.5614888888434
 21
146.725824634403
 31
0.0
  0
LINE
  5
C2
330
1E
100
AcDbEntity
  8
0
100
AcDbLine
 10
77.40937985386759
 20
147.9683451473199
 30
0.0
 11
84.9444
 21
143.618
 31
0.0
  0
LINE
  5
C3
330
1E
100
AcDbEntity
  8
0
100
AcDbLine
 10
77.40937985386759
 20
147.9683451473199
 30
0.0
 11
78.96795999999999
 21
150.0769999999999
 31
0.0
  0
LINE
  5
C4
330
1E
100
AcDbEntity
  8
0
100
AcDbLine
 10
77.1675712658093
 20
147.5306158342589
 30
0.0
 11
84.6944
 21
143.185
 31
0.0
  0
LINE
  5
C5
330
1E
100
AcDbEntity
  8
0
100
AcDbLine
 10
77.1675712658093
 20
147.5306158342589
 30
0.0
 11
79.29751661225549
 21
146.300891530639
 31
0.0
  0
LINE
  5
C6
330
1E
100
AcDbEntity
  8
0
100
AcDbLine
 10
76.76796
 20
147.977
 30
0.0
 11
78.66795
 21
150.377
 31
0.0
  0
LINE
  5
C7
330
1E
100
AcDbEntity
  8
0
100
AcDbLine
 10
76.36794999999999
 20
148.277
 30
0.0
 11
78.26795
 21
150.777
 31
0.0
  0
LINE
  5
C8
330
1E
100
AcDbEntity
  8
0
100
AcDbLine
 10
76.16795
 20
145.077
 30
0.0
 11
77.1675712658093
 21
147.5306158342589
 31
0.0
  0
LINE
  5
C9
330
1E
100
AcDbEntity
  8
0
100
AcDbLine
 10
76.16795
 20
145.077
 30
0.0
 11
77.26795
 21
147.777
 31
0.0
  0
LINE
  5
CA
330
1E
100
AcDbEntity
  8
0
100
AcDbLine
 10
75.66795
 20
139.277
 30
0.0
 11
76.76796
 21
136.5769999999999
 31
0.0
  0
LINE
  5
CB
330
1E
100
AcDbEntity
  8
0
100
AcDbLine
 10
75.26796
 20
142.277
 30
0.0
 11
75.66795
 21
139.277
 31
0.0
  0
LINE
  5
CC
330
1E
100
AcDbEntity
  8
0
100
AcDbLine
 10
75.26796
 20
142.277
 30
0.0
 11
75.66795
 21
145.277
 31
0.0
  0
LINE
  5
CD
330
1E
100
AcDbEntity
  8
0
100
AcDbLine
 10
75.16795999999999
 20
139.177
 30
0.0
 11
76.36794999999999
 21
136.277
 31
0.0
  0
LINE
  5
CE
330
1E
100
AcDbEntity
  8
0
100
AcDbLine
 10
75.16795999999999
 20
139.177
 30
0.0
 11
76.36794999999999
 21
136.277
 31
0.0
  0
LINE
  5
CF
330
1E
100
AcDbEntity
  8
0
100
AcDbLine
 10
74.76795
 20
142.277
 30
0.0
 11
75.16795999999999
 21
139.177
 31
0.0
  0
LINE
  5
D0
330
1E
100
AcDbEntity
  8
0
100
AcDbLine
 10
74.76795
 20
142.277
 30
0.0
 11
75.16795999999999
 21
145.377
 31
0.0
  0
LINE
  5
D1
330
1E
100
AcDbEntity
  8
0
100
AcDbLine
 10
77.5801
 20
133.769
 30
0.0
 11
77.96779896050009
 21
134.1719355782889
 31
0.0
  0
LINE
  5
D2
330
1E
100
AcDbEntity
  8
0
100
AcDbLine
 10
77.5801
 20
133.769
 30
0.0
 11
77.89108
 21
133.4779999999999
 31
0.0
  0
LINE
  5
D3
330
1E
100
AcDbEntity
  8
0
100
AcDbLine
 10
79.2399365412253
 20
133.0382902286689
 30
0.0
 11
80.76795
 21
131.877
 31
0.0
  0
LINE
  5
D5
330
1E
100
AcDbEntity
  8
0
100
AcDbLine
 10
78.26795
 20
142.277
 30
0.0
 11
78.56796
 21
140.077
 31
0.0
  0
LINE
  5
D6
330
1E
100
AcDbEntity
  8
0
100
AcDbLine
 10
78.26795
 20
142.277
 30
0.0
 11
78.56796
 21
144.477
 31
0.0
  0
LINE
  5
D7
330
1E
100
AcDbEntity
  8
0
100
AcDbLine
 10
78.26795
 20
150.777
 30
0.0
 11
80.76795
 21
152.677
 31
0.0
  0
LINE
  5
D8
330
1E
100
AcDbEntity
  8
0
100
AcDbLine
 10
84.56799999999999
 20
134.077
 30
0.0
 11
86.51799999999999
 21
133.811090909091
 31
0.0
  0
LINE
  5
D9
330
1E
100
AcDbEntity
  8
0
100
AcDbLine
 10
84.56799999999999
 20
134.077
 30
0.0
 11
86.76799999999998
 21
133.777
 31
0.0
  0
LINE
  5
DA
330
1E
100
AcDbEntity
  8
0
100
AcDbLine
 10
86.76799999999998
 20
133.777
 30
0.0
 11
88.96799999999998
 21
134.077
 31
0.0
  0
LINE
  5
DB
330
1E
100
AcDbEntity
  8
0
100
AcDbLine
 10
88.96799999999998
 20
134.077
 30
0.0
 11
90.96799999999999
 21
134.877
 31
0.0
  0
LINE
  5
DC
330
1E
100
AcDbEntity
  8
0
100
AcDbLine
 10
87.01799999999998
 20
133.811090909091
 30
0.0
 11
88.96799999999998
 21
134.077
 31
0.0
  0
LINE
  5
DD
330
1E
100
AcDbEntity
  8
0
100
AcDbLine
 10
86.51799999999999
 20
133.811090909091
 30
0.0
 11
86.51799999999999
 21
131.312714285714
 31
0.0
  0
LINE
  5
DE
330
1E
100
AcDbEntity
  8
0
100
AcDbLine
 10
78.56796
 20
140.077
 30
0.0
 11
79.2978415671502
 21
138.2522960821239
 31
0.0
  0
LINE
  5
DF
330
1E
100
AcDbEntity
  8
0
100
AcDbLine
 10
78.56796
 20
140.077
 30
0.0
 11
79.36796
 21
138.077
 31
0.0
  0
LINE
  5
E0
330
1E
100
AcDbEntity
  8
0
100
AcDbLine
 10
78.56796
 20
144.477
 30
0.0
 11
79.29751661225549
 21
146.300891530639
 31
0.0
  0
LINE
  5
E1
330
1E
100
AcDbEntity
  8
0
100
AcDbLine
 10
78.56796
 20
144.477
 30
0.0
 11
79.36796
 21
146.477
 31
0.0
  0
LINE
  5
E2
330
1E
100
AcDbEntity
  8
0
100
AcDbLine
 10
78.3020420454545
 20
142.527
 30
0.0
 11
78.56796
 21
144.477
 31
0.0
  0
LINE
  5
E3
330
1E
100
AcDbEntity
  8
0
100
AcDbLine
 10
78.3020420454545
 20
142.027
 30
0.0
 11
78.56796
 21
140.077
 31
0.0
  0
LINE
  5
E4
330
1E
100
AcDbEntity
  8
0
100
AcDbLine
 10
82.76796
 20
135.377
 30
0.0
 11
84.66799999999999
 21
134.5769999999999
 31
0.0
  0
LINE
  5
E5
330
1E
100
AcDbEntity
  8
0
100
AcDbLine
 10
84.66799999999999
 20
134.5769999999999
 30
0.0
 11
86.76799999999998
 21
134.277
 31
0.0
  0
LINE
  5
E6
330
1E
100
AcDbEntity
  8
0
100
AcDbLine
 10
84.66799999999999
 20
134.5769999999999
 30
0.0
 11
86.51799999999999
 21
134.312714285714
 31
0.0
  0
LINE
  5
E7
330
1E
100
AcDbEntity
  8
0
100
AcDbLine
 10
82.56795
 20
134.877
 30
0.0
 11
84.56799999999999
 21
134.077
 31
0.0
  0
LINE
  5
E8
330
1E
100
AcDbEntity
  8
0
100
AcDbLine
 10
78.96795999999999
 20
134.477
 30
0.0
 11
81.26796
 21
132.777
 31
0.0
  0
LINE
  5
E9
330
1E
100
AcDbEntity
  8
0
100
AcDbLine
 10
87.01799999999998
 20
134.312714285714
 30
0.0
 11
88.86799999999999
 21
134.5769999999999
 31
0.0
  0
LINE
  5
EA
330
1E
100
AcDbEntity
  8
0
100
AcDbLine
 10
88.86799999999999
 20
134.5769999999999
 30
0.0
 11
90.76799999999998
 21
135.377
 31
0.0
  0
LINE
  5
EB
330
1E
100
AcDbEntity
  8
0
100
AcDbLine
 10
88.86799999999999
 20
134.5769999999999
 30
0.0
 11
90.52254478341641
 21
135.273650435123
 31
0.0
  0
LINE
  5
EC
330
1E
100
AcDbEntity
  8
0
100
AcDbLine
 10
86.76799999999998
 20
134.277
 30
0.0
 11
88.86799999999999
 21
134.5769999999999
 31
0.0
  0
LINE
  5
ED
330
1E
100
AcDbEntity
  8
0
100
AcDbLine
 10
90.79216604127578
 20
134.80666641651
 30
0.0
 11
92.02191409874659
 21
132.6767427809709
 31
0.0
  0
LINE
  5
EE
330
1E
100
AcDbEntity
  8
0
100
AcDbLine
 10
90.96799999999999
 20
134.877
 30
0.0
 11
92.76799999999999
 21
136.277
 31
0.0
  0
LINE
  5
EF
330
1E
100
AcDbEntity
  8
0
100
AcDbLine
 10
94.56799999999999
 20
134.477
 30
0.0
 11
96.26799999999999
 21
136.777
 31
0.0
  0
LINE
  5
F0
330
1E
100
AcDbEntity
  8
0
100
AcDbLine
 10
94.56799999999999
 20
134.477
 30
0.0
 11
96.12605895374919
 21
136.584962113896
 31
0.0
  0
LINE
  5
F1
330
1E
100
AcDbEntity
  8
0
100
AcDbLine
 10
90.79216604127578
 20
134.80666641651
 30
0.0
 11
92.02191409874659
 21
132.6767427809709
 31
0.0
  0
LINE
  5
F2
330
1E
100
AcDbEntity
  8
0
100
AcDbLine
 10
90.76799999999998
 20
135.377
 30
0.0
 11
92.368
 21
136.677
 31
0.0
  0
LINE
  5
F3
330
1E
100
AcDbEntity
  8
0
100
AcDbLine
 10
91.21705710996989
 20
135.0707110855319
 30
0.0
 11
92.459603807446
 21
132.918620205504
 31
0.0
  0
LINE
  5
F4
330
1E
100
AcDbEntity
  8
0
100
AcDbLine
 10
86.51799999999999
 20
134.312714285714
 30
0.0
 11
86.51799999999999
 21
136.812714285714
 31
0.0
  0
LINE
  5
F5
330
1E
100
AcDbEntity
  8
0
100
AcDbLine
 10
79.36796
 20
138.077
 30
0.0
 11
80.76795
 21
136.277
 31
0.0
  0
LINE
  5
F6
330
1E
100
AcDbEntity
  8
0
100
AcDbLine
 10
81.16795000000001
 20
136.677
 30
0.0
 11
82.76796
 21
135.377
 31
0.0
  0
LINE
  5
F7
330
1E
100
AcDbEntity
  8
0
100
AcDbLine
 10
80.76795
 20
136.277
 30
0.0
 11
82.56795
 21
134.877
 31
0.0
  0
LINE
  5
F8
330
1E
100
AcDbEntity
  8
0
100
AcDbLine
 10
79.5620256362805
 20
137.8274852568199
 30
0.0
 11
80.76795
 21
136.277
 31
0.0
  0
LINE
  5
F9
330
1E
100
AcDbEntity
  8
0
100
AcDbLine
 10
81.46796
 20
140.877
 30
0.0
 11
81.96795999999999
 21
139.5769999999999
 31
0.0
  0
LINE
  5
FA
330
1E
100
AcDbEntity
  8
0
100
AcDbLine
 10
81.3036742857143
 20
142.027
 30
0.0
 11
81.46796
 21
140.877
 31
0.0
  0
LINE
  5
FB
330
1E
100
AcDbEntity
  8
0
100
AcDbLine
 10
79.86796
 20
138.277
 30
0.0
 11
81.16795000000001
 21
136.677
 31
0.0
  0
LINE
  5
FC
330
1E
100
AcDbEntity
  8
0
100
AcDbLine
 10
79.06795999999999
 20
140.177
 30
0.0
 11
79.86796
 21
138.277
 31
0.0
  0
LINE
  5
FD
330
1E
100
AcDbEntity
  8
0
100
AcDbLine
 10
80.0188803751857
 20
138.0912504170819
 30
0.0
 11
82.15660732908871
 21
139.325467433075
 31
0.0
  0
LINE
  5
FE
330
1E
100
AcDbEntity
  8
0
100
AcDbLine
 10
81.96795999999999
 20
139.5769999999999
 30
0.0
 11
82.86794999999999
 21
138.377
 31
0.0
  0
LINE
  5
FF
330
1E
100
AcDbEntity
  8
0
100
AcDbLine
 10
84.068
 20
137.477
 30
0.0
 11
85.36799999999999
 21
136.977
 31
0.0
  0
LINE
  5
100
330
1E
100
AcDbEntity
  8
0
100
AcDbLine
 10
83.26799999999998
 20
138.777
 30
0.0
 11
84.26799999999998
 21
137.977
 31
0.0
  0
LINE
  5
101
330
1E
100
AcDbEntity
  8
0
100
AcDbLine
 10
83.26799999999998
 20
138.777
 30
0.0
 11
84.08257193409891
 21
138.125342452721
 31
0.0
  0
LINE
  5
102
330
1E
100
AcDbEntity
  8
0
100
AcDbLine
 10
82.86794999999999
 20
138.377
 30
0.0
 11
83.81694568100121
 21
137.665282894129
 31
0.0
  0
LINE
  5
103
330
1E
100
AcDbEntity
  8
0
100
AcDbLine
 10
82.86794999999999
 20
138.377
 30
0.0
 11
84.068
 21
137.477
 31
0.0
  0
LINE
  5
104
330
1E
100
AcDbEntity
  8
0
100
AcDbLine
 10
82.15660732908871
 20
139.325467433075
 30
0.0
 11
82.86794999999999
 21
138.377
 31
0.0
  0
LINE
  5
105
330
1E
100
AcDbEntity
  8
0
100
AcDbLine
 10
82.46795999999999
 20
139.777
 30
0.0
 11
83.26799999999998
 21
138.777
 31
0.0
  0
LINE
  5
106
330
1E
100
AcDbEntity
  8
0
100
AcDbLine
 10
81.96795999999999
 20
140.9769999999999
 30
0.0
 11
82.46795999999999
 21
139.777
 31
0.0
  0
LINE
  5
107
330
1E
100
AcDbEntity
  8
0
100
AcDbLine
 10
82.61669030358451
 20
139.591096415699
 30
0.0
 11
84.74096775900951
 21
140.8175483614859
 31
0.0
  0
LINE
  5
108
330
1E
100
AcDbEntity
  8
0
100
AcDbLine
 10
81.8064215384615
 20
142.027
 30
0.0
 11
84.30966666666659
 21
142.027
 31
0.0
  0
LINE
  5
109
330
1E
100
AcDbEntity
  8
0
100
AcDbLine
 10
79.06795999999999
 20
144.377
 30
0.0
 11
79.86796
 21
146.277
 31
0.0
  0
LINE
  5
10A
330
1E
100
AcDbEntity
  8
0
100
AcDbLine
 10
79.36796
 20
146.477
 30
0.0
 11
80.76795
 21
148.277
 31
0.0
  0
LINE
  5
10B
330
1E
100
AcDbEntity
  8
0
100
AcDbLine
 10
79.5614888888434
 20
146.725824634403
 30
0.0
 11
80.76795
 21
148.277
 31
0.0
  0
LINE
  5
10C
330
1E
100
AcDbEntity
  8
0
100
AcDbLine
 10
78.96795999999999
 20
150.0769999999999
 30
0.0
 11
81.26796
 21
151.777
 31
0.0
  0
LINE
  5
10D
330
1E
100
AcDbEntity
  8
0
100
AcDbLine
 10
78.76795
 20
142.277
 30
0.0
 11
79.06795999999999
 21
140.177
 31
0.0
  0
LINE
  5
10E
330
1E
100
AcDbEntity
  8
0
100
AcDbLine
 10
78.76795
 20
142.277
 30
0.0
 11
79.06795999999999
 21
144.377
 31
0.0
  0
LINE
  5
10F
330
1E
100
AcDbEntity
  8
0
100
AcDbLine
 10
81.96795999999999
 20
143.5769999999999
 30
0.0
 11
82.46795999999999
 21
144.777
 31
0.0
  0
LINE
  5
110
330
1E
100
AcDbEntity
  8
0
100
AcDbLine
 10
81.46796
 20
143.677
 30
0.0
 11
81.96795999999999
 21
144.977
 31
0.0
  0
LINE
  5
111
330
1E
100
AcDbEntity
  8
0
100
AcDbLine
 10
81.3036742857143
 20
142.527
 30
0.0
 11
81.46796
 21
143.677
 31
0.0
  0
LINE
  5
112
330
1E
100
AcDbEntity
  8
0
100
AcDbLine
 10
81.76796000000001
 20
142.277
 30
0.0
 11
81.96795999999999
 21
140.9769999999999
 31
0.0
  0
LINE
  5
113
330
1E
100
AcDbEntity
  8
0
100
AcDbLine
 10
81.76796000000001
 20
142.277
 30
0.0
 11
81.96795999999999
 21
143.5769999999999
 31
0.0
  0
LINE
  5
114
330
1E
100
AcDbEntity
  8
0
100
AcDbLine
 10
81.26796
 20
142.277
 30
0.0
 11
81.46796
 21
140.877
 31
0.0
  0
LINE
  5
115
330
1E
100
AcDbEntity
  8
0
100
AcDbLine
 10
81.26796
 20
142.277
 30
0.0
 11
81.46796
 21
143.677
 31
0.0
  0
LINE
  5
116
330
1E
100
AcDbEntity
  8
0
100
AcDbLine
 10
79.86796
 20
146.277
 30
0.0
 11
81.16795000000001
 21
147.877
 31
0.0
  0
LINE
  5
117
330
1E
100
AcDbEntity
  8
0
100
AcDbLine
 10
82.46795999999999
 20
144.777
 30
0.0
 11
83.26799999999998
 21
145.777
 31
0.0
  0
LINE
  5
118
330
1E
100
AcDbEntity
  8
0
100
AcDbLine
 10
81.96795999999999
 20
144.977
 30
0.0
 11
82.86794999999999
 21
146.177
 31
0.0
  0
LINE
  5
119
330
1E
100
AcDbEntity
  8
0
100
AcDbLine
 10
82.15608396022849
 20
145.2278347340239
 30
0.0
 11
82.86794999999999
 21
146.177
 31
0.0
  0
LINE
  5
11A
330
1E
100
AcDbEntity
  8
0
100
AcDbLine
 10
81.16795000000001
 20
147.877
 30
0.0
 11
82.76796
 21
149.177
 31
0.0
  0
LINE
  5
11B
330
1E
100
AcDbEntity
  8
0
100
AcDbLine
 10
80.76795
 20
148.277
 30
0.0
 11
82.56795
 21
149.677
 31
0.0
  0
LINE
  5
11C
330
1E
100
AcDbEntity
  8
0
100
AcDbLine
 10
82.56795
 20
149.677
 30
0.0
 11
84.56799999999999
 21
150.477
 31
0.0
  0
LINE
  5
11D
330
1E
100
AcDbEntity
  8
0
100
AcDbLine
 10
83.26799999999998
 20
145.777
 30
0.0
 11
84.26799999999998
 21
146.577
 31
0.0
  0
LINE
  5
11E
330
1E
100
AcDbEntity
  8
0
100
AcDbLine
 10
82.86794999999999
 20
146.177
 30
0.0
 11
84.068
 21
147.0769999999999
 31
0.0
  0
LINE
  5
11F
330
1E
100
AcDbEntity
  8
0
100
AcDbLine
 10
84.068
 20
147.0769999999999
 30
0.0
 11
85.36799999999999
 21
147.5769999999999
 31
0.0
  0
LINE
  5
120
330
1E
100
AcDbEntity
  8
0
100
AcDbLine
 10
82.76796
 20
149.177
 30
0.0
 11
84.66799999999999
 21
149.977
 31
0.0
  0
LINE
  5
121
330
1E
100
AcDbEntity
  8
0
100
AcDbLine
 10
84.08229496079
 20
146.4284359686319
 30
0.0
 11
85.30866672482099
 21
144.304111149881
 31
0.0
  0
LINE
  5
122
330
1E
100
AcDbEntity
  8
0
100
AcDbLine
 10
82.58252773240901
 20
149.026337224225
 30
0.0
 11
83.81668690549842
 21
146.888523032331
 31
0.0
  0
LINE
  5
123
330
1E
100
AcDbEntity
  8
0
100
AcDbLine
 10
82.6161430443785
 20
144.962219544496
 30
0.0
 11
84.74048637651781
 21
143.7357295647769
 31
0.0
  0
LINE
  5
124
330
1E
100
AcDbEntity
  8
0
100
AcDbLine
 10
80.01832731726009
 20
146.462068891004
 30
0.0
 11
82.15608396022849
 21
145.2278347340239
 31
0.0
  0
LINE
  5
125
330
1E
100
AcDbEntity
  8
0
100
AcDbLine
 10
82.36499445189879
 20
144.529882684557
 30
0.0
 11
84.5067750909256
 21
143.293325272777
 31
0.0
  0
LINE
  5
126
330
1E
100
AcDbEntity
  8
0
100
AcDbLine
 10
79.76449867673792
 20
146.0312793572529
 30
0.0
 11
81.89938417536231
 21
144.798702855942
 31
0.0
  0
LINE
  5
127
330
1E
100
AcDbEntity
  8
0
100
AcDbLine
 10
78.8036654761905
 20
142.027
 30
0.0
 11
81.3036742857143
 21
142.027
 31
0.0
  0
LINE
  5
128
330
1E
100
AcDbEntity
  8
0
100
AcDbLine
 10
84.51487983597079
 20
137.8741334016789
 30
0.0
 11
85.46799999999999
 21
137.477
 31
0.0
  0
LINE
  5
129
330
1E
100
AcDbEntity
  8
0
100
AcDbLine
 10
84.26799999999998
 20
137.977
 30
0.0
 11
85.46799999999999
 21
137.477
 31
0.0
  0
LINE
  5
12A
330
1E
100
AcDbEntity
  8
0
100
AcDbLine
 10
84.24604811061669
 20
137.408519957455
 30
0.0
 11
85.36799999999999
 21
136.977
 31
0.0
  0
LINE
  5
12B
330
1E
100
AcDbEntity
  8
0
100
AcDbLine
 10
86.16799999999999
 20
139.877
 30
0.0
 11
86.51799999999999
 21
139.818666666667
 31
0.0
  0
LINE
  5
12C
330
1E
100
AcDbEntity
  8
0
100
AcDbLine
 10
86.16799999999999
 20
139.877
 30
0.0
 11
86.76799999999998
 21
139.777
 31
0.0
  0
LINE
  5
12D
330
1E
100
AcDbEntity
  8
0
100
AcDbLine
 10
85.46799999999999
 20
137.477
 30
0.0
 11
86.76799999999998
 21
137.277
 31
0.0
  0
LINE
  5
12E
330
1E
100
AcDbEntity
  8
0
100
AcDbLine
 10
85.46799999999999
 20
137.477
 30
0.0
 11
86.51799999999999
 21
137.315461538462
 31
0.0
  0
LINE
  5
12F
330
1E
100
AcDbEntity
  8
0
100
AcDbLine
 10
85.36799999999999
 20
136.977
 30
0.0
 11
86.51799999999999
 21
136.812714285714
 31
0.0
  0
LINE
  5
130
330
1E
100
AcDbEntity
  8
0
100
AcDbLine
 10
85.36799999999999
 20
136.977
 30
0.0
 11
86.76799999999998
 21
136.777
 31
0.0
  0
LINE
  5
131
330
1E
100
AcDbEntity
  8
0
100
AcDbLine
 10
86.51799999999999
 20
136.812714285714
 30
0.0
 11
86.51799999999999
 21
134.312714285714
 31
0.0
  0
LINE
  5
132
330
1E
100
AcDbEntity
  8
0
100
AcDbLine
 10
86.51799999999999
 20
139.818666666667
 30
0.0
 11
86.51799999999999
 21
137.315461538462
 31
0.0
  0
LINE
  5
133
330
1E
100
AcDbEntity
  8
0
100
AcDbLine
 10
86.26799999999999
 20
140.377
 30
0.0
 11
86.76799999999998
 21
140.277
 31
0.0
  0
LINE
  5
134
330
1E
100
AcDbEntity
  8
0
100
AcDbLine
 10
85.568
 20
140.077
 30
0.0
 11
86.16799999999999
 21
139.877
 31
0.0
  0
LINE
  5
135
330
1E
100
AcDbEntity
  8
0
100
AcDbLine
 10
86.51799999999999
 20
140.027
 30
0.0
 11
86.51799999999999
 21
131.312714285714
 31
0.0
  0
LINE
  5
136
330
1E
100
AcDbEntity
  8
0
100
AcDbLine
 10
86.51799999999999
 20
140.027
 30
0.0
 11
87.01799999999998
 21
140.027
 31
0.0
  0
LINE
  5
137
330
1E
100
AcDbEntity
  8
0
100
AcDbLine
 10
87.01799999999998
 20
137.315461538462
 30
0.0
 11
88.068
 21
137.477
 31
0.0
  0
LINE
  5
138
330
1E
100
AcDbEntity
  8
0
100
AcDbLine
 10
86.76799999999998
 20
137.277
 30
0.0
 11
88.068
 21
137.477
 31
0.0
  0
LINE
  5
139
330
1E
100
AcDbEntity
  8
0
100
AcDbLine
 10
86.76799999999998
 20
136.777
 30
0.0
 11
88.16799999999998
 21
136.977
 31
0.0
  0
LINE
  5
13A
330
1E
100
AcDbEntity
  8
0
100
AcDbLine
 10
88.16799999999998
 20
136.977
 30
0.0
 11
89.2899430876581
 21
137.408516572176
 31
0.0
  0
LINE
  5
13B
330
1E
100
AcDbEntity
  8
0
100
AcDbLine
 10
88.16799999999998
 20
136.977
 30
0.0
 11
89.46799999999999
 21
137.477
 31
0.0
  0
LINE
  5
13C
330
1E
100
AcDbEntity
  8
0
100
AcDbLine
 10
87.368
 20
139.877
 30
0.0
 11
87.96799999999999
 21
140.077
 31
0.0
  0
LINE
  5
13D
330
1E
100
AcDbEntity
  8
0
100
AcDbLine
 10
86.76799999999998
 20
139.777
 30
0.0
 11
87.368
 21
139.877
 31
0.0
  0
LINE
  5
13E
330
1E
100
AcDbEntity
  8
0
100
AcDbLine
 10
88.068
 20
137.477
 30
0.0
 11
89.26799999999998
 21
137.977
 31
0.0
  0
LINE
  5
13F
330
1E
100
AcDbEntity
  8
0
100
AcDbLine
 10
88.068
 20
137.477
 30
0.0
 11
89.02111293825631
 21
137.87413039094
 31
0.0
  0
LINE
  5
140
330
1E
100
AcDbEntity
  8
0
100
AcDbLine
 10
89.4534178515008
 20
138.1253342812009
 30
0.0
 11
90.26799999999999
 21
138.777
 31
0.0
  0
LINE
  5
141
330
1E
100
AcDbEntity
  8
0
100
AcDbLine
 10
89.26799999999998
 20
137.977
 30
0.0
 11
90.26799999999999
 21
138.777
 31
0.0
  0
LINE
  5
142
330
1E
100
AcDbEntity
  8
0
100
AcDbLine
 10
89.46799999999999
 20
137.477
 30
0.0
 11
90.66799999999998
 21
138.377
 31
0.0
  0
LINE
  5
143
330
1E
100
AcDbEntity
  8
0
100
AcDbLine
 10
87.78455358295669
 20
140.015851194319
 30
0.0
 11
89.02111293825631
 21
137.87413039094
 31
0.0
  0
LINE
  5
144
330
1E
100
AcDbEntity
  8
0
100
AcDbLine
 10
89.2899430876581
 20
137.408516572176
 30
0.0
 11
90.52254478341641
 21
135.273650435123
 31
0.0
  0
LINE
  5
145
330
1E
100
AcDbEntity
  8
0
100
AcDbLine
 10
92.368
 20
136.677
 30
0.0
 11
93.66799999999999
 21
138.277
 31
0.0
  0
LINE
  5
146
330
1E
100
AcDbEntity
  8
0
100
AcDbLine
 10
92.76799999999999
 20
136.277
 30
0.0
 11
93.9739393828494
 21
137.8274934922349
 31
0.0
  0
LINE
  5
147
330
1E
100
AcDbEntity
  8
0
100
AcDbLine
 10
92.76799999999999
 20
136.277
 30
0.0
 11
94.168
 21
138.077
 31
0.0
  0
LINE
  5
148
330
1E
100
AcDbEntity
  8
0
100
AcDbLine
 10
90.95329298486928
 20
135.5275505502059
 30
0.0
 11
92.368
 21
136.677
 31
0.0
  0
LINE
  5
149
330
1E
100
AcDbEntity
  8
0
100
AcDbLine
 10
90.66799999999998
 20
138.377
 30
0.0
 11
91.3793600526448
 21
139.325480070193
 31
0.0
  0
LINE
  5
14A
330
1E
100
AcDbEntity
  8
0
100
AcDbLine
 10
90.66799999999998
 20
138.377
 30
0.0
 11
91.568
 21
139.5769999999999
 31
0.0
  0
LINE
  5
14B
330
1E
100
AcDbEntity
  8
0
100
AcDbLine
 10
91.17063569719659
 20
140.023325673272
 30
0.0
 11
91.568
 21
140.9769999999999
 31
0.0
  0
LINE
  5
14C
330
1E
100
AcDbEntity
  8
0
100
AcDbLine
 10
91.06799999999999
 20
139.777
 30
0.0
 11
91.568
 21
140.9769999999999
 31
0.0
  0
LINE
  5
14D
330
1E
100
AcDbEntity
  8
0
100
AcDbLine
 10
90.26799999999999
 20
138.777
 30
0.0
 11
91.06799999999999
 21
139.777
 31
0.0
  0
LINE
  5
14E
330
1E
100
AcDbEntity
  8
0
100
AcDbLine
 10
91.568
 20
139.5769999999999
 30
0.0
 11
92.06799999999999
 21
140.877
 31
0.0
  0
LINE
  5
14F
330
1E
100
AcDbEntity
  8
0
100
AcDbLine
 10
93.7711267218499
 20
138.521925964394
 30
0.0
 11
94.46799999999999
 21
140.177
 31
0.0
  0
LINE
  5
150
330
1E
100
AcDbEntity
  8
0
100
AcDbLine
 10
93.66799999999999
 20
138.277
 30
0.0
 11
94.46799999999999
 21
140.177
 31
0.0
  0
LINE
  5
151
330
1E
100
AcDbEntity
  8
0
100
AcDbLine
 10
94.168
 20
138.077
 30
0.0
 11
94.96799999999998
 21
140.077
 31
0.0
  0
LINE
  5
152
330
1E
100
AcDbEntity
  8
0
100
AcDbLine
 10
91.3793600526448
 20
139.325480070193
 30
0.0
 11
93.5170855534062
 21
138.0912591426539
 31
0.0
  0
LINE
  5
153
330
1E
100
AcDbEntity
  8
0
100
AcDbLine
 10
93.9739393828494
 20
137.8274934922349
 30
0.0
 11
96.12605895374919
 21
136.584962113896
 31
0.0
  0
LINE
  5
154
330
1E
100
AcDbEntity
  8
0
100
AcDbLine
 10
89.71903867848508
 20
137.6652790088639
 30
0.0
 11
90.95329298486928
 21
135.5275505502059
 31
0.0
  0
LINE
  5
155
330
1E
100
AcDbEntity
  8
0
100
AcDbLine
 10
89.71903867848508
 20
137.6652790088639
 30
0.0
 11
90.66799999999998
 21
138.377
 31
0.0
  0
LINE
  5
156
330
1E
100
AcDbEntity
  8
0
100
AcDbLine
 10
87.26799999999999
 20
140.377
 30
0.0
 11
87.76799999999999
 21
140.5769999999999
 31
0.0
  0
LINE
  5
157
330
1E
100
AcDbEntity
  8
0
100
AcDbLine
 10
86.76799999999998
 20
140.277
 30
0.0
 11
87.26799999999999
 21
140.377
 31
0.0
  0
LINE
  5
158
330
1E
100
AcDbEntity
  8
0
100
AcDbLine
 10
87.96799999999999
 20
140.077
 30
0.0
 11
88.56799999999999
 21
140.477
 31
0.0
  0
LINE
  5
159
330
1E
100
AcDbEntity
  8
0
100
AcDbLine
 10
87.67650000000001
 20
140.203
 30
0.0
 11
88.1095
 21
140.453
 31
0.0
  0
LINE
  5
15A
330
1E
100
AcDbEntity
  8
0
100
AcDbLine
 10
87.67650000000001
 20
140.203
 30
0.0
 11
92.02191409874659
 21
132.6767427809709
 31
0.0
  0
LINE
  5
15B
330
1E
100
AcDbEntity
  8
0
100
AcDbLine
 10
88.1095
 20
140.453
 30
0.0
 11
92.459603807446
 21
132.918620205504
 31
0.0
  0
LINE
  5
15C
330
1E
100
AcDbEntity
  8
0
100
AcDbLine
 10
94.46799999999999
 20
140.177
 30
0.0
 11
94.76799999999999
 21
142.277
 31
0.0
  0
LINE
  5
15D
330
1E
100
AcDbEntity
  8
0
100
AcDbLine
 10
88.2269263479711
 20
140.249617565314
 30
0.0
 11
89.4534178515008
 21
138.1253342812009
 31
0.0
  0
LINE
  5
15E
330
1E
100
AcDbEntity
  8
0
100
AcDbLine
 10
87.01799999999998
 20
140.027
 30
0.0
 11
87.01799999999998
 21
131.312714285714
 31
0.0
  0
LINE
  5
15F
330
1E
100
AcDbEntity
  8
0
100
AcDbLine
 10
86.51799999999999
 20
137.315461538462
 30
0.0
 11
86.51799999999999
 21
139.818666666667
 31
0.0
  0
LINE
  5
160
330
1E
100
AcDbEntity
  8
0
100
AcDbLine
 10
84.36799999999999
 20
141.677
 30
0.0
 11
84.56799999999999
 21
141.077
 31
0.0
  0
LINE
  5
161
330
1E
100
AcDbEntity
  8
0
100
AcDbLine
 10
84.26799999999998
 20
146.577
 30
0.0
 11
85.46799999999999
 21
147.0769999999999
 31
0.0
  0
LINE
  5
162
330
1E
100
AcDbEntity
  8
0
100
AcDbLine
 10
84.36799999999999
 20
142.877
 30
0.0
 11
84.56799999999999
 21
143.477
 31
0.0
  0
LINE
  5
163
330
1E
100
AcDbEntity
  8
0
100
AcDbLine
 10
84.51455352720591
 20
146.6797306363359
 30
0.0
 11
85.46799999999999
 21
147.0769999999999
 31
0.0
  0
LINE
  5
164
330
1E
100
AcDbEntity
  8
0
100
AcDbLine
 10
84.26799999999998
 20
142.277
 30
0.0
 11
84.36799999999999
 21
141.677
 31
0.0
  0
LINE
  5
165
330
1E
100
AcDbEntity
  8
0
100
AcDbLine
 10
84.26799999999998
 20
142.277
 30
0.0
 11
84.36799999999999
 21
142.877
 31
0.0
  0
LINE
  5
166
330
1E
100
AcDbEntity
  8
0
100
AcDbLine
 10
84.51799999999998
 20
142.027
 30
0.0
 11
84.51799999999998
 21
142.527
 31
0.0
  0
LINE
  5
167
330
1E
100
AcDbEntity
  8
0
100
AcDbLine
 10
88.56799999999999
 20
140.477
 30
0.0
 11
88.7950320233706
 21
140.817548035056
 31
0.0
  0
LINE
  5
168
330
1E
100
AcDbEntity
  8
0
100
AcDbLine
 10
88.56799999999999
 20
140.477
 30
0.0
 11
88.96799999999998
 21
141.077
 31
0.0
  0
LINE
  5
169
330
1E
100
AcDbEntity
  8
0
100
AcDbLine
 10
87.76799999999999
 20
140.5769999999999
 30
0.0
 11
88.16799999999998
 21
140.877
 31
0.0
  0
LINE
  5
16A
330
1E
100
AcDbEntity
  8
0
100
AcDbLine
 10
85.76799999999998
 20
140.5769999999999
 30
0.0
 11
86.26799999999999
 21
140.377
 31
0.0
  0
LINE
  5
16B
330
1E
100
AcDbEntity
  8
0
100
AcDbLine
 10
84.96799999999998
 20
140.477
 30
0.0
 11
85.3090727099231
 21
140.249618193385
 31
0.0
  0
LINE
  5
16C
330
1E
100
AcDbEntity
  8
0
100
AcDbLine
 10
84.96799999999998
 20
140.477
 30
0.0
 11
85.568
 21
140.077
 31
0.0
  0
LINE
  5
16D
330
1E
100
AcDbEntity
  8
0
100
AcDbLine
 10
88.16799999999998
 20
140.877
 30
0.0
 11
88.46799999999999
 21
141.277
 31
0.0
  0
LINE
  5
16E
330
1E
100
AcDbEntity
  8
0
100
AcDbLine
 10
85.36799999999999
 20
140.877
 30
0.0
 11
85.76799999999998
 21
140.5769999999999
 31
0.0
  0
LINE
  5
16F
330
1E
100
AcDbEntity
  8
0
100
AcDbLine
 10
84.74096775900951
 20
140.8175483614859
 30
0.0
 11
84.96799999999998
 21
140.477
 31
0.0
  0
LINE
  5
170
330
1E
100
AcDbEntity
  8
0
100
AcDbLine
 10
88.7950320233706
 20
140.817548035056
 30
0.0
 11
90.91928459040559
 21
139.591105738007
 31
0.0
  0
LINE
  5
171
330
1E
100
AcDbEntity
  8
0
100
AcDbLine
 10
88.46799999999999
 20
141.277
 30
0.0
 11
88.66799999999999
 21
141.777
 31
0.0
  0
LINE
  5
172
330
1E
100
AcDbEntity
  8
0
100
AcDbLine
 10
85.068
 20
141.277
 30
0.0
 11
85.36799999999999
 21
140.877
 31
0.0
  0
LINE
  5
173
330
1E
100
AcDbEntity
  8
0
100
AcDbLine
 10
84.56799999999999
 20
141.077
 30
0.0
 11
84.96799999999998
 21
140.477
 31
0.0
  0
LINE
  5
174
330
1E
100
AcDbEntity
  8
0
100
AcDbLine
 10
88.59160000000001
 20
140.935
 30
0.0
 11
88.84159999999999
 21
141.368
 31
0.0
  0
LINE
  5
175
330
1E
100
AcDbEntity
  8
0
100
AcDbLine
 10
88.59160000000001
 20
140.935
 30
0.0
 11
96.12605895374919
 21
136.584962113896
 31
0.0
  0
LINE
  5
176
330
1E
100
AcDbEntity
  8
0
100
AcDbLine
 10
88.96799999999998
 20
141.077
 30
0.0
 11
89.168
 21
141.677
 31
0.0
  0
LINE
  5
177
330
1E
100
AcDbEntity
  8
0
100
AcDbLine
 10
91.568
 20
140.9769999999999
 30
0.0
 11
91.76799999999998
 21
142.277
 31
0.0
  0
LINE
  5
178
330
1E
100
AcDbEntity
  8
0
100
AcDbLine
 10
91.568
 20
140.9769999999999
 30
0.0
 11
91.7295384615385
 21
142.027
 31
0.0
  0
LINE
  5
179
330
1E
100
AcDbEntity
  8
0
100
AcDbLine
 10
92.06799999999999
 20
140.877
 30
0.0
 11
92.26799999999999
 21
142.277
 31
0.0
  0
LINE
  5
17A
330
1E
100
AcDbEntity
  8
0
100
AcDbLine
 10
88.84159999999999
 20
141.368
 30
0.0
 11
96.3680529122878
 21
137.02258442107
 31
0.0
  0
LINE
  5
17B
330
1E
100
AcDbEntity
  8
0
100
AcDbLine
 10
88.66799999999999
 20
141.777
 30
0.0
 11
88.76799999999999
 21
142.277
 31
0.0
  0
LINE
  5
17C
330
1E
100
AcDbEntity
  8
0
100
AcDbLine
 10
84.868
 20
141.777
 30
0.0
 11
85.068
 21
141.277
 31
0.0
  0
LINE
  5
17D
330
1E
100
AcDbEntity
  8
0
100
AcDbLine
 10
84.76799999999999
 20
142.277
 30
0.0
 11
84.868
 21
141.777
 31
0.0
  0
LINE
  5
17E
330
1E
100
AcDbEntity
  8
0
100
AcDbLine
 10
84.76799999999999
 20
142.277
 30
0.0
 11
84.868
 21
142.777
 31
0.0
  0
LINE
  5
17F
330
1E
100
AcDbEntity
  8
0
100
AcDbLine
 10
84.56799999999999
 20
143.477
 30
0.0
 11
84.96799999999998
 21
144.077
 31
0.0
  0
LINE
  5
180
330
1E
100
AcDbEntity
  8
0
100
AcDbLine
 10
84.66799999999999
 20
149.977
 30
0.0
 11
86.76799999999998
 21
150.277
 31
0.0
  0
LINE
  5
181
330
1E
100
AcDbEntity
  8
0
100
AcDbLine
 10
84.66799999999999
 20
149.977
 30
0.0
 11
86.51799999999999
 21
150.2412857142859
 31
0.0
  0
LINE
  5
182
330
1E
100
AcDbEntity
  8
0
100
AcDbLine
 10
84.56799999999999
 20
150.477
 30
0.0
 11
86.51799999999999
 21
150.7429090909089
 31
0.0
  0
LINE
  5
183
330
1E
100
AcDbEntity
  8
0
100
AcDbLine
 10
84.56799999999999
 20
150.477
 30
0.0
 11
86.76799999999998
 21
150.777
 31
0.0
  0
LINE
  5
184
330
1E
100
AcDbEntity
  8
0
100
AcDbLine
 10
85.068
 20
143.277
 30
0.0
 11
85.36799999999999
 21
143.677
 31
0.0
  0
LINE
  5
185
330
1E
100
AcDbEntity
  8
0
100
AcDbLine
 10
84.868
 20
142.777
 30
0.0
 11
85.068
 21
143.277
 31
0.0
  0
LINE
  5
186
330
1E
100
AcDbEntity
  8
0
100
AcDbLine
 10
84.74048637651781
 20
143.7357295647769
 30
0.0
 11
84.96799999999998
 21
144.077
 31
0.0
  0
LINE
  5
187
330
1E
100
AcDbEntity
  8
0
100
AcDbLine
 10
85.36799999999999
 20
143.677
 30
0.0
 11
85.76799999999998
 21
143.977
 31
0.0
  0
LINE
  5
188
330
1E
100
AcDbEntity
  8
0
100
AcDbLine
 10
85.76799999999998
 20
143.977
 30
0.0
 11
86.26799999999999
 21
144.177
 31
0.0
  0
LINE
  5
189
330
1E
100
AcDbEntity
  8
0
100
AcDbLine
 10
84.96799999999998
 20
144.077
 30
0.0
 11
85.30866672482099
 21
144.304111149881
 31
0.0
  0
LINE
  5
18A
330
1E
100
AcDbEntity
  8
0
100
AcDbLine
 10
84.96799999999998
 20
144.077
 30
0.0
 11
85.568
 21
144.477
 31
0.0
  0
LINE
  5
18B
330
1E
100
AcDbEntity
  8
0
100
AcDbLine
 10
87.76799999999999
 20
143.977
 30
0.0
 11
88.16799999999998
 21
143.677
 31
0.0
  0
LINE
  5
18C
330
1E
100
AcDbEntity
  8
0
100
AcDbLine
 10
88.66799999999999
 20
142.777
 30
0.0
 11
88.76799999999999
 21
142.277
 31
0.0
  0
LINE
  5
18D
330
1E
100
AcDbEntity
  8
0
100
AcDbLine
 10
88.46799999999999
 20
143.277
 30
0.0
 11
88.66799999999999
 21
142.777
 31
0.0
  0
LINE
  5
18E
330
1E
100
AcDbEntity
  8
0
100
AcDbLine
 10
88.56799999999999
 20
144.077
 30
0.0
 11
88.96799999999998
 21
143.477
 31
0.0
  0
LINE
  5
18F
330
1E
100
AcDbEntity
  8
0
100
AcDbLine
 10
88.16799999999998
 20
143.677
 30
0.0
 11
88.46799999999999
 21
143.277
 31
0.0
  0
LINE
  5
190
330
1E
100
AcDbEntity
  8
0
100
AcDbLine
 10
88.96799999999998
 20
143.477
 30
0.0
 11
89.168
 21
142.877
 31
0.0
  0
LINE
  5
191
330
1E
100
AcDbEntity
  8
0
100
AcDbLine
 10
88.7955134053473
 20
143.735729891979
 30
0.0
 11
90.91983183022939
 21
144.962210212213
 31
0.0
  0
LINE
  5
192
330
1E
100
AcDbEntity
  8
0
100
AcDbLine
 10
88.59160000000001
 20
143.618
 30
0.0
 11
88.84159999999999
 21
143.185
 31
0.0
  0
LINE
  5
193
330
1E
100
AcDbEntity
  8
0
100
AcDbLine
 10
88.59160000000001
 20
143.618
 30
0.0
 11
96.1265770096643
 21
147.9683369869249
 31
0.0
  0
LINE
  5
194
330
1E
100
AcDbEntity
  8
0
100
AcDbLine
 10
88.84159999999999
 20
143.185
 30
0.0
 11
96.3683827387039
 21
147.530606005
 31
0.0
  0
LINE
  5
195
330
1E
100
AcDbEntity
  8
0
100
AcDbLine
 10
88.1095
 20
144.1
 30
0.0
 11
92.45961728600191
 21
151.6353698320859
 31
0.0
  0
LINE
  5
196
330
1E
100
AcDbEntity
  8
0
100
AcDbLine
 10
85.568
 20
144.477
 30
0.0
 11
86.16799999999999
 21
144.677
 31
0.0
  0
LINE
  5
197
330
1E
100
AcDbEntity
  8
0
100
AcDbLine
 10
86.26799999999999
 20
144.177
 30
0.0
 11
86.76799999999998
 21
144.277
 31
0.0
  0
LINE
  5
198
330
1E
100
AcDbEntity
  8
0
100
AcDbLine
 10
86.16799999999999
 20
144.677
 30
0.0
 11
86.76799999999998
 21
144.777
 31
0.0
  0
LINE
  5
199
330
1E
100
AcDbEntity
  8
0
100
AcDbLine
 10
85.75097330395559
 20
144.537991101319
 30
0.0
 11
86.16799999999999
 21
144.677
 31
0.0
  0
LINE
  5
19A
330
1E
100
AcDbEntity
  8
0
100
AcDbLine
 10
85.46799999999999
 20
147.0769999999999
 30
0.0
 11
86.51799999999999
 21
147.2385384615379
 31
0.0
  0
LINE
  5
19B
330
1E
100
AcDbEntity
  8
0
100
AcDbLine
 10
85.46799999999999
 20
147.0769999999999
 30
0.0
 11
86.76799999999998
 21
147.277
 31
0.0
  0
LINE
  5
19C
330
1E
100
AcDbEntity
  8
0
100
AcDbLine
 10
85.36799999999999
 20
147.5769999999999
 30
0.0
 11
86.51799999999999
 21
147.7412857142859
 31
0.0
  0
LINE
  5
19D
330
1E
100
AcDbEntity
  8
0
100
AcDbLine
 10
85.36799999999999
 20
147.5769999999999
 30
0.0
 11
86.76799999999998
 21
147.777
 31
0.0
  0
LINE
  5
19E
330
1E
100
AcDbEntity
  8
0
100
AcDbLine
 10
86.51799999999999
 20
147.7412857142859
 30
0.0
 11
86.51799999999999
 21
150.2412857142859
 31
0.0
  0
LINE
  5
19F
330
1E
100
AcDbEntity
  8
0
100
AcDbLine
 10
86.51799999999999
 20
144.7353333333329
 30
0.0
 11
86.51799999999999
 21
147.2385384615379
 31
0.0
  0
LINE
  5
1A0
330
1E
100
AcDbEntity
  8
0
100
AcDbLine
 10
86.51799999999999
 20
147.2385384615379
 30
0.0
 11
86.51799999999999
 21
144.7353333333329
 31
0.0
  0
LINE
  5
1A1
330
1E
100
AcDbEntity
  8
0
100
AcDbLine
 10
86.51799999999999
 20
150.7429090909089
 30
0.0
 11
86.51799999999999
 21
153.2412857142859
 31
0.0
  0
LINE
  5
1A2
330
1E
100
AcDbEntity
  8
0
100
AcDbLine
 10
86.51799999999999
 20
150.2412857142859
 30
0.0
 11
86.51799999999999
 21
147.7412857142859
 31
0.0
  0
LINE
  5
1A3
330
1E
100
AcDbEntity
  8
0
100
AcDbLine
 10
87.26799999999999
 20
144.177
 30
0.0
 11
87.76799999999999
 21
143.977
 31
0.0
  0
LINE
  5
1A4
330
1E
100
AcDbEntity
  8
0
100
AcDbLine
 10
86.76799999999998
 20
144.277
 30
0.0
 11
87.26799999999999
 21
144.177
 31
0.0
  0
LINE
  5
1A5
330
1E
100
AcDbEntity
  8
0
100
AcDbLine
 10
87.96799999999999
 20
144.477
 30
0.0
 11
88.56799999999999
 21
144.077
 31
0.0
  0
LINE
  5
1A6
330
1E
100
AcDbEntity
  8
0
100
AcDbLine
 10
87.67650000000001
 20
144.35
 30
0.0
 11
88.1095
 21
144.1
 31
0.0
  0
LINE
  5
1A7
330
1E
100
AcDbEntity
  8
0
100
AcDbLine
 10
87.67650000000001
 20
144.35
 30
0.0
 11
92.02193015405921
 21
151.877250677976
 31
0.0
  0
LINE
  5
1A8
330
1E
100
AcDbEntity
  8
0
100
AcDbLine
 10
88.22733232978229
 20
144.304111780145
 30
0.0
 11
89.4536948222905
 21
146.428444142168
 31
0.0
  0
LINE
  5
1A9
330
1E
100
AcDbEntity
  8
0
100
AcDbLine
 10
86.76799999999998
 20
144.777
 30
0.0
 11
87.368
 21
144.677
 31
0.0
  0
LINE
  5
1AA
330
1E
100
AcDbEntity
  8
0
100
AcDbLine
 10
86.76799999999998
 20
147.277
 30
0.0
 11
88.068
 21
147.0769999999999
 31
0.0
  0
LINE
  5
1AB
330
1E
100
AcDbEntity
  8
0
100
AcDbLine
 10
86.76799999999998
 20
147.777
 30
0.0
 11
88.16799999999998
 21
147.5769999999999
 31
0.0
  0
LINE
  5
1AC
330
1E
100
AcDbEntity
  8
0
100
AcDbLine
 10
87.368
 20
144.677
 30
0.0
 11
87.78502608929528
 21
144.5379913035679
 31
0.0
  0
LINE
  5
1AD
330
1E
100
AcDbEntity
  8
0
100
AcDbLine
 10
87.368
 20
144.677
 30
0.0
 11
87.96799999999999
 21
144.477
 31
0.0
  0
LINE
  5
1AE
330
1E
100
AcDbEntity
  8
0
100
AcDbLine
 10
87.01799999999998
 20
147.2385384615379
 30
0.0
 11
88.068
 21
147.0769999999999
 31
0.0
  0
LINE
  5
1AF
330
1E
100
AcDbEntity
  8
0
100
AcDbLine
 10
87.01799999999998
 20
150.2412857142859
 30
0.0
 11
88.86799999999999
 21
149.977
 31
0.0
  0
LINE
  5
1B0
330
1E
100
AcDbEntity
  8
0
100
AcDbLine
 10
86.76799999999998
 20
150.277
 30
0.0
 11
88.86799999999999
 21
149.977
 31
0.0
  0
LINE
  5
1B1
330
1E
100
AcDbEntity
  8
0
100
AcDbLine
 10
86.76799999999998
 20
150.777
 30
0.0
 11
88.96799999999998
 21
150.477
 31
0.0
  0
LINE
  5
1B2
330
1E
100
AcDbEntity
  8
0
100
AcDbLine
 10
87.01799999999998
 20
150.7429090909089
 30
0.0
 11
88.96799999999998
 21
150.477
 31
0.0
  0
LINE
  5
1B3
330
1E
100
AcDbEntity
  8
0
100
AcDbLine
 10
88.068
 20
147.0769999999999
 30
0.0
 11
89.0214392450879
 21
146.67973364788
 31
0.0
  0
LINE
  5
1B4
330
1E
100
AcDbEntity
  8
0
100
AcDbLine
 10
88.068
 20
147.0769999999999
 30
0.0
 11
89.26799999999998
 21
146.577
 31
0.0
  0
LINE
  5
1B5
330
1E
100
AcDbEntity
  8
0
100
AcDbLine
 10
88.16799999999998
 20
147.5769999999999
 30
0.0
 11
89.46799999999999
 21
147.0769999999999
 31
0.0
  0
LINE
  5
1B6
330
1E
100
AcDbEntity
  8
0
100
AcDbLine
 10
88.86799999999999
 20
149.977
 30
0.0
 11
90.76799999999998
 21
149.177
 31
0.0
  0
LINE
  5
1B7
330
1E
100
AcDbEntity
  8
0
100
AcDbLine
 10
88.86799999999999
 20
149.977
 30
0.0
 11
90.52271547486489
 21
149.2802776947939
 31
0.0
  0
LINE
  5
1B8
330
1E
100
AcDbEntity
  8
0
100
AcDbLine
 10
88.96799999999998
 20
150.477
 30
0.0
 11
90.96799999999999
 21
149.677
 31
0.0
  0
LINE
  5
1B9
330
1E
100
AcDbEntity
  8
0
100
AcDbLine
 10
87.78502608929528
 20
144.5379913035679
 30
0.0
 11
89.0214392450879
 21
146.67973364788
 31
0.0
  0
LINE
  5
1BA
330
1E
100
AcDbEntity
  8
0
100
AcDbLine
 10
87.01799999999998
 20
144.527
 30
0.0
 11
87.01799999999998
 21
153.2412857142859
 31
0.0
  0
LINE
  5
1BB
330
1E
100
AcDbEntity
  8
0
100
AcDbLine
 10
86.51799999999999
 20
144.527
 30
0.0
 11
86.51799999999999
 21
153.2412857142859
 31
0.0
  0
LINE
  5
1BC
330
1E
100
AcDbEntity
  8
0
100
AcDbLine
 10
86.51799999999999
 20
144.527
 30
0.0
 11
87.01799999999998
 21
144.527
 31
0.0
  0
LINE
  5
1BD
330
1E
100
AcDbEntity
  8
0
100
AcDbLine
 10
85.4265
 20
144.1
 30
0.0
 11
85.8595
 21
144.35
 31
0.0
  0
LINE
  5
1BE
330
1E
100
AcDbEntity
  8
0
100
AcDbLine
 10
84.6944
 20
143.185
 30
0.0
 11
84.9444
 21
143.618
 31
0.0
  0
LINE
  5
1BF
330
1E
100
AcDbEntity
  8
0
100
AcDbLine
 10
89.01799999999999
 20
142.527
 30
0.0
 11
89.01799999999999
 21
142.027
 31
0.0
  0
LINE
  5
1C0
330
1E
100
AcDbEntity
  8
0
100
AcDbLine
 10
89.01799999999999
 20
142.527
 30
0.0
 11
97.73228571428569
 21
142.527
 31
0.0
  0
LINE
  5
1C1
330
1E
100
AcDbEntity
  8
0
100
AcDbLine
 10
89.168
 20
141.677
 30
0.0
 11
89.26799999999998
 21
142.277
 31
0.0
  0
LINE
  5
1C2
330
1E
100
AcDbEntity
  8
0
100
AcDbLine
 10
89.2263333333333
 20
142.027
 30
0.0
 11
91.7295384615385
 21
142.027
 31
0.0
  0
LINE
  5
1C3
330
1E
100
AcDbEntity
  8
0
100
AcDbLine
 10
89.168
 20
142.877
 30
0.0
 11
89.26799999999998
 21
142.277
 31
0.0
  0
LINE
  5
1C4
330
1E
100
AcDbEntity
  8
0
100
AcDbLine
 10
90.26799999999999
 20
145.777
 30
0.0
 11
91.06799999999999
 21
144.777
 31
0.0
  0
LINE
  5
1C5
330
1E
100
AcDbEntity
  8
0
100
AcDbLine
 10
90.26799999999999
 20
145.777
 30
0.0
 11
90.91983183022939
 21
144.962210212213
 31
0.0
  0
LINE
  5
1C6
330
1E
100
AcDbEntity
  8
0
100
AcDbLine
 10
91.06799999999999
 20
144.777
 30
0.0
 11
91.568
 21
143.5769999999999
 31
0.0
  0
LINE
  5
1C7
330
1E
100
AcDbEntity
  8
0
100
AcDbLine
 10
90.66799999999998
 20
146.177
 30
0.0
 11
91.37988342495431
 21
145.2278221000609
 31
0.0
  0
LINE
  5
1C8
330
1E
100
AcDbEntity
  8
0
100
AcDbLine
 10
90.66799999999998
 20
146.177
 30
0.0
 11
91.568
 21
144.977
 31
0.0
  0
LINE
  5
1C9
330
1E
100
AcDbEntity
  8
0
100
AcDbLine
 10
89.4536948222905
 20
146.428444142168
 30
0.0
 11
90.26799999999999
 21
145.777
 31
0.0
  0
LINE
  5
1CA
330
1E
100
AcDbEntity
  8
0
100
AcDbLine
 10
89.26799999999998
 20
146.577
 30
0.0
 11
90.26799999999999
 21
145.777
 31
0.0
  0
LINE
  5
1CB
330
1E
100
AcDbEntity
  8
0
100
AcDbLine
 10
89.02922479252291
 20
143.2933256224309
 30
0.0
 11
91.17097156607229
 21
144.5298682414259
 31
0.0
  0
LINE
  5
1CC
330
1E
100
AcDbEntity
  8
0
100
AcDbLine
 10
89.46799999999999
 20
147.0769999999999
 30
0.0
 11
90.66799999999998
 21
146.177
 31
0.0
  0
LINE
  5
1CD
330
1E
100
AcDbEntity
  8
0
100
AcDbLine
 10
90.76799999999998
 20
149.177
 30
0.0
 11
92.368
 21
147.877
 31
0.0
  0
LINE
  5
1CE
330
1E
100
AcDbEntity
  8
0
100
AcDbLine
 10
89.29024611378039
 20
147.1453668793149
 30
0.0
 11
90.52271547486489
 21
149.2802776947939
 31
0.0
  0
LINE
  5
1CF
330
1E
100
AcDbEntity
  8
0
100
AcDbLine
 10
90.9534376159808
 20
149.0263319370159
 30
0.0
 11
92.368
 21
147.877
 31
0.0
  0
LINE
  5
1D0
330
1E
100
AcDbEntity
  8
0
100
AcDbLine
 10
90.96799999999999
 20
149.677
 30
0.0
 11
92.76799999999999
 21
148.277
 31
0.0
  0
LINE
  5
1D1
330
1E
100
AcDbEntity
  8
0
100
AcDbLine
 10
90.7923103178739
 20
149.7472758728499
 30
0.0
 11
92.02193015405921
 21
151.877250677976
 31
0.0
  0
LINE
  5
1D2
330
1E
100
AcDbEntity
  8
0
100
AcDbLine
 10
89.7192974485228
 20
146.8885269136079
 30
0.0
 11
90.9534376159808
 21
149.0263319370159
 31
0.0
  0
LINE
  5
1D3
330
1E
100
AcDbEntity
  8
0
100
AcDbLine
 10
91.568
 20
143.5769999999999
 30
0.0
 11
91.76799999999998
 21
142.277
 31
0.0
  0
LINE
  5
1D4
330
1E
100
AcDbEntity
  8
0
100
AcDbLine
 10
91.568
 20
143.5769999999999
 30
0.0
 11
91.72953846153841
 21
142.527
 31
0.0
  0
LINE
  5
1D5
330
1E
100
AcDbEntity
  8
0
100
AcDbLine
 10
91.568
 20
144.977
 30
0.0
 11
92.06799999999999
 21
143.677
 31
0.0
  0
LINE
  5
1D6
330
1E
100
AcDbEntity
  8
0
100
AcDbLine
 10
91.37988342495431
 20
145.2278221000609
 30
0.0
 11
93.5176386135479
 21
146.4620601679409
 31
0.0
  0
LINE
  5
1D7
330
1E
100
AcDbEntity
  8
0
100
AcDbLine
 10
92.06799999999999
 20
143.677
 30
0.0
 11
92.26799999999999
 21
142.277
 31
0.0
  0
LINE
  5
1D8
330
1E
100
AcDbEntity
  8
0
100
AcDbLine
 10
93.7714654348041
 20
146.0312695923399
 30
0.0
 11
94.46799999999999
 21
144.377
 31
0.0
  0
LINE
  5
1D9
330
1E
100
AcDbEntity
  8
0
100
AcDbLine
 10
93.66799999999999
 20
146.277
 30
0.0
 11
94.46799999999999
 21
144.377
 31
0.0
  0
LINE
  5
1DA
330
1E
100
AcDbEntity
  8
0
100
AcDbLine
 10
94.46799999999999
 20
144.377
 30
0.0
 11
94.76799999999999
 21
142.277
 31
0.0
  0
LINE
  5
1DB
330
1E
100
AcDbEntity
  8
0
100
AcDbLine
 10
91.63658113815831
 20
144.7986890407879
 30
0.0
 11
93.7714654348041
 21
146.0312695923399
 31
0.0
  0
LINE
  5
1DC
330
1E
100
AcDbEntity
  8
0
100
AcDbLine
 10
92.76799999999999
 20
148.277
 30
0.0
 11
93.97447613229209
 21
146.7258164013389
 31
0.0
  0
LINE
  5
1DD
330
1E
100
AcDbEntity
  8
0
100
AcDbLine
 10
92.76799999999999
 20
148.277
 30
0.0
 11
94.168
 21
146.477
 31
0.0
  0
LINE
  5
1DE
330
1E
100
AcDbEntity
  8
0
100
AcDbLine
 10
92.368
 20
147.877
 30
0.0
 11
93.66799999999999
 21
146.277
 31
0.0
  0
LINE
  5
1DF
330
1E
100
AcDbEntity
  8
0
100
AcDbLine
 10
94.168
 20
146.477
 30
0.0
 11
94.96799999999998
 21
144.477
 31
0.0
  0
LINE
  5
1E0
330
1E
100
AcDbEntity
  8
0
100
AcDbLine
 10
94.56799999999999
 20
150.0769999999999
 30
0.0
 11
96.26799999999999
 21
147.777
 31
0.0
  0
LINE
  5
1E1
330
1E
100
AcDbEntity
  8
0
100
AcDbLine
 10
94.56799999999999
 20
150.0769999999999
 30
0.0
 11
96.1265770096643
 21
147.9683369869249
 31
0.0
  0
LINE
  5
1E2
330
1E
100
AcDbEntity
  8
0
100
AcDbLine
 10
93.97447613229209
 20
146.7258164013389
 30
0.0
 11
96.1265770096643
 21
147.9683369869249
 31
0.0
  0
LINE
  5
1E3
330
1E
100
AcDbEntity
  8
0
100
AcDbLine
 10
94.2384469950595
 20
146.300882512351
 30
0.0
 11
96.3683827387039
 21
147.530606005
 31
0.0
  0
LINE
  5
1E4
330
1E
100
AcDbEntity
  8
0
100
AcDbLine
 10
91.2171803895529
 20
149.483193030348
 30
0.0
 11
92.45961728600191
 21
151.6353698320859
 31
0.0
  0
LINE
  5
1E5
330
1E
100
AcDbEntity
  8
0
100
AcDbLine
 10
92.23228571428569
 20
142.027
 30
0.0
 11
94.73228571428569
 21
142.027
 31
0.0
  0
LINE
  5
1E6
330
1E
100
AcDbEntity
  8
0
100
AcDbLine
 10
89.01799999999999
 20
142.027
 30
0.0
 11
97.73228571428569
 21
142.027
 31
0.0
  0
LINE
  5
1E7
330
1E
100
AcDbEntity
  8
0
100
AcDbLine
 10
89.01799999999999
 20
142.027
 30
0.0
 11
89.01799999999999
 21
142.527
 31
0.0
  0
LINE
  5
1E8
330
1E
100
AcDbEntity
  8
0
100
AcDbLine
 10
84.6944
 20
141.368
 30
0.0
 11
84.9444
 21
140.935
 31
0.0
  0
LINE
  5
1E9
330
1E
100
AcDbEntity
  8
0
100
AcDbLine
 10
84.51799999999998
 20
142.527
 30
0.0
 11
84.51799999999998
 21
142.027
 31
0.0
  0
LINE
  5
1EA
330
1E
100
AcDbEntity
  8
0
100
AcDbLine
 10
85.4265
 20
140.453
 30
0.0
 11
85.8595
 21
140.203
 31
0.0
  0
LINE
  5
1EB
330
1E
100
AcDbEntity
  8
0
100
AcDbLine
 10
84.08257193409891
 20
138.125342452721
 30
0.0
 11
85.3090727099231
 21
140.249618193385
 31
0.0
  0
LINE
  5
1EC
330
1E
100
AcDbEntity
  8
0
100
AcDbLine
 10
82.58267236463641
 20
135.5275452628249
 30
0.0
 11
83.81694568100121
 21
137.665282894129
 31
0.0
  0
LINE
  5
1ED
330
1E
100
AcDbEntity
  8
0
100
AcDbLine
 10
78.66795
 20
150.377
 30
0.0
 11
81.06796000000001
 21
152.277
 31
0.0
  0
LINE
  5
1EE
330
1E
100
AcDbEntity
  8
0
100
AcDbLine
 10
78.66795
 20
134.177
 30
0.0
 11
81.06796000000001
 21
132.277
 31
0.0
  0
LINE
  5
1EF
330
1E
100
AcDbEntity
  8
0
100
AcDbLine
 10
78.26795
 20
133.777
 30
0.0
 11
80.76795
 21
131.877
 31
0.0
  0
LINE
  5
1F0
330
1E
100
AcDbEntity
  8
0
100
AcDbLine
 10
77.89108
 20
133.4779999999999
 30
0.0
 11
78.51302
 21
132.897
 31
0.0
  0
LINE
  5
1F2
330
1E
100
AcDbEntity
  8
0
100
AcDbLine
 10
77.5801
 20
133.769
 30
0.0
 11
77.89108
 21
133.4779999999999
 31
0.0
  0
LINE
  5
1F3
330
1E
100
AcDbEntity
  8
0
100
AcDbLine
 10
94.29600567969819
 20
133.038284316571
 30
0.0
 11
94.71200000000001
 21
132.606
 31
0.0
  0
LINE
  5
1F4
330
1E
100
AcDbEntity
  8
0
100
AcDbLine
 10
94.29600567969819
 20
133.038284316571
 30
0.0
 11
94.71200000000001
 21
132.606
 31
0.0
  0
LINE
  5
1F5
330
1E
100
AcDbEntity
  8
0
100
AcDbLine
 10
95.02299999999999
 20
132.897
 30
0.0
 11
95.64490000000001
 21
133.4779999999999
 31
0.0
  0
LINE
  5
1F6
330
1E
100
AcDbEntity
  8
0
100
AcDbLine
 10
95.26799999999999
 20
133.777
 30
0.0
 11
97.16799999999999
 21
136.277
 31
0.0
  0
LINE
  5
1F7
330
1E
100
AcDbEntity
  8
0
100
AcDbLine
 10
95.56817890648678
 20
134.171972245377
 30
0.0
 11
97.16799999999999
 21
136.277
 31
0.0
  0
LINE
  5
1F9
330
1E
100
AcDbEntity
  8
0
100
AcDbLine
 10
94.868
 20
150.377
 30
0.0
 11
96.768
 21
147.977
 31
0.0
  0
LINE
  5
1FA
330
1E
100
AcDbEntity
  8
0
100
AcDbLine
 10
94.96799999999998
 20
144.477
 30
0.0
 11
95.2339090909091
 21
142.527
 31
0.0
  0
LINE
  5
1FB
330
1E
100
AcDbEntity
  8
0
100
AcDbLine
 10
94.96799999999998
 20
144.477
 30
0.0
 11
95.26799999999999
 21
142.277
 31
0.0
  0
LINE
  5
1FC
330
1E
100
AcDbEntity
  8
0
100
AcDbLine
 10
94.96799999999998
 20
140.077
 30
0.0
 11
95.2339090909091
 21
142.027
 31
0.0
  0
LINE
  5
1FD
330
1E
100
AcDbEntity
  8
0
100
AcDbLine
 10
94.96799999999998
 20
140.077
 30
0.0
 11
95.26799999999999
 21
142.277
 31
0.0
  0
LINE
  5
1FE
330
1E
100
AcDbEntity
  8
0
100
AcDbLine
 10
95.2339090909091
 20
142.027
 30
0.0
 11
97.73228571428569
 21
142.027
 31
0.0
  0
LINE
  5
1FF
330
1E
100
AcDbEntity
  8
0
100
AcDbLine
 10
95.26799999999999
 20
150.777
 30
0.0
 11
97.16799999999999
 21
148.277
 31
0.0
  0
LINE
  5
200
330
1E
100
AcDbEntity
  8
0
100
AcDbLine
 10
94.868
 20
134.177
 30
0.0
 11
96.768
 21
136.5769999999999
 31
0.0
  0
LINE
  5
201
330
1E
100
AcDbEntity
  8
0
100
AcDbLine
 10
95.56817890648678
 20
134.171972245377
 30
0.0
 11
95.95589999999999
 21
133.769
 31
0.0
  0
LINE
  5
202
330
1E
100
AcDbEntity
  8
0
100
AcDbLine
 10
96.26799999999999
 20
147.777
 30
0.0
 11
97.368
 21
145.077
 31
0.0
  0
LINE
  5
203
330
1E
100
AcDbEntity
  8
0
100
AcDbLine
 10
96.3683827387039
 20
147.530606005
 30
0.0
 11
97.368
 21
145.077
 31
0.0
  0
LINE
  5
204
330
1E
100
AcDbEntity
  8
0
100
AcDbLine
 10
96.3680529122878
 20
137.02258442107
 30
0.0
 11
97.368
 21
139.477
 31
0.0
  0
LINE
  5
205
330
1E
100
AcDbEntity
  8
0
100
AcDbLine
 10
96.26799999999999
 20
136.777
 30
0.0
 11
97.368
 21
139.477
 31
0.0
  0
LINE
  5
206
330
1E
100
AcDbEntity
  8
0
100
AcDbLine
 10
96.768
 20
147.977
 30
0.0
 11
97.86799999999999
 21
145.277
 31
0.0
  0
LINE
  5
207
330
1E
100
AcDbEntity
  8
0
100
AcDbLine
 10
97.16799999999999
 20
148.277
 30
0.0
 11
98.368
 21
145.377
 31
0.0
  0
LINE
  5
208
330
1E
100
AcDbEntity
  8
0
100
AcDbLine
 10
96.768
 20
136.5769999999999
 30
0.0
 11
97.86799999999999
 21
139.277
 31
0.0
  0
LINE
  5
209
330
1E
100
AcDbEntity
  8
0
100
AcDbLine
 10
97.16799999999999
 20
136.277
 30
0.0
 11
98.368
 21
139.177
 31
0.0
  0
LINE
  5
20A
330
1E
100
AcDbEntity
  8
0
100
AcDbLine
 10
97.16799999999999
 20
136.277
 30
0.0
 11
98.368
 21
139.177
 31
0.0
  0
LINE
  5
20B
330
1E
100
AcDbEntity
  8
0
100
AcDbLine
 10
95.64490000000001
 20
133.4779999999999
 30
0.0
 11
95.95589999999999
 21
133.769
 31
0.0
  0
LINE
  5
20C
330
1E
100
AcDbEntity
  8
0
100
AcDbLine
 10
95.64490000000001
 20
133.4779999999999
 30
0.0
 11
95.95589999999999
 21
133.769
 31
0.0
  0
LINE
  5
20D
330
1E
100
AcDbEntity
  8
0
100
AcDbLine
 10
94.71200000000001
 20
132.606
 30
0.0
 11
95.02299999999999
 21
132.897
 31
0.0
  0
LINE
  5
20E
330
1E
100
AcDbEntity
  8
0
100
AcDbLine
 10
97.17170000000001
 20
132.490571428571
 30
0.0
 11
97.17170000000001
 21
105.538920196262
 31
0.0
  0
LINE
  5
20F
330
1E
100
AcDbEntity
  8
0
100
AcDbLine
 10
97.17170000000001
 20
89.5999201962617
 30
0.0
 11
97.17170000000001
 21
74.0141
 31
0.0
  0
LINE
  5
210
330
1E
100
AcDbEntity
  8
0
100
AcDbLine
 10
76.92833
 20
151.9
 30
0.0
 11
79.72833
 21
154.0999999999999
 31
0.0
  0
LINE
  5
211
330
1E
100
AcDbEntity
  8
0
100
AcDbLine
 10
81.26796
 20
151.777
 30
0.0
 11
83.96799999999998
 21
152.877
 31
0.0
  0
LINE
  5
212
330
1E
100
AcDbEntity
  8
0
100
AcDbLine
 10
81.51403947023858
 20
151.8772531137549
 30
0.0
 11
85.8595
 21
144.35
 31
0.0
  0
LINE
  5
213
330
1E
100
AcDbEntity
  8
0
100
AcDbLine
 10
81.51403947023858
 20
151.8772531137549
 30
0.0
 11
83.96799999999998
 21
152.877
 31
0.0
  0
LINE
  5
214
330
1E
100
AcDbEntity
  8
0
100
AcDbLine
 10
81.0763368720983
 20
151.63536551416
 30
0.0
 11
85.4265
 21
144.1
 31
0.0
  0
LINE
  5
215
330
1E
100
AcDbEntity
  8
0
100
AcDbLine
 10
81.0763368720983
 20
151.63536551416
 30
0.0
 11
82.3187802868467
 21
149.4832013342139
 31
0.0
  0
LINE
  5
216
330
1E
100
AcDbEntity
  8
0
100
AcDbLine
 10
81.06796000000001
 20
152.277
 30
0.0
 11
83.76799999999999
 21
153.377
 31
0.0
  0
LINE
  5
217
330
1E
100
AcDbEntity
  8
0
100
AcDbLine
 10
83.96799999999998
 20
152.877
 30
0.0
 11
86.76799999999998
 21
153.277
 31
0.0
  0
LINE
  5
218
330
1E
100
AcDbEntity
  8
0
100
AcDbLine
 10
83.96799999999998
 20
152.877
 30
0.0
 11
86.51799999999999
 21
153.2412857142859
 31
0.0
  0
LINE
  5
219
330
1E
100
AcDbEntity
  8
0
100
AcDbLine
 10
89.56799999999999
 20
152.877
 30
0.0
 11
92.26799999999999
 21
151.777
 31
0.0
  0
LINE
  5
21A
330
1E
100
AcDbEntity
  8
0
100
AcDbLine
 10
89.56799999999999
 20
152.877
 30
0.0
 11
92.02193015405921
 21
151.877250677976
 31
0.0
  0
LINE
  5
21B
330
1E
100
AcDbEntity
  8
0
100
AcDbLine
 10
87.01799999999998
 20
153.2412857142859
 30
0.0
 11
87.01799999999998
 21
144.527
 31
0.0
  0
LINE
  5
21C
330
1E
100
AcDbEntity
  8
0
100
AcDbLine
 10
87.01799999999998
 20
153.2412857142859
 30
0.0
 11
89.56799999999999
 21
152.877
 31
0.0
  0
LINE
  5
21D
330
1E
100
AcDbEntity
  8
0
100
AcDbLine
 10
86.76799999999998
 20
153.277
 30
0.0
 11
89.56799999999999
 21
152.877
 31
0.0
  0
LINE
  5
21E
330
1E
100
AcDbEntity
  8
0
100
AcDbLine
 10
86.51799999999999
 20
153.2412857142859
 30
0.0
 11
86.51799999999999
 21
150.7429090909089
 31
0.0
  0
LINE
  5
21F
330
1E
100
AcDbEntity
  8
0
100
AcDbLine
 10
86.51799999999999
 20
153.2412857142859
 30
0.0
 11
86.51799999999999
 21
144.527
 31
0.0
  0
LINE
  5
220
330
1E
100
AcDbEntity
  8
0
100
AcDbLine
 10
83.76799999999999
 20
153.377
 30
0.0
 11
86.76799999999998
 21
153.777
 31
0.0
  0
LINE
  5
221
330
1E
100
AcDbEntity
  8
0
100
AcDbLine
 10
80.76795
 20
152.677
 30
0.0
 11
83.66799999999999
 21
153.877
 31
0.0
  0
LINE
  5
222
330
1E
100
AcDbEntity
  8
0
100
AcDbLine
 10
89.76799999999999
 20
153.377
 30
0.0
 11
92.46799999999998
 21
152.277
 31
0.0
  0
LINE
  5
223
330
1E
100
AcDbEntity
  8
0
100
AcDbLine
 10
79.72833
 20
154.0999999999999
 30
0.0
 11
83.22830000000001
 21
155.4999999999999
 31
0.0
  0
LINE
  5
224
330
1E
100
AcDbEntity
  8
0
100
AcDbLine
 10
83.66799999999999
 20
153.877
 30
0.0
 11
86.76799999999998
 21
154.277
 31
0.0
  0
LINE
  5
225
330
1E
100
AcDbEntity
  8
0
100
AcDbLine
 10
86.76799999999998
 20
153.777
 30
0.0
 11
89.76799999999999
 21
153.377
 31
0.0
  0
LINE
  5
226
330
1E
100
AcDbEntity
  8
0
100
AcDbLine
 10
92.45961728600191
 20
151.6353698320859
 30
0.0
 11
94.56799999999999
 21
150.0769999999999
 31
0.0
  0
LINE
  5
227
330
1E
100
AcDbEntity
  8
0
100
AcDbLine
 10
92.26799999999999
 20
151.777
 30
0.0
 11
94.56799999999999
 21
150.0769999999999
 31
0.0
  0
LINE
  5
228
330
1E
100
AcDbEntity
  8
0
100
AcDbLine
 10
96.8283
 20
152.0
 30
0.0
 11
97.52830000000001
 21
151.0
 31
0.0
  0
LINE
  5
229
330
1E
100
AcDbEntity
  8
0
100
AcDbLine
 10
92.46799999999998
 20
152.277
 30
0.0
 11
94.868
 21
150.377
 31
0.0
  0
LINE
  5
22A
330
1E
100
AcDbEntity
  8
0
100
AcDbLine
 10
93.8283
 20
154.0999999999999
 30
0.0
 11
96.8283
 21
152.0
 31
0.0
  0
LINE
  5
22B
330
1E
100
AcDbEntity
  8
0
100
AcDbLine
 10
92.76799999999999
 20
152.677
 30
0.0
 11
95.26799999999999
 21
150.777
 31
0.0
  0
LINE
  5
22C
330
1E
100
AcDbEntity
  8
0
100
AcDbLine
 10
89.868
 20
153.877
 30
0.0
 11
92.76799999999999
 21
152.677
 31
0.0
  0
LINE
  5
22D
330
1E
100
AcDbEntity
  8
0
100
AcDbLine
 10
90.4283
 20
155.4999999999999
 30
0.0
 11
93.8283
 21
154.0999999999999
 31
0.0
  0
LINE
  5
22E
330
1E
100
AcDbEntity
  8
0
100
AcDbLine
 10
86.8283
 20
156.0
 30
0.0
 11
90.4283
 21
155.4999999999999
 31
0.0
  0
LINE
  5
22F
330
1E
100
AcDbEntity
  8
0
100
AcDbLine
 10
83.22830000000001
 20
155.4999999999999
 30
0.0
 11
86.8283
 21
156.0
 31
0.0
  0
LINE
  5
230
330
1E
100
AcDbEntity
  8
0
100
AcDbLine
 10
86.76799999999998
 20
154.277
 30
0.0
 11
89.868
 21
153.877
 31
0.0
  0
LINE
  5
231
330
1E
100
AcDbEntity
  8
0
100
AcDbLine
 10
97.17170000000001
 20
193.9859999999999
 30
0.0
 11
97.77169999999999
 21
195.396
 31
0.0
  0
LINE
  5
232
330
1E
100
AcDbEntity
  8
0
100
AcDbLine
 10
97.17170000000001
 20
193.9859999999999
 30
0.0
 11
97.17170000000001
 21
151.5094285714289
 31
0.0
  0
LINE
  5
233
330
1E
100
AcDbEntity
  8
0
100
AcDbLine
 10
97.17170000000001
 20
151.5094285714289
 30
0.0
 11
97.17170000000001
 21
193.9859999999999
 31
0.0
  0
LINE
  5
234
330
1E
100
AcDbEntity
  8
0
100
AcDbLine
 10
97.368
 20
145.077
 30
0.0
 11
97.76799999999999
 21
142.277
 31
0.0
  0
LINE
  5
235
330
1E
100
AcDbEntity
  8
0
100
AcDbLine
 10
97.368
 20
145.077
 30
0.0
 11
97.73228571428569
 21
142.527
 31
0.0
  0
LINE
  5
236
330
1E
100
AcDbEntity
  8
0
100
AcDbLine
 10
97.368
 20
139.477
 30
0.0
 11
97.76799999999999
 21
142.277
 31
0.0
  0
LINE
  5
237
330
1E
100
AcDbEntity
  8
0
100
AcDbLine
 10
97.368
 20
139.477
 30
0.0
 11
97.73228571428569
 21
142.027
 31
0.0
  0
LINE
  5
238
330
1E
100
AcDbEntity
  8
0
100
AcDbLine
 10
97.4717
 20
132.919142857143
 30
0.0
 11
97.4717
 21
105.530971598131
 31
0.0
  0
LINE
  5
239
330
1E
100
AcDbEntity
  8
0
100
AcDbLine
 10
97.4717
 20
89.59197159813079
 30
0.0
 11
97.4717
 21
74.0141
 31
0.0
  0
LINE
  5
23A
330
1E
100
AcDbEntity
  8
0
100
AcDbLine
 10
97.4717
 20
193.9859999999999
 30
0.0
 11
97.97170000000001
 21
195.194
 31
0.0
  0
LINE
  5
23B
330
1E
100
AcDbEntity
  8
0
100
AcDbLine
 10
97.4717
 20
193.9859999999999
 30
0.0
 11
97.4717
 21
151.0808571428569
 31
0.0
  0
LINE
  5
23C
330
1E
100
AcDbEntity
  8
0
100
AcDbLine
 10
97.4717
 20
151.0808571428569
 30
0.0
 11
97.4717
 21
193.9859999999999
 31
0.0
  0
LINE
  5
23D
330
1E
100
AcDbEntity
  8
0
100
AcDbLine
 10
114.2283
 20
105.0869999999999
 30
0.0
 11
132.1716999999999
 21
105.0124038426969
 31
0.0
  0
LINE
  5
23E
330
1E
100
AcDbEntity
  8
0
100
AcDbLine
 10
114.2283
 20
89.14799999999999
 30
0.0
 11
132.1716999999999
 21
89.07340384269659
 31
0.0
  0
LINE
  5
23F
330
1E
100
AcDbEntity
  8
0
100
AcDbLine
 10
124.1988
 20
130.781
 30
0.0
 11
124.3788
 21
130.4929999999999
 31
0.0
  0
LINE
  5
240
330
1E
100
AcDbEntity
  8
0
100
AcDbLine
 10
124.1988
 20
130.781
 30
0.0
 11
124.1988
 21
131.213
 31
0.0
  0
LINE
  5
241
330
1E
100
AcDbEntity
  8
0
100
AcDbLine
 10
124.3788
 20
130.925
 30
0.0
 11
124.3788
 21
130.4929999999999
 31
0.0
  0
LINE
  5
242
330
1E
100
AcDbEntity
  8
0
100
AcDbLine
 10
124.3788
 20
130.925
 30
0.0
 11
124.3788
 21
132.0769999999999
 31
0.0
  0
LINE
  5
243
330
1E
100
AcDbEntity
  8
0
100
AcDbLine
 10
124.3788
 20
132.0769999999999
 30
0.0
 11
124.3788
 21
130.925
 31
0.0
  0
LINE
  5
244
330
1E
100
AcDbEntity
  8
0
100
AcDbLine
 10
124.3788
 20
132.0769999999999
 30
0.0
 11
124.3788
 21
133.997
 31
0.0
  0
LINE
  5
245
330
1E
100
AcDbEntity
  8
0
100
AcDbLine
 10
124.1988
 20
131.213
 30
0.0
 11
124.1988
 21
132.365
 31
0.0
  0
LINE
  5
246
330
1E
100
AcDbEntity
  8
0
100
AcDbLine
 10
124.1988
 20
131.213
 30
0.0
 11
124.1988
 21
130.781
 31
0.0
  0
LINE
  5
248
330
1E
100
AcDbEntity
  8
0
100
AcDbLine
 10
97.52830000000001
 20
133.0
 30
0.0
 11
99.7713
 21
138.627
 31
0.0
  0
LINE
  5
249
330
1E
100
AcDbEntity
  8
0
100
AcDbLine
 10
97.86799999999999
 20
139.277
 30
0.0
 11
98.26799999999998
 21
142.277
 31
0.0
  0
LINE
  5
24A
330
1E
100
AcDbEntity
  8
0
100
AcDbLine
 10
99.7713
 20
138.627
 30
0.0
 11
100.2623
 21
142.806
 31
0.0
  0
LINE
  5
24C
330
1E
100
AcDbEntity
  8
0
100
AcDbLine
 10
99.96433972242158
 20
140.27
 30
0.0
 11
124.1988
 21
140.27
 31
0.0
  0
LINE
  5
24D
330
1E
100
AcDbEntity
  8
0
100
AcDbLine
 10
98.368
 20
139.177
 30
0.0
 11
98.76799999999999
 21
142.277
 31
0.0
  0
LINE
  5
24E
330
1E
100
AcDbEntity
  8
0
100
AcDbLine
 10
124.1988
 20
136.685
 30
0.0
 11
124.1988
 21
134.237
 31
0.0
  0
LINE
  5
24F
330
1E
100
AcDbEntity
  8
0
100
AcDbLine
 10
124.1988
 20
136.685
 30
0.0
 11
124.1988
 21
139.4689999999999
 31
0.0
  0
LINE
  5
250
330
1E
100
AcDbEntity
  8
0
100
AcDbLine
 10
124.1988
 20
139.4689999999999
 30
0.0
 11
124.1988
 21
136.685
 31
0.0
  0
LINE
  5
251
330
1E
100
AcDbEntity
  8
0
100
AcDbLine
 10
124.1988
 20
139.4689999999999
 30
0.0
 11
124.1988
 21
142.4929999999999
 31
0.0
  0
LINE
  5
252
330
1E
100
AcDbEntity
  8
0
100
AcDbLine
 10
99.91777291361641
 20
145.27
 30
0.0
 11
124.1988
 21
145.27
 31
0.0
  0
LINE
  5
253
330
1E
100
AcDbEntity
  8
0
100
AcDbLine
 10
97.86799999999999
 20
145.277
 30
0.0
 11
98.26799999999998
 21
142.277
 31
0.0
  0
LINE
  5
254
330
1E
100
AcDbEntity
  8
0
100
AcDbLine
 10
99.3613
 20
147.641
 30
0.0
 11
100.2623
 21
142.806
 31
0.0
  0
LINE
  5
256
330
1E
100
AcDbEntity
  8
0
100
AcDbLine
 10
98.368
 20
145.377
 30
0.0
 11
98.76799999999999
 21
142.277
 31
0.0
  0
LINE
  5
257
330
1E
100
AcDbEntity
  8
0
100
AcDbLine
 10
124.1988
 20
145.517
 30
0.0
 11
124.1988
 21
148.301
 31
0.0
  0
LINE
  5
258
330
1E
100
AcDbEntity
  8
0
100
AcDbLine
 10
124.1988
 20
145.517
 30
0.0
 11
124.1988
 21
142.4929999999999
 31
0.0
  0
LINE
  5
259
330
1E
100
AcDbEntity
  8
0
100
AcDbLine
 10
97.52830000000001
 20
151.0
 30
0.0
 11
99.3613
 21
147.641
 31
0.0
  0
LINE
  5
25A
330
1E
100
AcDbEntity
  8
0
100
AcDbLine
 10
124.1988
 20
152.621
 30
0.0
 11
124.1988
 21
153.7729999999999
 31
0.0
  0
LINE
  5
25B
330
1E
100
AcDbEntity
  8
0
100
AcDbLine
 10
124.1988
 20
152.621
 30
0.0
 11
124.1988
 21
150.7489999999999
 31
0.0
  0
LINE
  5
25C
330
1E
100
AcDbEntity
  8
0
100
AcDbLine
 10
124.1988
 20
153.7729999999999
 30
0.0
 11
124.1988
 21
154.205
 31
0.0
  0
LINE
  5
25D
330
1E
100
AcDbEntity
  8
0
100
AcDbLine
 10
124.1988
 20
153.7729999999999
 30
0.0
 11
124.1988
 21
152.621
 31
0.0
  0
LINE
  5
25E
330
1E
100
AcDbEntity
  8
0
100
AcDbLine
 10
124.1988
 20
154.205
 30
0.0
 11
124.1988
 21
153.7729999999999
 31
0.0
  0
LINE
  5
25F
330
1E
100
AcDbEntity
  8
0
100
AcDbLine
 10
124.1988
 20
154.205
 30
0.0
 11
124.3788
 21
154.4929999999999
 31
0.0
  0
LINE
  5
260
330
1E
100
AcDbEntity
  8
0
100
AcDbLine
 10
124.1988
 20
150.7489999999999
 30
0.0
 11
124.1988
 21
148.301
 31
0.0
  0
LINE
  5
261
330
1E
100
AcDbEntity
  8
0
100
AcDbLine
 10
124.1988
 20
150.7489999999999
 30
0.0
 11
124.1988
 21
152.621
 31
0.0
  0
LINE
  5
262
330
1E
100
AcDbEntity
  8
0
100
AcDbLine
 10
124.1988
 20
148.301
 30
0.0
 11
124.1988
 21
145.517
 31
0.0
  0
LINE
  5
263
330
1E
100
AcDbEntity
  8
0
100
AcDbLine
 10
124.1988
 20
148.301
 30
0.0
 11
124.1988
 21
150.7489999999999
 31
0.0
  0
LINE
  5
264
330
1E
100
AcDbEntity
  8
0
100
AcDbLine
 10
124.1988
 20
142.4929999999999
 30
0.0
 11
124.1988
 21
139.4689999999999
 31
0.0
  0
LINE
  5
265
330
1E
100
AcDbEntity
  8
0
100
AcDbLine
 10
124.1988
 20
142.4929999999999
 30
0.0
 11
124.1988
 21
145.517
 31
0.0
  0
LINE
  5
266
330
1E
100
AcDbEntity
  8
0
100
AcDbLine
 10
124.3788
 20
133.997
 30
0.0
 11
124.3788
 21
132.0769999999999
 31
0.0
  0
LINE
  5
267
330
1E
100
AcDbEntity
  8
0
100
AcDbLine
 10
124.3788
 20
133.997
 30
0.0
 11
124.3788
 21
136.541
 31
0.0
  0
LINE
  5
268
330
1E
100
AcDbEntity
  8
0
100
AcDbLine
 10
124.3788
 20
136.541
 30
0.0
 11
124.3788
 21
133.997
 31
0.0
  0
LINE
  5
269
330
1E
100
AcDbEntity
  8
0
100
AcDbLine
 10
124.3788
 20
136.541
 30
0.0
 11
124.3788
 21
139.4209999999999
 31
0.0
  0
LINE
  5
26A
330
1E
100
AcDbEntity
  8
0
100
AcDbLine
 10
124.3788
 20
139.4209999999999
 30
0.0
 11
124.3788
 21
136.541
 31
0.0
  0
LINE
  5
26B
330
1E
100
AcDbEntity
  8
0
100
AcDbLine
 10
124.3788
 20
139.4209999999999
 30
0.0
 11
124.3788
 21
142.4929999999999
 31
0.0
  0
LINE
  5
26C
330
1E
100
AcDbEntity
  8
0
100
AcDbLine
 10
124.3788
 20
154.4929999999999
 30
0.0
 11
124.3788
 21
154.061
 31
0.0
  0
LINE
  5
26D
330
1E
100
AcDbEntity
  8
0
100
AcDbLine
 10
124.3788
 20
154.4929999999999
 30
0.0
 11
127.1988
 21
154.4929999999999
 31
0.0
  0
LINE
  5
26E
330
1E
100
AcDbEntity
  8
0
100
AcDbLine
 10
124.3788
 20
154.061
 30
0.0
 11
124.3788
 21
152.909
 31
0.0
  0
LINE
  5
26F
330
1E
100
AcDbEntity
  8
0
100
AcDbLine
 10
124.3788
 20
154.061
 30
0.0
 11
124.3788
 21
154.4929999999999
 31
0.0
  0
LINE
  5
270
330
1E
100
AcDbEntity
  8
0
100
AcDbLine
 10
124.3788
 20
152.909
 30
0.0
 11
124.3788
 21
150.989
 31
0.0
  0
LINE
  5
271
330
1E
100
AcDbEntity
  8
0
100
AcDbLine
 10
124.3788
 20
152.909
 30
0.0
 11
124.3788
 21
154.061
 31
0.0
  0
LINE
  5
272
330
1E
100
AcDbEntity
  8
0
100
AcDbLine
 10
124.3788
 20
150.989
 30
0.0
 11
124.3788
 21
148.445
 31
0.0
  0
LINE
  5
273
330
1E
100
AcDbEntity
  8
0
100
AcDbLine
 10
124.3788
 20
150.989
 30
0.0
 11
124.3788
 21
152.909
 31
0.0
  0
LINE
  5
274
330
1E
100
AcDbEntity
  8
0
100
AcDbLine
 10
124.3788
 20
148.445
 30
0.0
 11
124.3788
 21
145.565
 31
0.0
  0
LINE
  5
275
330
1E
100
AcDbEntity
  8
0
100
AcDbLine
 10
124.3788
 20
148.445
 30
0.0
 11
124.3788
 21
150.989
 31
0.0
  0
LINE
  5
276
330
1E
100
AcDbEntity
  8
0
100
AcDbLine
 10
124.3788
 20
145.565
 30
0.0
 11
124.3788
 21
142.4929999999999
 31
0.0
  0
LINE
  5
277
330
1E
100
AcDbEntity
  8
0
100
AcDbLine
 10
124.3788
 20
145.565
 30
0.0
 11
124.3788
 21
148.445
 31
0.0
  0
LINE
  5
278
330
1E
100
AcDbEntity
  8
0
100
AcDbLine
 10
124.3788
 20
142.4929999999999
 30
0.0
 11
124.3788
 21
139.4209999999999
 31
0.0
  0
LINE
  5
279
330
1E
100
AcDbEntity
  8
0
100
AcDbLine
 10
124.3788
 20
142.4929999999999
 30
0.0
 11
124.3788
 21
145.565
 31
0.0
  0
LINE
  5
27A
330
1E
100
AcDbEntity
  8
0
100
AcDbLine
 10
124.1988
 20
134.237
 30
0.0
 11
124.1988
 21
132.365
 31
0.0
  0
LINE
  5
27B
330
1E
100
AcDbEntity
  8
0
100
AcDbLine
 10
124.1988
 20
134.237
 30
0.0
 11
124.1988
 21
136.685
 31
0.0
  0
LINE
  5
27C
330
1E
100
AcDbEntity
  8
0
100
AcDbLine
 10
124.1988
 20
132.365
 30
0.0
 11
124.1988
 21
134.237
 31
0.0
  0
LINE
  5
27D
330
1E
100
AcDbEntity
  8
0
100
AcDbLine
 10
124.1988
 20
132.365
 30
0.0
 11
124.1988
 21
131.213
 31
0.0
  0
LINE
  5
27E
330
1E
100
AcDbEntity
  8
0
100
AcDbLine
 10
127.1988
 20
130.4929999999999
 30
0.0
 11
127.1988
 21
130.925
 31
0.0
  0
LINE
  5
27F
330
1E
100
AcDbEntity
  8
0
100
AcDbLine
 10
127.1988
 20
130.925
 30
0.0
 11
127.1988
 21
130.4929999999999
 31
0.0
  0
LINE
  5
280
330
1E
100
AcDbEntity
  8
0
100
AcDbLine
 10
127.1988
 20
130.925
 30
0.0
 11
127.1988
 21
132.0769999999999
 31
0.0
  0
LINE
  5
281
330
1E
100
AcDbEntity
  8
0
100
AcDbLine
 10
127.1988
 20
132.4929999999999
 30
0.0
 11
132.1716999999999
 21
132.4929999999999
 31
0.0
  0
LINE
  5
282
330
1E
100
AcDbEntity
  8
0
100
AcDbLine
 10
127.1988
 20
132.0769999999999
 30
0.0
 11
127.1988
 21
130.925
 31
0.0
  0
LINE
  5
283
330
1E
100
AcDbEntity
  8
0
100
AcDbLine
 10
127.1988
 20
132.0769999999999
 30
0.0
 11
127.1988
 21
133.997
 31
0.0
  0
LINE
  5
284
330
1E
100
AcDbEntity
  8
0
100
AcDbLine
 10
127.1988
 20
133.997
 30
0.0
 11
127.1988
 21
132.0769999999999
 31
0.0
  0
LINE
  5
285
330
1E
100
AcDbEntity
  8
0
100
AcDbLine
 10
127.1988
 20
133.997
 30
0.0
 11
127.1988
 21
136.541
 31
0.0
  0
LINE
  5
286
330
1E
100
AcDbEntity
  8
0
100
AcDbLine
 10
127.1988
 20
136.541
 30
0.0
 11
127.1988
 21
133.997
 31
0.0
  0
LINE
  5
287
330
1E
100
AcDbEntity
  8
0
100
AcDbLine
 10
127.1988
 20
136.541
 30
0.0
 11
127.1988
 21
139.4209999999999
 31
0.0
  0
LINE
  5
288
330
1E
100
AcDbEntity
  8
0
100
AcDbLine
 10
127.1988
 20
139.4209999999999
 30
0.0
 11
127.1988
 21
136.541
 31
0.0
  0
LINE
  5
289
330
1E
100
AcDbEntity
  8
0
100
AcDbLine
 10
127.1988
 20
139.4209999999999
 30
0.0
 11
127.1988
 21
142.4929999999999
 31
0.0
  0
LINE
  5
28A
330
1E
100
AcDbEntity
  8
0
100
AcDbLine
 10
127.1988
 20
152.4929999999999
 30
0.0
 11
132.1716999999999
 21
152.4929999999999
 31
0.0
  0
LINE
  5
28B
330
1E
100
AcDbEntity
  8
0
100
AcDbLine
 10
127.1988
 20
154.4929999999999
 30
0.0
 11
127.1988
 21
154.061
 31
0.0
  0
LINE
  5
28C
330
1E
100
AcDbEntity
  8
0
100
AcDbLine
 10
127.1988
 20
154.061
 30
0.0
 11
127.1988
 21
152.909
 31
0.0
  0
LINE
  5
28D
330
1E
100
AcDbEntity
  8
0
100
AcDbLine
 10
127.1988
 20
154.061
 30
0.0
 11
127.1988
 21
154.4929999999999
 31
0.0
  0
LINE
  5
28E
330
1E
100
AcDbEntity
  8
0
100
AcDbLine
 10
127.1988
 20
152.909
 30
0.0
 11
127.1988
 21
150.989
 31
0.0
  0
LINE
  5
28F
330
1E
100
AcDbEntity
  8
0
100
AcDbLine
 10
127.1988
 20
152.909
 30
0.0
 11
127.1988
 21
154.061
 31
0.0
  0
LINE
  5
290
330
1E
100
AcDbEntity
  8
0
100
AcDbLine
 10
127.1988
 20
150.989
 30
0.0
 11
127.1988
 21
148.445
 31
0.0
  0
LINE
  5
291
330
1E
100
AcDbEntity
  8
0
100
AcDbLine
 10
127.1988
 20
150.989
 30
0.0
 11
127.1988
 21
152.909
 31
0.0
  0
LINE
  5
292
330
1E
100
AcDbEntity
  8
0
100
AcDbLine
 10
127.1988
 20
148.445
 30
0.0
 11
127.1988
 21
145.565
 31
0.0
  0
LINE
  5
293
330
1E
100
AcDbEntity
  8
0
100
AcDbLine
 10
127.1988
 20
148.445
 30
0.0
 11
127.1988
 21
150.989
 31
0.0
  0
LINE
  5
294
330
1E
100
AcDbEntity
  8
0
100
AcDbLine
 10
127.1988
 20
145.565
 30
0.0
 11
127.1988
 21
142.4929999999999
 31
0.0
  0
LINE
  5
295
330
1E
100
AcDbEntity
  8
0
100
AcDbLine
 10
127.1988
 20
145.565
 30
0.0
 11
127.1988
 21
148.445
 31
0.0
  0
LINE
  5
296
330
1E
100
AcDbEntity
  8
0
100
AcDbLine
 10
127.1988
 20
142.4929999999999
 30
0.0
 11
127.1988
 21
139.4209999999999
 31
0.0
  0
LINE
  5
297
330
1E
100
AcDbEntity
  8
0
100
AcDbLine
 10
127.1988
 20
142.4929999999999
 30
0.0
 11
127.1988
 21
145.565
 31
0.0
  0
LINE
  5
298
330
1E
100
AcDbEntity
  8
0
100
AcDbLine
 10
124.3788
 20
130.4929999999999
 30
0.0
 11
127.1988
 21
130.4929999999999
 31
0.0
  0
LINE
  5
299
330
1E
100
AcDbEntity
  8
0
100
AcDbLine
 10
124.3788
 20
130.4929999999999
 30
0.0
 11
124.3788
 21
130.925
 31
0.0
  0
LINE
  5
29A
330
1E
100
AcDbEntity
  8
0
100
AcDbLine
 10
97.97170000000001
 20
195.194
 30
0.0
 11
99.1717
 21
195.6979999999999
 31
0.0
  0
LINE
  5
29B
330
1E
100
AcDbEntity
  8
0
100
AcDbLine
 10
97.4717
 20
105.530971598131
 30
0.0
 11
97.4717
 21
132.919142857143
 31
0.0
  0
LINE
  5
29C
330
1E
100
AcDbEntity
  8
0
100
AcDbLine
 10
99.1717
 20
195.6979999999999
 30
0.0
 11
219.1717
 21
195.6979999999999
 31
0.0
  0
LINE
  5
29D
330
1E
100
AcDbEntity
  8
0
100
AcDbLine
 10
99.1717
 20
196.0
 30
0.0
 11
219.1717
 21
196.0
 31
0.0
  0
LINE
  5
29E
330
1E
100
AcDbEntity
  8
0
100
AcDbLine
 10
97.77169999999999
 20
195.396
 30
0.0
 11
99.1717
 21
196.0
 31
0.0
  0
LINE
  5
29F
330
1E
100
AcDbEntity
  8
0
100
AcDbLine
 10
97.77169999999999
 20
195.396
 30
0.0
 11
97.97170000000001
 21
195.194
 31
0.0
  0
LINE
  5
2A0
330
1E
100
AcDbEntity
  8
0
100
AcDbLine
 10
97.17170000000001
 20
105.538920196262
 30
0.0
 11
97.17170000000001
 21
132.490571428571
 31
0.0
  0
LINE
  5
2A1
330
1E
100
AcDbEntity
  8
0
100
AcDbLine
 10
97.17170000000001
 20
74.0141
 30
0.0
 11
97.77169999999999
 21
72.6042
 31
0.0
  0
LINE
  5
2A2
330
1E
100
AcDbEntity
  8
0
100
AcDbLine
 10
97.17170000000001
 20
74.0141
 30
0.0
 11
97.17170000000001
 21
89.5999201962617
 31
0.0
  0
LINE
  5
2A3
330
1E
100
AcDbEntity
  8
0
100
AcDbLine
 10
132.4716999999999
 20
167.9859999999999
 30
0.0
 11
132.9717
 21
169.194
 31
0.0
  0
LINE
  5
2A4
330
1E
100
AcDbEntity
  8
0
100
AcDbLine
 10
132.4716999999999
 20
167.9859999999999
 30
0.0
 11
132.4716999999999
 21
2.014090000000039
 31
0.0
  0
LINE
  5
2A5
330
1E
100
AcDbEntity
  8
0
100
AcDbLine
 10
132.1716999999999
 20
167.9859999999999
 30
0.0
 11
132.7717
 21
169.3959999999999
 31
0.0
  0
LINE
  5
2A6
330
1E
100
AcDbEntity
  8
0
100
AcDbLine
 10
132.1716999999999
 20
167.9859999999999
 30
0.0
 11
132.1716999999999
 21
2.014090000000039
 31
0.0
  0
LINE
  5
2A7
330
1E
100
AcDbEntity
  8
0
100
AcDbLine
 10
132.1716999999999
 20
2.01409000000003
 30
0.0
 11
132.7717
 21
0.6042250000000339
 31
0.0
  0
LINE
  5
2A8
330
1E
100
AcDbEntity
  8
0
100
AcDbLine
 10
132.1716999999999
 20
2.01409000000003
 30
0.0
 11
132.7717
 21
0.604225000000035
 31
0.0
  0
LINE
  5
2A9
330
1E
100
AcDbEntity
  8
0
100
AcDbLine
 10
132.1716999999999
 20
2.01409000000003
 30
0.0
 11
132.1716999999999
 21
167.9859999999999
 31
0.0
  0
LINE
  5
2AA
330
1E
100
AcDbEntity
  8
0
100
AcDbLine
 10
134.1716999999999
 20
0.302113000000034
 30
0.0
 11
510.1716999999999
 21
0.302113000000034
 31
0.0
  0
LINE
  5
2AB
330
1E
100
AcDbEntity
  8
0
100
AcDbLine
 10
510.1716999999999
 20
0.0000000000000344
 30
0.0
 11
511.5717
 21
0.6042250000000339
 31
0.0
  0
LINE
  5
2AC
330
1E
100
AcDbEntity
  8
0
100
AcDbLine
 10
510.1716999999999
 20
0.0000000000000344
 30
0.0
 11
511.5717
 21
0.6042250000000339
 31
0.0
  0
LINE
  5
2AD
330
1E
100
AcDbEntity
  8
0
100
AcDbLine
 10
510.1716999999999
 20
0.302113000000034
 30
0.0
 11
511.3717
 21
0.8056340000000341
 31
0.0
  0
LINE
  5
2AE
330
1E
100
AcDbEntity
  8
0
100
AcDbLine
 10
134.1716999999999
 20
0.0000000000000338
 30
0.0
 11
510.1716999999999
 21
0.0000000000000338
 31
0.0
  0
LINE
  5
2AF
330
1E
100
AcDbEntity
  8
0
100
AcDbLine
 10
132.7717
 20
169.3959999999999
 30
0.0
 11
134.1716999999999
 21
170.0
 31
0.0
  0
LINE
  5
2B2
330
1E
100
AcDbEntity
  8
0
100
AcDbLine
 10
511.3717
 20
0.8056340000000341
 30
0.0
 11
511.8717
 21
2.01409000000003
 31
0.0
  0
LINE
  5
2B3
330
1E
100
AcDbEntity
  8
0
100
AcDbLine
 10
511.3717
 20
0.8056340000000341
 30
0.0
 11
511.8717
 21
2.01409000000003
 31
0.0
  0
LINE
  5
2B4
330
1E
100
AcDbEntity
  8
0
100
AcDbLine
 10
511.5717
 20
0.604225000000035
 30
0.0
 11
512.1717
 21
2.01409000000003
 31
0.0
  0
LINE
  5
2B5
330
1E
100
AcDbEntity
  8
0
100
AcDbLine
 10
511.5717
 20
0.6042250000000339
 30
0.0
 11
512.1717
 21
2.01409000000003
 31
0.0
  0
LINE
  5
2B6
330
1E
100
AcDbEntity
  8
0
100
AcDbLine
 10
511.3717
 20
0.8056340000000341
 30
0.0
 11
511.8717
 21
2.01409000000003
 31
0.0
  0
LINE
  5
2B7
330
1E
100
AcDbEntity
  8
0
100
AcDbLine
 10
511.8717
 20
2.01409000000003
 30
0.0
 11
511.8717
 21
167.9859999999999
 31
0.0
  0
LINE
  5
2B8
330
1E
100
AcDbEntity
  8
0
100
AcDbLine
 10
511.8717
 20
167.9859999999999
 30
0.0
 11
511.8717
 21
2.014090000000039
 31
0.0
  0
LINE
  5
2B9
330
1E
100
AcDbEntity
  8
0
100
AcDbLine
 10
512.1717
 20
2.01409000000003
 30
0.0
 11
512.1717
 21
167.9859999999999
 31
0.0
  0
LINE
  5
2BA
330
1E
100
AcDbEntity
  8
0
100
AcDbLine
 10
134.1716999999999
 20
169.6979999999999
 30
0.0
 11
510.1716999999999
 21
169.6979999999999
 31
0.0
  0
LINE
  5
2BB
330
1E
100
AcDbEntity
  8
0
100
AcDbLine
 10
220.8717
 20
170.0
 30
0.0
 11
220.8717
 21
193.9859999999999
 31
0.0
  0
LINE
  5
2BC
330
1E
100
AcDbEntity
  8
0
100
AcDbLine
 10
221.1716999999999
 20
170.0
 30
0.0
 11
221.1716999999999
 21
193.9859999999999
 31
0.0
  0
LINE
  5
2BD
330
1E
100
AcDbEntity
  8
0
100
AcDbLine
 10
510.1716999999999
 20
169.6979999999999
 30
0.0
 11
511.3717
 21
169.194
 31
0.0
  0
LINE
  5
2BE
330
1E
100
AcDbEntity
  8
0
100
AcDbLine
 10
511.3717
 20
169.194
 30
0.0
 11
511.8717
 21
167.9859999999999
 31
0.0
  0
LINE
  5
2C0
330
1E
100
AcDbEntity
  8
0
100
AcDbLine
 10
134.1716999999999
 20
170.0
 30
0.0
 11
510.1716999999999
 21
170.0
 31
0.0
  0
LINE
  5
2C1
330
1E
100
AcDbEntity
  8
0
100
AcDbLine
 10
219.1717
 20
195.6979999999999
 30
0.0
 11
220.3717
 21
195.194
 31
0.0
  0
LINE
  5
2C2
330
1E
100
AcDbEntity
  8
0
100
AcDbLine
 10
220.3717
 20
195.194
 30
0.0
 11
220.8717
 21
193.9859999999999
 31
0.0
  0
LINE
  5
2C3
330
1E
100
AcDbEntity
  8
0
100
AcDbLine
 10
221.1716999999999
 20
193.9859999999999
 30
0.0
 11
220.5716999999999
 21
195.396
 31
0.0
  0
LINE
  5
2C4
330
1E
100
AcDbEntity
  8
0
100
AcDbLine
 10
220.8717
 20
193.9859999999999
 30
0.0
 11
220.8717
 21
170.0
 31
0.0
  0
LINE
  5
2C5
330
1E
100
AcDbEntity
  8
0
100
AcDbLine
 10
219.1717
 20
196.0
 30
0.0
 11
220.5716999999999
 21
195.396
 31
0.0
  0
LINE
  5
2C6
330
1E
100
AcDbEntity
  8
0
100
AcDbLine
 10
221.1716999999999
 20
193.9859999999999
 30
0.0
 11
221.1716999999999
 21
170.0
 31
0.0
  0
LINE
  5
2C7
330
1E
100
AcDbEntity
  8
0
100
AcDbLine
 10
510.1716999999999
 20
170.0
 30
0.0
 11
511.5717
 21
169.3959999999999
 31
0.0
  0
LINE
  5
2C8
330
1E
100
AcDbEntity
  8
0
100
AcDbLine
 10
511.5717
 20
169.3959999999999
 30
0.0
 11
512.1717
 21
167.9859999999999
 31
0.0
  0
LINE
  5
2C9
330
1E
100
AcDbEntity
  8
0
100
AcDbLine
 10
512.1717
 20
167.9859999999999
 30
0.0
 11
512.1717
 21
2.014090000000039
 31
0.0
  0
LINE
  5
2CA
330
1E
100
AcDbEntity
  8
0
100
AcDbLine
 10
132.9717
 20
169.194
 30
0.0
 11
134.1716999999999
 21
169.6979999999999
 31
0.0
  0
LINE
  5
2CB
330
1E
100
AcDbEntity
  8
0
100
AcDbLine
 10
132.9717
 20
0.8056340000000341
 30
0.0
 11
134.1716999999999
 21
0.302113000000034
 31
0.0
  0
LINE
  5
2CC
330
1E
100
AcDbEntity
  8
0
100
AcDbLine
 10
132.7717
 20
0.6042250000000339
 30
0.0
 11
134.1716999999999
 21
0.0000000000000344
 31
0.0
  0
LINE
  5
2CE
330
1E
100
AcDbEntity
  8
0
100
AcDbLine
 10
132.7717
 20
0.6042250000000339
 30
0.0
 11
134.1716999999999
 21
0.0000000000000344
 31
0.0
  0
LINE
  5
2CF
330
1E
100
AcDbEntity
  8
0
100
AcDbLine
 10
132.4716999999999
 20
2.01409000000003
 30
0.0
 11
132.9717
 21
0.8056340000000341
 31
0.0
  0
LINE
  5
2D0
330
1E
100
AcDbEntity
  8
0
100
AcDbLine
 10
132.4716999999999
 20
2.01409000000003
 30
0.0
 11
132.9717
 21
0.8056340000000341
 31
0.0
  0
ENDSEC
  0
SECTION
  2
OBJECTS
  0
DICTIONARY
  5
C
330
0
100
AcDbDictionary
281
     1
  3
ACAD_GROUP
350
D
  3
ACAD_LAYOUT
350
19
  3
ACAD_MLINESTYLE
350
16
  3
ACAD_PLOTSETTINGS
350
18
  3
ACAD_PLOTSTYLENAME
350
E
  3
AcDbVariableDictionary
350
2D5
  0
DICTIONARY
  5
D
102
{ACAD_REACTORS
330
C
102
}
330
C
100
AcDbDictionary
281
     1
  0
DICTIONARY
  5
19
102
{ACAD_REACTORS
330
C
102
}
330
C
100
AcDbDictionary
281
     1
  3
Layout1
350
1D
  3
Model
350
21
  0
DICTIONARY
  5
16
102
{ACAD_REACTORS
330
C
102
}
330
C
100
AcDbDictionary
281
     1
  3
Standard
350
17
  0
DICTIONARY
  5
18
102
{ACAD_REACTORS
330
C
102
}
330
C
100
AcDbDictionary
281
     1
  0
ACDBDICTIONARYWDFLT
  5
E
102
{ACAD_REACTORS
330
C
102
}
330
C
100
AcDbDictionary
281
     1
  3
Normal
350
F
100
AcDbDictionaryWithDefault
340
F
  0
DICTIONARY
  5
2D5
102
{ACAD_REACTORS
330
C
102
}
330
C
100
AcDbDictionary
281
     1
  3
DIMASSOC
350
2D6
  0
LAYOUT
  5
1D
102
{ACAD_REACTORS
330
19
102
}
330
19
100
AcDbPlotSettings
  1

  2
hp deskjet 980c series
  4

  6

 40
0.0
 41
0.0
 42
0.0
 43
0.0
 44
0.0
 45
0.0
 46
0.0
 47
0.0
 48
0.0
 49
0.0
140
0.0
141
0.0
142
1.0
143
1.0
 70
   688
 72
     0
 73
     0
 74
     5
  7

 75
    16
147
1.0
148
0.0
149
0.0
100
AcDbLayout
  1
Layout1
 70
     1
 71
     1
 10
0.0
 20
0.0
 11
12.0
 21
9.0
 12
0.0
 22
0.0
 32
0.0
 14
1.000000000000000E+20
 24
1.000000000000000E+20
 34
1.000000000000000E+20
 15
-1.000000000000000E+20
 25
-1.000000000000000E+20
 35
-1.000000000000000E+20
146
0.0
 13
0.0
 23
0.0
 33
0.0
 16
1.0
 26
0.0
 36
0.0
 17
0.0
 27
1.0
 37
0.0
 76
     0
330
1A
  0
LAYOUT
  5
21
102
{ACAD_REACTORS
330
19
102
}
330
19
100
AcDbPlotSettings
  1

  2
hp deskjet 980c series
  4

  6

 40
0.0
 41
0.0
 42
0.0
 43
0.0
 44
0.0
 45
0.0
 46
0.0
 47
0.0
 48
0.0
 49
0.0
140
0.0
141
0.0
142
1.0
143
1.0
 70
  1712
 72
     0
 73
     0
 74
     0
  7

 75
     0
147
1.0
148
0.0
149
0.0
100
AcDbLayout
  1
Model
 70
     1
 71
     0
 10
0.0
 20
0.0
 11
12.0
 21
9.0
 12
0.0
 22
0.0
 32
0.0
 14
0.0
 24
0.0
 34
0.0
 15
0.0
 25
0.0
 35
0.0
146
0.0
 13
0.0
 23
0.0
 33
0.0
 16
1.0
 26
0.0
 36
0.0
 17
0.0
 27
1.0
 37
0.0
 76
     0
330
1E
  0
MLINESTYLE
  5
17
102
{ACAD_REACTORS
330
16
102
}
330
16
100
AcDbMlineStyle
  2
STANDARD
 70
     0
  3

 62
   256
 51
90.0
 52
90.0
 71
     2
 49
0.5
 62
   256
  6
BYLAYER
 49
-0.5
 62
   256
  6
BYLAYER
  0
ACDBPLACEHOLDER
  5
F
102
{ACAD_REACTORS
330
E
102
}
330
E
  0
DICTIONARYVAR
  5
2D6
102
{ACAD_REACTORS
330
2D5
102
}
330
2D5
100
DictionaryVariables
280
     0
  1
1
  0
ENDSEC
  0
EOF
