  0
SECTION
  2
HEADER
  9
$ACADVER
  1
AC1015
  9
$ACADMAINTVER
 70
    13
  9
$DWGCODEPAGE
  3
ANSI_1252
  9
$INSBASE
 10
0.0
 20
0.0
 30
0.0
  9
$EXTMIN
 10
0.0
 20
-0.0000000000000307
 30
0.0
  9
$EXTMAX
 10
700.0
 20
646.0
 30
0.0
  9
$LIMMIN
 10
0.0
 20
0.0
  9
$LIMMAX
 10
12.0
 20
9.0
  9
$ORTHOMODE
 70
     0
  9
$REGENMODE
 70
     1
  9
$FILLMODE
 70
     1
  9
$QTEXTMODE
 70
     0
  9
$MIRRTEXT
 70
     1
  9
$LTSCALE
 40
1.0
  9
$ATTMODE
 70
     1
  9
$TEXTSIZE
 40
0.2
  9
$TRACEWID
 40
0.05
  9
$TEXTSTYLE
  7
Standard
  9
$CLAYER
  8
0
  9
$CELTYPE
  6
Continuous
  9
$CECOLOR
 62
   256
  9
$CELTSCALE
 40
1.0
  9
$DISPSILH
 70
     0
  9
$DIMSCALE
 40
1.0
  9
$DIMASZ
 40
0.18
  9
$DIMEXO
 40
0.0625
  9
$DIMDLI
 40
0.38
  9
$DIMRND
 40
0.0
  9
$DIMDLE
 40
0.0
  9
$DIMEXE
 40
0.18
  9
$DIMTP
 40
0.0
  9
$DIMTM
 40
0.0
  9
$DIMTXT
 40
0.18
  9
$DIMCEN
 40
0.09
  9
$DIMTSZ
 40
0.0
  9
$DIMTOL
 70
     0
  9
$DIMLIM
 70
     0
  9
$DIMTIH
 70
     1
  9
$DIMTOH
 70
     1
  9
$DIMSE1
 70
     0
  9
$DIMSE2
 70
     0
  9
$DIMTAD
 70
     0
  9
$DIMZIN
 70
     0
  9
$DIMBLK
  1

  9
$DIMASO
 70
     1
  9
$DIMSHO
 70
     1
  9
$DIMPOST
  1

  9
$DIMAPOST
  1

  9
$DIMALT
 70
     0
  9
$DIMALTD
 70
     2
  9
$DIMALTF
 40
25.4
  9
$DIMLFAC
 40
1.0
  9
$DIMTOFL
 70
     0
  9
$DIMTVP
 40
0.0
  9
$DIMTIX
 70
     0
  9
$DIMSOXD
 70
     0
  9
$DIMSAH
 70
     0
  9
$DIMBLK1
  1

  9
$DIMBLK2
  1

  9
$DIMSTYLE
  2
Standard
  9
$DIMCLRD
 70
     0
  9
$DIMCLRE
 70
     0
  9
$DIMCLRT
 70
     0
  9
$DIMTFAC
 40
1.0
  9
$DIMGAP
 40
0.09
  9
$DIMJUST
 70
     0
  9
$DIMSD1
 70
     0
  9
$DIMSD2
 70
     0
  9
$DIMTOLJ
 70
     1
  9
$DIMTZIN
 70
     0
  9
$DIMALTZ
 70
     0
  9
$DIMALTTZ
 70
     0
  9
$DIMUPT
 70
     0
  9
$DIMDEC
 70
     4
  9
$DIMTDEC
 70
     4
  9
$DIMALTU
 70
     2
  9
$DIMALTTD
 70
     2
  9
$DIMTXSTY
  7
Standard
  9
$DIMAUNIT
 70
     0
  9
$DIMADEC
 70
     0
  9
$DIMALTRND
 40
0.0
  9
$DIMAZIN
 70
     0
  9
$DIMDSEP
 70
    46
  9
$DIMATFIT
 70
     3
  9
$DIMFRAC
 70
     0
  9
$DIMLDRBLK
  1

  9
$DIMLUNIT
 70
     2
  9
$DIMLWD
 70
    -2
  9
$DIMLWE
 70
    -2
  9
$DIMTMOVE
 70
     0
  9
$LUNITS
 70
     2
  9
$LUPREC
 70
     4
  9
$SKETCHINC
 40
0.1
  9
$FILLETRAD
 40
0.0
  9
$AUNITS
 70
     0
  9
$AUPREC
 70
     0
  9
$MENU
  1
.
  9
$ELEVATION
 40
0.0
  9
$PELEVATION
 40
0.0
  9
$THICKNESS
 40
0.0
  9
$LIMCHECK
 70
     0
  9
$CHAMFERA
 40
0.0
  9
$CHAMFERB
 40
0.0
  9
$CHAMFERC
 40
0.0
  9
$CHAMFERD
 40
0.0
  9
$SKPOLY
 70
     0
  9
$TDCREATE
 40
2454780.574585682
  9
$TDUCREATE
 40
2454780.532919016
  9
$TDUPDATE
 40
2454780.710594977
  9
$TDUUPDATE
 40
2454780.668928310
  9
$TDINDWG
 40
0.0128736227
  9
$TDUSRTIMER
 40
0.0128736227
  9
$USRTIMER
 70
     1
  9
$ANGBASE
 50
0.0
  9
$ANGDIR
 70
     0
  9
$PDMODE
 70
     0
  9
$PDSIZE
 40
0.0
  9
$PLINEWID
 40
0.0
  9
$SPLFRAME
 70
     0
  9
$SPLINETYPE
 70
     6
  9
$SPLINESEGS
 70
     8
  9
$HANDSEED
  5
ADD
  9
$SURFTAB1
 70
     6
  9
$SURFTAB2
 70
     6
  9
$SURFTYPE
 70
     6
  9
$SURFU
 70
     6
  9
$SURFV
 70
     6
  9
$UCSBASE
  2

  9
$UCSNAME
  2

  9
$UCSORG
 10
0.0
 20
0.0
 30
0.0
  9
$UCSXDIR
 10
1.0
 20
0.0
 30
0.0
  9
$UCSYDIR
 10
0.0
 20
1.0
 30
0.0
  9
$UCSORTHOREF
  2

  9
$UCSORTHOVIEW
 70
     1
  9
$UCSORGTOP
 10
0.0
 20
0.0
 30
0.0
  9
$UCSORGBOTTOM
 10
0.0
 20
0.0
 30
0.0
  9
$UCSORGLEFT
 10
0.0
 20
0.0
 30
0.0
  9
$UCSORGRIGHT
 10
0.0
 20
0.0
 30
0.0
  9
$UCSORGFRONT
 10
0.0
 20
0.0
 30
0.0
  9
$UCSORGBACK
 10
0.0
 20
0.0
 30
0.0
  9
$PUCSBASE
  2

  9
$PUCSNAME
  2

  9
$PUCSORG
 10
0.0
 20
0.0
 30
0.0
  9
$PUCSXDIR
 10
1.0
 20
0.0
 30
0.0
  9
$PUCSYDIR
 10
0.0
 20
1.0
 30
0.0
  9
$PUCSORTHOREF
  2

  9
$PUCSORTHOVIEW
 70
     0
  9
$PUCSORGTOP
 10
0.0
 20
0.0
 30
0.0
  9
$PUCSORGBOTTOM
 10
0.0
 20
0.0
 30
0.0
  9
$PUCSORGLEFT
 10
0.0
 20
0.0
 30
0.0
  9
$PUCSORGRIGHT
 10
0.0
 20
0.0
 30
0.0
  9
$PUCSORGFRONT
 10
0.0
 20
0.0
 30
0.0
  9
$PUCSORGBACK
 10
0.0
 20
0.0
 30
0.0
  9
$USERI1
 70
     0
  9
$USERI2
 70
     0
  9
$USERI3
 70
     0
  9
$USERI4
 70
     0
  9
$USERI5
 70
     0
  9
$USERR1
 40
0.0
  9
$USERR2
 40
0.0
  9
$USERR3
 40
0.0
  9
$USERR4
 40
0.0
  9
$USERR5
 40
0.0
  9
$WORLDVIEW
 70
     1
  9
$SHADEDGE
 70
     3
  9
$SHADEDIF
 70
    70
  9
$TILEMODE
 70
     1
  9
$MAXACTVP
 70
    64
  9
$PINSBASE
 10
0.0
 20
0.0
 30
0.0
  9
$PLIMCHECK
 70
     0
  9
$PEXTMIN
 10
1.000000000000000E+20
 20
1.000000000000000E+20
 30
1.000000000000000E+20
  9
$PEXTMAX
 10
-1.000000000000000E+20
 20
-1.000000000000000E+20
 30
-1.000000000000000E+20
  9
$PLIMMIN
 10
0.0
 20
0.0
  9
$PLIMMAX
 10
12.0
 20
9.0
  9
$UNITMODE
 70
     0
  9
$VISRETAIN
 70
     1
  9
$PLINEGEN
 70
     0
  9
$PSLTSCALE
 70
     1
  9
$TREEDEPTH
 70
  3020
  9
$CMLSTYLE
  2
Standard
  9
$CMLJUST
 70
     0
  9
$CMLSCALE
 40
1.0
  9
$PROXYGRAPHICS
 70
     1
  9
$MEASUREMENT
 70
     0
  9
$CELWEIGHT
370
    -1
  9
$ENDCAPS
280
     0
  9
$JOINSTYLE
280
     0
  9
$LWDISPLAY
290
     0
  9
$INSUNITS
 70
     0
  9
$HYPERLINKBASE
  1

  9
$STYLESHEET
  1

  9
$XEDIT
290
     1
  9
$CEPSNTYPE
380
     0
  9
$PSTYLEMODE
290
     1
  9
$FINGERPRINTGUID
  2
{21D577CF-43CC-42C4-B1E8-08011FDA7525}
  9
$VERSIONGUID
  2
{06ED8E50-BDE9-42EE-A31C-2BA153269C76}
  9
$EXTNAMES
290
     1
  9
$PSVPSCALE
 40
0.0
  9
$OLESTARTUP
290
     0
  0
ENDSEC
  0
SECTION
  2
CLASSES
  0
CLASS
  1
ACDBDICTIONARYWDFLT
  2
AcDbDictionaryWithDefault
  3
AutoCAD 2000
 90
        0
280
     0
281
     0
  0
CLASS
  1
ACDBPLACEHOLDER
  2
AcDbPlaceHolder
  3
AutoCAD 2000
 90
        0
280
     0
281
     0
  0
CLASS
  1
LAYOUT
  2
AcDbLayout
  3
AutoCAD 2000
 90
        0
280
     0
281
     0
  0
CLASS
  1
DICTIONARYVAR
  2
AcDbDictionaryVar
  3
AutoCAD 2000
 90
        0
280
     0
281
     0
  0
ENDSEC
  0
SECTION
  2
TABLES
  0
TABLE
  2
VPORT
  5
8
330
0
100
AcDbSymbolTable
 70
     2
  0
VPORT
  5
ADC
330
8
100
AcDbSymbolTableRecord
100
AcDbViewportTableRecord
  2
*Active
 70
     0
 10
0.0
 20
0.0
 11
1.0
 21
1.0
 12
350.0
 22
322.9999999999999
 13
0.0
 23
0.0
 14
1.0
 24
1.0
 15
0.0
 25
0.0
 16
0.0
 26
0.0
 36
1.0
 17
0.0
 27
0.0
 37
0.0
 40
650.9565217391304
 41
2.078104993597951
 42
50.0
 43
0.0
 44
0.0
 50
0.0
 51
0.0
 71
     0
 72
   100
 73
     1
 74
     3
 75
     0
 76
     0
 77
     0
 78
     0
281
     0
 65
     1
110
0.0
120
0.0
130
0.0
111
1.0
121
0.0
131
0.0
112
0.0
122
1.0
132
0.0
 79
     1
146
0.0
  0
ENDTAB
  0
TABLE
  2
LTYPE
  5
5
330
0
100
AcDbSymbolTable
 70
     1
  0
LTYPE
  5
13
330
5
100
AcDbSymbolTableRecord
100
AcDbLinetypeTableRecord
  2
ByBlock
 70
     0
  3

 72
    65
 73
     0
 40
0.0
  0
LTYPE
  5
14
330
5
100
AcDbSymbolTableRecord
100
AcDbLinetypeTableRecord
  2
ByLayer
 70
     0
  3

 72
    65
 73
     0
 40
0.0
  0
LTYPE
  5
15
330
5
100
AcDbSymbolTableRecord
100
AcDbLinetypeTableRecord
  2
Continuous
 70
     0
  3
Solid line
 72
    65
 73
     0
 40
0.0
  0
ENDTAB
  0
TABLE
  2
LAYER
  5
2
330
0
100
AcDbSymbolTable
 70
     1
  0
LAYER
  5
10
330
2
100
AcDbSymbolTableRecord
100
AcDbLayerTableRecord
  2
0
 70
     0
 62
     7
  6
Continuous
370
    -3
390
F
  0
ENDTAB
  0
TABLE
  2
STYLE
  5
3
330
0
100
AcDbSymbolTable
 70
     1
  0
STYLE
  5
11
330
3
100
AcDbSymbolTableRecord
100
AcDbTextStyleTableRecord
  2
Standard
 70
     0
 40
0.0
 41
1.0
 50
0.0
 71
     0
 42
0.2
  3
txt
  4

  0
ENDTAB
  0
TABLE
  2
VIEW
  5
6
330
0
100
AcDbSymbolTable
 70
     0
  0
ENDTAB
  0
TABLE
  2
UCS
  5
7
330
0
100
AcDbSymbolTable
 70
     0
  0
ENDTAB
  0
TABLE
  2
APPID
  5
9
330
0
100
AcDbSymbolTable
 70
     1
  0
APPID
  5
12
330
9
100
AcDbSymbolTableRecord
100
AcDbRegAppTableRecord
  2
ACAD
 70
     0
  0
ENDTAB
  0
TABLE
  2
DIMSTYLE
  5
A
330
0
100
AcDbSymbolTable
 70
     1
100
AcDbDimStyleTable
 71
     0
  0
DIMSTYLE
105
AC5
330
A
100
AcDbSymbolTableRecord
100
AcDbDimStyleTableRecord
  2
Standard
 70
     0
340
11
  0
ENDTAB
  0
TABLE
  2
BLOCK_RECORD
  5
1
330
0
100
AcDbSymbolTable
 70
     0
  0
BLOCK_RECORD
  5
1E
330
1
100
AcDbSymbolTableRecord
100
AcDbBlockTableRecord
  2
*Model_Space
340
21
  0
BLOCK_RECORD
  5
1A
330
1
100
AcDbSymbolTableRecord
100
AcDbBlockTableRecord
  2
*Paper_Space
340
1D
  0
ENDTAB
  0
ENDSEC
  0
SECTION
  2
BLOCKS
  0
BLOCK
  5
1F
330
1E
100
AcDbEntity
  8
0
100
AcDbBlockBegin
  2
*Model_Space
 70
     0
 10
0.0
 20
0.0
 30
0.0
  3
*Model_Space
  1

  0
ENDBLK
  5
20
330
1E
100
AcDbEntity
  8
0
100
AcDbBlockEnd
  0
BLOCK
  5
1B
330
1A
100
AcDbEntity
 67
     1
  8
0
100
AcDbBlockBegin
  2
*Paper_Space
 70
     0
 10
0.0
 20
0.0
 30
0.0
  3
*Paper_Space
  1

  0
ENDBLK
  5
1C
330
1A
100
AcDbEntity
 67
     1
  8
0
100
AcDbBlockEnd
  0
ENDSEC
  0
SECTION
  2
ENTITIES
  0
LINE
  5
22
330
1E
100
AcDbEntity
  8
0
100
AcDbLine
 10
0.0
 20
-0.0000000000000307
 30
0.0
 11
700.0
 21
-0.0000000000000307
 31
0.0
  0
LINE
  5
23
330
1E
100
AcDbEntity
  8
0
100
AcDbLine
 10
0.0000000000000003
 20
-0.0000000000000307
 30
0.0
 11
700.0
 21
-0.0000000000000307
 31
0.0
  0
LINE
  5
24
330
1E
100
AcDbEntity
  8
0
100
AcDbLine
 10
0.0000000000000003
 20
-0.0000000000000307
 30
0.0
 11
0.0000000000000003
 21
50.0
 31
0.0
  0
LINE
  5
25
330
1E
100
AcDbEntity
  8
0
100
AcDbLine
 10
0.0
 20
-0.0000000000000184
 30
0.0
 11
700.0
 21
-0.0000000000000184
 31
0.0
  0
LINE
  5
26
330
1E
100
AcDbEntity
  8
0
100
AcDbLine
 10
0.0
 20
50.0
 30
0.0
 11
149.0
 21
250.0
 31
0.0
  0
LINE
  5
27
330
1E
100
AcDbEntity
  8
0
100
AcDbLine
 10
0.0000000000000003
 20
50.0
 30
0.0
 11
0.0000000000000003
 21
-0.0000000000000269
 31
0.0
  0
LINE
  5
28
330
1E
100
AcDbEntity
  8
0
100
AcDbLine
 10
149.0
 20
250.0
 30
0.0
 11
149.0
 21
550.0
 31
0.0
  0
LINE
  5
29
330
1E
100
AcDbEntity
  8
0
100
AcDbLine
 10
149.0
 20
450.0
 30
0.0
 11
149.0
 21
250.0
 31
0.0
  0
LINE
  5
2A
330
1E
100
AcDbEntity
  8
0
100
AcDbLine
 10
149.0
 20
450.0
 30
0.0
 11
551.0
 21
450.0
 31
0.0
  0
LINE
  5
2B
330
1E
100
AcDbEntity
  8
0
100
AcDbLine
 10
0.0000000000000003
 20
50.0
 30
0.0
 11
0.0000000000000003
 21
-0.0000000000000179
 31
0.0
  0
LINE
  5
2C
330
1E
100
AcDbEntity
  8
0
100
AcDbLine
 10
0.0000000000000003
 20
50.0
 30
0.0
 11
149.0
 21
250.0
 31
0.0
  0
LINE
  5
2D
330
1E
100
AcDbEntity
  8
0
100
AcDbLine
 10
0.0000000000000003
 20
-0.0000000000000184
 30
0.0
 11
700.0
 21
-0.0000000000000184
 31
0.0
  0
LINE
  5
2E
330
1E
100
AcDbEntity
  8
0
100
AcDbLine
 10
0.0000000000000003
 20
-0.0000000000000184
 30
0.0
 11
0.0000000000000003
 21
50.0
 31
0.0
  0
LINE
  5
30
330
1E
100
AcDbEntity
  8
0
100
AcDbLine
 10
161.959
 20
473.714
 30
0.0
 11
162.416
 21
473.714
 31
0.0
  0
LINE
  5
31
330
1E
100
AcDbEntity
  8
0
100
AcDbLine
 10
162.416
 20
473.714
 30
0.0
 11
163.925
 21
473.2599999999997
 31
0.0
  0
LINE
  5
33
330
1E
100
AcDbEntity
  8
0
100
AcDbLine
 10
162.534
 20
473.1709999999998
 30
0.0
 11
163.239
 21
473.0
 31
0.0
  0
LINE
  5
34
330
1E
100
AcDbEntity
  8
0
100
AcDbLine
 10
161.874
 20
481.571
 30
0.0
 11
162.416
 21
482.286
 31
0.0
  0
LINE
  5
35
330
1E
100
AcDbEntity
  8
0
100
AcDbLine
 10
161.6889999999999
 20
481.571
 30
0.0
 11
161.875
 21
482.286
 31
0.0
  0
LINE
  5
36
330
1E
100
AcDbEntity
  8
0
100
AcDbLine
 10
161.6889999999999
 20
481.571
 30
0.0
 11
161.6889999999999
 21
474.429
 31
0.0
  0
LINE
  5
37
330
1E
100
AcDbEntity
  8
0
100
AcDbLine
 10
161.6889999999999
 20
481.571
 30
0.0
 11
161.874
 21
481.571
 31
0.0
  0
LINE
  5
3A
330
1E
100
AcDbEntity
  8
0
100
AcDbLine
 10
161.6889999999999
 20
474.429
 30
0.0
 11
161.875
 21
473.714
 31
0.0
  0
LINE
  5
3B
330
1E
100
AcDbEntity
  8
0
100
AcDbLine
 10
161.6889999999999
 20
474.429
 30
0.0
 11
161.6889999999999
 21
481.571
 31
0.0
  0
LINE
  5
41
330
1E
100
AcDbEntity
  8
0
100
AcDbLine
 10
162.416
 20
482.286
 30
0.0
 11
163.925
 21
482.7399999999998
 31
0.0
  0
LINE
  5
42
330
1E
100
AcDbEntity
  8
0
100
AcDbLine
 10
162.534
 20
482.8289999999998
 30
0.0
 11
163.239
 21
483.0
 31
0.0
  0
LINE
  5
45
330
1E
100
AcDbEntity
  8
0
100
AcDbLine
 10
161.875
 20
482.286
 30
0.0
 11
162.534
 21
482.8289999999998
 31
0.0
  0
LINE
  5
47
330
1E
100
AcDbEntity
  8
0
100
AcDbLine
 10
161.875
 20
473.714
 30
0.0
 11
162.534
 21
473.1709999999998
 31
0.0
  0
LINE
  5
48
330
1E
100
AcDbEntity
  8
0
100
AcDbLine
 10
161.875
 20
473.714
 30
0.0
 11
161.959
 21
473.714
 31
0.0
  0
LINE
  5
49
330
1E
100
AcDbEntity
  8
0
100
AcDbLine
 10
162.8989999999999
 20
483.0
 30
0.0
 11
163.236
 21
483.0
 31
0.0
  0
LINE
  5
4A
330
1E
100
AcDbEntity
  8
0
100
AcDbLine
 10
162.8989999999999
 20
483.0
 30
0.0
 11
162.8989999999999
 21
508.0
 31
0.0
  0
LINE
  5
4B
330
1E
100
AcDbEntity
  8
0
100
AcDbLine
 10
162.8989999999999
 20
483.0
 30
0.0
 11
163.239
 21
483.0
 31
0.0
  0
LINE
  5
4C
330
1E
100
AcDbEntity
  8
0
100
AcDbLine
 10
162.8989999999999
 20
508.0
 30
0.0
 11
163.048
 21
512.352
 31
0.0
  0
LINE
  5
4D
330
1E
100
AcDbEntity
  8
0
100
AcDbLine
 10
162.8989999999999
 20
508.0
 30
0.0
 11
162.8989999999999
 21
483.0
 31
0.0
  0
LINE
  5
4E
330
1E
100
AcDbEntity
  8
0
100
AcDbLine
 10
163.525
 20
473.0
 30
0.0
 11
164.594
 21
473.0
 31
0.0
  0
LINE
  5
4F
330
1E
100
AcDbEntity
  8
0
100
AcDbLine
 10
166.067
 20
473.0
 30
0.0
 11
167.537
 21
473.0
 31
0.0
  0
LINE
  5
50
330
1E
100
AcDbEntity
  8
0
100
AcDbLine
 10
165.1699999999999
 20
473.0
 30
0.0
 11
166.067
 21
473.0
 31
0.0
  0
LINE
  5
51
330
1E
100
AcDbEntity
  8
0
100
AcDbLine
 10
164.894
 20
450.0
 30
0.0
 11
164.894
 21
473.0
 31
0.0
  0
LINE
  5
52
330
1E
100
AcDbEntity
  8
0
100
AcDbLine
 10
164.894
 20
473.0
 30
0.0
 11
164.894
 21
450.0
 31
0.0
  0
LINE
  5
53
330
1E
100
AcDbEntity
  8
0
100
AcDbLine
 10
164.894
 20
473.0
 30
0.0
 11
165.1699999999999
 21
473.0
 31
0.0
  0
LINE
  5
54
330
1E
100
AcDbEntity
  8
0
100
AcDbLine
 10
163.6239999999999
 20
473.0
 30
0.0
 11
164.894
 21
473.0
 31
0.0
  0
LINE
  5
55
330
1E
100
AcDbEntity
  8
0
100
AcDbLine
 10
163.239
 20
483.0
 30
0.0
 11
163.6239999999999
 21
483.0
 31
0.0
  0
LINE
  5
56
330
1E
100
AcDbEntity
  8
0
100
AcDbLine
 10
163.6239999999999
 20
483.0
 30
0.0
 11
164.6959999999999
 21
483.0
 31
0.0
  0
LINE
  5
57
330
1E
100
AcDbEntity
  8
0
100
AcDbLine
 10
163.925
 20
482.7399999999998
 30
0.0
 11
166.08
 21
482.856
 31
0.0
  0
LINE
  5
59
330
1E
100
AcDbEntity
  8
0
100
AcDbLine
 10
164.6959999999999
 20
483.0
 30
0.0
 11
166.467
 21
483.0
 31
0.0
  0
LINE
  5
5B
330
1E
100
AcDbEntity
  8
0
100
AcDbLine
 10
163.925
 20
473.2599999999997
 30
0.0
 11
166.08
 21
473.144
 31
0.0
  0
LINE
  5
5C
330
1E
100
AcDbEntity
  8
0
100
AcDbLine
 10
166.08
 20
473.144
 30
0.0
 11
168.2229999999998
 21
473.299
 31
0.0
  0
LINE
  5
5F
330
1E
100
AcDbEntity
  8
0
100
AcDbLine
 10
166.08
 20
482.856
 30
0.0
 11
168.2229999999998
 21
482.7009999999998
 31
0.0
  0
LINE
  5
60
330
1E
100
AcDbEntity
  8
0
100
AcDbLine
 10
163.239
 20
473.0
 30
0.0
 11
163.525
 21
473.0
 31
0.0
  0
LINE
  5
61
330
1E
100
AcDbEntity
  8
0
100
AcDbLine
 10
163.239
 20
473.0
 30
0.0
 11
163.6239999999999
 21
473.0
 31
0.0
  0
LINE
  5
62
330
1E
100
AcDbEntity
  8
0
100
AcDbLine
 10
163.236
 20
483.0
 30
0.0
 11
164.3319999999999
 21
483.0
 31
0.0
  0
LINE
  5
63
330
1E
100
AcDbEntity
  8
0
100
AcDbLine
 10
164.3319999999999
 20
483.0
 30
0.0
 11
166.129
 21
483.0
 31
0.0
  0
LINE
  5
64
330
1E
100
AcDbEntity
  8
0
100
AcDbLine
 10
167.537
 20
473.0
 30
0.0
 11
169.4
 21
473.0
 31
0.0
  0
LINE
  5
65
330
1E
100
AcDbEntity
  8
0
100
AcDbLine
 10
166.467
 20
473.0
 30
0.0
 11
168.674
 21
473.0
 31
0.0
  0
LINE
  5
67
330
1E
100
AcDbEntity
  8
0
100
AcDbLine
 10
168.2229999999998
 20
473.299
 30
0.0
 11
169.571
 21
473.714
 31
0.0
  0
LINE
  5
68
330
1E
100
AcDbEntity
  8
0
100
AcDbLine
 10
169.4
 20
473.0
 30
0.0
 11
171.541
 21
473.0
 31
0.0
  0
LINE
  5
69
330
1E
100
AcDbEntity
  8
0
100
AcDbLine
 10
169.571
 20
482.286
 30
0.0
 11
170.8359999999998
 21
482.286
 31
0.0
  0
LINE
  5
6A
330
1E
100
AcDbEntity
  8
0
100
AcDbLine
 10
168.674
 20
483.0
 30
0.0
 11
171.259
 21
483.0
 31
0.0
  0
LINE
  5
6C
330
1E
100
AcDbEntity
  8
0
100
AcDbLine
 10
169.571
 20
473.714
 30
0.0
 11
170.8359999999998
 21
473.714
 31
0.0
  0
LINE
  5
6E
330
1E
100
AcDbEntity
  8
0
100
AcDbLine
 10
168.2229999999998
 20
482.7009999999998
 30
0.0
 11
169.571
 21
482.286
 31
0.0
  0
LINE
  5
71
330
1E
100
AcDbEntity
  8
0
100
AcDbLine
 10
166.467
 20
483.0
 30
0.0
 11
168.674
 21
483.0
 31
0.0
  0
LINE
  5
73
330
1E
100
AcDbEntity
  8
0
100
AcDbLine
 10
166.129
 20
483.0
 30
0.0
 11
168.4059999999998
 21
483.0
 31
0.0
  0
LINE
  5
74
330
1E
100
AcDbEntity
  8
0
100
AcDbLine
 10
168.4059999999998
 20
483.0
 30
0.0
 11
171.0239999999999
 21
483.0
 31
0.0
  0
LINE
  5
75
330
1E
100
AcDbEntity
  8
0
100
AcDbLine
 10
163.048
 20
512.352
 30
0.0
 11
163.4819999999999
 21
516.408
 31
0.0
  0
LINE
  5
76
330
1E
100
AcDbEntity
  8
0
100
AcDbLine
 10
165.754
 20
524.849
 30
0.0
 11
166.9679999999999
 21
526.7929999999998
 31
0.0
  0
LINE
  5
77
330
1E
100
AcDbEntity
  8
0
100
AcDbLine
 10
164.7109999999998
 20
521.758
 30
0.0
 11
165.754
 21
524.849
 31
0.0
  0
LINE
  5
78
330
1E
100
AcDbEntity
  8
0
100
AcDbLine
 10
166.9679999999999
 20
526.7929999999998
 30
0.0
 11
168.5119999999999
 21
529.0459999999998
 31
0.0
  0
LINE
  5
79
330
1E
100
AcDbEntity
  8
0
100
AcDbLine
 10
168.5119999999999
 20
529.0459999999998
 30
0.0
 11
170.647
 21
530.7459999999998
 31
0.0
  0
LINE
  5
7A
330
1E
100
AcDbEntity
  8
0
100
AcDbLine
 10
164.174
 20
519.8909999999998
 30
0.0
 11
164.7109999999998
 21
521.758
 31
0.0
  0
LINE
  5
7B
330
1E
100
AcDbEntity
  8
0
100
AcDbLine
 10
163.4819999999999
 20
516.408
 30
0.0
 11
164.174
 21
519.8909999999998
 31
0.0
  0
LINE
  5
7E
330
1E
100
AcDbEntity
  8
0
100
AcDbLine
 10
170.8359999999998
 20
482.286
 30
0.0
 11
172.1969999999999
 21
482.286
 31
0.0
  0
LINE
  5
80
330
1E
100
AcDbEntity
  8
0
100
AcDbLine
 10
170.8359999999998
 20
473.714
 30
0.0
 11
172.1969999999999
 21
473.714
 31
0.0
  0
LINE
  5
81
330
1E
100
AcDbEntity
  8
0
100
AcDbLine
 10
170.647
 20
530.7459999999998
 30
0.0
 11
172.224
 21
531.5479999999999
 31
0.0
  0
LINE
  5
83
330
1E
100
AcDbEntity
  8
0
100
AcDbLine
 10
171.259
 20
473.0
 30
0.0
 11
174.042
 21
473.0
 31
0.0
  0
LINE
  5
86
330
1E
100
AcDbEntity
  8
0
100
AcDbLine
 10
171.0239999999999
 20
483.0
 30
0.0
 11
173.8459999999999
 21
483.0
 31
0.0
  0
LINE
  5
87
330
1E
100
AcDbEntity
  8
0
100
AcDbLine
 10
171.0359999999999
 20
530.94383005707
 30
0.0
 11
171.0359999999999
 21
534.0
 31
0.0
  0
LINE
  5
88
330
1E
100
AcDbEntity
  8
0
100
AcDbLine
 10
171.541
 20
473.0
 30
0.0
 11
173.8509999999999
 21
473.0
 31
0.0
  0
LINE
  5
89
330
1E
100
AcDbEntity
  8
0
100
AcDbLine
 10
171.4649999999999
 20
534.0
 30
0.0
 11
172.86
 21
534.0
 31
0.0
  0
LINE
  5
8A
330
1E
100
AcDbEntity
  8
0
100
AcDbLine
 10
171.0359999999999
 20
534.0
 30
0.0
 11
171.4649999999999
 21
534.0
 31
0.0
  0
LINE
  5
8B
330
1E
100
AcDbEntity
  8
0
100
AcDbLine
 10
171.0359999999999
 20
534.0
 30
0.0
 11
171.0359999999999
 21
530.94383005707
 31
0.0
  0
LINE
  5
8C
330
1E
100
AcDbEntity
  8
0
100
AcDbLine
 10
172.1969999999999
 20
482.286
 30
0.0
 11
174.0029999999999
 21
482.7009999999998
 31
0.0
  0
LINE
  5
8D
330
1E
100
AcDbEntity
  8
0
100
AcDbLine
 10
172.1969999999999
 20
473.714
 30
0.0
 11
174.0029999999999
 21
473.299
 31
0.0
  0
LINE
  5
8E
330
1E
100
AcDbEntity
  8
0
100
AcDbLine
 10
172.224
 20
531.5479999999999
 30
0.0
 11
174.774
 21
532.604
 31
0.0
  0
LINE
  5
8F
330
1E
100
AcDbEntity
  8
0
100
AcDbLine
 10
173.8509999999999
 20
473.0
 30
0.0
 11
176.1609999999999
 21
473.0
 31
0.0
  0
LINE
  5
90
330
1E
100
AcDbEntity
  8
0
100
AcDbLine
 10
174.0029999999999
 20
482.7009999999998
 30
0.0
 11
176.897
 21
482.856
 31
0.0
  0
LINE
  5
93
330
1E
100
AcDbEntity
  8
0
100
AcDbLine
 10
174.042
 20
473.0
 30
0.0
 11
176.757
 21
473.0
 31
0.0
  0
LINE
  5
95
330
1E
100
AcDbEntity
  8
0
100
AcDbLine
 10
174.042
 20
483.0
 30
0.0
 11
176.757
 21
483.0
 31
0.0
  0
LINE
  5
96
330
1E
100
AcDbEntity
  8
0
100
AcDbLine
 10
174.0029999999999
 20
473.299
 30
0.0
 11
176.897
 21
473.144
 31
0.0
  0
LINE
  5
98
330
1E
100
AcDbEntity
  8
0
100
AcDbLine
 10
174.774
 20
532.604
 30
0.0
 11
177.494
 21
533.0
 31
0.0
  0
LINE
  5
99
330
1E
100
AcDbEntity
  8
0
100
AcDbLine
 10
173.8459999999999
 20
483.0
 30
0.0
 11
176.6699999999999
 21
483.0
 31
0.0
  0
LINE
  5
9A
330
1E
100
AcDbEntity
  8
0
100
AcDbLine
 10
175.147
 20
534.0
 30
0.0
 11
178.0449999999999
 21
534.0
 31
0.0
  0
LINE
  5
9B
330
1E
100
AcDbEntity
  8
0
100
AcDbLine
 10
172.86
 20
534.0
 30
0.0
 11
175.147
 21
534.0
 31
0.0
  0
LINE
  5
9C
330
1E
100
AcDbEntity
  8
0
100
AcDbLine
 10
174.444
 20
534.0
 30
0.0
 11
177.5479999999999
 21
534.0
 31
0.0
  0
LINE
  5
9D
330
1E
100
AcDbEntity
  8
0
100
AcDbLine
 10
171.9929999999999
 20
534.0
 30
0.0
 11
174.444
 21
534.0
 31
0.0
  0
LINE
  5
9E
330
1E
100
AcDbEntity
  8
0
100
AcDbLine
 10
170.4979999999999
 20
534.0
 30
0.0
 11
171.9929999999999
 21
534.0
 31
0.0
  0
LINE
  5
9F
330
1E
100
AcDbEntity
  8
0
100
AcDbLine
 10
170.039
 20
534.0
 30
0.0
 11
170.039
 21
589.0
 31
0.0
  0
LINE
  5
A0
330
1E
100
AcDbEntity
  8
0
100
AcDbLine
 10
170.039
 20
534.0
 30
0.0
 11
170.5109999999999
 21
534.0
 31
0.0
  0
LINE
  5
A1
330
1E
100
AcDbEntity
  8
0
100
AcDbLine
 10
170.039
 20
534.0
 30
0.0
 11
170.4979999999999
 21
534.0
 31
0.0
  0
LINE
  5
A2
330
1E
100
AcDbEntity
  8
0
100
AcDbLine
 10
149.0
 20
550.0
 30
0.0
 11
170.039
 21
550.0
 31
0.0
  0
LINE
  5
A3
330
1E
100
AcDbEntity
  8
0
100
AcDbLine
 10
149.0
 20
550.0
 30
0.0
 11
149.0
 21
250.0
 31
0.0
  0
LINE
  5
A4
330
1E
100
AcDbEntity
  8
0
100
AcDbLine
 10
164.569
 20
589.0
 30
0.0
 11
164.6209999999999
 21
589.0
 31
0.0
  0
LINE
  5
A5
330
1E
100
AcDbEntity
  8
0
100
AcDbLine
 10
164.569
 20
589.0
 30
0.0
 11
164.724
 21
589.0
 31
0.0
  0
LINE
  5
A6
330
1E
100
AcDbEntity
  8
0
100
AcDbLine
 10
164.569
 20
589.0
 30
0.0
 11
164.569
 21
592.0
 31
0.0
  0
LINE
  5
A7
330
1E
100
AcDbEntity
  8
0
100
AcDbLine
 10
164.6209999999999
 20
589.0
 30
0.0
 11
164.6209999999999
 21
585.0
 31
0.0
  0
LINE
  5
A8
330
1E
100
AcDbEntity
  8
0
100
AcDbLine
 10
164.6209999999999
 20
589.0
 30
0.0
 11
164.7129999999999
 21
589.0
 31
0.0
  0
LINE
  5
A9
330
1E
100
AcDbEntity
  8
0
100
AcDbLine
 10
164.7159999999999
 20
585.0
 30
0.0
 11
165.019
 21
585.0
 31
0.0
  0
LINE
  5
AA
330
1E
100
AcDbEntity
  8
0
100
AcDbLine
 10
166.1109999999998
 20
585.0
 30
0.0
 11
166.8499999999999
 21
585.0
 31
0.0
  0
LINE
  5
AB
330
1E
100
AcDbEntity
  8
0
100
AcDbLine
 10
165.483
 20
585.0
 30
0.0
 11
166.1109999999998
 21
585.0
 31
0.0
  0
LINE
  5
AC
330
1E
100
AcDbEntity
  8
0
100
AcDbLine
 10
165.019
 20
585.0
 30
0.0
 11
165.483
 21
585.0
 31
0.0
  0
LINE
  5
AD
330
1E
100
AcDbEntity
  8
0
100
AcDbLine
 10
166.8499999999999
 20
585.0
 30
0.0
 11
167.62
 21
585.0
 31
0.0
  0
LINE
  5
AE
330
1E
100
AcDbEntity
  8
0
100
AcDbLine
 10
166.837
 20
585.0
 30
0.0
 11
167.6069999999999
 21
585.0
 31
0.0
  0
LINE
  5
AF
330
1E
100
AcDbEntity
  8
0
100
AcDbLine
 10
167.62
 20
585.0
 30
0.0
 11
168.3899999999999
 21
585.0
 31
0.0
  0
LINE
  5
B0
330
1E
100
AcDbEntity
  8
0
100
AcDbLine
 10
168.3899999999999
 20
585.0
 30
0.0
 11
169.104
 21
585.0
 31
0.0
  0
LINE
  5
B1
330
1E
100
AcDbEntity
  8
0
100
AcDbLine
 10
169.104
 20
585.0
 30
0.0
 11
169.7249999999999
 21
585.0
 31
0.0
  0
LINE
  5
B2
330
1E
100
AcDbEntity
  8
0
100
AcDbLine
 10
167.6069999999999
 20
585.0
 30
0.0
 11
168.377
 21
585.0
 31
0.0
  0
LINE
  5
B3
330
1E
100
AcDbEntity
  8
0
100
AcDbLine
 10
168.377
 20
585.0
 30
0.0
 11
169.115
 21
585.0
 31
0.0
  0
LINE
  5
B4
330
1E
100
AcDbEntity
  8
0
100
AcDbLine
 10
169.7249999999999
 20
585.0
 30
0.0
 11
170.039
 21
585.0
 31
0.0
  0
LINE
  5
B5
330
1E
100
AcDbEntity
  8
0
100
AcDbLine
 10
169.115
 20
585.0
 30
0.0
 11
169.7429999999999
 21
585.0
 31
0.0
  0
LINE
  5
B6
330
1E
100
AcDbEntity
  8
0
100
AcDbLine
 10
169.7429999999999
 20
585.0
 30
0.0
 11
170.039
 21
585.0
 31
0.0
  0
LINE
  5
B7
330
1E
100
AcDbEntity
  8
0
100
AcDbLine
 10
166.1229999999999
 20
585.0
 30
0.0
 11
166.837
 21
585.0
 31
0.0
  0
LINE
  5
B8
330
1E
100
AcDbEntity
  8
0
100
AcDbLine
 10
165.502
 20
585.0
 30
0.0
 11
166.1229999999999
 21
585.0
 31
0.0
  0
LINE
  5
B9
330
1E
100
AcDbEntity
  8
0
100
AcDbLine
 10
165.012
 20
585.0
 30
0.0
 11
165.502
 21
585.0
 31
0.0
  0
LINE
  5
BA
330
1E
100
AcDbEntity
  8
0
100
AcDbLine
 10
165.212
 20
589.0
 30
0.0
 11
165.6909999999999
 21
589.0
 31
0.0
  0
LINE
  5
BB
330
1E
100
AcDbEntity
  8
0
100
AcDbLine
 10
164.724
 20
589.0
 30
0.0
 11
165.212
 21
589.0
 31
0.0
  0
LINE
  5
BC
330
1E
100
AcDbEntity
  8
0
100
AcDbLine
 10
166.3079999999999
 20
589.0
 30
0.0
 11
168.262
 21
589.0
 31
0.0
  0
LINE
  5
BD
330
1E
100
AcDbEntity
  8
0
100
AcDbLine
 10
165.6909999999999
 20
589.0
 30
0.0
 11
166.3079999999999
 21
589.0
 31
0.0
  0
LINE
  5
BE
330
1E
100
AcDbEntity
  8
0
100
AcDbLine
 10
168.262
 20
589.0
 30
0.0
 11
171.444
 21
589.0
 31
0.0
  0
LINE
  5
BF
330
1E
100
AcDbEntity
  8
0
100
AcDbLine
 10
166.837
 20
589.0
 30
0.0
 11
167.6069999999999
 21
589.0
 31
0.0
  0
LINE
  5
C0
330
1E
100
AcDbEntity
  8
0
100
AcDbLine
 10
167.6069999999999
 20
589.0
 30
0.0
 11
168.377
 21
589.0
 31
0.0
  0
LINE
  5
C1
330
1E
100
AcDbEntity
  8
0
100
AcDbLine
 10
168.377
 20
589.0
 30
0.0
 11
169.115
 21
589.0
 31
0.0
  0
LINE
  5
C2
330
1E
100
AcDbEntity
  8
0
100
AcDbLine
 10
169.115
 20
589.0
 30
0.0
 11
169.7429999999999
 21
589.0
 31
0.0
  0
LINE
  5
C3
330
1E
100
AcDbEntity
  8
0
100
AcDbLine
 10
169.7429999999999
 20
589.0
 30
0.0
 11
170.039
 21
589.0
 31
0.0
  0
LINE
  5
C4
330
1E
100
AcDbEntity
  8
0
100
AcDbLine
 10
166.1229999999999
 20
589.0
 30
0.0
 11
166.837
 21
589.0
 31
0.0
  0
LINE
  5
C5
330
1E
100
AcDbEntity
  8
0
100
AcDbLine
 10
165.502
 20
589.0
 30
0.0
 11
166.1229999999999
 21
589.0
 31
0.0
  0
LINE
  5
C6
330
1E
100
AcDbEntity
  8
0
100
AcDbLine
 10
165.012
 20
589.0
 30
0.0
 11
165.502
 21
589.0
 31
0.0
  0
LINE
  5
C7
330
1E
100
AcDbEntity
  8
0
100
AcDbLine
 10
164.7129999999999
 20
589.0
 30
0.0
 11
165.012
 21
589.0
 31
0.0
  0
LINE
  5
C8
330
1E
100
AcDbEntity
  8
0
100
AcDbLine
 10
164.7129999999999
 20
585.0
 30
0.0
 11
165.012
 21
585.0
 31
0.0
  0
LINE
  5
C9
330
1E
100
AcDbEntity
  8
0
100
AcDbLine
 10
164.6209999999999
 20
585.0
 30
0.0
 11
164.7159999999999
 21
585.0
 31
0.0
  0
LINE
  5
CA
330
1E
100
AcDbEntity
  8
0
100
AcDbLine
 10
164.6209999999999
 20
585.0
 30
0.0
 11
164.7129999999999
 21
585.0
 31
0.0
  0
LINE
  5
CB
330
1E
100
AcDbEntity
  8
0
100
AcDbLine
 10
164.6209999999999
 20
585.0
 30
0.0
 11
164.6209999999999
 21
589.0
 31
0.0
  0
LINE
  5
CC
330
1E
100
AcDbEntity
  8
0
100
AcDbLine
 10
168.262
 20
592.0
 30
0.0
 11
171.444
 21
592.0
 31
0.0
  0
LINE
  5
CD
330
1E
100
AcDbEntity
  8
0
100
AcDbLine
 10
166.3079999999999
 20
592.0
 30
0.0
 11
168.262
 21
592.0
 31
0.0
  0
LINE
  5
CE
330
1E
100
AcDbEntity
  8
0
100
AcDbLine
 10
165.6909999999999
 20
592.0
 30
0.0
 11
166.3079999999999
 21
592.0
 31
0.0
  0
LINE
  5
CF
330
1E
100
AcDbEntity
  8
0
100
AcDbLine
 10
165.212
 20
592.0
 30
0.0
 11
165.6909999999999
 21
592.0
 31
0.0
  0
LINE
  5
D0
330
1E
100
AcDbEntity
  8
0
100
AcDbLine
 10
164.724
 20
592.0
 30
0.0
 11
165.212
 21
592.0
 31
0.0
  0
LINE
  5
D1
330
1E
100
AcDbEntity
  8
0
100
AcDbLine
 10
164.569
 20
592.0
 30
0.0
 11
164.569
 21
589.0
 31
0.0
  0
LINE
  5
D2
330
1E
100
AcDbEntity
  8
0
100
AcDbLine
 10
164.569
 20
592.0
 30
0.0
 11
164.724
 21
592.0
 31
0.0
  0
LINE
  5
D3
330
1E
100
AcDbEntity
  8
0
100
AcDbLine
 10
169.608
 20
592.0
 30
0.0
 11
169.608
 21
599.0
 31
0.0
  0
LINE
  5
D4
330
1E
100
AcDbEntity
  8
0
100
AcDbLine
 10
165.5359999999999
 20
600.0
 30
0.0
 11
166.1899999999999
 21
600.0
 31
0.0
  0
LINE
  5
D6
330
1E
100
AcDbEntity
  8
0
100
AcDbLine
 10
165.052
 20
601.7859999999998
 30
0.0
 11
165.052
 21
600.214
 31
0.0
  0
LINE
  5
D7
330
1E
100
AcDbEntity
  8
0
100
AcDbLine
 10
165.052
 20
601.7859999999998
 30
0.0
 11
165.664
 21
601.7859999999998
 31
0.0
  0
LINE
  5
D8
330
1E
100
AcDbEntity
  8
0
100
AcDbLine
 10
165.052
 20
601.7859999999998
 30
0.0
 11
165.5359999999999
 21
602.0
 31
0.0
  0
LINE
  5
D9
330
1E
100
AcDbEntity
  8
0
100
AcDbLine
 10
165.052
 20
600.214
 30
0.0
 11
165.664
 21
600.214
 31
0.0
  0
LINE
  5
DA
330
1E
100
AcDbEntity
  8
0
100
AcDbLine
 10
165.052
 20
600.214
 30
0.0
 11
165.052
 21
601.7859999999998
 31
0.0
  0
LINE
  5
DB
330
1E
100
AcDbEntity
  8
0
100
AcDbLine
 10
165.052
 20
600.214
 30
0.0
 11
165.5359999999999
 21
600.0
 31
0.0
  0
LINE
  5
DC
330
1E
100
AcDbEntity
  8
0
100
AcDbLine
 10
167.0959999999999
 20
599.0
 30
0.0
 11
167.609
 21
599.0
 31
0.0
  0
LINE
  5
DD
330
1E
100
AcDbEntity
  8
0
100
AcDbLine
 10
167.609
 20
599.0
 30
0.0
 11
168.122
 21
599.0
 31
0.0
  0
LINE
  5
DE
330
1E
100
AcDbEntity
  8
0
100
AcDbLine
 10
168.122
 20
599.0
 30
0.0
 11
168.615
 21
599.0
 31
0.0
  0
LINE
  5
DF
330
1E
100
AcDbEntity
  8
0
100
AcDbLine
 10
168.615
 20
599.0
 30
0.0
 11
169.0329999999998
 21
599.0
 31
0.0
  0
LINE
  5
E0
330
1E
100
AcDbEntity
  8
0
100
AcDbLine
 10
169.547
 20
599.0
 30
0.0
 11
169.608
 21
599.0
 31
0.0
  0
LINE
  5
E1
330
1E
100
AcDbEntity
  8
0
100
AcDbLine
 10
169.608
 20
599.0
 30
0.0
 11
169.608
 21
592.0
 31
0.0
  0
LINE
  5
E2
330
1E
100
AcDbEntity
  8
0
100
AcDbLine
 10
169.5449999999999
 20
599.0
 30
0.0
 11
169.608
 21
599.0
 31
0.0
  0
LINE
  5
E3
330
1E
100
AcDbEntity
  8
0
100
AcDbLine
 10
169.0329999999998
 20
599.0
 30
0.0
 11
169.343
 21
599.0
 31
0.0
  0
LINE
  5
E4
330
1E
100
AcDbEntity
  8
0
100
AcDbLine
 10
169.343
 20
599.0
 30
0.0
 11
169.5449999999999
 21
599.0
 31
0.0
  0
LINE
  5
E5
330
1E
100
AcDbEntity
  8
0
100
AcDbLine
 10
166.62
 20
599.0
 30
0.0
 11
167.0959999999999
 21
599.0
 31
0.0
  0
LINE
  5
E6
330
1E
100
AcDbEntity
  8
0
100
AcDbLine
 10
166.2059999999998
 20
599.0
 30
0.0
 11
166.62
 21
599.0
 31
0.0
  0
LINE
  5
E7
330
1E
100
AcDbEntity
  8
0
100
AcDbLine
 10
165.879
 20
599.0
 30
0.0
 11
166.2059999999998
 21
599.0
 31
0.0
  0
LINE
  5
E8
330
1E
100
AcDbEntity
  8
0
100
AcDbLine
 10
166.1899999999999
 20
600.0
 30
0.0
 11
168.148
 21
600.0
 31
0.0
  0
LINE
  5
E9
330
1E
100
AcDbEntity
  8
0
100
AcDbLine
 10
165.664
 20
601.7859999999998
 30
0.0
 11
167.6579999999999
 21
601.7859999999998
 31
0.0
  0
LINE
  5
EA
330
1E
100
AcDbEntity
  8
0
100
AcDbLine
 10
165.664
 20
600.214
 30
0.0
 11
167.6579999999999
 21
600.214
 31
0.0
  0
LINE
  5
EC
330
1E
100
AcDbEntity
  8
0
100
AcDbLine
 10
167.6579999999999
 20
601.7859999999998
 30
0.0
 11
170.925
 21
601.7859999999998
 31
0.0
  0
LINE
  5
ED
330
1E
100
AcDbEntity
  8
0
100
AcDbLine
 10
167.6579999999999
 20
600.214
 30
0.0
 11
170.925
 21
600.214
 31
0.0
  0
LINE
  5
EE
330
1E
100
AcDbEntity
  8
0
100
AcDbLine
 10
166.145
 20
600.0
 30
0.0
 11
168.145
 21
600.0
 31
0.0
  0
LINE
  5
EF
330
1E
100
AcDbEntity
  8
0
100
AcDbLine
 10
168.148
 20
600.0
 30
0.0
 11
171.2809999999999
 21
600.0
 31
0.0
  0
LINE
  5
F0
330
1E
100
AcDbEntity
  8
0
100
AcDbLine
 10
168.145
 20
600.0
 30
0.0
 11
170.039
 21
600.0
 31
0.0
  0
LINE
  5
F1
330
1E
100
AcDbEntity
  8
0
100
AcDbLine
 10
165.68
 20
599.0
 30
0.0
 11
165.879
 21
599.0
 31
0.0
  0
LINE
  5
F2
330
1E
100
AcDbEntity
  8
0
100
AcDbLine
 10
165.619
 20
599.0
 30
0.0
 11
165.68
 21
599.0
 31
0.0
  0
LINE
  5
F3
330
1E
100
AcDbEntity
  8
0
100
AcDbLine
 10
165.619
 20
599.0
 30
0.0
 11
165.619
 21
592.0
 31
0.0
  0
LINE
  5
F4
330
1E
100
AcDbEntity
  8
0
100
AcDbLine
 10
165.619
 20
592.0
 30
0.0
 11
165.619
 21
599.0
 31
0.0
  0
LINE
  5
F5
330
1E
100
AcDbEntity
  8
0
100
AcDbLine
 10
170.039
 20
600.0
 30
0.0
 11
170.039
 21
592.0
 31
0.0
  0
LINE
  5
F6
330
1E
100
AcDbEntity
  8
0
100
AcDbLine
 10
170.039
 20
589.0
 30
0.0
 11
170.039
 21
534.0
 31
0.0
  0
LINE
  5
F7
330
1E
100
AcDbEntity
  8
0
100
AcDbLine
 10
170.925
 20
601.7859999999998
 30
0.0
 11
175.064
 21
601.7859999999998
 31
0.0
  0
LINE
  5
F8
330
1E
100
AcDbEntity
  8
0
100
AcDbLine
 10
170.925
 20
600.214
 30
0.0
 11
175.064
 21
600.214
 31
0.0
  0
LINE
  5
F9
330
1E
100
AcDbEntity
  8
0
100
AcDbLine
 10
175.064
 20
601.7859999999998
 30
0.0
 11
179.824
 21
601.7859999999998
 31
0.0
  0
LINE
  5
FA
330
1E
100
AcDbEntity
  8
0
100
AcDbLine
 10
175.064
 20
600.214
 30
0.0
 11
179.824
 21
600.214
 31
0.0
  0
LINE
  5
FB
330
1E
100
AcDbEntity
  8
0
100
AcDbLine
 10
171.444
 20
592.0
 30
0.0
 11
175.4659999999999
 21
592.0
 31
0.0
  0
LINE
  5
FC
330
1E
100
AcDbEntity
  8
0
100
AcDbLine
 10
171.444
 20
589.0
 30
0.0
 11
175.4659999999999
 21
589.0
 31
0.0
  0
LINE
  5
FD
330
1E
100
AcDbEntity
  8
0
100
AcDbLine
 10
170.039
 20
592.0
 30
0.0
 11
170.039
 21
600.0
 31
0.0
  0
LINE
  5
FE
330
1E
100
AcDbEntity
  8
0
100
AcDbLine
 10
170.5109999999999
 20
534.0
 30
0.0
 11
171.0359999999999
 21
534.0
 31
0.0
  0
LINE
  5
FF
330
1E
100
AcDbEntity
  8
0
100
AcDbLine
 10
176.1609999999999
 20
473.0
 30
0.0
 11
178.3759999999999
 21
473.0
 31
0.0
  0
LINE
  5
100
330
1E
100
AcDbEntity
  8
0
100
AcDbLine
 10
176.757
 20
473.0
 30
0.0
 11
179.347
 21
473.0
 31
0.0
  0
LINE
  5
102
330
1E
100
AcDbEntity
  8
0
100
AcDbLine
 10
176.757
 20
483.0
 30
0.0
 11
179.347
 21
483.0
 31
0.0
  0
LINE
  5
104
330
1E
100
AcDbEntity
  8
0
100
AcDbLine
 10
176.897
 20
482.856
 30
0.0
 11
179.807
 21
482.7399999999998
 31
0.0
  0
LINE
  5
106
330
1E
100
AcDbEntity
  8
0
100
AcDbLine
 10
176.897
 20
473.144
 30
0.0
 11
179.807
 21
473.2599999999997
 31
0.0
  0
LINE
  5
108
330
1E
100
AcDbEntity
  8
0
100
AcDbLine
 10
177.494
 20
533.0
 30
0.0
 11
181.377
 21
533.0
 31
0.0
  0
LINE
  5
109
330
1E
100
AcDbEntity
  8
0
100
AcDbLine
 10
176.6699999999999
 20
483.0
 30
0.0
 11
179.3779999999999
 21
483.0
 31
0.0
  0
LINE
  5
10A
330
1E
100
AcDbEntity
  8
0
100
AcDbLine
 10
178.3759999999999
 20
473.0
 30
0.0
 11
180.2609999999999
 21
473.0
 31
0.0
  0
LINE
  5
10B
330
1E
100
AcDbEntity
  8
0
100
AcDbLine
 10
179.347
 20
473.0
 30
0.0
 11
181.52
 21
473.0
 31
0.0
  0
LINE
  5
10C
330
1E
100
AcDbEntity
  8
0
100
AcDbLine
 10
179.347
 20
483.0
 30
0.0
 11
181.52
 21
483.0
 31
0.0
  0
LINE
  5
10E
330
1E
100
AcDbEntity
  8
0
100
AcDbLine
 10
180.2609999999999
 20
473.0
 30
0.0
 11
181.655
 21
473.0
 31
0.0
  0
LINE
  5
10F
330
1E
100
AcDbEntity
  8
0
100
AcDbLine
 10
181.655
 20
473.0
 30
0.0
 11
182.564
 21
473.0
 31
0.0
  0
LINE
  5
110
330
1E
100
AcDbEntity
  8
0
100
AcDbLine
 10
182.847
 20
450.0
 30
0.0
 11
182.847
 21
473.0
 31
0.0
  0
LINE
  5
111
330
1E
100
AcDbEntity
  8
0
100
AcDbLine
 10
182.564
 20
473.0
 30
0.0
 11
182.847
 21
473.0
 31
0.0
  0
LINE
  5
112
330
1E
100
AcDbEntity
  8
0
100
AcDbLine
 10
182.847
 20
473.0
 30
0.0
 11
182.847
 21
450.0
 31
0.0
  0
LINE
  5
115
330
1E
100
AcDbEntity
  8
0
100
AcDbLine
 10
181.845
 20
473.714
 30
0.0
 11
182.7619999999999
 21
473.714
 31
0.0
  0
LINE
  5
116
330
1E
100
AcDbEntity
  8
0
100
AcDbLine
 10
182.7619999999999
 20
482.286
 30
0.0
 11
183.125
 21
482.286
 31
0.0
  0
LINE
  5
119
330
1E
100
AcDbEntity
  8
0
100
AcDbLine
 10
182.7619999999999
 20
473.714
 30
0.0
 11
183.125
 21
473.714
 31
0.0
  0
LINE
  5
11D
330
1E
100
AcDbEntity
  8
0
100
AcDbLine
 10
183.125
 20
482.286
 30
0.0
 11
183.784
 21
482.8289999999998
 31
0.0
  0
LINE
  5
11E
330
1E
100
AcDbEntity
  8
0
100
AcDbLine
 10
183.125
 20
473.714
 30
0.0
 11
183.784
 21
473.1709999999998
 31
0.0
  0
LINE
  5
11F
330
1E
100
AcDbEntity
  8
0
100
AcDbLine
 10
181.52
 20
473.0
 30
0.0
 11
184.5029999999999
 21
473.0
 31
0.0
  0
LINE
  5
120
330
1E
100
AcDbEntity
  8
0
100
AcDbLine
 10
179.807
 20
473.2599999999997
 30
0.0
 11
181.845
 21
473.714
 31
0.0
  0
LINE
  5
122
330
1E
100
AcDbEntity
  8
0
100
AcDbLine
 10
183.147
 20
483.0
 30
0.0
 11
184.2159999999999
 21
483.0
 31
0.0
  0
LINE
  5
125
330
1E
100
AcDbEntity
  8
0
100
AcDbLine
 10
181.52
 20
483.0
 30
0.0
 11
183.147
 21
483.0
 31
0.0
  0
LINE
  5
128
330
1E
100
AcDbEntity
  8
0
100
AcDbLine
 10
179.807
 20
482.7399999999998
 30
0.0
 11
181.845
 21
482.286
 31
0.0
  0
LINE
  5
12C
330
1E
100
AcDbEntity
  8
0
100
AcDbLine
 10
181.845
 20
482.286
 30
0.0
 11
182.7619999999999
 21
482.286
 31
0.0
  0
LINE
  5
12E
330
1E
100
AcDbEntity
  8
0
100
AcDbLine
 10
183.784
 20
482.8289999999998
 30
0.0
 11
184.496
 21
482.929
 31
0.0
  0
LINE
  5
12F
330
1E
100
AcDbEntity
  8
0
100
AcDbLine
 10
183.784
 20
473.1709999999998
 30
0.0
 11
184.496
 21
473.071
 31
0.0
  0
LINE
  5
130
330
1E
100
AcDbEntity
  8
0
100
AcDbLine
 10
184.496
 20
482.929
 30
0.0
 11
185.2069999999999
 21
482.8289999999998
 31
0.0
  0
LINE
  5
131
330
1E
100
AcDbEntity
  8
0
100
AcDbLine
 10
184.5029999999999
 20
473.0
 30
0.0
 11
185.2069999999999
 21
473.1709999999998
 31
0.0
  0
LINE
  5
132
330
1E
100
AcDbEntity
  8
0
100
AcDbLine
 10
184.496
 20
473.071
 30
0.0
 11
185.2069999999999
 21
473.1709999999998
 31
0.0
  0
LINE
  5
133
330
1E
100
AcDbEntity
  8
0
100
AcDbLine
 10
184.2159999999999
 20
483.0
 30
0.0
 11
184.5029999999999
 21
483.0
 31
0.0
  0
LINE
  5
135
330
1E
100
AcDbEntity
  8
0
100
AcDbLine
 10
183.3849999999999
 20
483.0
 30
0.0
 11
184.496
 21
483.0
 31
0.0
  0
LINE
  5
136
330
1E
100
AcDbEntity
  8
0
100
AcDbLine
 10
181.6809999999999
 20
483.0
 30
0.0
 11
183.3849999999999
 21
483.0
 31
0.0
  0
LINE
  5
137
330
1E
100
AcDbEntity
  8
0
100
AcDbLine
 10
179.3779999999999
 20
483.0
 30
0.0
 11
181.6809999999999
 21
483.0
 31
0.0
  0
LINE
  5
138
330
1E
100
AcDbEntity
  8
0
100
AcDbLine
 10
184.496
 20
483.0
 30
0.0
 11
184.842
 21
483.0
 31
0.0
  0
LINE
  5
13A
330
1E
100
AcDbEntity
  8
0
100
AcDbLine
 10
184.5059999999999
 20
483.0
 30
0.0
 11
184.842
 21
483.0
 31
0.0
  0
LINE
  5
13B
330
1E
100
AcDbEntity
  8
0
100
AcDbLine
 10
184.5029999999999
 20
483.0
 30
0.0
 11
185.2069999999999
 21
482.8289999999998
 31
0.0
  0
LINE
  5
13E
330
1E
100
AcDbEntity
  8
0
100
AcDbLine
 10
184.842
 20
484.0
 30
0.0
 11
185.024
 21
484.0
 31
0.0
  0
LINE
  5
13F
330
1E
100
AcDbEntity
  8
0
100
AcDbLine
 10
184.842
 20
484.0
 30
0.0
 11
184.976
 21
484.0
 31
0.0
  0
LINE
  5
140
330
1E
100
AcDbEntity
  8
0
100
AcDbLine
 10
178.0449999999999
 20
534.0
 30
0.0
 11
181.377
 21
534.0
 31
0.0
  0
LINE
  5
142
330
1E
100
AcDbEntity
  8
0
100
AcDbLine
 10
184.842
 20
504.0
 30
0.0
 11
184.969
 21
504.0
 31
0.0
  0
LINE
  5
143
330
1E
100
AcDbEntity
  8
0
100
AcDbLine
 10
184.842
 20
504.0
 30
0.0
 11
184.976
 21
504.0
 31
0.0
  0
LINE
  5
144
330
1E
100
AcDbEntity
  8
0
100
AcDbLine
 10
181.377
 20
534.0
 30
0.0
 11
184.969
 21
534.0
 31
0.0
  0
LINE
  5
145
330
1E
100
AcDbEntity
  8
0
100
AcDbLine
 10
177.5479999999999
 20
534.0
 30
0.0
 11
181.118
 21
534.0
 31
0.0
  0
LINE
  5
146
330
1E
100
AcDbEntity
  8
0
100
AcDbLine
 10
175.4659999999999
 20
592.0
 30
0.0
 11
180.0819999999999
 21
592.0
 31
0.0
  0
LINE
  5
147
330
1E
100
AcDbEntity
  8
0
100
AcDbLine
 10
179.824
 20
601.7859999999998
 30
0.0
 11
184.9559999999999
 21
601.7859999999998
 31
0.0
  0
LINE
  5
148
330
1E
100
AcDbEntity
  8
0
100
AcDbLine
 10
179.824
 20
600.214
 30
0.0
 11
184.9559999999999
 21
600.214
 31
0.0
  0
LINE
  5
149
330
1E
100
AcDbEntity
  8
0
100
AcDbLine
 10
184.9559999999999
 20
601.7859999999998
 30
0.0
 11
190.089
 21
601.7859999999998
 31
0.0
  0
LINE
  5
14A
330
1E
100
AcDbEntity
  8
0
100
AcDbLine
 10
184.9559999999999
 20
600.214
 30
0.0
 11
190.089
 21
600.214
 31
0.0
  0
LINE
  5
14B
330
1E
100
AcDbEntity
  8
0
100
AcDbLine
 10
180.0819999999999
 20
592.0
 30
0.0
 11
185.053
 21
592.0
 31
0.0
  0
LINE
  5
14C
330
1E
100
AcDbEntity
  8
0
100
AcDbLine
 10
180.0819999999999
 20
589.0
 30
0.0
 11
185.053
 21
589.0
 31
0.0
  0
LINE
  5
14D
330
1E
100
AcDbEntity
  8
0
100
AcDbLine
 10
175.4659999999999
 20
589.0
 30
0.0
 11
180.0819999999999
 21
589.0
 31
0.0
  0
LINE
  5
14E
330
1E
100
AcDbEntity
  8
0
100
AcDbLine
 10
181.118
 20
534.0
 30
0.0
 11
184.967
 21
534.0
 31
0.0
  0
LINE
  5
150
330
1E
100
AcDbEntity
  8
0
100
AcDbLine
 10
165.052
 20
602.321
 30
0.0
 11
165.664
 21
602.321
 31
0.0
  0
LINE
  5
151
330
1E
100
AcDbEntity
  8
0
100
AcDbLine
 10
165.052
 20
602.321
 30
0.0
 11
165.052
 21
604.6789999999998
 31
0.0
  0
LINE
  5
152
330
1E
100
AcDbEntity
  8
0
100
AcDbLine
 10
165.052
 20
602.321
 30
0.0
 11
165.5359999999999
 21
602.0
 31
0.0
  0
LINE
  5
153
330
1E
100
AcDbEntity
  8
0
100
AcDbLine
 10
165.664
 20
602.321
 30
0.0
 11
167.6579999999999
 21
602.321
 31
0.0
  0
LINE
  5
154
330
1E
100
AcDbEntity
  8
0
100
AcDbLine
 10
167.6579999999999
 20
602.321
 30
0.0
 11
170.925
 21
602.321
 31
0.0
  0
LINE
  5
155
330
1E
100
AcDbEntity
  8
0
100
AcDbLine
 10
170.925
 20
602.321
 30
0.0
 11
175.064
 21
602.321
 31
0.0
  0
LINE
  5
156
330
1E
100
AcDbEntity
  8
0
100
AcDbLine
 10
175.064
 20
602.321
 30
0.0
 11
179.824
 21
602.321
 31
0.0
  0
LINE
  5
158
330
1E
100
AcDbEntity
  8
0
100
AcDbLine
 10
184.976
 20
484.0
 30
0.0
 11
187.799
 21
484.0
 31
0.0
  0
LINE
  5
159
330
1E
100
AcDbEntity
  8
0
100
AcDbLine
 10
184.976
 20
504.0
 30
0.0
 11
187.799
 21
504.0
 31
0.0
  0
LINE
  5
15A
330
1E
100
AcDbEntity
  8
0
100
AcDbLine
 10
186.0529999999999
 20
481.571
 30
0.0
 11
186.0529999999999
 21
474.429
 31
0.0
  0
LINE
  5
15B
330
1E
100
AcDbEntity
  8
0
100
AcDbLine
 10
186.0529999999999
 20
474.429
 30
0.0
 11
186.0529999999999
 21
481.571
 31
0.0
  0
LINE
  5
15C
330
1E
100
AcDbEntity
  8
0
100
AcDbLine
 10
185.867
 20
482.286
 30
0.0
 11
186.0529999999999
 21
481.571
 31
0.0
  0
LINE
  5
15D
330
1E
100
AcDbEntity
  8
0
100
AcDbLine
 10
185.867
 20
473.714
 30
0.0
 11
186.0529999999999
 21
474.429
 31
0.0
  0
LINE
  5
15E
330
1E
100
AcDbEntity
  8
0
100
AcDbLine
 10
185.2069999999999
 20
473.1709999999998
 30
0.0
 11
185.867
 21
473.714
 31
0.0
  0
LINE
  5
15F
330
1E
100
AcDbEntity
  8
0
100
AcDbLine
 10
185.2069999999999
 20
482.8289999999998
 30
0.0
 11
185.867
 21
482.286
 31
0.0
  0
LINE
  5
160
330
1E
100
AcDbEntity
  8
0
100
AcDbLine
 10
187.799
 20
484.0
 30
0.0
 11
190.507
 21
484.0
 31
0.0
  0
LINE
  5
161
330
1E
100
AcDbEntity
  8
0
100
AcDbLine
 10
187.799
 20
504.0
 30
0.0
 11
190.507
 21
504.0
 31
0.0
  0
LINE
  5
162
330
1E
100
AcDbEntity
  8
0
100
AcDbLine
 10
187.847
 20
484.0
 30
0.0
 11
190.465
 21
484.0
 31
0.0
  0
LINE
  5
163
330
1E
100
AcDbEntity
  8
0
100
AcDbLine
 10
185.024
 20
484.0
 30
0.0
 11
187.847
 21
484.0
 31
0.0
  0
LINE
  5
167
330
1E
100
AcDbEntity
  8
0
100
AcDbLine
 10
184.969
 20
504.0
 30
0.0
 11
188.562
 21
504.0
 31
0.0
  0
LINE
  5
168
330
1E
100
AcDbEntity
  8
0
100
AcDbLine
 10
188.562
 20
504.0
 30
0.0
 11
192.009
 21
504.0
 31
0.0
  0
LINE
  5
169
330
1E
100
AcDbEntity
  8
0
100
AcDbLine
 10
184.969
 20
534.0
 30
0.0
 11
188.562
 21
534.0
 31
0.0
  0
LINE
  5
16A
330
1E
100
AcDbEntity
  8
0
100
AcDbLine
 10
188.562
 20
534.0
 30
0.0
 11
192.009
 21
534.0
 31
0.0
  0
LINE
  5
16B
330
1E
100
AcDbEntity
  8
0
100
AcDbLine
 10
184.967
 20
534.0
 30
0.0
 11
188.817
 21
534.0
 31
0.0
  0
LINE
  5
16C
330
1E
100
AcDbEntity
  8
0
100
AcDbLine
 10
190.422
 20
453.0
 30
0.0
 11
192.072
 21
465.876
 31
0.0
  0
LINE
  5
16D
330
1E
100
AcDbEntity
  8
0
100
AcDbLine
 10
190.41379245283
 20
450.0
 30
0.0
 11
190.422
 21
453.0
 31
0.0
  0
LINE
  5
16E
330
1E
100
AcDbEntity
  8
0
100
AcDbLine
 10
190.507
 20
484.0
 30
0.0
 11
192.8109999999999
 21
484.0
 31
0.0
  0
LINE
  5
16F
330
1E
100
AcDbEntity
  8
0
100
AcDbLine
 10
190.507
 20
504.0
 30
0.0
 11
192.8109999999999
 21
504.0
 31
0.0
  0
LINE
  5
170
330
1E
100
AcDbEntity
  8
0
100
AcDbLine
 10
190.465
 20
484.0
 30
0.0
 11
192.7409999999999
 21
484.0
 31
0.0
  0
LINE
  5
171
330
1E
100
AcDbEntity
  8
0
100
AcDbLine
 10
192.072
 20
465.876
 30
0.0
 11
196.9109999999999
 21
477.8739999999998
 31
0.0
  0
LINE
  5
172
330
1E
100
AcDbEntity
  8
0
100
AcDbLine
 10
192.8109999999999
 20
484.0
 30
0.0
 11
194.514
 21
484.0
 31
0.0
  0
LINE
  5
173
330
1E
100
AcDbEntity
  8
0
100
AcDbLine
 10
194.514
 20
484.0
 30
0.0
 11
195.625
 21
484.0
 31
0.0
  0
LINE
  5
174
330
1E
100
AcDbEntity
  8
0
100
AcDbLine
 10
192.7409999999999
 20
484.0
 30
0.0
 11
194.5379999999999
 21
484.0
 31
0.0
  0
LINE
  5
175
330
1E
100
AcDbEntity
  8
0
100
AcDbLine
 10
192.8109999999999
 20
504.0
 30
0.0
 11
194.514
 21
504.0
 31
0.0
  0
LINE
  5
176
330
1E
100
AcDbEntity
  8
0
100
AcDbLine
 10
194.514
 20
504.0
 30
0.0
 11
195.625
 21
504.0
 31
0.0
  0
LINE
  5
177
330
1E
100
AcDbEntity
  8
0
100
AcDbLine
 10
194.5379999999999
 20
484.0
 30
0.0
 11
195.635
 21
484.0
 31
0.0
  0
LINE
  5
178
330
1E
100
AcDbEntity
  8
0
100
AcDbLine
 10
192.009
 20
504.0
 30
0.0
 11
194.9409999999999
 21
504.0
 31
0.0
  0
LINE
  5
179
330
1E
100
AcDbEntity
  8
0
100
AcDbLine
 10
192.009
 20
534.0
 30
0.0
 11
194.9409999999999
 21
534.0
 31
0.0
  0
LINE
  5
17A
330
1E
100
AcDbEntity
  8
0
100
AcDbLine
 10
188.817
 20
534.0
 30
0.0
 11
192.509
 21
534.0
 31
0.0
  0
LINE
  5
17B
330
1E
100
AcDbEntity
  8
0
100
AcDbLine
 10
189.981
 20
600.0
 30
0.0
 11
194.73
 21
600.0
 31
0.0
  0
LINE
  5
17D
330
1E
100
AcDbEntity
  8
0
100
AcDbLine
 10
171.2809999999999
 20
600.0
 30
0.0
 11
189.981
 21
600.0
 31
0.0
  0
LINE
  5
17E
330
1E
100
AcDbEntity
  8
0
100
AcDbLine
 10
185.053
 20
592.0
 30
0.0
 11
190.019
 21
592.0
 31
0.0
  0
LINE
  5
17F
330
1E
100
AcDbEntity
  8
0
100
AcDbLine
 10
190.019
 20
592.0
 30
0.0
 11
194.775
 21
592.0
 31
0.0
  0
LINE
  5
180
330
1E
100
AcDbEntity
  8
0
100
AcDbLine
 10
185.053
 20
589.0
 30
0.0
 11
190.019
 21
589.0
 31
0.0
  0
LINE
  5
181
330
1E
100
AcDbEntity
  8
0
100
AcDbLine
 10
194.73
 20
600.0
 30
0.0
 11
199.9609999999999
 21
600.0
 31
0.0
  0
LINE
  5
182
330
1E
100
AcDbEntity
  8
0
100
AcDbLine
 10
190.089
 20
601.7859999999998
 30
0.0
 11
195.013
 21
601.7859999999998
 31
0.0
  0
LINE
  5
183
330
1E
100
AcDbEntity
  8
0
100
AcDbLine
 10
190.089
 20
600.214
 30
0.0
 11
195.013
 21
600.214
 31
0.0
  0
LINE
  5
184
330
1E
100
AcDbEntity
  8
0
100
AcDbLine
 10
190.019
 20
589.0
 30
0.0
 11
194.775
 21
589.0
 31
0.0
  0
LINE
  5
185
330
1E
100
AcDbEntity
  8
0
100
AcDbLine
 10
192.509
 20
534.0
 30
0.0
 11
195.6509999999999
 21
534.0
 31
0.0
  0
LINE
  5
186
330
1E
100
AcDbEntity
  8
0
100
AcDbLine
 10
194.9409999999999
 20
504.0
 30
0.0
 11
197.109
 21
504.0
 31
0.0
  0
LINE
  5
187
330
1E
100
AcDbEntity
  8
0
100
AcDbLine
 10
194.775
 20
592.0
 30
0.0
 11
198.8129999999999
 21
592.0
 31
0.0
  0
LINE
  5
188
330
1E
100
AcDbEntity
  8
0
100
AcDbLine
 10
195.013
 20
601.7859999999998
 30
0.0
 11
199.201
 21
601.7859999999998
 31
0.0
  0
LINE
  5
189
330
1E
100
AcDbEntity
  8
0
100
AcDbLine
 10
195.013
 20
600.214
 30
0.0
 11
199.201
 21
600.214
 31
0.0
  0
LINE
  5
18A
330
1E
100
AcDbEntity
  8
0
100
AcDbLine
 10
194.775
 20
589.0
 30
0.0
 11
198.8129999999999
 21
589.0
 31
0.0
  0
LINE
  5
18B
330
1E
100
AcDbEntity
  8
0
100
AcDbLine
 10
194.9409999999999
 20
534.0
 30
0.0
 11
197.109
 21
534.0
 31
0.0
  0
LINE
  5
18E
330
1E
100
AcDbEntity
  8
0
100
AcDbLine
 10
195.635
 20
484.0
 30
0.0
 11
195.972
 21
484.0
 31
0.0
  0
LINE
  5
18F
330
1E
100
AcDbEntity
  8
0
100
AcDbLine
 10
195.625
 20
484.0
 30
0.0
 11
195.972
 21
484.0
 31
0.0
  0
LINE
  5
190
330
1E
100
AcDbEntity
  8
0
100
AcDbLine
 10
196.9109999999999
 20
477.8739999999998
 30
0.0
 11
204.6069999999999
 21
488.1769999999998
 31
0.0
  0
LINE
  5
191
330
1E
100
AcDbEntity
  8
0
100
AcDbLine
 10
195.972
 20
484.0
 30
0.0
 11
195.972
 21
504.0
 31
0.0
  0
LINE
  5
192
330
1E
100
AcDbEntity
  8
0
100
AcDbLine
 10
195.625
 20
504.0
 30
0.0
 11
195.972
 21
504.0
 31
0.0
  0
LINE
  5
193
330
1E
100
AcDbEntity
  8
0
100
AcDbLine
 10
197.109
 20
504.0
 30
0.0
 11
198.5229999999999
 21
504.0
 31
0.0
  0
LINE
  5
194
330
1E
100
AcDbEntity
  8
0
100
AcDbLine
 10
197.109
 20
534.0
 30
0.0
 11
198.5229999999999
 21
534.0
 31
0.0
  0
LINE
  5
195
330
1E
100
AcDbEntity
  8
0
100
AcDbLine
 10
195.972
 20
504.0
 30
0.0
 11
197.1399999999999
 21
504.0
 31
0.0
  0
LINE
  5
196
330
1E
100
AcDbEntity
  8
0
100
AcDbLine
 10
195.972
 20
504.0
 30
0.0
 11
195.972
 21
484.0
 31
0.0
  0
LINE
  5
197
330
1E
100
AcDbEntity
  8
0
100
AcDbLine
 10
197.1399999999999
 20
504.0
 30
0.0
 11
198.535
 21
504.0
 31
0.0
  0
LINE
  5
198
330
1E
100
AcDbEntity
  8
0
100
AcDbLine
 10
195.6509999999999
 20
534.0
 30
0.0
 11
197.9729999999999
 21
534.0
 31
0.0
  0
LINE
  5
199
330
1E
100
AcDbEntity
  8
0
100
AcDbLine
 10
198.535
 20
504.0
 30
0.0
 11
198.964
 21
504.0
 31
0.0
  0
LINE
  5
19A
330
1E
100
AcDbEntity
  8
0
100
AcDbLine
 10
198.5229999999999
 20
504.0
 30
0.0
 11
198.964
 21
504.0
 31
0.0
  0
LINE
  5
19B
330
1E
100
AcDbEntity
  8
0
100
AcDbLine
 10
198.964
 20
504.0
 30
0.0
 11
198.964
 21
534.0
 31
0.0
  0
LINE
  5
19C
330
1E
100
AcDbEntity
  8
0
100
AcDbLine
 10
198.5229999999999
 20
534.0
 30
0.0
 11
198.964
 21
534.0
 31
0.0
  0
LINE
  5
19D
330
1E
100
AcDbEntity
  8
0
100
AcDbLine
 10
197.9729999999999
 20
534.0
 30
0.0
 11
199.489
 21
534.0
 31
0.0
  0
LINE
  5
19E
330
1E
100
AcDbEntity
  8
0
100
AcDbLine
 10
198.8129999999999
 20
592.0
 30
0.0
 11
201.791
 21
592.0
 31
0.0
  0
LINE
  5
19F
330
1E
100
AcDbEntity
  8
0
100
AcDbLine
 10
199.489
 20
585.0
 30
0.0
 11
199.792
 21
585.0
 31
0.0
  0
LINE
  5
1A0
330
1E
100
AcDbEntity
  8
0
100
AcDbLine
 10
199.4859999999999
 20
585.0
 30
0.0
 11
199.7849999999999
 21
585.0
 31
0.0
  0
LINE
  5
1A1
330
1E
100
AcDbEntity
  8
0
100
AcDbLine
 10
199.4859999999999
 20
589.0
 30
0.0
 11
199.7849999999999
 21
589.0
 31
0.0
  0
LINE
  5
1A2
330
1E
100
AcDbEntity
  8
0
100
AcDbLine
 10
199.394
 20
589.0
 30
0.0
 11
199.394
 21
585.0
 31
0.0
  0
LINE
  5
1A3
330
1E
100
AcDbEntity
  8
0
100
AcDbLine
 10
199.394
 20
589.0
 30
0.0
 11
199.4859999999999
 21
589.0
 31
0.0
  0
LINE
  5
1A4
330
1E
100
AcDbEntity
  8
0
100
AcDbLine
 10
199.394
 20
585.0
 30
0.0
 11
199.489
 21
585.0
 31
0.0
  0
LINE
  5
1A5
330
1E
100
AcDbEntity
  8
0
100
AcDbLine
 10
199.394
 20
585.0
 30
0.0
 11
199.4859999999999
 21
585.0
 31
0.0
  0
LINE
  5
1A6
330
1E
100
AcDbEntity
  8
0
100
AcDbLine
 10
199.394
 20
585.0
 30
0.0
 11
199.394
 21
589.0
 31
0.0
  0
LINE
  5
1A7
330
1E
100
AcDbEntity
  8
0
100
AcDbLine
 10
198.8129999999999
 20
589.0
 30
0.0
 11
201.791
 21
589.0
 31
0.0
  0
LINE
  5
1A8
330
1E
100
AcDbEntity
  8
0
100
AcDbLine
 10
198.964
 20
534.0
 30
0.0
 11
199.502
 21
534.0
 31
0.0
  0
LINE
  5
1A9
330
1E
100
AcDbEntity
  8
0
100
AcDbLine
 10
198.964
 20
534.0
 30
0.0
 11
198.964
 21
504.0
 31
0.0
  0
LINE
  5
1AA
330
1E
100
AcDbEntity
  8
0
100
AcDbLine
 10
199.9609999999999
 20
550.0
 30
0.0
 11
279.0989999999999
 21
550.0
 31
0.0
  0
LINE
  5
1AB
330
1E
100
AcDbEntity
  8
0
100
AcDbLine
 10
199.792
 20
585.0
 30
0.0
 11
200.2569999999999
 21
585.0
 31
0.0
  0
LINE
  5
1AC
330
1E
100
AcDbEntity
  8
0
100
AcDbLine
 10
199.7849999999999
 20
589.0
 30
0.0
 11
200.275
 21
589.0
 31
0.0
  0
LINE
  5
1AD
330
1E
100
AcDbEntity
  8
0
100
AcDbLine
 10
199.7849999999999
 20
585.0
 30
0.0
 11
200.275
 21
585.0
 31
0.0
  0
LINE
  5
1AE
330
1E
100
AcDbEntity
  8
0
100
AcDbLine
 10
199.9609999999999
 20
585.0
 30
0.0
 11
199.9609999999999
 21
534.0
 31
0.0
  0
LINE
  5
1AF
330
1E
100
AcDbEntity
  8
0
100
AcDbLine
 10
199.502
 20
534.0
 30
0.0
 11
199.9609999999999
 21
534.0
 31
0.0
  0
LINE
  5
1B0
330
1E
100
AcDbEntity
  8
0
100
AcDbLine
 10
199.489
 20
534.0
 30
0.0
 11
199.9609999999999
 21
534.0
 31
0.0
  0
LINE
  5
1B2
330
1E
100
AcDbEntity
  8
0
100
AcDbLine
 10
199.201
 20
601.7859999999998
 30
0.0
 11
202.298
 21
601.7859999999998
 31
0.0
  0
LINE
  5
1B3
330
1E
100
AcDbEntity
  8
0
100
AcDbLine
 10
199.201
 20
600.214
 30
0.0
 11
202.298
 21
600.214
 31
0.0
  0
LINE
  5
1B4
330
1E
100
AcDbEntity
  8
0
100
AcDbLine
 10
199.9609999999999
 20
600.0
 30
0.0
 11
199.9609999999999
 21
592.0
 31
0.0
  0
LINE
  5
1B5
330
1E
100
AcDbEntity
  8
0
100
AcDbLine
 10
199.9609999999999
 20
600.0
 30
0.0
 11
201.852
 21
600.0
 31
0.0
  0
LINE
  5
1B6
330
1E
100
AcDbEntity
  8
0
100
AcDbLine
 10
199.9609999999999
 20
592.0
 30
0.0
 11
199.9609999999999
 21
600.0
 31
0.0
  0
LINE
  5
1B7
330
1E
100
AcDbEntity
  8
0
100
AcDbLine
 10
200.2569999999999
 20
585.0
 30
0.0
 11
200.8849999999999
 21
585.0
 31
0.0
  0
LINE
  5
1B8
330
1E
100
AcDbEntity
  8
0
100
AcDbLine
 10
200.275
 20
589.0
 30
0.0
 11
200.896
 21
589.0
 31
0.0
  0
LINE
  5
1B9
330
1E
100
AcDbEntity
  8
0
100
AcDbLine
 10
200.8849999999999
 20
585.0
 30
0.0
 11
201.6229999999999
 21
585.0
 31
0.0
  0
LINE
  5
1BA
330
1E
100
AcDbEntity
  8
0
100
AcDbLine
 10
200.896
 20
589.0
 30
0.0
 11
201.61
 21
589.0
 31
0.0
  0
LINE
  5
1BB
330
1E
100
AcDbEntity
  8
0
100
AcDbLine
 10
200.896
 20
585.0
 30
0.0
 11
201.61
 21
585.0
 31
0.0
  0
LINE
  5
1BC
330
1E
100
AcDbEntity
  8
0
100
AcDbLine
 10
200.275
 20
585.0
 30
0.0
 11
200.896
 21
585.0
 31
0.0
  0
LINE
  5
1BD
330
1E
100
AcDbEntity
  8
0
100
AcDbLine
 10
201.61
 20
589.0
 30
0.0
 11
202.38
 21
589.0
 31
0.0
  0
LINE
  5
1BE
330
1E
100
AcDbEntity
  8
0
100
AcDbLine
 10
201.6229999999999
 20
585.0
 30
0.0
 11
202.393
 21
585.0
 31
0.0
  0
LINE
  5
1BF
330
1E
100
AcDbEntity
  8
0
100
AcDbLine
 10
201.61
 20
585.0
 30
0.0
 11
202.38
 21
585.0
 31
0.0
  0
LINE
  5
1C0
330
1E
100
AcDbEntity
  8
0
100
AcDbLine
 10
201.393
 20
599.0
 30
0.0
 11
201.869
 21
599.0
 31
0.0
  0
LINE
  5
1C1
330
1E
100
AcDbEntity
  8
0
100
AcDbLine
 10
200.979
 20
599.0
 30
0.0
 11
201.393
 21
599.0
 31
0.0
  0
LINE
  5
1C2
330
1E
100
AcDbEntity
  8
0
100
AcDbLine
 10
200.652
 20
599.0
 30
0.0
 11
200.979
 21
599.0
 31
0.0
  0
LINE
  5
1C3
330
1E
100
AcDbEntity
  8
0
100
AcDbLine
 10
200.4529999999999
 20
599.0
 30
0.0
 11
200.652
 21
599.0
 31
0.0
  0
LINE
  5
1C4
330
1E
100
AcDbEntity
  8
0
100
AcDbLine
 10
200.3919999999999
 20
592.0
 30
0.0
 11
200.3919999999999
 21
599.0
 31
0.0
  0
LINE
  5
1C5
330
1E
100
AcDbEntity
  8
0
100
AcDbLine
 10
200.3919999999999
 20
599.0
 30
0.0
 11
200.3919999999999
 21
592.0
 31
0.0
  0
LINE
  5
1C6
330
1E
100
AcDbEntity
  8
0
100
AcDbLine
 10
200.3919999999999
 20
599.0
 30
0.0
 11
200.4529999999999
 21
599.0
 31
0.0
  0
LINE
  5
1C7
330
1E
100
AcDbEntity
  8
0
100
AcDbLine
 10
201.852
 20
600.0
 30
0.0
 11
203.81
 21
600.0
 31
0.0
  0
LINE
  5
1C8
330
1E
100
AcDbEntity
  8
0
100
AcDbLine
 10
202.298
 20
601.7859999999998
 30
0.0
 11
204.319
 21
601.7859999999998
 31
0.0
  0
LINE
  5
1C9
330
1E
100
AcDbEntity
  8
0
100
AcDbLine
 10
202.298
 20
600.214
 30
0.0
 11
204.319
 21
600.214
 31
0.0
  0
LINE
  5
1CA
330
1E
100
AcDbEntity
  8
0
100
AcDbLine
 10
201.869
 20
599.0
 30
0.0
 11
202.382
 21
599.0
 31
0.0
  0
LINE
  5
1CB
330
1E
100
AcDbEntity
  8
0
100
AcDbLine
 10
201.791
 20
592.0
 30
0.0
 11
203.047
 21
592.0
 31
0.0
  0
LINE
  5
1CC
330
1E
100
AcDbEntity
  8
0
100
AcDbLine
 10
201.791
 20
589.0
 30
0.0
 11
203.047
 21
589.0
 31
0.0
  0
LINE
  5
1CD
330
1E
100
AcDbEntity
  8
0
100
AcDbLine
 10
199.9609999999999
 20
534.0
 30
0.0
 11
199.9609999999999
 21
585.0
 31
0.0
  0
LINE
  5
1CF
330
1E
100
AcDbEntity
  8
0
100
AcDbLine
 10
202.393
 20
585.0
 30
0.0
 11
203.1629999999999
 21
585.0
 31
0.0
  0
LINE
  5
1D0
330
1E
100
AcDbEntity
  8
0
100
AcDbLine
 10
202.38
 20
589.0
 30
0.0
 11
203.15
 21
589.0
 31
0.0
  0
LINE
  5
1D1
330
1E
100
AcDbEntity
  8
0
100
AcDbLine
 10
202.38
 20
585.0
 30
0.0
 11
203.15
 21
585.0
 31
0.0
  0
LINE
  5
1D2
330
1E
100
AcDbEntity
  8
0
100
AcDbLine
 10
203.1629999999999
 20
585.0
 30
0.0
 11
203.8769999999999
 21
585.0
 31
0.0
  0
LINE
  5
1D3
330
1E
100
AcDbEntity
  8
0
100
AcDbLine
 10
203.8769999999999
 20
585.0
 30
0.0
 11
204.4979999999999
 21
585.0
 31
0.0
  0
LINE
  5
1D4
330
1E
100
AcDbEntity
  8
0
100
AcDbLine
 10
203.15
 20
585.0
 30
0.0
 11
203.889
 21
585.0
 31
0.0
  0
LINE
  5
1D5
330
1E
100
AcDbEntity
  8
0
100
AcDbLine
 10
203.15
 20
589.0
 30
0.0
 11
203.889
 21
589.0
 31
0.0
  0
LINE
  5
1D6
330
1E
100
AcDbEntity
  8
0
100
AcDbLine
 10
203.889
 20
589.0
 30
0.0
 11
204.517
 21
589.0
 31
0.0
  0
LINE
  5
1D7
330
1E
100
AcDbEntity
  8
0
100
AcDbLine
 10
203.889
 20
585.0
 30
0.0
 11
204.517
 21
585.0
 31
0.0
  0
LINE
  5
1D8
330
1E
100
AcDbEntity
  8
0
100
AcDbLine
 10
203.047
 20
589.0
 30
0.0
 11
204.057
 21
589.0
 31
0.0
  0
LINE
  5
1D9
330
1E
100
AcDbEntity
  8
0
100
AcDbLine
 10
202.382
 20
599.0
 30
0.0
 11
202.896
 21
599.0
 31
0.0
  0
LINE
  5
1DA
330
1E
100
AcDbEntity
  8
0
100
AcDbLine
 10
202.896
 20
599.0
 30
0.0
 11
203.3879999999999
 21
599.0
 31
0.0
  0
LINE
  5
1DB
330
1E
100
AcDbEntity
  8
0
100
AcDbLine
 10
203.3879999999999
 20
599.0
 30
0.0
 11
203.807
 21
599.0
 31
0.0
  0
LINE
  5
1DC
330
1E
100
AcDbEntity
  8
0
100
AcDbLine
 10
203.81
 20
600.0
 30
0.0
 11
204.464
 21
600.0
 31
0.0
  0
LINE
  5
1DD
330
1E
100
AcDbEntity
  8
0
100
AcDbLine
 10
203.807
 20
599.0
 30
0.0
 11
204.116
 21
599.0
 31
0.0
  0
LINE
  5
1DE
330
1E
100
AcDbEntity
  8
0
100
AcDbLine
 10
203.047
 20
592.0
 30
0.0
 11
204.057
 21
592.0
 31
0.0
  0
LINE
  5
1DF
330
1E
100
AcDbEntity
  8
0
100
AcDbLine
 10
204.319
 20
599.0
 30
0.0
 11
204.3809999999999
 21
599.0
 31
0.0
  0
LINE
  5
1E0
330
1E
100
AcDbEntity
  8
0
100
AcDbLine
 10
204.319
 20
600.214
 30
0.0
 11
204.9479999999999
 21
600.214
 31
0.0
  0
LINE
  5
1E1
330
1E
100
AcDbEntity
  8
0
100
AcDbLine
 10
204.319
 20
601.7859999999998
 30
0.0
 11
204.9479999999999
 21
601.7859999999998
 31
0.0
  0
LINE
  5
1E2
330
1E
100
AcDbEntity
  8
0
100
AcDbLine
 10
204.116
 20
599.0
 30
0.0
 11
204.319
 21
599.0
 31
0.0
  0
LINE
  5
1E3
330
1E
100
AcDbEntity
  8
0
100
AcDbLine
 10
204.057
 20
592.0
 30
0.0
 11
204.801
 21
592.0
 31
0.0
  0
LINE
  5
1E4
330
1E
100
AcDbEntity
  8
0
100
AcDbLine
 10
204.057
 20
589.0
 30
0.0
 11
204.801
 21
589.0
 31
0.0
  0
LINE
  5
1E5
330
1E
100
AcDbEntity
  8
0
100
AcDbLine
 10
202.298
 20
602.321
 30
0.0
 11
204.319
 21
602.321
 31
0.0
  0
LINE
  5
1E6
330
1E
100
AcDbEntity
  8
0
100
AcDbLine
 10
199.201
 20
602.321
 30
0.0
 11
202.298
 21
602.321
 31
0.0
  0
LINE
  5
1E7
330
1E
100
AcDbEntity
  8
0
100
AcDbLine
 10
195.013
 20
602.321
 30
0.0
 11
199.201
 21
602.321
 31
0.0
  0
LINE
  5
1E8
330
1E
100
AcDbEntity
  8
0
100
AcDbLine
 10
190.089
 20
602.321
 30
0.0
 11
195.013
 21
602.321
 31
0.0
  0
LINE
  5
1E9
330
1E
100
AcDbEntity
  8
0
100
AcDbLine
 10
184.9559999999999
 20
602.321
 30
0.0
 11
190.089
 21
602.321
 31
0.0
  0
LINE
  5
1EA
330
1E
100
AcDbEntity
  8
0
100
AcDbLine
 10
179.824
 20
602.321
 30
0.0
 11
184.9559999999999
 21
602.321
 31
0.0
  0
LINE
  5
1EB
330
1E
100
AcDbEntity
  8
0
100
AcDbLine
 10
205.5829999999999
 20
462.383
 30
0.0
 11
209.108
 21
471.126
 31
0.0
  0
LINE
  5
1EC
330
1E
100
AcDbEntity
  8
0
100
AcDbLine
 10
209.108
 20
471.126
 30
0.0
 11
214.717
 21
478.634
 31
0.0
  0
LINE
  5
1ED
330
1E
100
AcDbEntity
  8
0
100
AcDbLine
 10
204.38
 20
453.0
 30
0.0
 11
205.5829999999999
 21
462.383
 31
0.0
  0
LINE
  5
1EE
330
1E
100
AcDbEntity
  8
0
100
AcDbLine
 10
214.717
 20
478.634
 30
0.0
 11
222.0259999999999
 21
484.3949999999998
 31
0.0
  0
LINE
  5
1EF
330
1E
100
AcDbEntity
  8
0
100
AcDbLine
 10
221.7604744655758
 20
484.185711095387
 30
0.0
 11
230.1919999999999
 21
487.773
 31
0.0
  0
LINE
  5
1F0
330
1E
100
AcDbEntity
  8
0
100
AcDbLine
 10
204.366811320755
 20
450.0
 30
0.0
 11
204.38
 21
453.0
 31
0.0
  0
LINE
  5
1F2
330
1E
100
AcDbEntity
  8
0
100
AcDbLine
 10
260.5319999999999
 20
485.0
 30
0.0
 11
260.6519999999999
 21
485.0769999999998
 31
0.0
  0
LINE
  5
1F3
330
1E
100
AcDbEntity
  8
0
100
AcDbLine
 10
259.587
 20
485.0
 30
0.0
 11
260.5319999999999
 21
485.0
 31
0.0
  0
LINE
  5
1F4
330
1E
100
AcDbEntity
  8
0
100
AcDbLine
 10
258.325
 20
485.421
 30
0.0
 11
258.582
 21
485.25
 31
0.0
  0
LINE
  5
1F7
330
1E
100
AcDbEntity
  8
0
100
AcDbLine
 10
258.582
 20
485.25
 30
0.0
 11
258.8399999999999
 21
485.421
 31
0.0
  0
LINE
  5
1F8
330
1E
100
AcDbEntity
  8
0
100
AcDbLine
 10
258.582
 20
485.25
 30
0.0
 11
259.587
 21
485.0
 31
0.0
  0
LINE
  5
1F9
330
1E
100
AcDbEntity
  8
0
100
AcDbLine
 10
260.6519999999999
 20
485.0769999999998
 30
0.0
 11
260.7889999999999
 21
485.421
 31
0.0
  0
LINE
  5
1FA
330
1E
100
AcDbEntity
  8
0
100
AcDbLine
 10
260.7889999999999
 20
485.421
 30
0.0
 11
261.099
 21
486.2309999999998
 31
0.0
  0
LINE
  5
1FD
330
1E
100
AcDbEntity
  8
0
100
AcDbLine
 10
260.915267664173
 20
485.750925187032
 30
0.0
 11
261.2789999999999
 21
485.421
 31
0.0
  0
LINE
  5
201
330
1E
100
AcDbEntity
  8
0
100
AcDbLine
 10
257.431
 20
486.2309999999998
 30
0.0
 11
258.325
 21
485.421
 31
0.0
  0
LINE
  5
206
330
1E
100
AcDbEntity
  8
0
100
AcDbLine
 10
258.565
 20
486.2309999999998
 30
0.0
 11
258.841
 21
487.5619999999998
 31
0.0
  0
LINE
  5
207
330
1E
100
AcDbEntity
  8
0
100
AcDbLine
 10
258.565
 20
486.2309999999998
 30
0.0
 11
258.8399999999999
 21
485.421
 31
0.0
  0
LINE
  5
209
330
1E
100
AcDbEntity
  8
0
100
AcDbLine
 10
261.099
 20
486.2309999999998
 30
0.0
 11
261.592
 21
487.5619999999998
 31
0.0
  0
LINE
  5
20A
330
1E
100
AcDbEntity
  8
0
100
AcDbLine
 10
261.2789999999999
 20
485.421
 30
0.0
 11
261.537
 21
485.25
 31
0.0
  0
LINE
  5
20E
330
1E
100
AcDbEntity
  8
0
100
AcDbLine
 10
242.805
 20
487.0
 30
0.0
 11
257.5753361064889
 21
487.0
 31
0.0
  0
LINE
  5
20F
330
1E
100
AcDbEntity
  8
0
100
AcDbLine
 10
242.805
 20
487.0
 30
0.0
 11
243.205
 21
487.324
 31
0.0
  0
LINE
  5
210
330
1E
100
AcDbEntity
  8
0
100
AcDbLine
 10
257.020211870774
 20
487.0
 30
0.0
 11
257.431
 21
486.2309999999998
 31
0.0
  0
LINE
  5
211
330
1E
100
AcDbEntity
  8
0
100
AcDbLine
 10
204.6069999999999
 20
488.1769999999998
 30
0.0
 11
214.638
 21
496.083
 31
0.0
  0
LINE
  5
212
330
1E
100
AcDbEntity
  8
0
100
AcDbLine
 10
230.1919999999999
 20
487.773
 30
0.0
 11
239.263
 21
489.0
 31
0.0
  0
LINE
  5
213
330
1E
100
AcDbEntity
  8
0
100
AcDbLine
 10
239.263
 20
489.0
 30
0.0
 11
243.127729368372
 21
489.0
 31
0.0
  0
LINE
  5
214
330
1E
100
AcDbEntity
  8
0
100
AcDbLine
 10
241.843352777778
 20
489.0
 30
0.0
 11
242.03
 21
488.188
 31
0.0
  0
LINE
  5
215
330
1E
100
AcDbEntity
  8
0
100
AcDbLine
 10
242.03
 20
488.188
 30
0.0
 11
242.405
 21
487.324
 31
0.0
  0
LINE
  5
216
330
1E
100
AcDbEntity
  8
0
100
AcDbLine
 10
244.3119999999999
 20
493.696
 30
0.0
 11
244.368
 21
496.0
 31
0.0
  0
LINE
  5
217
330
1E
100
AcDbEntity
  8
0
100
AcDbLine
 10
244.1619999999999
 20
491.5359999999998
 30
0.0
 11
244.3119999999999
 21
493.696
 31
0.0
  0
LINE
  5
218
330
1E
100
AcDbEntity
  8
0
100
AcDbLine
 10
243.9119999999999
 20
489.628
 30
0.0
 11
244.1619999999999
 21
491.5359999999998
 31
0.0
  0
LINE
  5
219
330
1E
100
AcDbEntity
  8
0
100
AcDbLine
 10
243.5799999999999
 20
488.188
 30
0.0
 11
243.9119999999999
 21
489.628
 31
0.0
  0
LINE
  5
21A
330
1E
100
AcDbEntity
  8
0
100
AcDbLine
 10
243.205
 20
487.324
 30
0.0
 11
243.5799999999999
 21
488.188
 31
0.0
  0
LINE
  5
21B
330
1E
100
AcDbEntity
  8
0
100
AcDbLine
 10
242.405
 20
487.324
 30
0.0
 11
242.805
 21
487.0
 31
0.0
  0
LINE
  5
221
330
1E
100
AcDbEntity
  8
0
100
AcDbLine
 10
258.841
 20
487.5619999999998
 30
0.0
 11
259.5
 21
488.9
 31
0.0
  0
LINE
  5
223
330
1E
100
AcDbEntity
  8
0
100
AcDbLine
 10
258.92363785558
 20
491.5359999999998
 30
0.0
 11
259.0179999999999
 21
492.2019999999998
 31
0.0
  0
LINE
  5
224
330
1E
100
AcDbEntity
  8
0
100
AcDbLine
 10
260.487
 20
489.8369999999999
 30
0.0
 11
260.6219999999999
 21
490.65
 31
0.0
  0
LINE
  5
225
330
1E
100
AcDbEntity
  8
0
100
AcDbLine
 10
260.6219999999999
 20
490.65
 30
0.0
 11
260.666
 21
491.145
 31
0.0
  0
LINE
  5
228
330
1E
100
AcDbEntity
  8
0
100
AcDbLine
 10
259.16
 20
494.029
 30
0.0
 11
259.216
 21
495.878
 31
0.0
  0
LINE
  5
229
330
1E
100
AcDbEntity
  8
0
100
AcDbLine
 10
259.9019999999999
 20
493.48
 30
0.0
 11
260.666
 21
491.145
 31
0.0
  0
LINE
  5
22A
330
1E
100
AcDbEntity
  8
0
100
AcDbLine
 10
259.0179999999999
 20
492.2019999999998
 30
0.0
 11
259.16
 21
494.029
 31
0.0
  0
LINE
  5
22B
330
1E
100
AcDbEntity
  8
0
100
AcDbLine
 10
259.5
 20
488.9
 30
0.0
 11
260.487
 21
489.8369999999999
 31
0.0
  0
LINE
  5
22E
330
1E
100
AcDbEntity
  8
0
100
AcDbLine
 10
214.638
 20
496.083
 30
0.0
 11
214.925
 21
496.3009999999998
 31
0.0
  0
LINE
  5
22F
330
1E
100
AcDbEntity
  8
0
100
AcDbLine
 10
214.925
 20
496.3009999999998
 30
0.0
 11
226.6649999999999
 21
501.2959999999998
 31
0.0
  0
LINE
  5
230
330
1E
100
AcDbEntity
  8
0
100
AcDbLine
 10
239.263
 20
503.0
 30
0.0
 11
243.127729368372
 21
503.0
 31
0.0
  0
LINE
  5
231
330
1E
100
AcDbEntity
  8
0
100
AcDbLine
 10
226.6649999999999
 20
501.2959999999998
 30
0.0
 11
239.263
 21
503.0
 31
0.0
  0
LINE
  5
232
330
1E
100
AcDbEntity
  8
0
100
AcDbLine
 10
241.843352777778
 20
503.0
 30
0.0
 11
242.03
 21
503.8119999999998
 31
0.0
  0
LINE
  5
233
330
1E
100
AcDbEntity
  8
0
100
AcDbLine
 10
242.03
 20
503.8119999999998
 30
0.0
 11
242.405
 21
504.6759999999999
 31
0.0
  0
LINE
  5
234
330
1E
100
AcDbEntity
  8
0
100
AcDbLine
 10
244.3119999999999
 20
498.304
 30
0.0
 11
244.368
 21
496.0
 31
0.0
  0
LINE
  5
235
330
1E
100
AcDbEntity
  8
0
100
AcDbLine
 10
244.1619999999999
 20
500.464
 30
0.0
 11
244.3119999999999
 21
498.304
 31
0.0
  0
LINE
  5
236
330
1E
100
AcDbEntity
  8
0
100
AcDbLine
 10
243.9119999999999
 20
502.3719999999998
 30
0.0
 11
244.1619999999999
 21
500.464
 31
0.0
  0
LINE
  5
237
330
1E
100
AcDbEntity
  8
0
100
AcDbLine
 10
243.5799999999999
 20
503.8119999999998
 30
0.0
 11
243.9119999999999
 21
502.3719999999998
 31
0.0
  0
LINE
  5
238
330
1E
100
AcDbEntity
  8
0
100
AcDbLine
 10
243.205
 20
504.6759999999999
 30
0.0
 11
243.5799999999999
 21
503.8119999999998
 31
0.0
  0
LINE
  5
239
330
1E
100
AcDbEntity
  8
0
100
AcDbLine
 10
242.405
 20
504.6759999999999
 30
0.0
 11
242.805
 21
505.0
 31
0.0
  0
LINE
  5
23A
330
1E
100
AcDbEntity
  8
0
100
AcDbLine
 10
242.805
 20
505.0
 30
0.0
 11
257.5799914529909
 21
505.0
 31
0.0
  0
LINE
  5
23B
330
1E
100
AcDbEntity
  8
0
100
AcDbLine
 10
242.805
 20
505.0
 30
0.0
 11
243.205
 21
504.6759999999999
 31
0.0
  0
LINE
  5
23D
330
1E
100
AcDbEntity
  8
0
100
AcDbLine
 10
257.020211870774
 20
505.0
 30
0.0
 11
257.431
 21
505.769
 31
0.0
  0
LINE
  5
241
330
1E
100
AcDbEntity
  8
0
100
AcDbLine
 10
259.043
 20
499.575
 30
0.0
 11
259.173
 21
497.7689999999998
 31
0.0
  0
LINE
  5
242
330
1E
100
AcDbEntity
  8
0
100
AcDbLine
 10
258.9208766901029
 20
500.464
 30
0.0
 11
259.043
 21
499.575
 31
0.0
  0
LINE
  5
243
330
1E
100
AcDbEntity
  8
0
100
AcDbLine
 10
258.841
 20
504.438
 30
0.0
 11
259.5
 21
503.1
 31
0.0
  0
LINE
  5
244
330
1E
100
AcDbEntity
  8
0
100
AcDbLine
 10
259.5
 20
503.1
 30
0.0
 11
260.487
 21
502.163
 31
0.0
  0
LINE
  5
247
330
1E
100
AcDbEntity
  8
0
100
AcDbLine
 10
259.173
 20
497.7689999999998
 30
0.0
 11
259.216
 21
495.878
 31
0.0
  0
LINE
  5
248
330
1E
100
AcDbEntity
  8
0
100
AcDbLine
 10
260.487
 20
502.163
 30
0.0
 11
260.6219999999999
 21
501.35
 31
0.0
  0
LINE
  5
249
330
1E
100
AcDbEntity
  8
0
100
AcDbLine
 10
260.6219999999999
 20
501.35
 30
0.0
 11
260.666
 21
500.855
 31
0.0
  0
LINE
  5
24A
330
1E
100
AcDbEntity
  8
0
100
AcDbLine
 10
259.9019999999999
 20
498.5199999999998
 30
0.0
 11
260.666
 21
500.855
 31
0.0
  0
LINE
  5
24B
330
1E
100
AcDbEntity
  8
0
100
AcDbLine
 10
259.762
 20
496.0
 30
0.0
 11
259.9019999999999
 21
498.5199999999998
 31
0.0
  0
LINE
  5
24C
330
1E
100
AcDbEntity
  8
0
100
AcDbLine
 10
259.762
 20
496.0
 30
0.0
 11
259.9019999999999
 21
493.48
 31
0.0
  0
LINE
  5
24E
330
1E
100
AcDbEntity
  8
0
100
AcDbLine
 10
261.519
 20
486.2309999999998
 30
0.0
 11
261.796
 21
487.5619999999998
 31
0.0
  0
LINE
  5
24F
330
1E
100
AcDbEntity
  8
0
100
AcDbLine
 10
261.519
 20
486.2309999999998
 30
0.0
 11
261.794
 21
485.421
 31
0.0
  0
LINE
  5
250
330
1E
100
AcDbEntity
  8
0
100
AcDbLine
 10
261.592
 20
487.5619999999998
 30
0.0
 11
262.089
 21
488.9
 31
0.0
  0
LINE
  5
252
330
1E
100
AcDbEntity
  8
0
100
AcDbLine
 10
261.537
 20
485.25
 30
0.0
 11
261.794
 21
485.421
 31
0.0
  0
LINE
  5
253
330
1E
100
AcDbEntity
  8
0
100
AcDbLine
 10
261.537
 20
485.25
 30
0.0
 11
262.542
 21
485.0
 31
0.0
  0
LINE
  5
258
330
1E
100
AcDbEntity
  8
0
100
AcDbLine
 10
262.089
 20
488.9
 30
0.0
 11
262.437
 21
489.8369999999999
 31
0.0
  0
LINE
  5
259
330
1E
100
AcDbEntity
  8
0
100
AcDbLine
 10
262.437
 20
489.8369999999999
 30
0.0
 11
262.562
 21
490.174
 31
0.0
  0
LINE
  5
25A
330
1E
100
AcDbEntity
  8
0
100
AcDbLine
 10
262.089
 20
503.1
 30
0.0
 11
262.437
 21
502.163
 31
0.0
  0
LINE
  5
25B
330
1E
100
AcDbEntity
  8
0
100
AcDbLine
 10
262.437
 20
502.163
 30
0.0
 11
262.562
 21
501.8259999999998
 31
0.0
  0
LINE
  5
25D
330
1E
100
AcDbEntity
  8
0
100
AcDbLine
 10
261.796
 20
487.5619999999998
 30
0.0
 11
262.454
 21
488.9
 31
0.0
  0
LINE
  5
25F
330
1E
100
AcDbEntity
  8
0
100
AcDbLine
 10
262.562
 20
490.174
 30
0.0
 11
262.616
 21
490.486
 31
0.0
  0
LINE
  5
260
330
1E
100
AcDbEntity
  8
0
100
AcDbLine
 10
262.616
 20
491.145
 30
0.0
 11
262.616
 21
490.486
 31
0.0
  0
LINE
  5
261
330
1E
100
AcDbEntity
  8
0
100
AcDbLine
 10
262.616
 20
493.48
 30
0.0
 11
262.616
 21
491.145
 31
0.0
  0
LINE
  5
262
330
1E
100
AcDbEntity
  8
0
100
AcDbLine
 10
262.616
 20
496.0
 30
0.0
 11
262.616
 21
493.48
 31
0.0
  0
LINE
  5
263
330
1E
100
AcDbEntity
  8
0
100
AcDbLine
 10
262.562
 20
501.8259999999998
 30
0.0
 11
262.616
 21
501.514
 31
0.0
  0
LINE
  5
264
330
1E
100
AcDbEntity
  8
0
100
AcDbLine
 10
262.616
 20
501.514
 30
0.0
 11
262.616
 21
500.855
 31
0.0
  0
LINE
  5
265
330
1E
100
AcDbEntity
  8
0
100
AcDbLine
 10
262.616
 20
500.855
 30
0.0
 11
262.616
 21
498.5199999999998
 31
0.0
  0
LINE
  5
266
330
1E
100
AcDbEntity
  8
0
100
AcDbLine
 10
262.616
 20
498.5199999999998
 30
0.0
 11
262.616
 21
496.0
 31
0.0
  0
LINE
  5
267
330
1E
100
AcDbEntity
  8
0
100
AcDbLine
 10
262.542
 20
485.0
 30
0.0
 11
279.2429999999999
 21
485.0
 31
0.0
  0
LINE
  5
268
330
1E
100
AcDbEntity
  8
0
100
AcDbLine
 10
262.454
 20
488.9
 30
0.0
 11
263.4419999999999
 21
489.8369999999999
 31
0.0
  0
LINE
  5
269
330
1E
100
AcDbEntity
  8
0
100
AcDbLine
 10
261.592
 20
504.438
 30
0.0
 11
262.089
 21
503.1
 31
0.0
  0
LINE
  5
26A
330
1E
100
AcDbEntity
  8
0
100
AcDbLine
 10
261.796
 20
504.438
 30
0.0
 11
262.454
 21
503.1
 31
0.0
  0
LINE
  5
26B
330
1E
100
AcDbEntity
  8
0
100
AcDbLine
 10
262.454
 20
503.1
 30
0.0
 11
263.4419999999999
 21
502.163
 31
0.0
  0
LINE
  5
26D
330
1E
100
AcDbEntity
  8
0
100
AcDbLine
 10
257.431
 20
505.769
 30
0.0
 11
258.325
 21
506.5789999999998
 31
0.0
  0
LINE
  5
271
330
1E
100
AcDbEntity
  8
0
100
AcDbLine
 10
258.565
 20
505.769
 30
0.0
 11
258.841
 21
504.438
 31
0.0
  0
LINE
  5
272
330
1E
100
AcDbEntity
  8
0
100
AcDbLine
 10
258.565
 20
505.769
 30
0.0
 11
258.8399999999999
 21
506.5789999999998
 31
0.0
  0
LINE
  5
273
330
1E
100
AcDbEntity
  8
0
100
AcDbLine
 10
261.099
 20
505.769
 30
0.0
 11
261.592
 21
504.438
 31
0.0
  0
LINE
  5
277
330
1E
100
AcDbEntity
  8
0
100
AcDbLine
 10
258.325
 20
506.5789999999998
 30
0.0
 11
258.582
 21
506.7499999999998
 31
0.0
  0
LINE
  5
278
330
1E
100
AcDbEntity
  8
0
100
AcDbLine
 10
258.582
 20
506.7499999999998
 30
0.0
 11
258.8399999999999
 21
506.5789999999998
 31
0.0
  0
LINE
  5
279
330
1E
100
AcDbEntity
  8
0
100
AcDbLine
 10
258.582
 20
506.7499999999998
 30
0.0
 11
259.587
 21
507.0
 31
0.0
  0
LINE
  5
27B
330
1E
100
AcDbEntity
  8
0
100
AcDbLine
 10
259.587
 20
507.0
 30
0.0
 11
260.5319999999999
 21
507.0
 31
0.0
  0
LINE
  5
27C
330
1E
100
AcDbEntity
  8
0
100
AcDbLine
 10
260.5319999999999
 20
507.0
 30
0.0
 11
260.6519999999999
 21
506.923
 31
0.0
  0
LINE
  5
27D
330
1E
100
AcDbEntity
  8
0
100
AcDbLine
 10
260.6519999999999
 20
506.923
 30
0.0
 11
260.7889999999999
 21
506.5789999999998
 31
0.0
  0
LINE
  5
27E
330
1E
100
AcDbEntity
  8
0
100
AcDbLine
 10
260.7889999999999
 20
506.5789999999998
 30
0.0
 11
261.099
 21
505.769
 31
0.0
  0
LINE
  5
282
330
1E
100
AcDbEntity
  8
0
100
AcDbLine
 10
261.2789999999999
 20
506.5789999999998
 30
0.0
 11
261.537
 21
506.7499999999998
 31
0.0
  0
LINE
  5
283
330
1E
100
AcDbEntity
  8
0
100
AcDbLine
 10
260.915267664173
 20
506.249074812968
 30
0.0
 11
261.2789999999999
 21
506.5789999999998
 31
0.0
  0
LINE
  5
285
330
1E
100
AcDbEntity
  8
0
100
AcDbLine
 10
261.537
 20
506.7499999999998
 30
0.0
 11
261.794
 21
506.5789999999998
 31
0.0
  0
LINE
  5
286
330
1E
100
AcDbEntity
  8
0
100
AcDbLine
 10
261.537
 20
506.7499999999998
 30
0.0
 11
262.542
 21
507.0
 31
0.0
  0
LINE
  5
287
330
1E
100
AcDbEntity
  8
0
100
AcDbLine
 10
262.542
 20
507.0
 30
0.0
 11
279.3709
 21
507.0
 31
0.0
  0
LINE
  5
288
330
1E
100
AcDbEntity
  8
0
100
AcDbLine
 10
261.519
 20
505.769
 30
0.0
 11
261.796
 21
504.438
 31
0.0
  0
LINE
  5
289
330
1E
100
AcDbEntity
  8
0
100
AcDbLine
 10
261.519
 20
505.769
 30
0.0
 11
261.794
 21
506.5789999999998
 31
0.0
  0
LINE
  5
28D
330
1E
100
AcDbEntity
  8
0
100
AcDbLine
 10
263.4419999999999
 20
489.8369999999999
 30
0.0
 11
263.5769999999999
 21
490.65
 31
0.0
  0
LINE
  5
28E
330
1E
100
AcDbEntity
  8
0
100
AcDbLine
 10
263.5769999999999
 20
490.65
 30
0.0
 11
263.62
 21
491.145
 31
0.0
  0
LINE
  5
290
330
1E
100
AcDbEntity
  8
0
100
AcDbLine
 10
262.857
 20
493.48
 30
0.0
 11
263.62
 21
491.145
 31
0.0
  0
LINE
  5
291
330
1E
100
AcDbEntity
  8
0
100
AcDbLine
 10
263.4419999999999
 20
502.163
 30
0.0
 11
263.5769999999999
 21
501.35
 31
0.0
  0
LINE
  5
292
330
1E
100
AcDbEntity
  8
0
100
AcDbLine
 10
263.5769999999999
 20
501.35
 30
0.0
 11
263.62
 21
500.855
 31
0.0
  0
LINE
  5
295
330
1E
100
AcDbEntity
  8
0
100
AcDbLine
 10
274.716
 20
565.0
 30
0.0
 11
275.0189999999999
 21
565.0
 31
0.0
  0
LINE
  5
296
330
1E
100
AcDbEntity
  8
0
100
AcDbLine
 10
274.7129999999998
 20
565.0
 30
0.0
 11
275.0119999999999
 21
565.0
 31
0.0
  0
LINE
  5
297
330
1E
100
AcDbEntity
  8
0
100
AcDbLine
 10
274.7129999999998
 20
569.0
 30
0.0
 11
275.0119999999999
 21
569.0
 31
0.0
  0
LINE
  5
298
330
1E
100
AcDbEntity
  8
0
100
AcDbLine
 10
274.621
 20
569.0
 30
0.0
 11
274.621
 21
565.0
 31
0.0
  0
LINE
  5
299
330
1E
100
AcDbEntity
  8
0
100
AcDbLine
 10
274.621
 20
569.0
 30
0.0
 11
274.7129999999998
 21
569.0
 31
0.0
  0
LINE
  5
29A
330
1E
100
AcDbEntity
  8
0
100
AcDbLine
 10
274.621
 20
565.0
 30
0.0
 11
274.716
 21
565.0
 31
0.0
  0
LINE
  5
29B
330
1E
100
AcDbEntity
  8
0
100
AcDbLine
 10
274.621
 20
565.0
 30
0.0
 11
274.7129999999998
 21
565.0
 31
0.0
  0
LINE
  5
29C
330
1E
100
AcDbEntity
  8
0
100
AcDbLine
 10
274.621
 20
565.0
 30
0.0
 11
274.621
 21
569.0
 31
0.0
  0
LINE
  5
29D
330
1E
100
AcDbEntity
  8
0
100
AcDbLine
 10
275.0119999999999
 20
569.0
 30
0.0
 11
275.502
 21
569.0
 31
0.0
  0
LINE
  5
29E
330
1E
100
AcDbEntity
  8
0
100
AcDbLine
 10
275.483
 20
565.0
 30
0.0
 11
276.1109999999999
 21
565.0
 31
0.0
  0
LINE
  5
29F
330
1E
100
AcDbEntity
  8
0
100
AcDbLine
 10
275.0189999999999
 20
565.0
 30
0.0
 11
275.483
 21
565.0
 31
0.0
  0
LINE
  5
2A0
330
1E
100
AcDbEntity
  8
0
100
AcDbLine
 10
275.502
 20
569.0
 30
0.0
 11
276.1229999999999
 21
569.0
 31
0.0
  0
LINE
  5
2A1
330
1E
100
AcDbEntity
  8
0
100
AcDbLine
 10
275.502
 20
565.0
 30
0.0
 11
276.1229999999999
 21
565.0
 31
0.0
  0
LINE
  5
2A2
330
1E
100
AcDbEntity
  8
0
100
AcDbLine
 10
275.0119999999999
 20
565.0
 30
0.0
 11
275.502
 21
565.0
 31
0.0
  0
LINE
  5
2A3
330
1E
100
AcDbEntity
  8
0
100
AcDbLine
 10
275.212
 20
569.0
 30
0.0
 11
275.6909999999999
 21
569.0
 31
0.0
  0
LINE
  5
2A4
330
1E
100
AcDbEntity
  8
0
100
AcDbLine
 10
274.724
 20
569.0
 30
0.0
 11
275.212
 21
569.0
 31
0.0
  0
LINE
  5
2A5
330
1E
100
AcDbEntity
  8
0
100
AcDbLine
 10
275.212
 20
572.0
 30
0.0
 11
275.6909999999999
 21
572.0
 31
0.0
  0
LINE
  5
2A6
330
1E
100
AcDbEntity
  8
0
100
AcDbLine
 10
274.724
 20
572.0
 30
0.0
 11
275.212
 21
572.0
 31
0.0
  0
LINE
  5
2A7
330
1E
100
AcDbEntity
  8
0
100
AcDbLine
 10
274.569
 20
572.0
 30
0.0
 11
274.569
 21
569.0
 31
0.0
  0
LINE
  5
2A8
330
1E
100
AcDbEntity
  8
0
100
AcDbLine
 10
274.569
 20
572.0
 30
0.0
 11
274.724
 21
572.0
 31
0.0
  0
LINE
  5
2A9
330
1E
100
AcDbEntity
  8
0
100
AcDbLine
 10
274.569
 20
569.0
 30
0.0
 11
274.621
 21
569.0
 31
0.0
  0
LINE
  5
2AA
330
1E
100
AcDbEntity
  8
0
100
AcDbLine
 10
274.569
 20
569.0
 30
0.0
 11
274.724
 21
569.0
 31
0.0
  0
LINE
  5
2AB
330
1E
100
AcDbEntity
  8
0
100
AcDbLine
 10
274.569
 20
569.0
 30
0.0
 11
274.569
 21
572.0
 31
0.0
  0
LINE
  5
2AD
330
1E
100
AcDbEntity
  8
0
100
AcDbLine
 10
262.857
 20
498.5199999999998
 30
0.0
 11
263.62
 21
500.855
 31
0.0
  0
LINE
  5
2AE
330
1E
100
AcDbEntity
  8
0
100
AcDbLine
 10
262.7159999999999
 20
496.0
 30
0.0
 11
262.857
 21
498.5199999999998
 31
0.0
  0
LINE
  5
2AF
330
1E
100
AcDbEntity
  8
0
100
AcDbLine
 10
262.7159999999999
 20
496.0
 30
0.0
 11
262.857
 21
493.48
 31
0.0
  0
LINE
  5
2B0
330
1E
100
AcDbEntity
  8
0
100
AcDbLine
 10
204.4979999999999
 20
585.0
 30
0.0
 11
204.9879999999999
 21
585.0
 31
0.0
  0
LINE
  5
2B1
330
1E
100
AcDbEntity
  8
0
100
AcDbLine
 10
204.9879999999999
 20
585.0
 30
0.0
 11
205.2869999999999
 21
585.0
 31
0.0
  0
LINE
  5
2B2
330
1E
100
AcDbEntity
  8
0
100
AcDbLine
 10
205.284
 20
585.0
 30
0.0
 11
205.379
 21
585.0
 31
0.0
  0
LINE
  5
2B3
330
1E
100
AcDbEntity
  8
0
100
AcDbLine
 10
204.517
 20
585.0
 30
0.0
 11
204.9809999999999
 21
585.0
 31
0.0
  0
LINE
  5
2B4
330
1E
100
AcDbEntity
  8
0
100
AcDbLine
 10
204.517
 20
589.0
 30
0.0
 11
204.9809999999999
 21
589.0
 31
0.0
  0
LINE
  5
2B5
330
1E
100
AcDbEntity
  8
0
100
AcDbLine
 10
204.9809999999999
 20
589.0
 30
0.0
 11
205.284
 21
589.0
 31
0.0
  0
LINE
  5
2B6
330
1E
100
AcDbEntity
  8
0
100
AcDbLine
 10
204.9809999999999
 20
585.0
 30
0.0
 11
205.284
 21
585.0
 31
0.0
  0
LINE
  5
2B7
330
1E
100
AcDbEntity
  8
0
100
AcDbLine
 10
205.379
 20
585.0
 30
0.0
 11
205.379
 21
589.0
 31
0.0
  0
LINE
  5
2B8
330
1E
100
AcDbEntity
  8
0
100
AcDbLine
 10
205.2869999999999
 20
585.0
 30
0.0
 11
205.379
 21
585.0
 31
0.0
  0
LINE
  5
2B9
330
1E
100
AcDbEntity
  8
0
100
AcDbLine
 10
205.431
 20
589.0
 30
0.0
 11
205.431
 21
592.0
 31
0.0
  0
LINE
  5
2BA
330
1E
100
AcDbEntity
  8
0
100
AcDbLine
 10
205.379
 20
589.0
 30
0.0
 11
205.431
 21
589.0
 31
0.0
  0
LINE
  5
2BB
330
1E
100
AcDbEntity
  8
0
100
AcDbLine
 10
205.379
 20
589.0
 30
0.0
 11
205.379
 21
585.0
 31
0.0
  0
LINE
  5
2BC
330
1E
100
AcDbEntity
  8
0
100
AcDbLine
 10
205.284
 20
589.0
 30
0.0
 11
205.431
 21
589.0
 31
0.0
  0
LINE
  5
2BD
330
1E
100
AcDbEntity
  8
0
100
AcDbLine
 10
205.284
 20
589.0
 30
0.0
 11
205.379
 21
589.0
 31
0.0
  0
LINE
  5
2BE
330
1E
100
AcDbEntity
  8
0
100
AcDbLine
 10
204.32
 20
599.0
 30
0.0
 11
204.3809999999999
 21
599.0
 31
0.0
  0
LINE
  5
2BF
330
1E
100
AcDbEntity
  8
0
100
AcDbLine
 10
204.3809999999999
 20
592.0
 30
0.0
 11
204.3809999999999
 21
599.0
 31
0.0
  0
LINE
  5
2C0
330
1E
100
AcDbEntity
  8
0
100
AcDbLine
 10
204.464
 20
600.0
 30
0.0
 11
204.9479999999999
 21
600.214
 31
0.0
  0
LINE
  5
2C1
330
1E
100
AcDbEntity
  8
0
100
AcDbLine
 10
204.3809999999999
 20
599.0
 30
0.0
 11
204.3809999999999
 21
592.0
 31
0.0
  0
LINE
  5
2C2
330
1E
100
AcDbEntity
  8
0
100
AcDbLine
 10
205.431
 20
592.0
 30
0.0
 11
205.431
 21
589.0
 31
0.0
  0
LINE
  5
2C3
330
1E
100
AcDbEntity
  8
0
100
AcDbLine
 10
204.9479999999999
 20
600.214
 30
0.0
 11
204.9479999999999
 21
601.7859999999998
 31
0.0
  0
LINE
  5
2C4
330
1E
100
AcDbEntity
  8
0
100
AcDbLine
 10
204.9479999999999
 20
601.7859999999998
 30
0.0
 11
204.9479999999999
 21
600.214
 31
0.0
  0
LINE
  5
2C5
330
1E
100
AcDbEntity
  8
0
100
AcDbLine
 10
205.284
 20
592.0
 30
0.0
 11
205.431
 21
592.0
 31
0.0
  0
LINE
  5
2C6
330
1E
100
AcDbEntity
  8
0
100
AcDbLine
 10
204.801
 20
592.0
 30
0.0
 11
205.284
 21
592.0
 31
0.0
  0
LINE
  5
2C7
330
1E
100
AcDbEntity
  8
0
100
AcDbLine
 10
204.801
 20
589.0
 30
0.0
 11
205.284
 21
589.0
 31
0.0
  0
LINE
  5
2C8
330
1E
100
AcDbEntity
  8
0
100
AcDbLine
 10
275.304
 20
601.7859999999998
 30
0.0
 11
276.9019999999999
 21
601.7859999999998
 31
0.0
  0
LINE
  5
2C9
330
1E
100
AcDbEntity
  8
0
100
AcDbLine
 10
275.304
 20
600.214
 30
0.0
 11
276.9019999999999
 21
600.214
 31
0.0
  0
LINE
  5
2CA
330
1E
100
AcDbEntity
  8
0
100
AcDbLine
 10
275.6099999999999
 20
600.0
 30
0.0
 11
276.6959999999999
 21
600.0
 31
0.0
  0
LINE
  5
2CB
330
1E
100
AcDbEntity
  8
0
100
AcDbLine
 10
275.6099999999999
 20
600.0
 30
0.0
 11
275.7769999999999
 21
600.0
 31
0.0
  0
LINE
  5
2CC
330
1E
100
AcDbEntity
  8
0
100
AcDbLine
 10
275.124
 20
600.214
 30
0.0
 11
275.124
 21
601.7859999999998
 31
0.0
  0
LINE
  5
2CD
330
1E
100
AcDbEntity
  8
0
100
AcDbLine
 10
275.124
 20
600.214
 30
0.0
 11
275.304
 21
600.214
 31
0.0
  0
LINE
  5
2CE
330
1E
100
AcDbEntity
  8
0
100
AcDbLine
 10
275.124
 20
600.214
 30
0.0
 11
275.6099999999999
 21
600.0
 31
0.0
  0
LINE
  5
2CF
330
1E
100
AcDbEntity
  8
0
100
AcDbLine
 10
275.124
 20
601.7859999999998
 30
0.0
 11
275.6099999999999
 21
602.0
 31
0.0
  0
LINE
  5
2D0
330
1E
100
AcDbEntity
  8
0
100
AcDbLine
 10
275.124
 20
601.7859999999998
 30
0.0
 11
275.304
 21
601.7859999999998
 31
0.0
  0
LINE
  5
2D1
330
1E
100
AcDbEntity
  8
0
100
AcDbLine
 10
275.124
 20
601.7859999999998
 30
0.0
 11
275.124
 21
600.214
 31
0.0
  0
LINE
  5
2D2
330
1E
100
AcDbEntity
  8
0
100
AcDbLine
 10
275.0
 20
589.0
 30
0.0
 11
275.0
 21
579.0
 31
0.0
  0
LINE
  5
2D3
330
1E
100
AcDbEntity
  8
0
100
AcDbLine
 10
275.0
 20
589.0
 30
0.0
 11
275.72
 21
589.0
 31
0.0
  0
LINE
  5
2D4
330
1E
100
AcDbEntity
  8
0
100
AcDbLine
 10
275.0
 20
579.0
 30
0.0
 11
275.72
 21
579.0
 31
0.0
  0
LINE
  5
2D5
330
1E
100
AcDbEntity
  8
0
100
AcDbLine
 10
275.0
 20
579.0
 30
0.0
 11
275.68
 21
579.0
 31
0.0
  0
LINE
  5
2D6
330
1E
100
AcDbEntity
  8
0
100
AcDbLine
 10
275.0
 20
579.0
 30
0.0
 11
275.0
 21
589.0
 31
0.0
  0
LINE
  5
2D7
330
1E
100
AcDbEntity
  8
0
100
AcDbLine
 10
275.618
 20
572.0
 30
0.0
 11
275.618
 21
579.0
 31
0.0
  0
LINE
  5
2D8
330
1E
100
AcDbEntity
  8
0
100
AcDbLine
 10
275.68
 20
579.0
 30
0.0
 11
275.879
 21
579.0
 31
0.0
  0
LINE
  5
2D9
330
1E
100
AcDbEntity
  8
0
100
AcDbLine
 10
275.618
 20
579.0
 30
0.0
 11
275.68
 21
579.0
 31
0.0
  0
LINE
  5
2DA
330
1E
100
AcDbEntity
  8
0
100
AcDbLine
 10
275.618
 20
579.0
 30
0.0
 11
275.618
 21
572.0
 31
0.0
  0
LINE
  5
2DB
330
1E
100
AcDbEntity
  8
0
100
AcDbLine
 10
275.6909999999999
 20
572.0
 30
0.0
 11
276.3079999999999
 21
572.0
 31
0.0
  0
LINE
  5
2DC
330
1E
100
AcDbEntity
  8
0
100
AcDbLine
 10
276.1109999999999
 20
565.0
 30
0.0
 11
276.85
 21
565.0
 31
0.0
  0
LINE
  5
2DD
330
1E
100
AcDbEntity
  8
0
100
AcDbLine
 10
276.1229999999999
 20
569.0
 30
0.0
 11
276.8369999999999
 21
569.0
 31
0.0
  0
LINE
  5
2DE
330
1E
100
AcDbEntity
  8
0
100
AcDbLine
 10
276.85
 20
565.0
 30
0.0
 11
277.62
 21
565.0
 31
0.0
  0
LINE
  5
2DF
330
1E
100
AcDbEntity
  8
0
100
AcDbLine
 10
276.8369999999999
 20
569.0
 30
0.0
 11
277.607
 21
569.0
 31
0.0
  0
LINE
  5
2E0
330
1E
100
AcDbEntity
  8
0
100
AcDbLine
 10
276.8369999999999
 20
565.0
 30
0.0
 11
277.607
 21
565.0
 31
0.0
  0
LINE
  5
2E1
330
1E
100
AcDbEntity
  8
0
100
AcDbLine
 10
276.1229999999999
 20
565.0
 30
0.0
 11
276.8369999999999
 21
565.0
 31
0.0
  0
LINE
  5
2E2
330
1E
100
AcDbEntity
  8
0
100
AcDbLine
 10
276.2059999999999
 20
579.0
 30
0.0
 11
276.6199999999999
 21
579.0
 31
0.0
  0
LINE
  5
2E3
330
1E
100
AcDbEntity
  8
0
100
AcDbLine
 10
275.879
 20
579.0
 30
0.0
 11
276.2059999999999
 21
579.0
 31
0.0
  0
LINE
  5
2E4
330
1E
100
AcDbEntity
  8
0
100
AcDbLine
 10
277.096
 20
579.0
 30
0.0
 11
277.609
 21
579.0
 31
0.0
  0
LINE
  5
2E5
330
1E
100
AcDbEntity
  8
0
100
AcDbLine
 10
276.6199999999999
 20
579.0
 30
0.0
 11
277.096
 21
579.0
 31
0.0
  0
LINE
  5
2E6
330
1E
100
AcDbEntity
  8
0
100
AcDbLine
 10
276.3079999999999
 20
572.0
 30
0.0
 11
278.262
 21
572.0
 31
0.0
  0
LINE
  5
2E7
330
1E
100
AcDbEntity
  8
0
100
AcDbLine
 10
276.3079999999999
 20
569.0
 30
0.0
 11
278.262
 21
569.0
 31
0.0
  0
LINE
  5
2E8
330
1E
100
AcDbEntity
  8
0
100
AcDbLine
 10
275.6909999999999
 20
569.0
 30
0.0
 11
276.3079999999999
 21
569.0
 31
0.0
  0
LINE
  5
2E9
330
1E
100
AcDbEntity
  8
0
100
AcDbLine
 10
276.9019999999999
 20
601.7859999999998
 30
0.0
 11
279.6259999999999
 21
601.7859999999998
 31
0.0
  0
LINE
  5
2EA
330
1E
100
AcDbEntity
  8
0
100
AcDbLine
 10
276.9019999999999
 20
600.214
 30
0.0
 11
279.6259999999999
 21
600.214
 31
0.0
  0
LINE
  5
2EB
330
1E
100
AcDbEntity
  8
0
100
AcDbLine
 10
276.6959999999999
 20
600.0
 30
0.0
 11
279.0599999999999
 21
600.0
 31
0.0
  0
LINE
  5
2EC
330
1E
100
AcDbEntity
  8
0
100
AcDbLine
 10
275.72
 20
589.0
 30
0.0
 11
277.6399999999999
 21
589.0
 31
0.0
  0
LINE
  5
2ED
330
1E
100
AcDbEntity
  8
0
100
AcDbLine
 10
275.72
 20
579.0
 30
0.0
 11
277.6399999999999
 21
579.0
 31
0.0
  0
LINE
  5
2EE
330
1E
100
AcDbEntity
  8
0
100
AcDbLine
 10
279.0989999999999
 20
485.0
 30
0.0
 11
279.0989999999999
 21
480.0
 31
0.0
  0
LINE
  5
2EF
330
1E
100
AcDbEntity
  8
0
100
AcDbLine
 10
279.0989999999999
 20
507.0
 30
0.0
 11
279.0989999999999
 21
510.0
 31
0.0
  0
LINE
  5
2F0
330
1E
100
AcDbEntity
  8
0
100
AcDbLine
 10
279.0989999999999
 20
480.0
 30
0.0
 11
279.2429999999999
 21
480.0
 31
0.0
  0
LINE
  5
2F1
330
1E
100
AcDbEntity
  8
0
100
AcDbLine
 10
279.0989999999999
 20
480.0
 30
0.0
 11
279.9449999999999
 21
480.0
 31
0.0
  0
LINE
  5
2F2
330
1E
100
AcDbEntity
  8
0
100
AcDbLine
 10
279.0989999999999
 20
480.0
 30
0.0
 11
279.0989999999999
 21
485.0
 31
0.0
  0
LINE
  5
2F3
330
1E
100
AcDbEntity
  8
0
100
AcDbLine
 10
279.9449999999999
 20
480.0
 30
0.0
 11
281.877
 21
480.0
 31
0.0
  0
LINE
  5
2F4
330
1E
100
AcDbEntity
  8
0
100
AcDbLine
 10
280.5219999999999
 20
480.0
 30
0.0
 11
282.7009999999999
 21
480.0
 31
0.0
  0
LINE
  5
2F5
330
1E
100
AcDbEntity
  8
0
100
AcDbLine
 10
279.2429999999999
 20
480.0
 30
0.0
 11
280.5219999999999
 21
480.0
 31
0.0
  0
LINE
  5
2F6
330
1E
100
AcDbEntity
  8
0
100
AcDbLine
 10
279.0989999999999
 20
510.0
 30
0.0
 11
279.2429999999999
 21
510.0
 31
0.0
  0
LINE
  5
2F7
330
1E
100
AcDbEntity
  8
0
100
AcDbLine
 10
279.0989999999999
 20
510.0
 30
0.0
 11
279.0989999999999
 21
565.0
 31
0.0
  0
LINE
  5
2F8
330
1E
100
AcDbEntity
  8
0
100
AcDbLine
 10
279.0989999999999
 20
510.0
 30
0.0
 11
279.0989999999999
 21
507.0
 31
0.0
  0
LINE
  5
2F9
330
1E
100
AcDbEntity
  8
0
100
AcDbLine
 10
280.5219999999999
 20
510.0
 30
0.0
 11
282.7009999999999
 21
510.0
 31
0.0
  0
LINE
  5
2FA
330
1E
100
AcDbEntity
  8
0
100
AcDbLine
 10
277.62
 20
565.0
 30
0.0
 11
278.39
 21
565.0
 31
0.0
  0
LINE
  5
2FB
330
1E
100
AcDbEntity
  8
0
100
AcDbLine
 10
277.607
 20
569.0
 30
0.0
 11
278.377
 21
569.0
 31
0.0
  0
LINE
  5
2FC
330
1E
100
AcDbEntity
  8
0
100
AcDbLine
 10
277.607
 20
565.0
 30
0.0
 11
278.377
 21
565.0
 31
0.0
  0
LINE
  5
2FD
330
1E
100
AcDbEntity
  8
0
100
AcDbLine
 10
278.39
 20
565.0
 30
0.0
 11
279.0989999999999
 21
565.0
 31
0.0
  0
LINE
  5
2FE
330
1E
100
AcDbEntity
  8
0
100
AcDbLine
 10
278.377
 20
569.0
 30
0.0
 11
279.0989999999999
 21
569.0
 31
0.0
  0
LINE
  5
2FF
330
1E
100
AcDbEntity
  8
0
100
AcDbLine
 10
278.377
 20
565.0
 30
0.0
 11
279.0989999999999
 21
565.0
 31
0.0
  0
LINE
  5
300
330
1E
100
AcDbEntity
  8
0
100
AcDbLine
 10
278.262
 20
569.0
 30
0.0
 11
281.444
 21
569.0
 31
0.0
  0
LINE
  5
301
330
1E
100
AcDbEntity
  8
0
100
AcDbLine
 10
277.609
 20
579.0
 30
0.0
 11
278.122
 21
579.0
 31
0.0
  0
LINE
  5
302
330
1E
100
AcDbEntity
  8
0
100
AcDbLine
 10
278.122
 20
579.0
 30
0.0
 11
278.615
 21
579.0
 31
0.0
  0
LINE
  5
303
330
1E
100
AcDbEntity
  8
0
100
AcDbLine
 10
278.615
 20
579.0
 30
0.0
 11
279.033
 21
579.0
 31
0.0
  0
LINE
  5
304
330
1E
100
AcDbEntity
  8
0
100
AcDbLine
 10
279.033
 20
579.0
 30
0.0
 11
279.0989999999999
 21
579.0
 31
0.0
  0
LINE
  5
305
330
1E
100
AcDbEntity
  8
0
100
AcDbLine
 10
278.262
 20
572.0
 30
0.0
 11
281.444
 21
572.0
 31
0.0
  0
LINE
  5
306
330
1E
100
AcDbEntity
  8
0
100
AcDbLine
 10
279.0989999999999
 20
572.0
 30
0.0
 11
279.0989999999999
 21
579.0
 31
0.0
  0
LINE
  5
307
330
1E
100
AcDbEntity
  8
0
100
AcDbLine
 10
279.0989999999999
 20
565.0
 30
0.0
 11
279.0989999999999
 21
510.0
 31
0.0
  0
LINE
  5
308
330
1E
100
AcDbEntity
  8
0
100
AcDbLine
 10
279.0989999999999
 20
579.0
 30
0.0
 11
279.0989999999999
 21
572.0
 31
0.0
  0
LINE
  5
309
330
1E
100
AcDbEntity
  8
0
100
AcDbLine
 10
279.2429999999999
 20
510.0
 30
0.0
 11
280.5219999999999
 21
510.0
 31
0.0
  0
LINE
  5
30A
330
1E
100
AcDbEntity
  8
0
100
AcDbLine
 10
281.877
 20
480.0
 30
0.0
 11
284.397
 21
480.0
 31
0.0
  0
LINE
  5
30B
330
1E
100
AcDbEntity
  8
0
100
AcDbLine
 10
283.123
 20
478.5709999999999
 30
0.0
 11
283.123
 21
471.429
 31
0.0
  0
LINE
  5
30C
330
1E
100
AcDbEntity
  8
0
100
AcDbLine
 10
283.123
 20
478.5709999999999
 30
0.0
 11
283.247
 21
479.286
 31
0.0
  0
LINE
  5
30F
330
1E
100
AcDbEntity
  8
0
100
AcDbLine
 10
283.123
 20
471.429
 30
0.0
 11
283.247
 21
470.7139999999998
 31
0.0
  0
LINE
  5
310
330
1E
100
AcDbEntity
  8
0
100
AcDbLine
 10
283.123
 20
471.429
 30
0.0
 11
283.123
 21
478.5709999999999
 31
0.0
  0
LINE
  5
311
330
1E
100
AcDbEntity
  8
0
100
AcDbLine
 10
283.247
 20
479.286
 30
0.0
 11
283.6899999999999
 21
479.829
 31
0.0
  0
LINE
  5
312
330
1E
100
AcDbEntity
  8
0
100
AcDbLine
 10
283.247
 20
470.7139999999998
 30
0.0
 11
283.6899999999999
 21
470.171
 31
0.0
  0
LINE
  5
313
330
1E
100
AcDbEntity
  8
0
100
AcDbLine
 10
283.6899999999999
 20
479.829
 30
0.0
 11
284.167
 21
479.929
 31
0.0
  0
LINE
  5
314
330
1E
100
AcDbEntity
  8
0
100
AcDbLine
 10
283.6899999999999
 20
479.829
 30
0.0
 11
284.397
 21
480.0
 31
0.0
  0
LINE
  5
315
330
1E
100
AcDbEntity
  8
0
100
AcDbLine
 10
283.6899999999999
 20
470.171
 30
0.0
 11
284.167
 21
470.0709999999999
 31
0.0
  0
LINE
  5
316
330
1E
100
AcDbEntity
  8
0
100
AcDbLine
 10
283.6899999999999
 20
470.171
 30
0.0
 11
284.397
 21
470.0
 31
0.0
  0
LINE
  5
317
330
1E
100
AcDbEntity
  8
0
100
AcDbLine
 10
282.7009999999999
 20
480.0
 30
0.0
 11
285.8109999999998
 21
480.0
 31
0.0
  0
LINE
  5
318
330
1E
100
AcDbEntity
  8
0
100
AcDbLine
 10
281.444
 20
572.0
 30
0.0
 11
285.4659999999999
 21
572.0
 31
0.0
  0
LINE
  5
319
330
1E
100
AcDbEntity
  8
0
100
AcDbLine
 10
281.444
 20
569.0
 30
0.0
 11
285.4659999999999
 21
569.0
 31
0.0
  0
LINE
  5
31A
330
1E
100
AcDbEntity
  8
0
100
AcDbLine
 10
282.7009999999999
 20
510.0
 30
0.0
 11
285.8109999999998
 21
510.0
 31
0.0
  0
LINE
  5
31B
330
1E
100
AcDbEntity
  8
0
100
AcDbLine
 10
280.8399999999999
 20
579.0
 30
0.0
 11
285.0799999999998
 21
579.0
 31
0.0
  0
LINE
  5
31C
330
1E
100
AcDbEntity
  8
0
100
AcDbLine
 10
279.0989999999999
 20
589.0
 30
0.0
 11
279.0989999999999
 21
600.0
 31
0.0
  0
LINE
  5
31D
330
1E
100
AcDbEntity
  8
0
100
AcDbLine
 10
279.0989999999999
 20
600.0
 30
0.0
 11
279.0989999999999
 21
589.0
 31
0.0
  0
LINE
  5
31E
330
1E
100
AcDbEntity
  8
0
100
AcDbLine
 10
279.0989999999999
 20
600.0
 30
0.0
 11
279.2429999999999
 21
600.0
 31
0.0
  0
LINE
  5
31F
330
1E
100
AcDbEntity
  8
0
100
AcDbLine
 10
282.7009999999999
 20
600.0
 30
0.0
 11
285.8109999999998
 21
600.0
 31
0.0
  0
LINE
  5
320
330
1E
100
AcDbEntity
  8
0
100
AcDbLine
 10
279.6259999999999
 20
601.7859999999998
 30
0.0
 11
283.5139999999999
 21
601.7859999999998
 31
0.0
  0
LINE
  5
321
330
1E
100
AcDbEntity
  8
0
100
AcDbLine
 10
279.6259999999999
 20
600.214
 30
0.0
 11
283.5139999999999
 21
600.214
 31
0.0
  0
LINE
  5
322
330
1E
100
AcDbEntity
  8
0
100
AcDbLine
 10
283.5139999999999
 20
601.7859999999998
 30
0.0
 11
288.245
 21
601.7859999999998
 31
0.0
  0
LINE
  5
323
330
1E
100
AcDbEntity
  8
0
100
AcDbLine
 10
283.5139999999999
 20
600.214
 30
0.0
 11
288.245
 21
600.214
 31
0.0
  0
LINE
  5
324
330
1E
100
AcDbEntity
  8
0
100
AcDbLine
 10
280.5219999999999
 20
600.0
 30
0.0
 11
282.7009999999999
 21
600.0
 31
0.0
  0
LINE
  5
325
330
1E
100
AcDbEntity
  8
0
100
AcDbLine
 10
279.2429999999999
 20
600.0
 30
0.0
 11
280.5219999999999
 21
600.0
 31
0.0
  0
LINE
  5
326
330
1E
100
AcDbEntity
  8
0
100
AcDbLine
 10
280.8399999999999
 20
589.0
 30
0.0
 11
285.0799999999998
 21
589.0
 31
0.0
  0
LINE
  5
327
330
1E
100
AcDbEntity
  8
0
100
AcDbLine
 10
277.6399999999999
 20
589.0
 30
0.0
 11
280.8399999999999
 21
589.0
 31
0.0
  0
LINE
  5
328
330
1E
100
AcDbEntity
  8
0
100
AcDbLine
 10
277.6399999999999
 20
579.0
 30
0.0
 11
280.8399999999999
 21
579.0
 31
0.0
  0
LINE
  5
32B
330
1E
100
AcDbEntity
  8
0
100
AcDbLine
 10
288.0819999999999
 20
470.0
 30
0.0
 11
289.8309999999998
 21
470.0
 31
0.0
  0
LINE
  5
32C
330
1E
100
AcDbEntity
  8
0
100
AcDbLine
 10
286.856
 20
470.0
 30
0.0
 11
288.0819999999999
 21
470.0
 31
0.0
  0
LINE
  5
32D
330
1E
100
AcDbEntity
  8
0
100
AcDbLine
 10
286.1369999999999
 20
470.0
 30
0.0
 11
286.856
 21
470.0
 31
0.0
  0
LINE
  5
32E
330
1E
100
AcDbEntity
  8
0
100
AcDbLine
 10
286.0559999999998
 20
470.0
 30
0.0
 11
286.1369999999999
 21
470.0
 31
0.0
  0
LINE
  5
32F
330
1E
100
AcDbEntity
  8
0
100
AcDbLine
 10
286.0559999999998
 20
470.0
 30
0.0
 11
286.0559999999998
 21
450.0
 31
0.0
  0
LINE
  5
330
330
1E
100
AcDbEntity
  8
0
100
AcDbLine
 10
286.0559999999998
 20
450.0
 30
0.0
 11
286.0559999999998
 21
470.0
 31
0.0
  0
LINE
  5
331
330
1E
100
AcDbEntity
  8
0
100
AcDbLine
 10
284.397
 20
470.0
 30
0.0
 11
286.0559999999998
 21
470.0
 31
0.0
  0
LINE
  5
332
330
1E
100
AcDbEntity
  8
0
100
AcDbLine
 10
284.397
 20
480.0
 30
0.0
 11
284.452
 21
480.0
 31
0.0
  0
LINE
  5
333
330
1E
100
AcDbEntity
  8
0
100
AcDbLine
 10
284.452
 20
480.0
 30
0.0
 11
285.3059999999998
 21
480.0
 31
0.0
  0
LINE
  5
334
330
1E
100
AcDbEntity
  8
0
100
AcDbLine
 10
285.087
 20
470.7139999999998
 30
0.0
 11
285.4089999999998
 21
470.7139999999998
 31
0.0
  0
LINE
  5
33A
330
1E
100
AcDbEntity
  8
0
100
AcDbLine
 10
285.4089999999998
 20
470.7139999999998
 30
0.0
 11
286.2629999999998
 21
470.7139999999998
 31
0.0
  0
LINE
  5
33C
330
1E
100
AcDbEntity
  8
0
100
AcDbLine
 10
288.249
 20
470.26
 30
0.0
 11
291.0839999999998
 21
470.1439999999998
 31
0.0
  0
LINE
  5
33D
330
1E
100
AcDbEntity
  8
0
100
AcDbLine
 10
286.2629999999998
 20
470.7139999999998
 30
0.0
 11
288.249
 21
470.26
 31
0.0
  0
LINE
  5
340
330
1E
100
AcDbEntity
  8
0
100
AcDbLine
 10
285.4089999999998
 20
479.286
 30
0.0
 11
286.2629999999998
 21
479.286
 31
0.0
  0
LINE
  5
341
330
1E
100
AcDbEntity
  8
0
100
AcDbLine
 10
286.2629999999998
 20
479.286
 30
0.0
 11
288.249
 21
479.74
 31
0.0
  0
LINE
  5
344
330
1E
100
AcDbEntity
  8
0
100
AcDbLine
 10
285.3059999999998
 20
480.0
 30
0.0
 11
286.749
 21
480.0
 31
0.0
  0
LINE
  5
345
330
1E
100
AcDbEntity
  8
0
100
AcDbLine
 10
286.749
 20
480.0
 30
0.0
 11
288.7719999999998
 21
480.0
 31
0.0
  0
LINE
  5
348
330
1E
100
AcDbEntity
  8
0
100
AcDbLine
 10
288.7719999999998
 20
480.0
 30
0.0
 11
291.27
 21
480.0
 31
0.0
  0
LINE
  5
34A
330
1E
100
AcDbEntity
  8
0
100
AcDbLine
 10
288.249
 20
479.74
 30
0.0
 11
291.0839999999998
 21
479.856
 31
0.0
  0
LINE
  5
34D
330
1E
100
AcDbEntity
  8
0
100
AcDbLine
 10
285.087
 20
479.286
 30
0.0
 11
285.4089999999998
 21
479.286
 31
0.0
  0
LINE
  5
34E
330
1E
100
AcDbEntity
  8
0
100
AcDbLine
 10
284.6449999999998
 20
479.829
 30
0.0
 11
285.087
 21
479.286
 31
0.0
  0
LINE
  5
352
330
1E
100
AcDbEntity
  8
0
100
AcDbLine
 10
284.6449999999998
 20
470.171
 30
0.0
 11
285.087
 21
470.7139999999998
 31
0.0
  0
LINE
  5
353
330
1E
100
AcDbEntity
  8
0
100
AcDbLine
 10
284.167
 20
479.929
 30
0.0
 11
284.6449999999998
 21
479.829
 31
0.0
  0
LINE
  5
354
330
1E
100
AcDbEntity
  8
0
100
AcDbLine
 10
284.167
 20
470.0709999999999
 30
0.0
 11
284.6449999999998
 21
470.171
 31
0.0
  0
LINE
  5
355
330
1E
100
AcDbEntity
  8
0
100
AcDbLine
 10
289.596
 20
480.0
 30
0.0
 11
293.6449999999998
 21
480.0
 31
0.0
  0
LINE
  5
356
330
1E
100
AcDbEntity
  8
0
100
AcDbLine
 10
285.8109999999998
 20
480.0
 30
0.0
 11
289.596
 21
480.0
 31
0.0
  0
LINE
  5
357
330
1E
100
AcDbEntity
  8
0
100
AcDbLine
 10
289.8309999999998
 20
470.0
 30
0.0
 11
291.9599999999998
 21
470.0
 31
0.0
  0
LINE
  5
358
330
1E
100
AcDbEntity
  8
0
100
AcDbLine
 10
289.596
 20
510.0
 30
0.0
 11
293.6449999999998
 21
510.0
 31
0.0
  0
LINE
  5
359
330
1E
100
AcDbEntity
  8
0
100
AcDbLine
 10
285.4659999999999
 20
572.0
 30
0.0
 11
290.0819999999999
 21
572.0
 31
0.0
  0
LINE
  5
35A
330
1E
100
AcDbEntity
  8
0
100
AcDbLine
 10
285.4659999999999
 20
569.0
 30
0.0
 11
290.0819999999999
 21
569.0
 31
0.0
  0
LINE
  5
35B
330
1E
100
AcDbEntity
  8
0
100
AcDbLine
 10
285.8109999999998
 20
510.0
 30
0.0
 11
289.596
 21
510.0
 31
0.0
  0
LINE
  5
35C
330
1E
100
AcDbEntity
  8
0
100
AcDbLine
 10
291.0839999999998
 20
470.1439999999998
 30
0.0
 11
293.9039999999998
 21
470.299
 31
0.0
  0
LINE
  5
35F
330
1E
100
AcDbEntity
  8
0
100
AcDbLine
 10
291.0839999999998
 20
479.856
 30
0.0
 11
293.9039999999998
 21
479.7009999999998
 31
0.0
  0
LINE
  5
360
330
1E
100
AcDbEntity
  8
0
100
AcDbLine
 10
291.9599999999998
 20
470.0
 30
0.0
 11
294.2379999999999
 21
470.0
 31
0.0
  0
LINE
  5
361
330
1E
100
AcDbEntity
  8
0
100
AcDbLine
 10
291.27
 20
480.0
 30
0.0
 11
293.949
 21
480.0
 31
0.0
  0
LINE
  5
363
330
1E
100
AcDbEntity
  8
0
100
AcDbLine
 10
290.0819999999999
 20
572.0
 30
0.0
 11
295.053
 21
572.0
 31
0.0
  0
LINE
  5
364
330
1E
100
AcDbEntity
  8
0
100
AcDbLine
 10
290.0819999999999
 20
569.0
 30
0.0
 11
295.053
 21
569.0
 31
0.0
  0
LINE
  5
365
330
1E
100
AcDbEntity
  8
0
100
AcDbLine
 10
293.6449999999998
 20
480.0
 30
0.0
 11
297.778
 21
480.0
 31
0.0
  0
LINE
  5
366
330
1E
100
AcDbEntity
  8
0
100
AcDbLine
 10
294.2379999999999
 20
470.0
 30
0.0
 11
296.5629999999998
 21
470.0
 31
0.0
  0
LINE
  5
367
330
1E
100
AcDbEntity
  8
0
100
AcDbLine
 10
296.5629999999998
 20
470.0
 30
0.0
 11
298.776
 21
470.0
 31
0.0
  0
LINE
  5
368
330
1E
100
AcDbEntity
  8
0
100
AcDbLine
 10
296.752
 20
470.0
 30
0.0
 11
299.4229999999999
 21
470.0
 31
0.0
  0
LINE
  5
369
330
1E
100
AcDbEntity
  8
0
100
AcDbLine
 10
297.0359999999999
 20
470.7139999999998
 30
0.0
 11
298.343
 21
470.7139999999998
 31
0.0
  0
LINE
  5
36D
330
1E
100
AcDbEntity
  8
0
100
AcDbLine
 10
297.0359999999999
 20
479.286
 30
0.0
 11
298.343
 21
479.286
 31
0.0
  0
LINE
  5
36E
330
1E
100
AcDbEntity
  8
0
100
AcDbLine
 10
295.665
 20
479.286
 30
0.0
 11
297.0359999999999
 21
479.286
 31
0.0
  0
LINE
  5
370
330
1E
100
AcDbEntity
  8
0
100
AcDbLine
 10
295.665
 20
470.7139999999998
 30
0.0
 11
297.0359999999999
 21
470.7139999999998
 31
0.0
  0
LINE
  5
372
330
1E
100
AcDbEntity
  8
0
100
AcDbLine
 10
293.9039999999998
 20
470.299
 30
0.0
 11
295.665
 21
470.7139999999998
 31
0.0
  0
LINE
  5
374
330
1E
100
AcDbEntity
  8
0
100
AcDbLine
 10
296.752
 20
480.0
 30
0.0
 11
299.4229999999999
 21
480.0
 31
0.0
  0
LINE
  5
377
330
1E
100
AcDbEntity
  8
0
100
AcDbLine
 10
293.949
 20
480.0
 30
0.0
 11
296.752
 21
480.0
 31
0.0
  0
LINE
  5
379
330
1E
100
AcDbEntity
  8
0
100
AcDbLine
 10
293.9039999999998
 20
479.7009999999998
 30
0.0
 11
295.665
 21
479.286
 31
0.0
  0
LINE
  5
37C
330
1E
100
AcDbEntity
  8
0
100
AcDbLine
 10
298.776
 20
470.0
 30
0.0
 11
300.753
 21
470.0
 31
0.0
  0
LINE
  5
37E
330
1E
100
AcDbEntity
  8
0
100
AcDbLine
 10
299.4229999999999
 20
470.0
 30
0.0
 11
301.7609999999999
 21
470.0
 31
0.0
  0
LINE
  5
381
330
1E
100
AcDbEntity
  8
0
100
AcDbLine
 10
299.4229999999999
 20
480.0
 30
0.0
 11
301.7609999999999
 21
480.0
 31
0.0
  0
LINE
  5
382
330
1E
100
AcDbEntity
  8
0
100
AcDbLine
 10
298.343
 20
479.286
 30
0.0
 11
299.797
 21
479.7009999999998
 31
0.0
  0
LINE
  5
383
330
1E
100
AcDbEntity
  8
0
100
AcDbLine
 10
298.343
 20
470.7139999999998
 30
0.0
 11
299.797
 21
470.299
 31
0.0
  0
LINE
  5
384
330
1E
100
AcDbEntity
  8
0
100
AcDbLine
 10
299.797
 20
479.7009999999998
 30
0.0
 11
302.1129999999998
 21
479.856
 31
0.0
  0
LINE
  5
386
330
1E
100
AcDbEntity
  8
0
100
AcDbLine
 10
299.797
 20
470.299
 30
0.0
 11
302.1129999999998
 21
470.1439999999998
 31
0.0
  0
LINE
  5
387
330
1E
100
AcDbEntity
  8
0
100
AcDbLine
 10
297.778
 20
480.0
 30
0.0
 11
301.7119999999998
 21
480.0
 31
0.0
  0
LINE
  5
388
330
1E
100
AcDbEntity
  8
0
100
AcDbLine
 10
295.053
 20
572.0
 30
0.0
 11
300.0189999999999
 21
572.0
 31
0.0
  0
LINE
  5
389
330
1E
100
AcDbEntity
  8
0
100
AcDbLine
 10
300.0189999999999
 20
572.0
 30
0.0
 11
304.7749999999998
 21
572.0
 31
0.0
  0
LINE
  5
38A
330
1E
100
AcDbEntity
  8
0
100
AcDbLine
 10
295.053
 20
569.0
 30
0.0
 11
300.0189999999999
 21
569.0
 31
0.0
  0
LINE
  5
38B
330
1E
100
AcDbEntity
  8
0
100
AcDbLine
 10
300.0189999999999
 20
569.0
 30
0.0
 11
304.7749999999998
 21
569.0
 31
0.0
  0
LINE
  5
38C
330
1E
100
AcDbEntity
  8
0
100
AcDbLine
 10
297.778
 20
510.0
 30
0.0
 11
301.7119999999998
 21
510.0
 31
0.0
  0
LINE
  5
38D
330
1E
100
AcDbEntity
  8
0
100
AcDbLine
 10
293.6449999999998
 20
510.0
 30
0.0
 11
297.778
 21
510.0
 31
0.0
  0
LINE
  5
38E
330
1E
100
AcDbEntity
  8
0
100
AcDbLine
 10
295.0
 20
579.0
 30
0.0
 11
300.12
 21
579.0
 31
0.0
  0
LINE
  5
38F
330
1E
100
AcDbEntity
  8
0
100
AcDbLine
 10
300.753
 20
470.0
 30
0.0
 11
302.382
 21
470.0
 31
0.0
  0
LINE
  5
391
330
1E
100
AcDbEntity
  8
0
100
AcDbLine
 10
302.382
 20
470.0
 30
0.0
 11
303.468
 21
470.0
 31
0.0
  0
LINE
  5
392
330
1E
100
AcDbEntity
  8
0
100
AcDbLine
 10
303.468
 20
470.0
 30
0.0
 11
303.944
 21
470.0
 31
0.0
  0
LINE
  5
393
330
1E
100
AcDbEntity
  8
0
100
AcDbLine
 10
303.944
 20
450.0
 30
0.0
 11
303.944
 21
470.0
 31
0.0
  0
LINE
  5
394
330
1E
100
AcDbEntity
  8
0
100
AcDbLine
 10
303.944
 20
470.0
 30
0.0
 11
304.694
 21
470.0
 31
0.0
  0
LINE
  5
395
330
1E
100
AcDbEntity
  8
0
100
AcDbLine
 10
303.944
 20
470.0
 30
0.0
 11
303.944
 21
450.0
 31
0.0
  0
LINE
  5
396
330
1E
100
AcDbEntity
  8
0
100
AcDbLine
 10
302.1129999999998
 20
470.1439999999998
 30
0.0
 11
304.4409999999998
 21
470.26
 31
0.0
  0
LINE
  5
398
330
1E
100
AcDbEntity
  8
0
100
AcDbLine
 10
301.7609999999999
 20
480.0
 30
0.0
 11
303.7099999999998
 21
480.0
 31
0.0
  0
LINE
  5
39A
330
1E
100
AcDbEntity
  8
0
100
AcDbLine
 10
303.7099999999998
 20
480.0
 30
0.0
 11
304.994
 21
480.0
 31
0.0
  0
LINE
  5
39C
330
1E
100
AcDbEntity
  8
0
100
AcDbLine
 10
302.1129999999998
 20
479.856
 30
0.0
 11
304.4409999999998
 21
479.74
 31
0.0
  0
LINE
  5
39E
330
1E
100
AcDbEntity
  8
0
100
AcDbLine
 10
304.4409999999998
 20
479.74
 30
0.0
 11
306.0719999999998
 21
479.286
 31
0.0
  0
LINE
  5
3A1
330
1E
100
AcDbEntity
  8
0
100
AcDbLine
 10
304.694
 20
470.0
 30
0.0
 11
305.548
 21
470.0
 31
0.0
  0
LINE
  5
3A2
330
1E
100
AcDbEntity
  8
0
100
AcDbLine
 10
304.994
 20
470.0
 30
0.0
 11
305.603
 21
470.0
 31
0.0
  0
LINE
  5
3A3
330
1E
100
AcDbEntity
  8
0
100
AcDbLine
 10
304.994
 20
480.0
 30
0.0
 11
305.603
 21
480.0
 31
0.0
  0
LINE
  5
3A6
330
1E
100
AcDbEntity
  8
0
100
AcDbLine
 10
304.4409999999998
 20
470.26
 30
0.0
 11
306.0719999999998
 21
470.7139999999998
 31
0.0
  0
LINE
  5
3A7
330
1E
100
AcDbEntity
  8
0
100
AcDbLine
 10
301.7119999999998
 20
480.0
 30
0.0
 11
305.227
 21
480.0
 31
0.0
  0
LINE
  5
3A8
330
1E
100
AcDbEntity
  8
0
100
AcDbLine
 10
305.227
 20
480.0
 30
0.0
 11
308.123
 21
480.0
 31
0.0
  0
LINE
  5
3A9
330
1E
100
AcDbEntity
  8
0
100
AcDbLine
 10
301.7119999999998
 20
510.0
 30
0.0
 11
305.227
 21
510.0
 31
0.0
  0
LINE
  5
3AA
330
1E
100
AcDbEntity
  8
0
100
AcDbLine
 10
305.548
 20
470.0
 30
0.0
 11
305.603
 21
470.0
 31
0.0
  0
LINE
  5
3AD
330
1E
100
AcDbEntity
  8
0
100
AcDbLine
 10
306.0719999999998
 20
470.7139999999998
 30
0.0
 11
306.618
 21
470.7139999999998
 31
0.0
  0
LINE
  5
3B0
330
1E
100
AcDbEntity
  8
0
100
AcDbLine
 10
305.603
 20
470.0
 30
0.0
 11
306.3099999999999
 21
470.171
 31
0.0
  0
LINE
  5
3B1
330
1E
100
AcDbEntity
  8
0
100
AcDbLine
 10
306.618
 20
470.7139999999998
 30
0.0
 11
306.753
 21
470.7139999999998
 31
0.0
  0
LINE
  5
3B3
330
1E
100
AcDbEntity
  8
0
100
AcDbLine
 10
306.877
 20
471.429
 30
0.0
 11
306.877
 21
478.5709999999999
 31
0.0
  0
LINE
  5
3B6
330
1E
100
AcDbEntity
  8
0
100
AcDbLine
 10
306.753
 20
479.286
 30
0.0
 11
306.877
 21
478.5709999999999
 31
0.0
  0
LINE
  5
3B7
330
1E
100
AcDbEntity
  8
0
100
AcDbLine
 10
306.877
 20
478.5709999999999
 30
0.0
 11
306.877
 21
471.429
 31
0.0
  0
LINE
  5
3B8
330
1E
100
AcDbEntity
  8
0
100
AcDbLine
 10
306.753
 20
470.7139999999998
 30
0.0
 11
306.877
 21
471.429
 31
0.0
  0
LINE
  5
3B9
330
1E
100
AcDbEntity
  8
0
100
AcDbLine
 10
306.3099999999999
 20
479.829
 30
0.0
 11
306.753
 21
479.286
 31
0.0
  0
LINE
  5
3BA
330
1E
100
AcDbEntity
  8
0
100
AcDbLine
 10
306.3099999999999
 20
470.171
 30
0.0
 11
306.753
 21
470.7139999999998
 31
0.0
  0
LINE
  5
3BD
330
1E
100
AcDbEntity
  8
0
100
AcDbLine
 10
306.0719999999998
 20
479.286
 30
0.0
 11
306.877
 21
478.5709999999999
 31
0.0
  0
LINE
  5
3BE
330
1E
100
AcDbEntity
  8
0
100
AcDbLine
 10
305.603
 20
480.0
 30
0.0
 11
307.299
 21
480.0
 31
0.0
  0
LINE
  5
3BF
330
1E
100
AcDbEntity
  8
0
100
AcDbLine
 10
305.603
 20
480.0
 30
0.0
 11
306.3099999999999
 21
479.829
 31
0.0
  0
LINE
  5
3C0
330
1E
100
AcDbEntity
  8
0
100
AcDbLine
 10
307.299
 20
480.0
 30
0.0
 11
309.478
 21
480.0
 31
0.0
  0
LINE
  5
3C1
330
1E
100
AcDbEntity
  8
0
100
AcDbLine
 10
308.123
 20
480.0
 30
0.0
 11
310.055
 21
480.0
 31
0.0
  0
LINE
  5
3C4
330
1E
100
AcDbEntity
  8
0
100
AcDbLine
 10
305.227
 20
510.0
 30
0.0
 11
308.123
 21
510.0
 31
0.0
  0
LINE
  5
3C5
330
1E
100
AcDbEntity
  8
0
100
AcDbLine
 10
304.7749999999998
 20
572.0
 30
0.0
 11
308.813
 21
572.0
 31
0.0
  0
LINE
  5
3C6
330
1E
100
AcDbEntity
  8
0
100
AcDbLine
 10
308.813
 20
572.0
 30
0.0
 11
311.791
 21
572.0
 31
0.0
  0
LINE
  5
3C7
330
1E
100
AcDbEntity
  8
0
100
AcDbLine
 10
304.7749999999998
 20
569.0
 30
0.0
 11
308.813
 21
569.0
 31
0.0
  0
LINE
  5
3C8
330
1E
100
AcDbEntity
  8
0
100
AcDbLine
 10
308.813
 20
569.0
 30
0.0
 11
311.791
 21
569.0
 31
0.0
  0
LINE
  5
3C9
330
1E
100
AcDbEntity
  8
0
100
AcDbLine
 10
308.123
 20
510.0
 30
0.0
 11
310.055
 21
510.0
 31
0.0
  0
LINE
  5
3CA
330
1E
100
AcDbEntity
  8
0
100
AcDbLine
 10
300.12
 20
579.0
 30
0.0
 11
304.92
 21
579.0
 31
0.0
  0
LINE
  5
3CB
330
1E
100
AcDbEntity
  8
0
100
AcDbLine
 10
304.92
 20
579.0
 30
0.0
 11
309.16
 21
579.0
 31
0.0
  0
LINE
  5
3CC
330
1E
100
AcDbEntity
  8
0
100
AcDbLine
 10
309.478
 20
480.0
 30
0.0
 11
310.7569999999999
 21
480.0
 31
0.0
  0
LINE
  5
3CD
330
1E
100
AcDbEntity
  8
0
100
AcDbLine
 10
310.055
 20
480.0
 30
0.0
 11
310.901
 21
480.0
 31
0.0
  0
LINE
  5
3CE
330
1E
100
AcDbEntity
  8
0
100
AcDbLine
 10
310.901
 20
480.0
 30
0.0
 11
310.901
 21
485.0
 31
0.0
  0
LINE
  5
3CF
330
1E
100
AcDbEntity
  8
0
100
AcDbLine
 10
310.7569999999999
 20
480.0
 30
0.0
 11
310.901
 21
480.0
 31
0.0
  0
LINE
  5
3D0
330
1E
100
AcDbEntity
  8
0
100
AcDbLine
 10
310.901
 20
485.0
 30
0.0
 11
310.901
 21
480.0
 31
0.0
  0
LINE
  5
3D1
330
1E
100
AcDbEntity
  8
0
100
AcDbLine
 10
310.901
 20
507.0
 30
0.0
 11
310.901
 21
510.0
 31
0.0
  0
LINE
  5
3D2
330
1E
100
AcDbEntity
  8
0
100
AcDbLine
 10
310.901
 20
485.0
 30
0.0
 11
327.4579999999999
 21
485.0
 31
0.0
  0
LINE
  5
3D4
330
1E
100
AcDbEntity
  8
0
100
AcDbLine
 10
310.901
 20
507.0
 30
0.0
 11
327.4579999999999
 21
507.0
 31
0.0
  0
LINE
  5
3D5
330
1E
100
AcDbEntity
  8
0
100
AcDbLine
 10
310.901
 20
510.0
 30
0.0
 11
310.901
 21
565.0
 31
0.0
  0
LINE
  5
3D6
330
1E
100
AcDbEntity
  8
0
100
AcDbLine
 10
310.901
 20
510.0
 30
0.0
 11
310.901
 21
507.0
 31
0.0
  0
LINE
  5
3D7
330
1E
100
AcDbEntity
  8
0
100
AcDbLine
 10
310.901
 20
550.0
 30
0.0
 11
390.0389999999998
 21
550.0
 31
0.0
  0
LINE
  5
3D8
330
1E
100
AcDbEntity
  8
0
100
AcDbLine
 10
310.8849999999999
 20
565.0
 30
0.0
 11
311.6229999999998
 21
565.0
 31
0.0
  0
LINE
  5
3D9
330
1E
100
AcDbEntity
  8
0
100
AcDbLine
 10
310.572
 20
565.0
 30
0.0
 11
310.8849999999999
 21
565.0
 31
0.0
  0
LINE
  5
3DA
330
1E
100
AcDbEntity
  8
0
100
AcDbLine
 10
310.8959999999999
 20
565.0
 30
0.0
 11
311.61
 21
565.0
 31
0.0
  0
LINE
  5
3DB
330
1E
100
AcDbEntity
  8
0
100
AcDbLine
 10
310.2749999999998
 20
565.0
 30
0.0
 11
310.8959999999999
 21
565.0
 31
0.0
  0
LINE
  5
3DC
330
1E
100
AcDbEntity
  8
0
100
AcDbLine
 10
310.8959999999999
 20
569.0
 30
0.0
 11
311.61
 21
569.0
 31
0.0
  0
LINE
  5
3DD
330
1E
100
AcDbEntity
  8
0
100
AcDbLine
 10
310.392
 20
572.0
 30
0.0
 11
310.392
 21
579.0
 31
0.0
  0
LINE
  5
3DE
330
1E
100
AcDbEntity
  8
0
100
AcDbLine
 10
310.6519999999998
 20
579.0
 30
0.0
 11
310.979
 21
579.0
 31
0.0
  0
LINE
  5
3DF
330
1E
100
AcDbEntity
  8
0
100
AcDbLine
 10
310.453
 20
579.0
 30
0.0
 11
310.6519999999998
 21
579.0
 31
0.0
  0
LINE
  5
3E0
330
1E
100
AcDbEntity
  8
0
100
AcDbLine
 10
310.392
 20
579.0
 30
0.0
 11
310.392
 21
572.0
 31
0.0
  0
LINE
  5
3E1
330
1E
100
AcDbEntity
  8
0
100
AcDbLine
 10
310.392
 20
579.0
 30
0.0
 11
310.453
 21
579.0
 31
0.0
  0
LINE
  5
3E2
330
1E
100
AcDbEntity
  8
0
100
AcDbLine
 10
310.2749999999998
 20
569.0
 30
0.0
 11
310.8959999999999
 21
569.0
 31
0.0
  0
LINE
  5
3E3
330
1E
100
AcDbEntity
  8
0
100
AcDbLine
 10
309.785
 20
569.0
 30
0.0
 11
310.2749999999998
 21
569.0
 31
0.0
  0
LINE
  5
3E4
330
1E
100
AcDbEntity
  8
0
100
AcDbLine
 10
278.377
 20
565.0
 30
0.0
 11
310.2749999999998
 21
565.0
 31
0.0
  0
LINE
  5
3E5
330
1E
100
AcDbEntity
  8
0
100
AcDbLine
 10
311.6229999999998
 20
565.0
 30
0.0
 11
312.3929999999998
 21
565.0
 31
0.0
  0
LINE
  5
3E6
330
1E
100
AcDbEntity
  8
0
100
AcDbLine
 10
311.61
 20
569.0
 30
0.0
 11
312.38
 21
569.0
 31
0.0
  0
LINE
  5
3E7
330
1E
100
AcDbEntity
  8
0
100
AcDbLine
 10
311.61
 20
565.0
 30
0.0
 11
312.38
 21
565.0
 31
0.0
  0
LINE
  5
3E8
330
1E
100
AcDbEntity
  8
0
100
AcDbLine
 10
313.163
 20
565.0
 30
0.0
 11
313.877
 21
565.0
 31
0.0
  0
LINE
  5
3E9
330
1E
100
AcDbEntity
  8
0
100
AcDbLine
 10
312.3929999999998
 20
565.0
 30
0.0
 11
313.163
 21
565.0
 31
0.0
  0
LINE
  5
3EA
330
1E
100
AcDbEntity
  8
0
100
AcDbLine
 10
312.38
 20
565.0
 30
0.0
 11
313.1499999999998
 21
565.0
 31
0.0
  0
LINE
  5
3EB
330
1E
100
AcDbEntity
  8
0
100
AcDbLine
 10
312.38
 20
569.0
 30
0.0
 11
313.1499999999998
 21
569.0
 31
0.0
  0
LINE
  5
3EC
330
1E
100
AcDbEntity
  8
0
100
AcDbLine
 10
313.1499999999998
 20
569.0
 30
0.0
 11
313.8889999999999
 21
569.0
 31
0.0
  0
LINE
  5
3ED
330
1E
100
AcDbEntity
  8
0
100
AcDbLine
 10
313.1499999999998
 20
565.0
 30
0.0
 11
313.8889999999999
 21
565.0
 31
0.0
  0
LINE
  5
3EE
330
1E
100
AcDbEntity
  8
0
100
AcDbLine
 10
311.791
 20
569.0
 30
0.0
 11
313.047
 21
569.0
 31
0.0
  0
LINE
  5
3EF
330
1E
100
AcDbEntity
  8
0
100
AcDbLine
 10
311.3929999999998
 20
579.0
 30
0.0
 11
311.869
 21
579.0
 31
0.0
  0
LINE
  5
3F0
330
1E
100
AcDbEntity
  8
0
100
AcDbLine
 10
310.979
 20
579.0
 30
0.0
 11
311.3929999999998
 21
579.0
 31
0.0
  0
LINE
  5
3F1
330
1E
100
AcDbEntity
  8
0
100
AcDbLine
 10
311.869
 20
579.0
 30
0.0
 11
312.382
 21
579.0
 31
0.0
  0
LINE
  5
3F2
330
1E
100
AcDbEntity
  8
0
100
AcDbLine
 10
312.382
 20
579.0
 30
0.0
 11
312.8959999999999
 21
579.0
 31
0.0
  0
LINE
  5
3F3
330
1E
100
AcDbEntity
  8
0
100
AcDbLine
 10
312.8959999999999
 20
579.0
 30
0.0
 11
313.3879999999998
 21
579.0
 31
0.0
  0
LINE
  5
3F4
330
1E
100
AcDbEntity
  8
0
100
AcDbLine
 10
311.791
 20
572.0
 30
0.0
 11
313.047
 21
572.0
 31
0.0
  0
LINE
  5
3F5
330
1E
100
AcDbEntity
  8
0
100
AcDbLine
 10
313.047
 20
572.0
 30
0.0
 11
314.057
 21
572.0
 31
0.0
  0
LINE
  5
3F6
330
1E
100
AcDbEntity
  8
0
100
AcDbLine
 10
313.047
 20
569.0
 30
0.0
 11
314.057
 21
569.0
 31
0.0
  0
LINE
  5
3F7
330
1E
100
AcDbEntity
  8
0
100
AcDbLine
 10
310.901
 20
565.0
 30
0.0
 11
310.901
 21
510.0
 31
0.0
  0
LINE
  5
3F8
330
1E
100
AcDbEntity
  8
0
100
AcDbLine
 10
310.055
 20
510.0
 30
0.0
 11
310.901
 21
510.0
 31
0.0
  0
LINE
  5
3F9
330
1E
100
AcDbEntity
  8
0
100
AcDbLine
 10
309.16
 20
579.0
 30
0.0
 11
312.36
 21
579.0
 31
0.0
  0
LINE
  5
3FA
330
1E
100
AcDbEntity
  8
0
100
AcDbLine
 10
312.36
 20
579.0
 30
0.0
 11
314.2799999999998
 21
579.0
 31
0.0
  0
LINE
  5
3FB
330
1E
100
AcDbEntity
  8
0
100
AcDbLine
 10
289.8799999999998
 20
579.0
 30
0.0
 11
295.0
 21
579.0
 31
0.0
  0
LINE
  5
3FC
330
1E
100
AcDbEntity
  8
0
100
AcDbLine
 10
295.0
 20
589.0
 30
0.0
 11
300.12
 21
589.0
 31
0.0
  0
LINE
  5
3FD
330
1E
100
AcDbEntity
  8
0
100
AcDbLine
 10
300.12
 20
589.0
 30
0.0
 11
304.92
 21
589.0
 31
0.0
  0
LINE
  5
3FE
330
1E
100
AcDbEntity
  8
0
100
AcDbLine
 10
310.901
 20
589.0
 30
0.0
 11
310.901
 21
600.0
 31
0.0
  0
LINE
  5
3FF
330
1E
100
AcDbEntity
  8
0
100
AcDbLine
 10
304.92
 20
589.0
 30
0.0
 11
309.16
 21
589.0
 31
0.0
  0
LINE
  5
400
330
1E
100
AcDbEntity
  8
0
100
AcDbLine
 10
309.16
 20
589.0
 30
0.0
 11
312.36
 21
589.0
 31
0.0
  0
LINE
  5
401
330
1E
100
AcDbEntity
  8
0
100
AcDbLine
 10
312.36
 20
589.0
 30
0.0
 11
314.2799999999998
 21
589.0
 31
0.0
  0
LINE
  5
402
330
1E
100
AcDbEntity
  8
0
100
AcDbLine
 10
297.778
 20
600.0
 30
0.0
 11
301.7119999999998
 21
600.0
 31
0.0
  0
LINE
  5
403
330
1E
100
AcDbEntity
  8
0
100
AcDbLine
 10
301.7119999999998
 20
600.0
 30
0.0
 11
305.227
 21
600.0
 31
0.0
  0
LINE
  5
404
330
1E
100
AcDbEntity
  8
0
100
AcDbLine
 10
307.464
 20
600.0
 30
0.0
 11
310.9399999999999
 21
600.0
 31
0.0
  0
LINE
  5
405
330
1E
100
AcDbEntity
  8
0
100
AcDbLine
 10
305.227
 20
600.0
 30
0.0
 11
308.123
 21
600.0
 31
0.0
  0
LINE
  5
406
330
1E
100
AcDbEntity
  8
0
100
AcDbLine
 10
308.123
 20
600.0
 30
0.0
 11
310.055
 21
600.0
 31
0.0
  0
LINE
  5
407
330
1E
100
AcDbEntity
  8
0
100
AcDbLine
 10
313.304
 20
600.0
 30
0.0
 11
314.3899999999998
 21
600.0
 31
0.0
  0
LINE
  5
408
330
1E
100
AcDbEntity
  8
0
100
AcDbLine
 10
310.9399999999999
 20
600.0
 30
0.0
 11
313.304
 21
600.0
 31
0.0
  0
LINE
  5
409
330
1E
100
AcDbEntity
  8
0
100
AcDbLine
 10
310.055
 20
600.0
 30
0.0
 11
310.901
 21
600.0
 31
0.0
  0
LINE
  5
40A
330
1E
100
AcDbEntity
  8
0
100
AcDbLine
 10
310.901
 20
600.0
 30
0.0
 11
310.901
 21
589.0
 31
0.0
  0
LINE
  5
40B
330
1E
100
AcDbEntity
  8
0
100
AcDbLine
 10
310.901
 20
600.0
 30
0.0
 11
312.639
 21
600.0
 31
0.0
  0
LINE
  5
40C
330
1E
100
AcDbEntity
  8
0
100
AcDbLine
 10
293.6449999999998
 20
600.0
 30
0.0
 11
297.778
 21
600.0
 31
0.0
  0
LINE
  5
40D
330
1E
100
AcDbEntity
  8
0
100
AcDbLine
 10
288.245
 20
601.7859999999998
 30
0.0
 11
293.3059999999998
 21
601.7859999999998
 31
0.0
  0
LINE
  5
40E
330
1E
100
AcDbEntity
  8
0
100
AcDbLine
 10
288.245
 20
600.214
 30
0.0
 11
293.3059999999998
 21
600.214
 31
0.0
  0
LINE
  5
40F
330
1E
100
AcDbEntity
  8
0
100
AcDbLine
 10
293.3059999999998
 20
601.7859999999998
 30
0.0
 11
298.473
 21
601.7859999999998
 31
0.0
  0
LINE
  5
410
330
1E
100
AcDbEntity
  8
0
100
AcDbLine
 10
293.3059999999998
 20
600.214
 30
0.0
 11
298.473
 21
600.214
 31
0.0
  0
LINE
  5
413
330
1E
100
AcDbEntity
  8
0
100
AcDbLine
 10
298.473
 20
601.7859999999998
 30
0.0
 11
303.39
 21
601.7859999999998
 31
0.0
  0
LINE
  5
414
330
1E
100
AcDbEntity
  8
0
100
AcDbLine
 10
311.404
 20
600.214
 30
0.0
 11
313.819
 21
600.214
 31
0.0
  0
LINE
  5
415
330
1E
100
AcDbEntity
  8
0
100
AcDbLine
 10
307.784
 20
600.214
 30
0.0
 11
311.404
 21
600.214
 31
0.0
  0
LINE
  5
416
330
1E
100
AcDbEntity
  8
0
100
AcDbLine
 10
311.404
 20
601.7859999999998
 30
0.0
 11
313.819
 21
601.7859999999998
 31
0.0
  0
LINE
  5
419
330
1E
100
AcDbEntity
  8
0
100
AcDbLine
 10
307.784
 20
601.7859999999998
 30
0.0
 11
311.404
 21
601.7859999999998
 31
0.0
  0
LINE
  5
41A
330
1E
100
AcDbEntity
  8
0
100
AcDbLine
 10
303.39
 20
601.7859999999998
 30
0.0
 11
307.784
 21
601.7859999999998
 31
0.0
  0
LINE
  5
41B
330
1E
100
AcDbEntity
  8
0
100
AcDbLine
 10
303.39
 20
600.214
 30
0.0
 11
307.784
 21
600.214
 31
0.0
  0
LINE
  5
41C
330
1E
100
AcDbEntity
  8
0
100
AcDbLine
 10
298.473
 20
600.214
 30
0.0
 11
303.39
 21
600.214
 31
0.0
  0
LINE
  5
41D
330
1E
100
AcDbEntity
  8
0
100
AcDbLine
 10
289.596
 20
600.0
 30
0.0
 11
293.6449999999998
 21
600.0
 31
0.0
  0
LINE
  5
41E
330
1E
100
AcDbEntity
  8
0
100
AcDbLine
 10
285.8109999999998
 20
600.0
 30
0.0
 11
289.596
 21
600.0
 31
0.0
  0
LINE
  5
41F
330
1E
100
AcDbEntity
  8
0
100
AcDbLine
 10
289.8799999999998
 20
589.0
 30
0.0
 11
295.0
 21
589.0
 31
0.0
  0
LINE
  5
420
330
1E
100
AcDbEntity
  8
0
100
AcDbLine
 10
285.0799999999998
 20
589.0
 30
0.0
 11
289.8799999999998
 21
589.0
 31
0.0
  0
LINE
  5
421
330
1E
100
AcDbEntity
  8
0
100
AcDbLine
 10
285.0799999999998
 20
579.0
 30
0.0
 11
289.8799999999998
 21
579.0
 31
0.0
  0
LINE
  5
424
330
1E
100
AcDbEntity
  8
0
100
AcDbLine
 10
313.877
 20
565.0
 30
0.0
 11
314.4979999999998
 21
565.0
 31
0.0
  0
LINE
  5
425
330
1E
100
AcDbEntity
  8
0
100
AcDbLine
 10
314.4979999999998
 20
565.0
 30
0.0
 11
314.988
 21
565.0
 31
0.0
  0
LINE
  5
426
330
1E
100
AcDbEntity
  8
0
100
AcDbLine
 10
313.8889999999999
 20
569.0
 30
0.0
 11
314.517
 21
569.0
 31
0.0
  0
LINE
  5
427
330
1E
100
AcDbEntity
  8
0
100
AcDbLine
 10
314.517
 20
569.0
 30
0.0
 11
314.9809999999998
 21
569.0
 31
0.0
  0
LINE
  5
428
330
1E
100
AcDbEntity
  8
0
100
AcDbLine
 10
313.8889999999999
 20
565.0
 30
0.0
 11
314.517
 21
565.0
 31
0.0
  0
LINE
  5
429
330
1E
100
AcDbEntity
  8
0
100
AcDbLine
 10
314.517
 20
565.0
 30
0.0
 11
314.9809999999998
 21
565.0
 31
0.0
  0
LINE
  5
42A
330
1E
100
AcDbEntity
  8
0
100
AcDbLine
 10
314.382
 20
572.0
 30
0.0
 11
314.382
 21
579.0
 31
0.0
  0
LINE
  5
42B
330
1E
100
AcDbEntity
  8
0
100
AcDbLine
 10
313.3879999999998
 20
579.0
 30
0.0
 11
313.807
 21
579.0
 31
0.0
  0
LINE
  5
42C
330
1E
100
AcDbEntity
  8
0
100
AcDbLine
 10
313.807
 20
579.0
 30
0.0
 11
314.1159999999998
 21
579.0
 31
0.0
  0
LINE
  5
42D
330
1E
100
AcDbEntity
  8
0
100
AcDbLine
 10
314.32
 20
579.0
 30
0.0
 11
314.382
 21
579.0
 31
0.0
  0
LINE
  5
42E
330
1E
100
AcDbEntity
  8
0
100
AcDbLine
 10
314.1159999999998
 20
579.0
 30
0.0
 11
314.319
 21
579.0
 31
0.0
  0
LINE
  5
42F
330
1E
100
AcDbEntity
  8
0
100
AcDbLine
 10
314.057
 20
572.0
 30
0.0
 11
314.8009999999998
 21
572.0
 31
0.0
  0
LINE
  5
430
330
1E
100
AcDbEntity
  8
0
100
AcDbLine
 10
314.8009999999998
 20
572.0
 30
0.0
 11
315.2839999999998
 21
572.0
 31
0.0
  0
LINE
  5
431
330
1E
100
AcDbEntity
  8
0
100
AcDbLine
 10
314.057
 20
569.0
 30
0.0
 11
314.8009999999998
 21
569.0
 31
0.0
  0
LINE
  5
432
330
1E
100
AcDbEntity
  8
0
100
AcDbLine
 10
314.988
 20
565.0
 30
0.0
 11
315.287
 21
565.0
 31
0.0
  0
LINE
  5
433
330
1E
100
AcDbEntity
  8
0
100
AcDbLine
 10
314.9809999999998
 20
569.0
 30
0.0
 11
315.2839999999998
 21
569.0
 31
0.0
  0
LINE
  5
434
330
1E
100
AcDbEntity
  8
0
100
AcDbLine
 10
314.9809999999998
 20
565.0
 30
0.0
 11
315.2839999999998
 21
565.0
 31
0.0
  0
LINE
  5
435
330
1E
100
AcDbEntity
  8
0
100
AcDbLine
 10
314.8009999999998
 20
569.0
 30
0.0
 11
315.2839999999998
 21
569.0
 31
0.0
  0
LINE
  5
436
330
1E
100
AcDbEntity
  8
0
100
AcDbLine
 10
314.382
 20
579.0
 30
0.0
 11
315.0
 21
579.0
 31
0.0
  0
LINE
  5
437
330
1E
100
AcDbEntity
  8
0
100
AcDbLine
 10
314.382
 20
579.0
 30
0.0
 11
314.382
 21
572.0
 31
0.0
  0
LINE
  5
438
330
1E
100
AcDbEntity
  8
0
100
AcDbLine
 10
327.4579999999999
 20
485.0
 30
0.0
 11
328.463
 21
485.25
 31
0.0
  0
LINE
  5
439
330
1E
100
AcDbEntity
  8
0
100
AcDbLine
 10
328.3664925094288
 20
485.314213155205
 30
0.0
 11
328.463
 21
485.25
 31
0.0
  0
LINE
  5
43A
330
1E
100
AcDbEntity
  8
0
100
AcDbLine
 10
328.463
 20
485.25
 30
0.0
 11
328.5850807261308
 21
485.380057591759
 31
0.0
  0
LINE
  5
43B
330
1E
100
AcDbEntity
  8
0
100
AcDbLine
 10
328.463
 20
485.25
 30
0.0
 11
328.7209999999999
 21
485.421
 31
0.0
  0
LINE
  5
43C
330
1E
100
AcDbEntity
  8
0
100
AcDbLine
 10
327.579
 20
485.0769999999998
 30
0.0
 11
328.7209999999999
 21
485.421
 31
0.0
  0
LINE
  5
43D
330
1E
100
AcDbEntity
  8
0
100
AcDbLine
 10
329.348
 20
485.0769999999998
 30
0.0
 11
329.468
 21
485.0
 31
0.0
  0
LINE
  5
43E
330
1E
100
AcDbEntity
  8
0
100
AcDbLine
 10
329.468
 20
485.0
 30
0.0
 11
329.5889999999999
 21
485.0769999999998
 31
0.0
  0
LINE
  5
43F
330
1E
100
AcDbEntity
  8
0
100
AcDbLine
 10
329.468
 20
485.0
 30
0.0
 11
330.413
 21
485.0
 31
0.0
  0
LINE
  5
440
330
1E
100
AcDbEntity
  8
0
100
AcDbLine
 10
329.211
 20
485.421
 30
0.0
 11
329.726
 21
485.421
 31
0.0
  0
LINE
  5
441
330
1E
100
AcDbEntity
  8
0
100
AcDbLine
 10
329.211
 20
485.421
 30
0.0
 11
329.348
 21
485.0769999999998
 31
0.0
  0
LINE
  5
442
330
1E
100
AcDbEntity
  8
0
100
AcDbLine
 10
329.0847323358268
 20
485.750925187032
 30
0.0
 11
329.211
 21
485.421
 31
0.0
  0
LINE
  5
443
330
1E
100
AcDbEntity
  8
0
100
AcDbLine
 10
329.5889999999999
 20
485.0769999999998
 30
0.0
 11
329.726
 21
485.421
 31
0.0
  0
LINE
  5
444
330
1E
100
AcDbEntity
  8
0
100
AcDbLine
 10
329.726
 20
485.421
 30
0.0
 11
330.035
 21
486.2309999999998
 31
0.0
  0
LINE
  5
445
330
1E
100
AcDbEntity
  8
0
100
AcDbLine
 10
329.726
 20
485.421
 30
0.0
 11
331.675
 21
485.421
 31
0.0
  0
LINE
  5
446
330
1E
100
AcDbEntity
  8
0
100
AcDbLine
 10
330.035
 20
486.2309999999998
 30
0.0
 11
330.5289999999998
 21
487.5619999999998
 31
0.0
  0
LINE
  5
447
330
1E
100
AcDbEntity
  8
0
100
AcDbLine
 10
328.7209999999999
 20
485.421
 30
0.0
 11
329.614
 21
486.2309999999998
 31
0.0
  0
LINE
  5
448
330
1E
100
AcDbEntity
  8
0
100
AcDbLine
 10
330.025365890308
 20
487.0
 30
0.0
 11
330.320413974455
 21
487.0
 31
0.0
  0
LINE
  5
449
330
1E
100
AcDbEntity
  8
0
100
AcDbLine
 10
329.614
 20
486.2309999999998
 30
0.0
 11
330.3259999999998
 21
487.5619999999998
 31
0.0
  0
LINE
  5
44A
330
1E
100
AcDbEntity
  8
0
100
AcDbLine
 10
330.413
 20
485.0
 30
0.0
 11
331.418
 21
485.25
 31
0.0
  0
LINE
  5
44B
330
1E
100
AcDbEntity
  8
0
100
AcDbLine
 10
331.3209218614668
 20
485.3143424871669
 30
0.0
 11
331.418
 21
485.25
 31
0.0
  0
LINE
  5
44C
330
1E
100
AcDbEntity
  8
0
100
AcDbLine
 10
331.418
 20
485.25
 30
0.0
 11
331.5402325255258
 21
485.380404543591
 31
0.0
  0
LINE
  5
44D
330
1E
100
AcDbEntity
  8
0
100
AcDbLine
 10
331.418
 20
485.25
 30
0.0
 11
331.675
 21
485.421
 31
0.0
  0
LINE
  5
44E
330
1E
100
AcDbEntity
  8
0
100
AcDbLine
 10
330.533
 20
485.0769999999998
 30
0.0
 11
331.675
 21
485.421
 31
0.0
  0
LINE
  5
44F
330
1E
100
AcDbEntity
  8
0
100
AcDbLine
 10
330.5289999999998
 20
487.5619999999998
 30
0.0
 11
331.0259999999999
 21
488.9
 31
0.0
  0
LINE
  5
450
330
1E
100
AcDbEntity
  8
0
100
AcDbLine
 10
331.0259999999999
 20
488.9
 30
0.0
 11
331.373
 21
489.8369999999999
 31
0.0
  0
LINE
  5
451
330
1E
100
AcDbEntity
  8
0
100
AcDbLine
 10
330.4769999999998
 20
488.0
 30
0.0
 11
330.9049999999998
 21
489.4499999999998
 31
0.0
  0
LINE
  5
453
330
1E
100
AcDbEntity
  8
0
100
AcDbLine
 10
331.373
 20
489.8369999999999
 30
0.0
 11
331.498
 21
490.174
 31
0.0
  0
LINE
  5
454
330
1E
100
AcDbEntity
  8
0
100
AcDbLine
 10
330.9049999999998
 20
489.4499999999998
 30
0.0
 11
331.223
 21
491.3999999999998
 31
0.0
  0
LINE
  5
455
330
1E
100
AcDbEntity
  8
0
100
AcDbLine
 10
330.3259999999998
 20
487.5619999999998
 30
0.0
 11
330.66
 21
488.9
 31
0.0
  0
LINE
  5
457
330
1E
100
AcDbEntity
  8
0
100
AcDbLine
 10
330.3259999999998
 20
487.5619999999998
 30
0.0
 11
330.4769999999998
 21
488.0
 31
0.0
  0
LINE
  5
459
330
1E
100
AcDbEntity
  8
0
100
AcDbLine
 10
330.503
 20
490.65
 30
0.0
 11
330.5469999999999
 21
491.145
 31
0.0
  0
LINE
  5
45A
330
1E
100
AcDbEntity
  8
0
100
AcDbLine
 10
330.5469999999999
 20
491.145
 30
0.0
 11
331.3109999999998
 21
493.48
 31
0.0
  0
LINE
  5
45B
330
1E
100
AcDbEntity
  8
0
100
AcDbLine
 10
331.42
 20
493.5999999999999
 30
0.0
 11
331.4969999999998
 21
496.0
 31
0.0
  0
LINE
  5
45C
330
1E
100
AcDbEntity
  8
0
100
AcDbLine
 10
331.3109999999998
 20
493.48
 30
0.0
 11
331.4519999999999
 21
496.0
 31
0.0
  0
LINE
  5
45D
330
1E
100
AcDbEntity
  8
0
100
AcDbLine
 10
331.223
 20
491.3999999999998
 30
0.0
 11
331.42
 21
493.5999999999999
 31
0.0
  0
LINE
  5
45E
330
1E
100
AcDbEntity
  8
0
100
AcDbLine
 10
330.369
 20
489.8369999999999
 30
0.0
 11
330.66
 21
488.9
 31
0.0
  0
LINE
  5
460
330
1E
100
AcDbEntity
  8
0
100
AcDbLine
 10
330.369
 20
489.8369999999999
 30
0.0
 11
330.503
 21
490.65
 31
0.0
  0
LINE
  5
461
330
1E
100
AcDbEntity
  8
0
100
AcDbLine
 10
331.675
 20
485.421
 30
0.0
 11
332.569
 21
486.2309999999998
 31
0.0
  0
LINE
  5
462
330
1E
100
AcDbEntity
  8
0
100
AcDbLine
 10
332.979788129226
 20
487.0
 30
0.0
 11
347.195
 21
487.0
 31
0.0
  0
LINE
  5
463
330
1E
100
AcDbEntity
  8
0
100
AcDbLine
 10
332.569
 20
486.2309999999998
 30
0.0
 11
333.2799999999998
 21
487.5619999999998
 31
0.0
  0
LINE
  5
464
330
1E
100
AcDbEntity
  8
0
100
AcDbLine
 10
333.4319999999999
 20
488.0
 30
0.0
 11
333.859
 21
489.4499999999998
 31
0.0
  0
LINE
  5
466
330
1E
100
AcDbEntity
  8
0
100
AcDbLine
 10
333.859
 20
489.4499999999998
 30
0.0
 11
334.1769999999999
 21
491.3999999999998
 31
0.0
  0
LINE
  5
467
330
1E
100
AcDbEntity
  8
0
100
AcDbLine
 10
333.2799999999998
 20
487.5619999999998
 30
0.0
 11
333.6149999999999
 21
488.9
 31
0.0
  0
LINE
  5
469
330
1E
100
AcDbEntity
  8
0
100
AcDbLine
 10
333.2799999999998
 20
487.5619999999998
 30
0.0
 11
333.4319999999999
 21
488.0
 31
0.0
  0
LINE
  5
46A
330
1E
100
AcDbEntity
  8
0
100
AcDbLine
 10
331.498
 20
490.174
 30
0.0
 11
331.5519999999999
 21
490.486
 31
0.0
  0
LINE
  5
46B
330
1E
100
AcDbEntity
  8
0
100
AcDbLine
 10
331.5519999999999
 20
491.145
 30
0.0
 11
331.5519999999999
 21
490.486
 31
0.0
  0
LINE
  5
46E
330
1E
100
AcDbEntity
  8
0
100
AcDbLine
 10
333.458
 20
490.65
 30
0.0
 11
333.5019999999999
 21
491.145
 31
0.0
  0
LINE
  5
46F
330
1E
100
AcDbEntity
  8
0
100
AcDbLine
 10
333.5019999999999
 20
491.145
 30
0.0
 11
334.2649999999999
 21
493.48
 31
0.0
  0
LINE
  5
470
330
1E
100
AcDbEntity
  8
0
100
AcDbLine
 10
331.5519999999999
 20
493.48
 30
0.0
 11
331.5519999999999
 21
491.145
 31
0.0
  0
LINE
  5
471
330
1E
100
AcDbEntity
  8
0
100
AcDbLine
 10
331.5519999999999
 20
496.0
 30
0.0
 11
331.5519999999999
 21
493.48
 31
0.0
  0
LINE
  5
472
330
1E
100
AcDbEntity
  8
0
100
AcDbLine
 10
334.2649999999999
 20
493.48
 30
0.0
 11
334.406
 21
496.0
 31
0.0
  0
LINE
  5
473
330
1E
100
AcDbEntity
  8
0
100
AcDbLine
 10
334.1769999999999
 20
491.3999999999998
 30
0.0
 11
334.375
 21
493.5999999999999
 31
0.0
  0
LINE
  5
474
330
1E
100
AcDbEntity
  8
0
100
AcDbLine
 10
333.323
 20
489.8369999999999
 30
0.0
 11
333.6149999999999
 21
488.9
 31
0.0
  0
LINE
  5
476
330
1E
100
AcDbEntity
  8
0
100
AcDbLine
 10
333.323
 20
489.8369999999999
 30
0.0
 11
333.458
 21
490.65
 31
0.0
  0
LINE
  5
477
330
1E
100
AcDbEntity
  8
0
100
AcDbLine
 10
381.7409999999998
 20
471.126
 30
0.0
 11
385.308
 21
462.383
 31
0.0
  0
LINE
  5
478
330
1E
100
AcDbEntity
  8
0
100
AcDbLine
 10
385.308
 20
462.383
 30
0.0
 11
386.524
 21
453.0
 31
0.0
  0
LINE
  5
479
330
1E
100
AcDbEntity
  8
0
100
AcDbLine
 10
386.5205454545449
 20
450.0
 30
0.0
 11
386.524
 21
453.0
 31
0.0
  0
LINE
  5
47A
330
1E
100
AcDbEntity
  8
0
100
AcDbLine
 10
376.199398779638
 20
478.4588061266259
 30
0.0
 11
381.7409999999998
 21
471.126
 31
0.0
  0
LINE
  5
47B
330
1E
100
AcDbEntity
  8
0
100
AcDbLine
 10
393.874
 20
477.8739999999998
 30
0.0
 11
398.768
 21
465.876
 31
0.0
  0
LINE
  5
47C
330
1E
100
AcDbEntity
  8
0
100
AcDbLine
 10
397.189
 20
484.0
 30
0.0
 11
399.493
 21
484.0
 31
0.0
  0
LINE
  5
47D
330
1E
100
AcDbEntity
  8
0
100
AcDbLine
 10
395.486
 20
484.0
 30
0.0
 11
397.189
 21
484.0
 31
0.0
  0
LINE
  5
47E
330
1E
100
AcDbEntity
  8
0
100
AcDbLine
 10
394.375
 20
484.0
 30
0.0
 11
395.486
 21
484.0
 31
0.0
  0
LINE
  5
47F
330
1E
100
AcDbEntity
  8
0
100
AcDbLine
 10
398.768
 20
465.876
 30
0.0
 11
400.4369999999998
 21
453.0
 31
0.0
  0
LINE
  5
480
330
1E
100
AcDbEntity
  8
0
100
AcDbLine
 10
400.4369999999998
 20
453.0
 30
0.0
 11
400.4381818181817
 21
450.0
 31
0.0
  0
LINE
  5
481
330
1E
100
AcDbEntity
  8
0
100
AcDbLine
 10
399.493
 20
484.0
 30
0.0
 11
402.2009999999998
 21
484.0
 31
0.0
  0
LINE
  5
482
330
1E
100
AcDbEntity
  8
0
100
AcDbLine
 10
399.535
 20
484.0
 30
0.0
 11
402.153
 21
484.0
 31
0.0
  0
LINE
  5
483
330
1E
100
AcDbEntity
  8
0
100
AcDbLine
 10
397.259
 20
484.0
 30
0.0
 11
399.535
 21
484.0
 31
0.0
  0
LINE
  5
484
330
1E
100
AcDbEntity
  8
0
100
AcDbLine
 10
395.4619999999998
 20
484.0
 30
0.0
 11
397.259
 21
484.0
 31
0.0
  0
LINE
  5
485
330
1E
100
AcDbEntity
  8
0
100
AcDbLine
 10
394.365
 20
484.0
 30
0.0
 11
395.4619999999998
 21
484.0
 31
0.0
  0
LINE
  5
486
330
1E
100
AcDbEntity
  8
0
100
AcDbLine
 10
394.028
 20
484.0
 30
0.0
 11
394.028
 21
504.0
 31
0.0
  0
LINE
  5
487
330
1E
100
AcDbEntity
  8
0
100
AcDbLine
 10
394.028
 20
484.0
 30
0.0
 11
394.375
 21
484.0
 31
0.0
  0
LINE
  5
488
330
1E
100
AcDbEntity
  8
0
100
AcDbLine
 10
394.028
 20
484.0
 30
0.0
 11
394.365
 21
484.0
 31
0.0
  0
LINE
  5
489
330
1E
100
AcDbEntity
  8
0
100
AcDbLine
 10
405.024
 20
484.0
 30
0.0
 11
407.847
 21
484.0
 31
0.0
  0
LINE
  5
48A
330
1E
100
AcDbEntity
  8
0
100
AcDbLine
 10
402.2009999999998
 20
484.0
 30
0.0
 11
405.024
 21
484.0
 31
0.0
  0
LINE
  5
48B
330
1E
100
AcDbEntity
  8
0
100
AcDbLine
 10
402.153
 20
484.0
 30
0.0
 11
404.976
 21
484.0
 31
0.0
  0
LINE
  5
48C
330
1E
100
AcDbEntity
  8
0
100
AcDbLine
 10
404.976
 20
484.0
 30
0.0
 11
407.799
 21
484.0
 31
0.0
  0
LINE
  5
48D
330
1E
100
AcDbEntity
  8
0
100
AcDbLine
 10
407.847
 20
484.0
 30
0.0
 11
410.4649999999998
 21
484.0
 31
0.0
  0
LINE
  5
48E
330
1E
100
AcDbEntity
  8
0
100
AcDbLine
 10
410.4649999999998
 20
484.0
 30
0.0
 11
412.741
 21
484.0
 31
0.0
  0
LINE
  5
48F
330
1E
100
AcDbEntity
  8
0
100
AcDbLine
 10
412.741
 20
484.0
 30
0.0
 11
414.538
 21
484.0
 31
0.0
  0
LINE
  5
490
330
1E
100
AcDbEntity
  8
0
100
AcDbLine
 10
407.799
 20
484.0
 30
0.0
 11
410.5069999999998
 21
484.0
 31
0.0
  0
LINE
  5
491
330
1E
100
AcDbEntity
  8
0
100
AcDbLine
 10
410.5069999999998
 20
484.0
 30
0.0
 11
412.8109999999998
 21
484.0
 31
0.0
  0
LINE
  5
492
330
1E
100
AcDbEntity
  8
0
100
AcDbLine
 10
414.538
 20
484.0
 30
0.0
 11
415.6349999999997
 21
484.0
 31
0.0
  0
LINE
  5
493
330
1E
100
AcDbEntity
  8
0
100
AcDbLine
 10
415.6349999999997
 20
484.0
 30
0.0
 11
415.972
 21
484.0
 31
0.0
  0
LINE
  5
494
330
1E
100
AcDbEntity
  8
0
100
AcDbLine
 10
415.625
 20
484.0
 30
0.0
 11
415.972
 21
484.0
 31
0.0
  0
LINE
  5
495
330
1E
100
AcDbEntity
  8
0
100
AcDbLine
 10
415.972
 20
484.0
 30
0.0
 11
415.972
 21
504.0
 31
0.0
  0
LINE
  5
496
330
1E
100
AcDbEntity
  8
0
100
AcDbLine
 10
412.8109999999998
 20
484.0
 30
0.0
 11
414.514
 21
484.0
 31
0.0
  0
LINE
  5
497
330
1E
100
AcDbEntity
  8
0
100
AcDbLine
 10
347.97
 20
488.188
 30
0.0
 11
348.301
 21
489.628
 31
0.0
  0
LINE
  5
498
330
1E
100
AcDbEntity
  8
0
100
AcDbLine
 10
347.595
 20
487.324
 30
0.0
 11
347.97
 21
488.188
 31
0.0
  0
LINE
  5
499
330
1E
100
AcDbEntity
  8
0
100
AcDbLine
 10
347.195
 20
487.0
 30
0.0
 11
347.595
 21
487.324
 31
0.0
  0
LINE
  5
49A
330
1E
100
AcDbEntity
  8
0
100
AcDbLine
 10
368.861
 20
484.1769999999998
 30
0.0
 11
376.203
 21
478.4559999999998
 31
0.0
  0
LINE
  5
49B
330
1E
100
AcDbEntity
  8
0
100
AcDbLine
 10
360.3099999999998
 20
487.773
 30
0.0
 11
368.861
 21
484.1769999999998
 31
0.0
  0
LINE
  5
49C
330
1E
100
AcDbEntity
  8
0
100
AcDbLine
 10
348.7009999999998
 20
493.696
 30
0.0
 11
348.758
 21
496.0
 31
0.0
  0
LINE
  5
49D
330
1E
100
AcDbEntity
  8
0
100
AcDbLine
 10
348.551
 20
491.5359999999998
 30
0.0
 11
348.7009999999998
 21
493.696
 31
0.0
  0
LINE
  5
49E
330
1E
100
AcDbEntity
  8
0
100
AcDbLine
 10
348.301
 20
489.628
 30
0.0
 11
348.551
 21
491.5359999999998
 31
0.0
  0
LINE
  5
49F
330
1E
100
AcDbEntity
  8
0
100
AcDbLine
 10
348.7009999999998
 20
498.304
 30
0.0
 11
348.758
 21
496.0
 31
0.0
  0
LINE
  5
4A0
330
1E
100
AcDbEntity
  8
0
100
AcDbLine
 10
348.1566472222219
 20
489.0
 30
0.0
 11
351.134
 21
489.0
 31
0.0
  0
LINE
  5
4A1
330
1E
100
AcDbEntity
  8
0
100
AcDbLine
 10
375.754
 20
496.3009999999998
 30
0.0
 11
385.952
 21
488.355
 31
0.0
  0
LINE
  5
4A2
330
1E
100
AcDbEntity
  8
0
100
AcDbLine
 10
351.134
 20
489.0
 30
0.0
 11
360.3099999999998
 21
487.773
 31
0.0
  0
LINE
  5
4A3
330
1E
100
AcDbEntity
  8
0
100
AcDbLine
 10
385.952
 20
488.355
 30
0.0
 11
386.088
 21
488.1769999999998
 31
0.0
  0
LINE
  5
4A4
330
1E
100
AcDbEntity
  8
0
100
AcDbLine
 10
386.088
 20
488.1769999999998
 30
0.0
 11
393.874
 21
477.8739999999998
 31
0.0
  0
LINE
  5
4A5
330
1E
100
AcDbEntity
  8
0
100
AcDbLine
 10
414.514
 20
484.0
 30
0.0
 11
415.625
 21
484.0
 31
0.0
  0
LINE
  5
4A6
330
1E
100
AcDbEntity
  8
0
100
AcDbLine
 10
334.375
 20
493.5999999999999
 30
0.0
 11
334.452
 21
496.0
 31
0.0
  0
LINE
  5
4A7
330
1E
100
AcDbEntity
  8
0
100
AcDbLine
 10
334.375
 20
498.3999999999999
 30
0.0
 11
334.452
 21
496.0
 31
0.0
  0
LINE
  5
4A8
330
1E
100
AcDbEntity
  8
0
100
AcDbLine
 10
334.2649999999999
 20
498.5199999999998
 30
0.0
 11
334.406
 21
496.0
 31
0.0
  0
LINE
  5
4A9
330
1E
100
AcDbEntity
  8
0
100
AcDbLine
 10
331.5519999999999
 20
498.5199999999998
 30
0.0
 11
331.5519999999999
 21
496.0
 31
0.0
  0
LINE
  5
4AA
330
1E
100
AcDbEntity
  8
0
100
AcDbLine
 10
331.42
 20
498.3999999999999
 30
0.0
 11
331.4969999999998
 21
496.0
 31
0.0
  0
LINE
  5
4AC
330
1E
100
AcDbEntity
  8
0
100
AcDbLine
 10
330.035
 20
505.769
 30
0.0
 11
330.5289999999998
 21
504.438
 31
0.0
  0
LINE
  5
4AD
330
1E
100
AcDbEntity
  8
0
100
AcDbLine
 10
330.503
 20
501.35
 30
0.0
 11
330.5469999999999
 21
500.855
 31
0.0
  0
LINE
  5
4AF
330
1E
100
AcDbEntity
  8
0
100
AcDbLine
 10
330.5289999999998
 20
504.438
 30
0.0
 11
331.0259999999999
 21
503.1
 31
0.0
  0
LINE
  5
4B0
330
1E
100
AcDbEntity
  8
0
100
AcDbLine
 10
330.4769999999998
 20
504.0
 30
0.0
 11
330.9049999999998
 21
502.55
 31
0.0
  0
LINE
  5
4B1
330
1E
100
AcDbEntity
  8
0
100
AcDbLine
 10
330.369
 20
502.163
 30
0.0
 11
330.66
 21
503.1
 31
0.0
  0
LINE
  5
4B3
330
1E
100
AcDbEntity
  8
0
100
AcDbLine
 10
330.369
 20
502.163
 30
0.0
 11
330.503
 21
501.35
 31
0.0
  0
LINE
  5
4B4
330
1E
100
AcDbEntity
  8
0
100
AcDbLine
 10
330.3259999999998
 20
504.438
 30
0.0
 11
330.4769999999998
 21
504.0
 31
0.0
  0
LINE
  5
4B5
330
1E
100
AcDbEntity
  8
0
100
AcDbLine
 10
330.3259999999998
 20
504.438
 30
0.0
 11
330.66
 21
503.1
 31
0.0
  0
LINE
  5
4B7
330
1E
100
AcDbEntity
  8
0
100
AcDbLine
 10
315.379
 20
565.0
 30
0.0
 11
315.379
 21
569.0
 31
0.0
  0
LINE
  5
4B8
330
1E
100
AcDbEntity
  8
0
100
AcDbLine
 10
315.287
 20
565.0
 30
0.0
 11
315.379
 21
565.0
 31
0.0
  0
LINE
  5
4B9
330
1E
100
AcDbEntity
  8
0
100
AcDbLine
 10
315.2839999999998
 20
565.0
 30
0.0
 11
315.379
 21
565.0
 31
0.0
  0
LINE
  5
4BA
330
1E
100
AcDbEntity
  8
0
100
AcDbLine
 10
315.4309999999998
 20
569.0
 30
0.0
 11
315.4309999999998
 21
572.0
 31
0.0
  0
LINE
  5
4BB
330
1E
100
AcDbEntity
  8
0
100
AcDbLine
 10
315.379
 20
569.0
 30
0.0
 11
315.4309999999998
 21
569.0
 31
0.0
  0
LINE
  5
4BC
330
1E
100
AcDbEntity
  8
0
100
AcDbLine
 10
315.379
 20
569.0
 30
0.0
 11
315.379
 21
565.0
 31
0.0
  0
LINE
  5
4BD
330
1E
100
AcDbEntity
  8
0
100
AcDbLine
 10
315.4309999999998
 20
572.0
 30
0.0
 11
315.4309999999998
 21
569.0
 31
0.0
  0
LINE
  5
4BE
330
1E
100
AcDbEntity
  8
0
100
AcDbLine
 10
315.2839999999998
 20
572.0
 30
0.0
 11
315.4309999999998
 21
572.0
 31
0.0
  0
LINE
  5
4BF
330
1E
100
AcDbEntity
  8
0
100
AcDbLine
 10
315.2839999999998
 20
569.0
 30
0.0
 11
315.4309999999998
 21
569.0
 31
0.0
  0
LINE
  5
4C0
330
1E
100
AcDbEntity
  8
0
100
AcDbLine
 10
315.2839999999998
 20
569.0
 30
0.0
 11
315.379
 21
569.0
 31
0.0
  0
LINE
  5
4C1
330
1E
100
AcDbEntity
  8
0
100
AcDbLine
 10
327.4579999999999
 20
507.0
 30
0.0
 11
328.463
 21
506.7499999999998
 31
0.0
  0
LINE
  5
4C3
330
1E
100
AcDbEntity
  8
0
100
AcDbLine
 10
328.463
 20
506.7499999999998
 30
0.0
 11
328.7209999999999
 21
506.5789999999998
 31
0.0
  0
LINE
  5
4C4
330
1E
100
AcDbEntity
  8
0
100
AcDbLine
 10
329.0847323358268
 20
506.249074812968
 30
0.0
 11
329.211
 21
506.5789999999998
 31
0.0
  0
LINE
  5
4C6
330
1E
100
AcDbEntity
  8
0
100
AcDbLine
 10
329.211
 20
506.5789999999998
 30
0.0
 11
329.348
 21
506.923
 31
0.0
  0
LINE
  5
4C7
330
1E
100
AcDbEntity
  8
0
100
AcDbLine
 10
329.348
 20
506.923
 30
0.0
 11
329.468
 21
507.0
 31
0.0
  0
LINE
  5
4C8
330
1E
100
AcDbEntity
  8
0
100
AcDbLine
 10
329.468
 20
507.0
 30
0.0
 11
329.5889999999999
 21
506.923
 31
0.0
  0
LINE
  5
4C9
330
1E
100
AcDbEntity
  8
0
100
AcDbLine
 10
329.468
 20
507.0
 30
0.0
 11
330.413
 21
507.0
 31
0.0
  0
LINE
  5
4CA
330
1E
100
AcDbEntity
  8
0
100
AcDbLine
 10
330.413
 20
507.0
 30
0.0
 11
331.418
 21
506.7499999999998
 31
0.0
  0
LINE
  5
4CB
330
1E
100
AcDbEntity
  8
0
100
AcDbLine
 10
329.5889999999999
 20
506.923
 30
0.0
 11
329.726
 21
506.5789999999998
 31
0.0
  0
LINE
  5
4CC
330
1E
100
AcDbEntity
  8
0
100
AcDbLine
 10
329.726
 20
506.5789999999998
 30
0.0
 11
330.035
 21
505.769
 31
0.0
  0
LINE
  5
4CD
330
1E
100
AcDbEntity
  8
0
100
AcDbLine
 10
328.7209999999999
 20
506.5789999999998
 30
0.0
 11
329.614
 21
505.769
 31
0.0
  0
LINE
  5
4CE
330
1E
100
AcDbEntity
  8
0
100
AcDbLine
 10
329.614
 20
505.769
 30
0.0
 11
330.3259999999998
 21
504.438
 31
0.0
  0
LINE
  5
4CF
330
1E
100
AcDbEntity
  8
0
100
AcDbLine
 10
348.551
 20
500.464
 30
0.0
 11
348.7009999999998
 21
498.304
 31
0.0
  0
LINE
  5
4D0
330
1E
100
AcDbEntity
  8
0
100
AcDbLine
 10
334.1769999999999
 20
500.6
 30
0.0
 11
334.375
 21
498.3999999999999
 31
0.0
  0
LINE
  5
4D1
330
1E
100
AcDbEntity
  8
0
100
AcDbLine
 10
333.5019999999999
 20
500.855
 30
0.0
 11
334.2649999999999
 21
498.5199999999998
 31
0.0
  0
LINE
  5
4D2
330
1E
100
AcDbEntity
  8
0
100
AcDbLine
 10
331.498
 20
501.8259999999998
 30
0.0
 11
331.5519999999999
 21
501.514
 31
0.0
  0
LINE
  5
4D3
330
1E
100
AcDbEntity
  8
0
100
AcDbLine
 10
331.373
 20
502.163
 30
0.0
 11
331.498
 21
501.8259999999998
 31
0.0
  0
LINE
  5
4D4
330
1E
100
AcDbEntity
  8
0
100
AcDbLine
 10
363.878
 20
501.2959999999998
 30
0.0
 11
375.754
 21
496.3009999999998
 31
0.0
  0
LINE
  5
4D5
330
1E
100
AcDbEntity
  8
0
100
AcDbLine
 10
333.458
 20
501.35
 30
0.0
 11
333.5019999999999
 21
500.855
 31
0.0
  0
LINE
  5
4D7
330
1E
100
AcDbEntity
  8
0
100
AcDbLine
 10
348.301
 20
502.3719999999998
 30
0.0
 11
348.551
 21
500.464
 31
0.0
  0
LINE
  5
4D8
330
1E
100
AcDbEntity
  8
0
100
AcDbLine
 10
333.859
 20
502.55
 30
0.0
 11
334.1769999999999
 21
500.6
 31
0.0
  0
LINE
  5
4D9
330
1E
100
AcDbEntity
  8
0
100
AcDbLine
 10
333.323
 20
502.163
 30
0.0
 11
333.6149999999999
 21
503.1
 31
0.0
  0
LINE
  5
4DB
330
1E
100
AcDbEntity
  8
0
100
AcDbLine
 10
333.323
 20
502.163
 30
0.0
 11
333.458
 21
501.35
 31
0.0
  0
LINE
  5
4DC
330
1E
100
AcDbEntity
  8
0
100
AcDbLine
 10
331.5519999999999
 20
501.514
 30
0.0
 11
331.5519999999999
 21
500.855
 31
0.0
  0
LINE
  5
4DE
330
1E
100
AcDbEntity
  8
0
100
AcDbLine
 10
331.5519999999999
 20
500.855
 30
0.0
 11
331.5519999999999
 21
498.5199999999998
 31
0.0
  0
LINE
  5
4DF
330
1E
100
AcDbEntity
  8
0
100
AcDbLine
 10
331.223
 20
500.6
 30
0.0
 11
331.42
 21
498.3999999999999
 31
0.0
  0
LINE
  5
4E2
330
1E
100
AcDbEntity
  8
0
100
AcDbLine
 10
331.418
 20
506.7499999999998
 30
0.0
 11
331.675
 21
506.5789999999998
 31
0.0
  0
LINE
  5
4E3
330
1E
100
AcDbEntity
  8
0
100
AcDbLine
 10
331.675
 20
506.5789999999998
 30
0.0
 11
332.569
 21
505.769
 31
0.0
  0
LINE
  5
4E4
330
1E
100
AcDbEntity
  8
0
100
AcDbLine
 10
331.0259999999999
 20
503.1
 30
0.0
 11
331.373
 21
502.163
 31
0.0
  0
LINE
  5
4E5
330
1E
100
AcDbEntity
  8
0
100
AcDbLine
 10
348.1566472222219
 20
503.0
 30
0.0
 11
351.134
 21
503.0
 31
0.0
  0
LINE
  5
4E6
330
1E
100
AcDbEntity
  8
0
100
AcDbLine
 10
347.97
 20
503.8119999999998
 30
0.0
 11
348.301
 21
502.3719999999998
 31
0.0
  0
LINE
  5
4E7
330
1E
100
AcDbEntity
  8
0
100
AcDbLine
 10
351.134
 20
503.0
 30
0.0
 11
363.878
 21
501.2959999999998
 31
0.0
  0
LINE
  5
4E8
330
1E
100
AcDbEntity
  8
0
100
AcDbLine
 10
394.375
 20
504.0
 30
0.0
 11
395.486
 21
504.0
 31
0.0
  0
LINE
  5
4E9
330
1E
100
AcDbEntity
  8
0
100
AcDbLine
 10
394.028
 20
504.0
 30
0.0
 11
394.375
 21
504.0
 31
0.0
  0
LINE
  5
4EA
330
1E
100
AcDbEntity
  8
0
100
AcDbLine
 10
394.028
 20
504.0
 30
0.0
 11
394.028
 21
484.0
 31
0.0
  0
LINE
  5
4EB
330
1E
100
AcDbEntity
  8
0
100
AcDbLine
 10
399.493
 20
504.0
 30
0.0
 11
402.2009999999998
 21
504.0
 31
0.0
  0
LINE
  5
4EC
330
1E
100
AcDbEntity
  8
0
100
AcDbLine
 10
397.189
 20
504.0
 30
0.0
 11
399.493
 21
504.0
 31
0.0
  0
LINE
  5
4ED
330
1E
100
AcDbEntity
  8
0
100
AcDbLine
 10
395.486
 20
504.0
 30
0.0
 11
397.189
 21
504.0
 31
0.0
  0
LINE
  5
4EE
330
1E
100
AcDbEntity
  8
0
100
AcDbLine
 10
407.847
 20
504.0
 30
0.0
 11
410.4649999999998
 21
504.0
 31
0.0
  0
LINE
  5
4EF
330
1E
100
AcDbEntity
  8
0
100
AcDbLine
 10
405.024
 20
504.0
 30
0.0
 11
407.847
 21
504.0
 31
0.0
  0
LINE
  5
4F0
330
1E
100
AcDbEntity
  8
0
100
AcDbLine
 10
402.2009999999998
 20
504.0
 30
0.0
 11
405.024
 21
504.0
 31
0.0
  0
LINE
  5
4F1
330
1E
100
AcDbEntity
  8
0
100
AcDbLine
 10
410.4649999999998
 20
504.0
 30
0.0
 11
412.741
 21
504.0
 31
0.0
  0
LINE
  5
4F2
330
1E
100
AcDbEntity
  8
0
100
AcDbLine
 10
412.741
 20
504.0
 30
0.0
 11
414.538
 21
504.0
 31
0.0
  0
LINE
  5
4F3
330
1E
100
AcDbEntity
  8
0
100
AcDbLine
 10
414.538
 20
504.0
 30
0.0
 11
415.6349999999997
 21
504.0
 31
0.0
  0
LINE
  5
4F4
330
1E
100
AcDbEntity
  8
0
100
AcDbLine
 10
408.623
 20
504.0
 30
0.0
 11
411.955
 21
504.0
 31
0.0
  0
LINE
  5
4F5
330
1E
100
AcDbEntity
  8
0
100
AcDbLine
 10
411.955
 20
504.0
 30
0.0
 11
414.853
 21
504.0
 31
0.0
  0
LINE
  5
4F6
330
1E
100
AcDbEntity
  8
0
100
AcDbLine
 10
415.6349999999997
 20
504.0
 30
0.0
 11
415.972
 21
504.0
 31
0.0
  0
LINE
  5
4F7
330
1E
100
AcDbEntity
  8
0
100
AcDbLine
 10
414.853
 20
504.0
 30
0.0
 11
417.14
 21
504.0
 31
0.0
  0
LINE
  5
4F8
330
1E
100
AcDbEntity
  8
0
100
AcDbLine
 10
405.031
 20
504.0
 30
0.0
 11
408.623
 21
504.0
 31
0.0
  0
LINE
  5
4F9
330
1E
100
AcDbEntity
  8
0
100
AcDbLine
 10
401.438
 20
504.0
 30
0.0
 11
405.031
 21
504.0
 31
0.0
  0
LINE
  5
4FA
330
1E
100
AcDbEntity
  8
0
100
AcDbLine
 10
397.9909999999998
 20
504.0
 30
0.0
 11
401.438
 21
504.0
 31
0.0
  0
LINE
  5
4FB
330
1E
100
AcDbEntity
  8
0
100
AcDbLine
 10
395.059
 20
504.0
 30
0.0
 11
397.9909999999998
 21
504.0
 31
0.0
  0
LINE
  5
4FC
330
1E
100
AcDbEntity
  8
0
100
AcDbLine
 10
392.8909999999998
 20
504.0
 30
0.0
 11
395.059
 21
504.0
 31
0.0
  0
LINE
  5
4FD
330
1E
100
AcDbEntity
  8
0
100
AcDbLine
 10
391.4769999999998
 20
504.0
 30
0.0
 11
392.8909999999998
 21
504.0
 31
0.0
  0
LINE
  5
4FE
330
1E
100
AcDbEntity
  8
0
100
AcDbLine
 10
392.86
 20
504.0
 30
0.0
 11
394.028
 21
504.0
 31
0.0
  0
LINE
  5
4FF
330
1E
100
AcDbEntity
  8
0
100
AcDbLine
 10
391.4649999999998
 20
504.0
 30
0.0
 11
392.86
 21
504.0
 31
0.0
  0
LINE
  5
500
330
1E
100
AcDbEntity
  8
0
100
AcDbLine
 10
391.036
 20
504.0
 30
0.0
 11
391.036
 21
534.0
 31
0.0
  0
LINE
  5
501
330
1E
100
AcDbEntity
  8
0
100
AcDbLine
 10
391.036
 20
504.0
 30
0.0
 11
391.4769999999998
 21
504.0
 31
0.0
  0
LINE
  5
502
330
1E
100
AcDbEntity
  8
0
100
AcDbLine
 10
391.036
 20
504.0
 30
0.0
 11
391.4649999999998
 21
504.0
 31
0.0
  0
LINE
  5
503
330
1E
100
AcDbEntity
  8
0
100
AcDbLine
 10
417.14
 20
504.0
 30
0.0
 11
418.535
 21
504.0
 31
0.0
  0
LINE
  5
504
330
1E
100
AcDbEntity
  8
0
100
AcDbLine
 10
418.535
 20
504.0
 30
0.0
 11
418.9639999999998
 21
504.0
 31
0.0
  0
LINE
  5
505
330
1E
100
AcDbEntity
  8
0
100
AcDbLine
 10
418.523
 20
504.0
 30
0.0
 11
418.9639999999998
 21
504.0
 31
0.0
  0
LINE
  5
506
330
1E
100
AcDbEntity
  8
0
100
AcDbLine
 10
418.9639999999998
 20
504.0
 30
0.0
 11
418.9639999999998
 21
511.0
 31
0.0
  0
LINE
  5
507
330
1E
100
AcDbEntity
  8
0
100
AcDbLine
 10
415.972
 20
504.0
 30
0.0
 11
417.109
 21
504.0
 31
0.0
  0
LINE
  5
508
330
1E
100
AcDbEntity
  8
0
100
AcDbLine
 10
415.972
 20
504.0
 30
0.0
 11
415.972
 21
484.0
 31
0.0
  0
LINE
  5
509
330
1E
100
AcDbEntity
  8
0
100
AcDbLine
 10
417.109
 20
504.0
 30
0.0
 11
418.523
 21
504.0
 31
0.0
  0
LINE
  5
50A
330
1E
100
AcDbEntity
  8
0
100
AcDbLine
 10
333.4319999999999
 20
504.0
 30
0.0
 11
333.859
 21
502.55
 31
0.0
  0
LINE
  5
50B
330
1E
100
AcDbEntity
  8
0
100
AcDbLine
 10
347.595
 20
504.6759999999999
 30
0.0
 11
347.97
 21
503.8119999999998
 31
0.0
  0
LINE
  5
50C
330
1E
100
AcDbEntity
  8
0
100
AcDbLine
 10
347.195
 20
505.0
 30
0.0
 11
347.595
 21
504.6759999999999
 31
0.0
  0
LINE
  5
50D
330
1E
100
AcDbEntity
  8
0
100
AcDbLine
 10
332.979788129226
 20
505.0
 30
0.0
 11
347.195
 21
505.0
 31
0.0
  0
LINE
  5
50E
330
1E
100
AcDbEntity
  8
0
100
AcDbLine
 10
418.9639999999998
 20
511.0
 30
0.0
 11
418.9639999999998
 21
504.0
 31
0.0
  0
LINE
  5
50F
330
1E
100
AcDbEntity
  8
0
100
AcDbLine
 10
418.9639999999998
 20
533.0
 30
0.0
 11
418.9639999999998
 21
534.0
 31
0.0
  0
LINE
  5
510
330
1E
100
AcDbEntity
  8
0
100
AcDbLine
 10
391.4769999999998
 20
534.0
 30
0.0
 11
392.8909999999998
 21
534.0
 31
0.0
  0
LINE
  5
511
330
1E
100
AcDbEntity
  8
0
100
AcDbLine
 10
391.036
 20
534.0
 30
0.0
 11
391.4769999999998
 21
534.0
 31
0.0
  0
LINE
  5
512
330
1E
100
AcDbEntity
  8
0
100
AcDbLine
 10
391.036
 20
534.0
 30
0.0
 11
391.036
 21
504.0
 31
0.0
  0
LINE
  5
513
330
1E
100
AcDbEntity
  8
0
100
AcDbLine
 10
395.059
 20
534.0
 30
0.0
 11
397.9909999999998
 21
534.0
 31
0.0
  0
LINE
  5
514
330
1E
100
AcDbEntity
  8
0
100
AcDbLine
 10
392.8909999999998
 20
534.0
 30
0.0
 11
395.059
 21
534.0
 31
0.0
  0
LINE
  5
515
330
1E
100
AcDbEntity
  8
0
100
AcDbLine
 10
405.031
 20
534.0
 30
0.0
 11
408.623
 21
534.0
 31
0.0
  0
LINE
  5
516
330
1E
100
AcDbEntity
  8
0
100
AcDbLine
 10
401.438
 20
534.0
 30
0.0
 11
405.031
 21
534.0
 31
0.0
  0
LINE
  5
517
330
1E
100
AcDbEntity
  8
0
100
AcDbLine
 10
397.9909999999998
 20
534.0
 30
0.0
 11
401.438
 21
534.0
 31
0.0
  0
LINE
  5
518
330
1E
100
AcDbEntity
  8
0
100
AcDbLine
 10
408.623
 20
534.0
 30
0.0
 11
411.955
 21
534.0
 31
0.0
  0
LINE
  5
519
330
1E
100
AcDbEntity
  8
0
100
AcDbLine
 10
411.955
 20
534.0
 30
0.0
 11
414.853
 21
534.0
 31
0.0
  0
LINE
  5
51A
330
1E
100
AcDbEntity
  8
0
100
AcDbLine
 10
414.853
 20
534.0
 30
0.0
 11
417.14
 21
534.0
 31
0.0
  0
LINE
  5
51B
330
1E
100
AcDbEntity
  8
0
100
AcDbLine
 10
408.8819999999998
 20
534.0
 30
0.0
 11
412.452
 21
534.0
 31
0.0
  0
LINE
  5
51C
330
1E
100
AcDbEntity
  8
0
100
AcDbLine
 10
412.452
 20
534.0
 30
0.0
 11
415.5559999999998
 21
534.0
 31
0.0
  0
LINE
  5
51D
330
1E
100
AcDbEntity
  8
0
100
AcDbLine
 10
417.14
 20
534.0
 30
0.0
 11
418.535
 21
534.0
 31
0.0
  0
LINE
  5
51E
330
1E
100
AcDbEntity
  8
0
100
AcDbLine
 10
418.535
 20
534.0
 30
0.0
 11
418.9639999999998
 21
534.0
 31
0.0
  0
LINE
  5
51F
330
1E
100
AcDbEntity
  8
0
100
AcDbLine
 10
415.5559999999998
 20
534.0
 30
0.0
 11
418.0069999999998
 21
534.0
 31
0.0
  0
LINE
  5
520
330
1E
100
AcDbEntity
  8
0
100
AcDbLine
 10
418.0069999999998
 20
534.0
 30
0.0
 11
419.5019999999998
 21
534.0
 31
0.0
  0
LINE
  5
521
330
1E
100
AcDbEntity
  8
0
100
AcDbLine
 10
405.033
 20
534.0
 30
0.0
 11
408.8819999999998
 21
534.0
 31
0.0
  0
LINE
  5
522
330
1E
100
AcDbEntity
  8
0
100
AcDbLine
 10
401.183
 20
534.0
 30
0.0
 11
405.033
 21
534.0
 31
0.0
  0
LINE
  5
523
330
1E
100
AcDbEntity
  8
0
100
AcDbLine
 10
397.4909999999998
 20
534.0
 30
0.0
 11
401.183
 21
534.0
 31
0.0
  0
LINE
  5
524
330
1E
100
AcDbEntity
  8
0
100
AcDbLine
 10
394.349
 20
534.0
 30
0.0
 11
397.4909999999998
 21
534.0
 31
0.0
  0
LINE
  5
525
330
1E
100
AcDbEntity
  8
0
100
AcDbLine
 10
392.027
 20
534.0
 30
0.0
 11
394.349
 21
534.0
 31
0.0
  0
LINE
  5
526
330
1E
100
AcDbEntity
  8
0
100
AcDbLine
 10
390.5109999999998
 20
534.0
 30
0.0
 11
392.027
 21
534.0
 31
0.0
  0
LINE
  5
527
330
1E
100
AcDbEntity
  8
0
100
AcDbLine
 10
390.498
 20
534.0
 30
0.0
 11
391.036
 21
534.0
 31
0.0
  0
LINE
  5
528
330
1E
100
AcDbEntity
  8
0
100
AcDbLine
 10
390.0389999999998
 20
534.0
 30
0.0
 11
390.0389999999998
 21
585.0
 31
0.0
  0
LINE
  5
529
330
1E
100
AcDbEntity
  8
0
100
AcDbLine
 10
390.0389999999998
 20
534.0
 30
0.0
 11
390.5109999999998
 21
534.0
 31
0.0
  0
LINE
  5
52A
330
1E
100
AcDbEntity
  8
0
100
AcDbLine
 10
390.0389999999998
 20
534.0
 30
0.0
 11
390.498
 21
534.0
 31
0.0
  0
LINE
  5
52B
330
1E
100
AcDbEntity
  8
0
100
AcDbLine
 10
418.9639999999998
 20
534.0
 30
0.0
 11
419.489
 21
534.0
 31
0.0
  0
LINE
  5
52C
330
1E
100
AcDbEntity
  8
0
100
AcDbLine
 10
418.9639999999998
 20
534.0
 30
0.0
 11
418.9639999999998
 21
533.0
 31
0.0
  0
LINE
  5
52D
330
1E
100
AcDbEntity
  8
0
100
AcDbLine
 10
418.9639999999998
 20
533.0
 30
0.0
 11
433.0119999999998
 21
533.0
 31
0.0
  0
LINE
  5
52E
330
1E
100
AcDbEntity
  8
0
100
AcDbLine
 10
419.5019999999998
 20
534.0
 30
0.0
 11
419.9609999999998
 21
534.0
 31
0.0
  0
LINE
  5
52F
330
1E
100
AcDbEntity
  8
0
100
AcDbLine
 10
419.489
 20
534.0
 30
0.0
 11
419.9609999999998
 21
534.0
 31
0.0
  0
LINE
  5
530
330
1E
100
AcDbEntity
  8
0
100
AcDbLine
 10
419.9609999999998
 20
550.0
 30
0.0
 11
490.0
 21
550.0
 31
0.0
  0
LINE
  5
531
330
1E
100
AcDbEntity
  8
0
100
AcDbLine
 10
419.9609999999998
 20
534.0
 30
0.0
 11
419.9609999999998
 21
589.0
 31
0.0
  0
LINE
  5
532
330
1E
100
AcDbEntity
  8
0
100
AcDbLine
 10
418.9639999999998
 20
511.0
 30
0.0
 11
433.0119999999998
 21
511.0
 31
0.0
  0
LINE
  5
533
330
1E
100
AcDbEntity
  8
0
100
AcDbLine
 10
333.2799999999998
 20
504.438
 30
0.0
 11
333.4319999999999
 21
504.0
 31
0.0
  0
LINE
  5
534
330
1E
100
AcDbEntity
  8
0
100
AcDbLine
 10
333.2799999999998
 20
504.438
 30
0.0
 11
333.6149999999999
 21
503.1
 31
0.0
  0
LINE
  5
535
330
1E
100
AcDbEntity
  8
0
100
AcDbLine
 10
332.569
 20
505.769
 30
0.0
 11
333.2799999999998
 21
504.438
 31
0.0
  0
LINE
  5
536
330
1E
100
AcDbEntity
  8
0
100
AcDbLine
 10
330.9049999999998
 20
502.55
 30
0.0
 11
331.223
 21
500.6
 31
0.0
  0
LINE
  5
537
330
1E
100
AcDbEntity
  8
0
100
AcDbLine
 10
330.5469999999999
 20
500.855
 30
0.0
 11
331.3109999999998
 21
498.5199999999998
 31
0.0
  0
LINE
  5
538
330
1E
100
AcDbEntity
  8
0
100
AcDbLine
 10
331.3109999999998
 20
498.5199999999998
 30
0.0
 11
331.4519999999999
 21
496.0
 31
0.0
  0
LINE
  5
539
330
1E
100
AcDbEntity
  8
0
100
AcDbLine
 10
315.0
 20
579.0
 30
0.0
 11
315.0
 21
589.0
 31
0.0
  0
LINE
  5
53A
330
1E
100
AcDbEntity
  8
0
100
AcDbLine
 10
314.223
 20
600.0
 30
0.0
 11
314.3899999999998
 21
600.0
 31
0.0
  0
LINE
  5
53B
330
1E
100
AcDbEntity
  8
0
100
AcDbLine
 10
313.819
 20
601.7859999999998
 30
0.0
 11
314.8759999999998
 21
601.7859999999998
 31
0.0
  0
LINE
  5
53C
330
1E
100
AcDbEntity
  8
0
100
AcDbLine
 10
313.819
 20
600.214
 30
0.0
 11
314.8759999999998
 21
600.214
 31
0.0
  0
LINE
  5
53D
330
1E
100
AcDbEntity
  8
0
100
AcDbLine
 10
384.713
 20
585.0
 30
0.0
 11
385.0119999999998
 21
585.0
 31
0.0
  0
LINE
  5
53E
330
1E
100
AcDbEntity
  8
0
100
AcDbLine
 10
384.6209999999998
 20
589.0
 30
0.0
 11
384.6209999999998
 21
585.0
 31
0.0
  0
LINE
  5
53F
330
1E
100
AcDbEntity
  8
0
100
AcDbLine
 10
384.6209999999998
 20
589.0
 30
0.0
 11
384.716
 21
589.0
 31
0.0
  0
LINE
  5
540
330
1E
100
AcDbEntity
  8
0
100
AcDbLine
 10
384.6209999999998
 20
585.0
 30
0.0
 11
384.716
 21
585.0
 31
0.0
  0
LINE
  5
541
330
1E
100
AcDbEntity
  8
0
100
AcDbLine
 10
384.6209999999998
 20
585.0
 30
0.0
 11
384.713
 21
585.0
 31
0.0
  0
LINE
  5
542
330
1E
100
AcDbEntity
  8
0
100
AcDbLine
 10
384.6209999999998
 20
585.0
 30
0.0
 11
384.6209999999998
 21
589.0
 31
0.0
  0
LINE
  5
543
330
1E
100
AcDbEntity
  8
0
100
AcDbLine
 10
384.716
 20
585.0
 30
0.0
 11
385.0189999999998
 21
585.0
 31
0.0
  0
LINE
  5
544
330
1E
100
AcDbEntity
  8
0
100
AcDbLine
 10
384.569
 20
589.0
 30
0.0
 11
384.716
 21
589.0
 31
0.0
  0
LINE
  5
545
330
1E
100
AcDbEntity
  8
0
100
AcDbLine
 10
384.569
 20
589.0
 30
0.0
 11
384.6209999999998
 21
589.0
 31
0.0
  0
LINE
  5
546
330
1E
100
AcDbEntity
  8
0
100
AcDbLine
 10
384.569
 20
589.0
 30
0.0
 11
384.569
 21
592.0
 31
0.0
  0
LINE
  5
547
330
1E
100
AcDbEntity
  8
0
100
AcDbLine
 10
385.0119999999998
 20
585.0
 30
0.0
 11
385.5019999999998
 21
585.0
 31
0.0
  0
LINE
  5
548
330
1E
100
AcDbEntity
  8
0
100
AcDbLine
 10
385.5019999999998
 20
585.0
 30
0.0
 11
386.123
 21
585.0
 31
0.0
  0
LINE
  5
549
330
1E
100
AcDbEntity
  8
0
100
AcDbLine
 10
385.483
 20
585.0
 30
0.0
 11
386.111
 21
585.0
 31
0.0
  0
LINE
  5
54A
330
1E
100
AcDbEntity
  8
0
100
AcDbLine
 10
385.483
 20
589.0
 30
0.0
 11
386.111
 21
589.0
 31
0.0
  0
LINE
  5
54B
330
1E
100
AcDbEntity
  8
0
100
AcDbLine
 10
385.0189999999998
 20
589.0
 30
0.0
 11
385.483
 21
589.0
 31
0.0
  0
LINE
  5
54C
330
1E
100
AcDbEntity
  8
0
100
AcDbLine
 10
385.0189999999998
 20
585.0
 30
0.0
 11
385.483
 21
585.0
 31
0.0
  0
LINE
  5
54D
330
1E
100
AcDbEntity
  8
0
100
AcDbLine
 10
386.123
 20
585.0
 30
0.0
 11
386.837
 21
585.0
 31
0.0
  0
LINE
  5
54E
330
1E
100
AcDbEntity
  8
0
100
AcDbLine
 10
386.837
 20
585.0
 30
0.0
 11
387.6069999999998
 21
585.0
 31
0.0
  0
LINE
  5
54F
330
1E
100
AcDbEntity
  8
0
100
AcDbLine
 10
387.6069999999998
 20
585.0
 30
0.0
 11
388.3769999999998
 21
585.0
 31
0.0
  0
LINE
  5
550
330
1E
100
AcDbEntity
  8
0
100
AcDbLine
 10
387.62
 20
585.0
 30
0.0
 11
388.39
 21
585.0
 31
0.0
  0
LINE
  5
551
330
1E
100
AcDbEntity
  8
0
100
AcDbLine
 10
386.85
 20
585.0
 30
0.0
 11
387.62
 21
585.0
 31
0.0
  0
LINE
  5
552
330
1E
100
AcDbEntity
  8
0
100
AcDbLine
 10
387.62
 20
589.0
 30
0.0
 11
388.39
 21
589.0
 31
0.0
  0
LINE
  5
553
330
1E
100
AcDbEntity
  8
0
100
AcDbLine
 10
386.85
 20
589.0
 30
0.0
 11
387.62
 21
589.0
 31
0.0
  0
LINE
  5
554
330
1E
100
AcDbEntity
  8
0
100
AcDbLine
 10
386.111
 20
589.0
 30
0.0
 11
386.85
 21
589.0
 31
0.0
  0
LINE
  5
555
330
1E
100
AcDbEntity
  8
0
100
AcDbLine
 10
386.111
 20
585.0
 30
0.0
 11
386.85
 21
585.0
 31
0.0
  0
LINE
  5
556
330
1E
100
AcDbEntity
  8
0
100
AcDbLine
 10
388.3769999999998
 20
585.0
 30
0.0
 11
389.115
 21
585.0
 31
0.0
  0
LINE
  5
557
330
1E
100
AcDbEntity
  8
0
100
AcDbLine
 10
389.115
 20
585.0
 30
0.0
 11
389.743
 21
585.0
 31
0.0
  0
LINE
  5
558
330
1E
100
AcDbEntity
  8
0
100
AcDbLine
 10
388.39
 20
585.0
 30
0.0
 11
389.104
 21
585.0
 31
0.0
  0
LINE
  5
559
330
1E
100
AcDbEntity
  8
0
100
AcDbLine
 10
389.104
 20
585.0
 30
0.0
 11
389.725
 21
585.0
 31
0.0
  0
LINE
  5
55A
330
1E
100
AcDbEntity
  8
0
100
AcDbLine
 10
390.0389999999998
 20
585.0
 30
0.0
 11
390.0389999999998
 21
534.0
 31
0.0
  0
LINE
  5
55B
330
1E
100
AcDbEntity
  8
0
100
AcDbLine
 10
389.743
 20
585.0
 30
0.0
 11
390.208
 21
585.0
 31
0.0
  0
LINE
  5
55C
330
1E
100
AcDbEntity
  8
0
100
AcDbLine
 10
390.208
 20
585.0
 30
0.0
 11
390.5109999999998
 21
585.0
 31
0.0
  0
LINE
  5
55D
330
1E
100
AcDbEntity
  8
0
100
AcDbLine
 10
389.725
 20
585.0
 30
0.0
 11
390.2149999999998
 21
585.0
 31
0.0
  0
LINE
  5
55E
330
1E
100
AcDbEntity
  8
0
100
AcDbLine
 10
390.2149999999998
 20
585.0
 30
0.0
 11
390.514
 21
585.0
 31
0.0
  0
LINE
  5
55F
330
1E
100
AcDbEntity
  8
0
100
AcDbLine
 10
390.606
 20
585.0
 30
0.0
 11
390.606
 21
589.0
 31
0.0
  0
LINE
  5
560
330
1E
100
AcDbEntity
  8
0
100
AcDbLine
 10
390.514
 20
585.0
 30
0.0
 11
390.606
 21
585.0
 31
0.0
  0
LINE
  5
561
330
1E
100
AcDbEntity
  8
0
100
AcDbLine
 10
388.39
 20
589.0
 30
0.0
 11
389.104
 21
589.0
 31
0.0
  0
LINE
  5
562
330
1E
100
AcDbEntity
  8
0
100
AcDbLine
 10
389.104
 20
589.0
 30
0.0
 11
389.725
 21
589.0
 31
0.0
  0
LINE
  5
563
330
1E
100
AcDbEntity
  8
0
100
AcDbLine
 10
389.725
 20
589.0
 30
0.0
 11
390.2149999999998
 21
589.0
 31
0.0
  0
LINE
  5
564
330
1E
100
AcDbEntity
  8
0
100
AcDbLine
 10
390.2149999999998
 20
589.0
 30
0.0
 11
390.514
 21
589.0
 31
0.0
  0
LINE
  5
565
330
1E
100
AcDbEntity
  8
0
100
AcDbLine
 10
390.514
 20
589.0
 30
0.0
 11
390.606
 21
589.0
 31
0.0
  0
LINE
  5
566
330
1E
100
AcDbEntity
  8
0
100
AcDbLine
 10
390.606
 20
589.0
 30
0.0
 11
390.606
 21
585.0
 31
0.0
  0
LINE
  5
567
330
1E
100
AcDbEntity
  8
0
100
AcDbLine
 10
390.5109999999998
 20
585.0
 30
0.0
 11
390.606
 21
585.0
 31
0.0
  0
LINE
  5
568
330
1E
100
AcDbEntity
  8
0
100
AcDbLine
 10
404.9469999999998
 20
589.0
 30
0.0
 11
409.918
 21
589.0
 31
0.0
  0
LINE
  5
569
330
1E
100
AcDbEntity
  8
0
100
AcDbLine
 10
399.981
 20
589.0
 30
0.0
 11
404.9469999999998
 21
589.0
 31
0.0
  0
LINE
  5
56A
330
1E
100
AcDbEntity
  8
0
100
AcDbLine
 10
395.225
 20
589.0
 30
0.0
 11
399.981
 21
589.0
 31
0.0
  0
LINE
  5
56B
330
1E
100
AcDbEntity
  8
0
100
AcDbLine
 10
391.1869999999998
 20
589.0
 30
0.0
 11
395.225
 21
589.0
 31
0.0
  0
LINE
  5
56C
330
1E
100
AcDbEntity
  8
0
100
AcDbLine
 10
388.209
 20
589.0
 30
0.0
 11
391.1869999999998
 21
589.0
 31
0.0
  0
LINE
  5
56D
330
1E
100
AcDbEntity
  8
0
100
AcDbLine
 10
386.953
 20
589.0
 30
0.0
 11
388.209
 21
589.0
 31
0.0
  0
LINE
  5
56E
330
1E
100
AcDbEntity
  8
0
100
AcDbLine
 10
385.943
 20
589.0
 30
0.0
 11
386.953
 21
589.0
 31
0.0
  0
LINE
  5
56F
330
1E
100
AcDbEntity
  8
0
100
AcDbLine
 10
385.199
 20
589.0
 30
0.0
 11
385.943
 21
589.0
 31
0.0
  0
LINE
  5
570
330
1E
100
AcDbEntity
  8
0
100
AcDbLine
 10
384.716
 20
589.0
 30
0.0
 11
385.199
 21
589.0
 31
0.0
  0
LINE
  5
571
330
1E
100
AcDbEntity
  8
0
100
AcDbLine
 10
384.716
 20
589.0
 30
0.0
 11
385.0189999999998
 21
589.0
 31
0.0
  0
LINE
  5
572
330
1E
100
AcDbEntity
  8
0
100
AcDbLine
 10
409.918
 20
589.0
 30
0.0
 11
414.534
 21
589.0
 31
0.0
  0
LINE
  5
573
330
1E
100
AcDbEntity
  8
0
100
AcDbLine
 10
421.6099999999998
 20
585.0
 30
0.0
 11
422.3799999999998
 21
585.0
 31
0.0
  0
LINE
  5
574
330
1E
100
AcDbEntity
  8
0
100
AcDbLine
 10
420.8959999999998
 20
585.0
 30
0.0
 11
421.6099999999998
 21
585.0
 31
0.0
  0
LINE
  5
575
330
1E
100
AcDbEntity
  8
0
100
AcDbLine
 10
420.2749999999999
 20
585.0
 30
0.0
 11
420.8959999999998
 21
585.0
 31
0.0
  0
LINE
  5
576
330
1E
100
AcDbEntity
  8
0
100
AcDbLine
 10
421.623
 20
585.0
 30
0.0
 11
422.393
 21
585.0
 31
0.0
  0
LINE
  5
577
330
1E
100
AcDbEntity
  8
0
100
AcDbLine
 10
420.8849999999998
 20
585.0
 30
0.0
 11
421.623
 21
585.0
 31
0.0
  0
LINE
  5
578
330
1E
100
AcDbEntity
  8
0
100
AcDbLine
 10
420.2569999999998
 20
585.0
 30
0.0
 11
420.8849999999998
 21
585.0
 31
0.0
  0
LINE
  5
579
330
1E
100
AcDbEntity
  8
0
100
AcDbLine
 10
421.623
 20
589.0
 30
0.0
 11
422.393
 21
589.0
 31
0.0
  0
LINE
  5
57A
330
1E
100
AcDbEntity
  8
0
100
AcDbLine
 10
420.8849999999998
 20
589.0
 30
0.0
 11
421.623
 21
589.0
 31
0.0
  0
LINE
  5
57B
330
1E
100
AcDbEntity
  8
0
100
AcDbLine
 10
420.2569999999998
 20
589.0
 30
0.0
 11
420.8849999999998
 21
589.0
 31
0.0
  0
LINE
  5
57C
330
1E
100
AcDbEntity
  8
0
100
AcDbLine
 10
419.9609999999998
 20
589.0
 30
0.0
 11
420.2569999999998
 21
589.0
 31
0.0
  0
LINE
  5
57D
330
1E
100
AcDbEntity
  8
0
100
AcDbLine
 10
419.9609999999998
 20
589.0
 30
0.0
 11
419.9609999999998
 21
534.0
 31
0.0
  0
LINE
  5
57E
330
1E
100
AcDbEntity
  8
0
100
AcDbLine
 10
419.9609999999998
 20
585.0
 30
0.0
 11
420.2569999999998
 21
585.0
 31
0.0
  0
LINE
  5
57F
330
1E
100
AcDbEntity
  8
0
100
AcDbLine
 10
419.9609999999998
 20
585.0
 30
0.0
 11
420.2749999999999
 21
585.0
 31
0.0
  0
LINE
  5
580
330
1E
100
AcDbEntity
  8
0
100
AcDbLine
 10
414.534
 20
589.0
 30
0.0
 11
418.5559999999998
 21
589.0
 31
0.0
  0
LINE
  5
581
330
1E
100
AcDbEntity
  8
0
100
AcDbLine
 10
418.5559999999998
 20
589.0
 30
0.0
 11
421.738
 21
589.0
 31
0.0
  0
LINE
  5
582
330
1E
100
AcDbEntity
  8
0
100
AcDbLine
 10
422.3799999999998
 20
585.0
 30
0.0
 11
423.1499999999998
 21
585.0
 31
0.0
  0
LINE
  5
583
330
1E
100
AcDbEntity
  8
0
100
AcDbLine
 10
423.1499999999998
 20
585.0
 30
0.0
 11
423.889
 21
585.0
 31
0.0
  0
LINE
  5
584
330
1E
100
AcDbEntity
  8
0
100
AcDbLine
 10
422.393
 20
585.0
 30
0.0
 11
423.163
 21
585.0
 31
0.0
  0
LINE
  5
585
330
1E
100
AcDbEntity
  8
0
100
AcDbLine
 10
423.889
 20
585.0
 30
0.0
 11
424.5169999999998
 21
585.0
 31
0.0
  0
LINE
  5
586
330
1E
100
AcDbEntity
  8
0
100
AcDbLine
 10
423.163
 20
585.0
 30
0.0
 11
423.8769999999998
 21
585.0
 31
0.0
  0
LINE
  5
587
330
1E
100
AcDbEntity
  8
0
100
AcDbLine
 10
422.393
 20
589.0
 30
0.0
 11
423.163
 21
589.0
 31
0.0
  0
LINE
  5
588
330
1E
100
AcDbEntity
  8
0
100
AcDbLine
 10
423.163
 20
589.0
 30
0.0
 11
423.8769999999998
 21
589.0
 31
0.0
  0
LINE
  5
589
330
1E
100
AcDbEntity
  8
0
100
AcDbLine
 10
423.8769999999998
 20
589.0
 30
0.0
 11
424.498
 21
589.0
 31
0.0
  0
LINE
  5
58A
330
1E
100
AcDbEntity
  8
0
100
AcDbLine
 10
423.8769999999998
 20
585.0
 30
0.0
 11
424.498
 21
585.0
 31
0.0
  0
LINE
  5
58B
330
1E
100
AcDbEntity
  8
0
100
AcDbLine
 10
421.738
 20
589.0
 30
0.0
 11
423.6919999999998
 21
589.0
 31
0.0
  0
LINE
  5
58C
330
1E
100
AcDbEntity
  8
0
100
AcDbLine
 10
423.6919999999998
 20
589.0
 30
0.0
 11
424.309
 21
589.0
 31
0.0
  0
LINE
  5
58D
330
1E
100
AcDbEntity
  8
0
100
AcDbLine
 10
424.309
 20
589.0
 30
0.0
 11
424.788
 21
589.0
 31
0.0
  0
LINE
  5
58E
330
1E
100
AcDbEntity
  8
0
100
AcDbLine
 10
384.569
 20
592.0
 30
0.0
 11
384.716
 21
592.0
 31
0.0
  0
LINE
  5
58F
330
1E
100
AcDbEntity
  8
0
100
AcDbLine
 10
384.569
 20
592.0
 30
0.0
 11
384.569
 21
589.0
 31
0.0
  0
LINE
  5
590
330
1E
100
AcDbEntity
  8
0
100
AcDbLine
 10
385.618
 20
592.0
 30
0.0
 11
385.618
 21
599.0
 31
0.0
  0
LINE
  5
591
330
1E
100
AcDbEntity
  8
0
100
AcDbLine
 10
390.0389999999998
 20
592.0
 30
0.0
 11
390.0389999999998
 21
600.0
 31
0.0
  0
LINE
  5
592
330
1E
100
AcDbEntity
  8
0
100
AcDbLine
 10
389.6079999999998
 20
592.0
 30
0.0
 11
389.6079999999998
 21
599.0
 31
0.0
  0
LINE
  5
593
330
1E
100
AcDbEntity
  8
0
100
AcDbLine
 10
404.9469999999998
 20
592.0
 30
0.0
 11
409.918
 21
592.0
 31
0.0
  0
LINE
  5
594
330
1E
100
AcDbEntity
  8
0
100
AcDbLine
 10
399.981
 20
592.0
 30
0.0
 11
404.9469999999998
 21
592.0
 31
0.0
  0
LINE
  5
595
330
1E
100
AcDbEntity
  8
0
100
AcDbLine
 10
395.225
 20
592.0
 30
0.0
 11
399.981
 21
592.0
 31
0.0
  0
LINE
  5
596
330
1E
100
AcDbEntity
  8
0
100
AcDbLine
 10
391.1869999999998
 20
592.0
 30
0.0
 11
395.225
 21
592.0
 31
0.0
  0
LINE
  5
597
330
1E
100
AcDbEntity
  8
0
100
AcDbLine
 10
388.209
 20
592.0
 30
0.0
 11
391.1869999999998
 21
592.0
 31
0.0
  0
LINE
  5
598
330
1E
100
AcDbEntity
  8
0
100
AcDbLine
 10
386.953
 20
592.0
 30
0.0
 11
388.209
 21
592.0
 31
0.0
  0
LINE
  5
599
330
1E
100
AcDbEntity
  8
0
100
AcDbLine
 10
385.943
 20
592.0
 30
0.0
 11
386.953
 21
592.0
 31
0.0
  0
LINE
  5
59A
330
1E
100
AcDbEntity
  8
0
100
AcDbLine
 10
385.199
 20
592.0
 30
0.0
 11
385.943
 21
592.0
 31
0.0
  0
LINE
  5
59B
330
1E
100
AcDbEntity
  8
0
100
AcDbLine
 10
384.716
 20
592.0
 30
0.0
 11
385.199
 21
592.0
 31
0.0
  0
LINE
  5
59C
330
1E
100
AcDbEntity
  8
0
100
AcDbLine
 10
409.918
 20
592.0
 30
0.0
 11
414.534
 21
592.0
 31
0.0
  0
LINE
  5
59D
330
1E
100
AcDbEntity
  8
0
100
AcDbLine
 10
419.9609999999998
 20
592.0
 30
0.0
 11
419.9609999999998
 21
600.0
 31
0.0
  0
LINE
  5
59E
330
1E
100
AcDbEntity
  8
0
100
AcDbLine
 10
420.392
 20
592.0
 30
0.0
 11
420.392
 21
599.0
 31
0.0
  0
LINE
  5
59F
330
1E
100
AcDbEntity
  8
0
100
AcDbLine
 10
414.534
 20
592.0
 30
0.0
 11
418.5559999999998
 21
592.0
 31
0.0
  0
LINE
  5
5A0
330
1E
100
AcDbEntity
  8
0
100
AcDbLine
 10
418.5559999999998
 20
592.0
 30
0.0
 11
421.738
 21
592.0
 31
0.0
  0
LINE
  5
5A1
330
1E
100
AcDbEntity
  8
0
100
AcDbLine
 10
421.738
 20
592.0
 30
0.0
 11
423.6919999999998
 21
592.0
 31
0.0
  0
LINE
  5
5A2
330
1E
100
AcDbEntity
  8
0
100
AcDbLine
 10
385.618
 20
599.0
 30
0.0
 11
385.618
 21
592.0
 31
0.0
  0
LINE
  5
5A3
330
1E
100
AcDbEntity
  8
0
100
AcDbLine
 10
385.618
 20
599.0
 30
0.0
 11
385.6809999999999
 21
599.0
 31
0.0
  0
LINE
  5
5A4
330
1E
100
AcDbEntity
  8
0
100
AcDbLine
 10
385.618
 20
599.0
 30
0.0
 11
385.68
 21
599.0
 31
0.0
  0
LINE
  5
5A5
330
1E
100
AcDbEntity
  8
0
100
AcDbLine
 10
388.1309999999998
 20
599.0
 30
0.0
 11
388.6069999999998
 21
599.0
 31
0.0
  0
LINE
  5
5A6
330
1E
100
AcDbEntity
  8
0
100
AcDbLine
 10
388.6069999999998
 20
599.0
 30
0.0
 11
389.0209999999998
 21
599.0
 31
0.0
  0
LINE
  5
5A7
330
1E
100
AcDbEntity
  8
0
100
AcDbLine
 10
389.0209999999998
 20
599.0
 30
0.0
 11
389.348
 21
599.0
 31
0.0
  0
LINE
  5
5A8
330
1E
100
AcDbEntity
  8
0
100
AcDbLine
 10
389.348
 20
599.0
 30
0.0
 11
389.5469999999998
 21
599.0
 31
0.0
  0
LINE
  5
5A9
330
1E
100
AcDbEntity
  8
0
100
AcDbLine
 10
389.5469999999998
 20
599.0
 30
0.0
 11
389.6079999999998
 21
599.0
 31
0.0
  0
LINE
  5
5AA
330
1E
100
AcDbEntity
  8
0
100
AcDbLine
 10
389.6079999999998
 20
599.0
 30
0.0
 11
389.6079999999998
 21
592.0
 31
0.0
  0
LINE
  5
5AB
330
1E
100
AcDbEntity
  8
0
100
AcDbLine
 10
387.618
 20
599.0
 30
0.0
 11
388.1309999999998
 21
599.0
 31
0.0
  0
LINE
  5
5AC
330
1E
100
AcDbEntity
  8
0
100
AcDbLine
 10
387.104
 20
599.0
 30
0.0
 11
387.618
 21
599.0
 31
0.0
  0
LINE
  5
5AD
330
1E
100
AcDbEntity
  8
0
100
AcDbLine
 10
386.6119999999998
 20
599.0
 30
0.0
 11
387.104
 21
599.0
 31
0.0
  0
LINE
  5
5AE
330
1E
100
AcDbEntity
  8
0
100
AcDbLine
 10
386.193
 20
599.0
 30
0.0
 11
386.6119999999998
 21
599.0
 31
0.0
  0
LINE
  5
5AF
330
1E
100
AcDbEntity
  8
0
100
AcDbLine
 10
385.884
 20
599.0
 30
0.0
 11
386.193
 21
599.0
 31
0.0
  0
LINE
  5
5B0
330
1E
100
AcDbEntity
  8
0
100
AcDbLine
 10
385.6809999999999
 20
599.0
 30
0.0
 11
385.884
 21
599.0
 31
0.0
  0
LINE
  5
5B1
330
1E
100
AcDbEntity
  8
0
100
AcDbLine
 10
420.392
 20
599.0
 30
0.0
 11
420.455
 21
599.0
 31
0.0
  0
LINE
  5
5B2
330
1E
100
AcDbEntity
  8
0
100
AcDbLine
 10
420.392
 20
599.0
 30
0.0
 11
420.392
 21
592.0
 31
0.0
  0
LINE
  5
5B3
330
1E
100
AcDbEntity
  8
0
100
AcDbLine
 10
420.392
 20
599.0
 30
0.0
 11
420.453
 21
599.0
 31
0.0
  0
LINE
  5
5B4
330
1E
100
AcDbEntity
  8
0
100
AcDbLine
 10
422.391
 20
599.0
 30
0.0
 11
422.904
 21
599.0
 31
0.0
  0
LINE
  5
5B5
330
1E
100
AcDbEntity
  8
0
100
AcDbLine
 10
421.878
 20
599.0
 30
0.0
 11
422.391
 21
599.0
 31
0.0
  0
LINE
  5
5B6
330
1E
100
AcDbEntity
  8
0
100
AcDbLine
 10
421.3849999999998
 20
599.0
 30
0.0
 11
421.878
 21
599.0
 31
0.0
  0
LINE
  5
5B7
330
1E
100
AcDbEntity
  8
0
100
AcDbLine
 10
420.967
 20
599.0
 30
0.0
 11
421.3849999999998
 21
599.0
 31
0.0
  0
LINE
  5
5B8
330
1E
100
AcDbEntity
  8
0
100
AcDbLine
 10
420.657
 20
599.0
 30
0.0
 11
420.967
 21
599.0
 31
0.0
  0
LINE
  5
5B9
330
1E
100
AcDbEntity
  8
0
100
AcDbLine
 10
420.455
 20
599.0
 30
0.0
 11
420.657
 21
599.0
 31
0.0
  0
LINE
  5
5BA
330
1E
100
AcDbEntity
  8
0
100
AcDbLine
 10
422.904
 20
599.0
 30
0.0
 11
423.38
 21
599.0
 31
0.0
  0
LINE
  5
5BB
330
1E
100
AcDbEntity
  8
0
100
AcDbLine
 10
423.38
 20
599.0
 30
0.0
 11
423.794
 21
599.0
 31
0.0
  0
LINE
  5
5BC
330
1E
100
AcDbEntity
  8
0
100
AcDbLine
 10
388.145
 20
600.0
 30
0.0
 11
391.2009999999998
 21
600.0
 31
0.0
  0
LINE
  5
5BD
330
1E
100
AcDbEntity
  8
0
100
AcDbLine
 10
386.1449999999998
 20
600.0
 30
0.0
 11
388.145
 21
600.0
 31
0.0
  0
LINE
  5
5BE
330
1E
100
AcDbEntity
  8
0
100
AcDbLine
 10
385.536
 20
600.0
 30
0.0
 11
386.1899999999998
 21
600.0
 31
0.0
  0
LINE
  5
5BF
330
1E
100
AcDbEntity
  8
0
100
AcDbLine
 10
385.6809999999999
 20
600.214
 30
0.0
 11
387.7019999999998
 21
600.214
 31
0.0
  0
LINE
  5
5C0
330
1E
100
AcDbEntity
  8
0
100
AcDbLine
 10
387.7019999999998
 20
600.214
 30
0.0
 11
390.799
 21
600.214
 31
0.0
  0
LINE
  5
5C1
330
1E
100
AcDbEntity
  8
0
100
AcDbLine
 10
386.1899999999998
 20
600.0
 30
0.0
 11
388.148
 21
600.0
 31
0.0
  0
LINE
  5
5C2
330
1E
100
AcDbEntity
  8
0
100
AcDbLine
 10
388.148
 20
600.0
 30
0.0
 11
390.0389999999998
 21
600.0
 31
0.0
  0
LINE
  5
5C3
330
1E
100
AcDbEntity
  8
0
100
AcDbLine
 10
385.0519999999998
 20
600.214
 30
0.0
 11
385.0519999999998
 21
601.7859999999998
 31
0.0
  0
LINE
  5
5C4
330
1E
100
AcDbEntity
  8
0
100
AcDbLine
 10
385.0519999999998
 20
600.214
 30
0.0
 11
385.6809999999999
 21
600.214
 31
0.0
  0
LINE
  5
5C5
330
1E
100
AcDbEntity
  8
0
100
AcDbLine
 10
385.0519999999998
 20
600.214
 30
0.0
 11
385.536
 21
600.0
 31
0.0
  0
LINE
  5
5C6
330
1E
100
AcDbEntity
  8
0
100
AcDbLine
 10
314.3899999999998
 20
600.0
 30
0.0
 11
314.8759999999998
 21
600.214
 31
0.0
  0
LINE
  5
5C7
330
1E
100
AcDbEntity
  8
0
100
AcDbLine
 10
385.6809999999999
 20
601.7859999999998
 30
0.0
 11
387.7019999999998
 21
601.7859999999998
 31
0.0
  0
LINE
  5
5C8
330
1E
100
AcDbEntity
  8
0
100
AcDbLine
 10
387.7019999999998
 20
601.7859999999998
 30
0.0
 11
390.799
 21
601.7859999999998
 31
0.0
  0
LINE
  5
5C9
330
1E
100
AcDbEntity
  8
0
100
AcDbLine
 10
385.0519999999998
 20
601.7859999999998
 30
0.0
 11
385.536
 21
602.0
 31
0.0
  0
LINE
  5
5CA
330
1E
100
AcDbEntity
  8
0
100
AcDbLine
 10
385.0519999999998
 20
601.7859999999998
 30
0.0
 11
385.6809999999999
 21
601.7859999999998
 31
0.0
  0
LINE
  5
5CB
330
1E
100
AcDbEntity
  8
0
100
AcDbLine
 10
385.0519999999998
 20
601.7859999999998
 30
0.0
 11
385.0519999999998
 21
600.214
 31
0.0
  0
LINE
  5
5CC
330
1E
100
AcDbEntity
  8
0
100
AcDbLine
 10
314.8759999999998
 20
601.7859999999998
 30
0.0
 11
314.8759999999998
 21
600.214
 31
0.0
  0
LINE
  5
5CD
330
1E
100
AcDbEntity
  8
0
100
AcDbLine
 10
314.8759999999998
 20
600.214
 30
0.0
 11
314.8759999999998
 21
601.7859999999998
 31
0.0
  0
LINE
  5
5CE
330
1E
100
AcDbEntity
  8
0
100
AcDbLine
 10
421.8519999999998
 20
600.0
 30
0.0
 11
423.81
 21
600.0
 31
0.0
  0
LINE
  5
5CF
330
1E
100
AcDbEntity
  8
0
100
AcDbLine
 10
391.2009999999998
 20
600.0
 30
0.0
 11
414.734
 21
600.0
 31
0.0
  0
LINE
  5
5D0
330
1E
100
AcDbEntity
  8
0
100
AcDbLine
 10
414.734
 20
600.0
 30
0.0
 11
419.9609999999998
 21
600.0
 31
0.0
  0
LINE
  5
5D1
330
1E
100
AcDbEntity
  8
0
100
AcDbLine
 10
423.81
 20
600.0
 30
0.0
 11
424.464
 21
600.0
 31
0.0
  0
LINE
  5
5D2
330
1E
100
AcDbEntity
  8
0
100
AcDbLine
 10
421.855
 20
600.0
 30
0.0
 11
423.855
 21
600.0
 31
0.0
  0
LINE
  5
5D3
330
1E
100
AcDbEntity
  8
0
100
AcDbLine
 10
390.799
 20
600.214
 30
0.0
 11
394.9869999999998
 21
600.214
 31
0.0
  0
LINE
  5
5D4
330
1E
100
AcDbEntity
  8
0
100
AcDbLine
 10
394.9869999999998
 20
600.214
 30
0.0
 11
399.9109999999998
 21
600.214
 31
0.0
  0
LINE
  5
5D5
330
1E
100
AcDbEntity
  8
0
100
AcDbLine
 10
399.9109999999998
 20
600.214
 30
0.0
 11
405.044
 21
600.214
 31
0.0
  0
LINE
  5
5D6
330
1E
100
AcDbEntity
  8
0
100
AcDbLine
 10
390.799
 20
601.7859999999998
 30
0.0
 11
394.9869999999998
 21
601.7859999999998
 31
0.0
  0
LINE
  5
5D9
330
1E
100
AcDbEntity
  8
0
100
AcDbLine
 10
394.9869999999998
 20
601.7859999999998
 30
0.0
 11
399.9109999999998
 21
601.7859999999998
 31
0.0
  0
LINE
  5
5DB
330
1E
100
AcDbEntity
  8
0
100
AcDbLine
 10
399.9109999999998
 20
601.7859999999998
 30
0.0
 11
405.044
 21
601.7859999999998
 31
0.0
  0
LINE
  5
5DC
330
1E
100
AcDbEntity
  8
0
100
AcDbLine
 10
405.044
 20
600.214
 30
0.0
 11
410.1759999999998
 21
600.214
 31
0.0
  0
LINE
  5
5DD
330
1E
100
AcDbEntity
  8
0
100
AcDbLine
 10
422.3419999999999
 20
600.214
 30
0.0
 11
424.336
 21
600.214
 31
0.0
  0
LINE
  5
5DE
330
1E
100
AcDbEntity
  8
0
100
AcDbLine
 10
419.0749999999998
 20
600.214
 30
0.0
 11
422.3419999999999
 21
600.214
 31
0.0
  0
LINE
  5
5DF
330
1E
100
AcDbEntity
  8
0
100
AcDbLine
 10
414.9359999999998
 20
600.214
 30
0.0
 11
419.0749999999998
 21
600.214
 31
0.0
  0
LINE
  5
5E1
330
1E
100
AcDbEntity
  8
0
100
AcDbLine
 10
422.3419999999999
 20
601.7859999999998
 30
0.0
 11
424.336
 21
601.7859999999998
 31
0.0
  0
LINE
  5
5E2
330
1E
100
AcDbEntity
  8
0
100
AcDbLine
 10
419.0749999999998
 20
601.7859999999998
 30
0.0
 11
422.3419999999999
 21
601.7859999999998
 31
0.0
  0
LINE
  5
5E5
330
1E
100
AcDbEntity
  8
0
100
AcDbLine
 10
414.9359999999998
 20
601.7859999999998
 30
0.0
 11
419.0749999999998
 21
601.7859999999998
 31
0.0
  0
LINE
  5
5E6
330
1E
100
AcDbEntity
  8
0
100
AcDbLine
 10
410.1759999999998
 20
601.7859999999998
 30
0.0
 11
414.9359999999998
 21
601.7859999999998
 31
0.0
  0
LINE
  5
5E7
330
1E
100
AcDbEntity
  8
0
100
AcDbLine
 10
410.1759999999998
 20
600.214
 30
0.0
 11
414.9359999999998
 21
600.214
 31
0.0
  0
LINE
  5
5E8
330
1E
100
AcDbEntity
  8
0
100
AcDbLine
 10
405.044
 20
601.7859999999998
 30
0.0
 11
410.1759999999998
 21
601.7859999999998
 31
0.0
  0
LINE
  5
5E9
330
1E
100
AcDbEntity
  8
0
100
AcDbLine
 10
419.9609999999998
 20
600.0
 30
0.0
 11
419.9609999999998
 21
592.0
 31
0.0
  0
LINE
  5
5EA
330
1E
100
AcDbEntity
  8
0
100
AcDbLine
 10
419.9609999999998
 20
600.0
 30
0.0
 11
421.855
 21
600.0
 31
0.0
  0
LINE
  5
5EB
330
1E
100
AcDbEntity
  8
0
100
AcDbLine
 10
390.0389999999998
 20
600.0
 30
0.0
 11
390.0389999999998
 21
592.0
 31
0.0
  0
LINE
  5
5EC
330
1E
100
AcDbEntity
  8
0
100
AcDbLine
 10
423.794
 20
599.0
 30
0.0
 11
424.1209999999998
 21
599.0
 31
0.0
  0
LINE
  5
5ED
330
1E
100
AcDbEntity
  8
0
100
AcDbLine
 10
424.1209999999998
 20
599.0
 30
0.0
 11
424.3199999999998
 21
599.0
 31
0.0
  0
LINE
  5
5EE
330
1E
100
AcDbEntity
  8
0
100
AcDbLine
 10
423.6919999999998
 20
592.0
 30
0.0
 11
424.309
 21
592.0
 31
0.0
  0
LINE
  5
5EF
330
1E
100
AcDbEntity
  8
0
100
AcDbLine
 10
424.336
 20
601.7859999999998
 30
0.0
 11
424.948
 21
601.7859999999998
 31
0.0
  0
LINE
  5
5F0
330
1E
100
AcDbEntity
  8
0
100
AcDbLine
 10
424.464
 20
600.0
 30
0.0
 11
424.948
 21
600.214
 31
0.0
  0
LINE
  5
5F1
330
1E
100
AcDbEntity
  8
0
100
AcDbLine
 10
424.336
 20
600.214
 30
0.0
 11
424.948
 21
600.214
 31
0.0
  0
LINE
  5
5F2
330
1E
100
AcDbEntity
  8
0
100
AcDbLine
 10
424.3819999999998
 20
599.0
 30
0.0
 11
424.3819999999998
 21
592.0
 31
0.0
  0
LINE
  5
5F3
330
1E
100
AcDbEntity
  8
0
100
AcDbLine
 10
424.3199999999998
 20
599.0
 30
0.0
 11
424.3819999999998
 21
599.0
 31
0.0
  0
LINE
  5
5F4
330
1E
100
AcDbEntity
  8
0
100
AcDbLine
 10
424.3819999999998
 20
592.0
 30
0.0
 11
424.3819999999998
 21
599.0
 31
0.0
  0
LINE
  5
5F5
330
1E
100
AcDbEntity
  8
0
100
AcDbLine
 10
424.309
 20
592.0
 30
0.0
 11
424.788
 21
592.0
 31
0.0
  0
LINE
  5
5F6
330
1E
100
AcDbEntity
  8
0
100
AcDbLine
 10
315.0
 20
589.0
 30
0.0
 11
315.0
 21
579.0
 31
0.0
  0
LINE
  5
5F7
330
1E
100
AcDbEntity
  8
0
100
AcDbLine
 10
314.2799999999998
 20
589.0
 30
0.0
 11
315.0
 21
589.0
 31
0.0
  0
LINE
  5
5F8
330
1E
100
AcDbEntity
  8
0
100
AcDbLine
 10
314.319
 20
579.0
 30
0.0
 11
315.0
 21
579.0
 31
0.0
  0
LINE
  5
5F9
330
1E
100
AcDbEntity
  8
0
100
AcDbLine
 10
314.319
 20
579.0
 30
0.0
 11
314.382
 21
579.0
 31
0.0
  0
LINE
  5
5FB
330
1E
100
AcDbEntity
  8
0
100
AcDbLine
 10
435.186
 20
473.714
 30
0.0
 11
435.468
 21
473.714
 31
0.0
  0
LINE
  5
5FD
330
1E
100
AcDbEntity
  8
0
100
AcDbLine
 10
435.468
 20
473.714
 30
0.0
 11
437.4719999999999
 21
473.1709999999998
 31
0.0
  0
LINE
  5
5FE
330
1E
100
AcDbEntity
  8
0
100
AcDbLine
 10
435.2559999999998
 20
473.2599999999997
 30
0.0
 11
436.1209999999998
 21
473.0
 31
0.0
  0
LINE
  5
5FF
330
1E
100
AcDbEntity
  8
0
100
AcDbLine
 10
434.9269999999998
 20
473.714
 30
0.0
 11
435.2559999999998
 21
473.2599999999997
 31
0.0
  0
LINE
  5
601
330
1E
100
AcDbEntity
  8
0
100
AcDbLine
 10
434.9269999999998
 20
473.714
 30
0.0
 11
435.186
 21
473.714
 31
0.0
  0
LINE
  5
607
330
1E
100
AcDbEntity
  8
0
100
AcDbLine
 10
435.186
 20
482.286
 30
0.0
 11
435.468
 21
482.286
 31
0.0
  0
LINE
  5
609
330
1E
100
AcDbEntity
  8
0
100
AcDbLine
 10
435.468
 20
482.286
 30
0.0
 11
437.4719999999999
 21
482.8289999999998
 31
0.0
  0
LINE
  5
60B
330
1E
100
AcDbEntity
  8
0
100
AcDbLine
 10
435.2559999999998
 20
482.7399999999998
 30
0.0
 11
436.1209999999998
 21
483.0
 31
0.0
  0
LINE
  5
60C
330
1E
100
AcDbEntity
  8
0
100
AcDbLine
 10
434.9269999999998
 20
482.286
 30
0.0
 11
435.2559999999998
 21
482.7399999999998
 31
0.0
  0
LINE
  5
60D
330
1E
100
AcDbEntity
  8
0
100
AcDbLine
 10
434.9269999999998
 20
482.286
 30
0.0
 11
435.186
 21
482.286
 31
0.0
  0
LINE
  5
60E
330
1E
100
AcDbEntity
  8
0
100
AcDbLine
 10
434.809
 20
481.571
 30
0.0
 11
434.809
 21
474.429
 31
0.0
  0
LINE
  5
60F
330
1E
100
AcDbEntity
  8
0
100
AcDbLine
 10
434.809
 20
481.571
 30
0.0
 11
434.9269999999998
 21
482.286
 31
0.0
  0
LINE
  5
611
330
1E
100
AcDbEntity
  8
0
100
AcDbLine
 10
434.809
 20
474.429
 30
0.0
 11
434.9269999999998
 21
473.714
 31
0.0
  0
LINE
  5
612
330
1E
100
AcDbEntity
  8
0
100
AcDbLine
 10
434.809
 20
474.429
 30
0.0
 11
434.809
 21
481.571
 31
0.0
  0
LINE
  5
615
330
1E
100
AcDbEntity
  8
0
100
AcDbLine
 10
436.7589999999998
 20
483.0
 30
0.0
 11
438.004
 21
483.0
 31
0.0
  0
LINE
  5
616
330
1E
100
AcDbEntity
  8
0
100
AcDbLine
 10
436.1209999999998
 20
473.0
 30
0.0
 11
437.07
 21
473.0
 31
0.0
  0
LINE
  5
617
330
1E
100
AcDbEntity
  8
0
100
AcDbLine
 10
436.1209999999998
 20
483.0
 30
0.0
 11
436.7589999999998
 21
483.0
 31
0.0
  0
LINE
  5
618
330
1E
100
AcDbEntity
  8
0
100
AcDbLine
 10
435.8999999999999
 20
483.0
 30
0.0
 11
436.1209999999998
 21
483.0
 31
0.0
  0
LINE
  5
619
330
1E
100
AcDbEntity
  8
0
100
AcDbLine
 10
435.563
 20
483.0
 30
0.0
 11
435.563
 21
508.0
 31
0.0
  0
LINE
  5
61A
330
1E
100
AcDbEntity
  8
0
100
AcDbLine
 10
435.563
 20
483.0
 30
0.0
 11
435.91
 21
483.0
 31
0.0
  0
LINE
  5
61B
330
1E
100
AcDbEntity
  8
0
100
AcDbLine
 10
435.563
 20
483.0
 30
0.0
 11
435.8999999999999
 21
483.0
 31
0.0
  0
LINE
  5
61C
330
1E
100
AcDbEntity
  8
0
100
AcDbLine
 10
437.478
 20
450.0
 30
0.0
 11
437.478
 21
473.0
 31
0.0
  0
LINE
  5
61D
330
1E
100
AcDbEntity
  8
0
100
AcDbLine
 10
437.478
 20
473.0
 30
0.0
 11
437.478
 21
450.0
 31
0.0
  0
LINE
  5
61E
330
1E
100
AcDbEntity
  8
0
100
AcDbLine
 10
437.478
 20
473.0
 30
0.0
 11
438.0899999999998
 21
473.0
 31
0.0
  0
LINE
  5
61F
330
1E
100
AcDbEntity
  8
0
100
AcDbLine
 10
440.87
 20
473.0
 30
0.0
 11
442.8819999999998
 21
473.0
 31
0.0
  0
LINE
  5
620
330
1E
100
AcDbEntity
  8
0
100
AcDbLine
 10
438.0899999999998
 20
473.0
 30
0.0
 11
439.2569999999998
 21
473.0
 31
0.0
  0
LINE
  5
621
330
1E
100
AcDbEntity
  8
0
100
AcDbLine
 10
439.2569999999998
 20
473.0
 30
0.0
 11
440.87
 21
473.0
 31
0.0
  0
LINE
  5
622
330
1E
100
AcDbEntity
  8
0
100
AcDbLine
 10
438.004
 20
473.0
 30
0.0
 11
439.814
 21
473.0
 31
0.0
  0
LINE
  5
623
330
1E
100
AcDbEntity
  8
0
100
AcDbLine
 10
437.4719999999999
 20
482.8289999999998
 30
0.0
 11
439.6349999999998
 21
482.929
 31
0.0
  0
LINE
  5
625
330
1E
100
AcDbEntity
  8
0
100
AcDbLine
 10
438.004
 20
483.0
 30
0.0
 11
439.814
 21
483.0
 31
0.0
  0
LINE
  5
626
330
1E
100
AcDbEntity
  8
0
100
AcDbLine
 10
439.814
 20
483.0
 30
0.0
 11
442.124
 21
483.0
 31
0.0
  0
LINE
  5
627
330
1E
100
AcDbEntity
  8
0
100
AcDbLine
 10
439.6349999999998
 20
482.929
 30
0.0
 11
441.798
 21
482.8289999999998
 31
0.0
  0
LINE
  5
628
330
1E
100
AcDbEntity
  8
0
100
AcDbLine
 10
439.6349999999998
 20
473.071
 30
0.0
 11
441.798
 21
473.1709999999998
 31
0.0
  0
LINE
  5
629
330
1E
100
AcDbEntity
  8
0
100
AcDbLine
 10
437.4719999999999
 20
473.1709999999998
 30
0.0
 11
439.6349999999998
 21
473.071
 31
0.0
  0
LINE
  5
62A
330
1E
100
AcDbEntity
  8
0
100
AcDbLine
 10
437.07
 20
473.0
 30
0.0
 11
437.478
 21
473.0
 31
0.0
  0
LINE
  5
62B
330
1E
100
AcDbEntity
  8
0
100
AcDbLine
 10
442.8819999999998
 20
473.0
 30
0.0
 11
445.115
 21
473.0
 31
0.0
  0
LINE
  5
62D
330
1E
100
AcDbEntity
  8
0
100
AcDbLine
 10
443.8019999999998
 20
473.714
 30
0.0
 11
444.3699999999998
 21
473.714
 31
0.0
  0
LINE
  5
630
330
1E
100
AcDbEntity
  8
0
100
AcDbLine
 10
444.3699999999998
 20
473.714
 30
0.0
 11
445.5069999999998
 21
473.714
 31
0.0
  0
LINE
  5
633
330
1E
100
AcDbEntity
  8
0
100
AcDbLine
 10
444.3699999999998
 20
482.286
 30
0.0
 11
445.5069999999998
 21
482.286
 31
0.0
  0
LINE
  5
637
330
1E
100
AcDbEntity
  8
0
100
AcDbLine
 10
443.8019999999998
 20
482.286
 30
0.0
 11
444.3699999999998
 21
482.286
 31
0.0
  0
LINE
  5
63C
330
1E
100
AcDbEntity
  8
0
100
AcDbLine
 10
441.798
 20
482.8289999999998
 30
0.0
 11
443.8019999999998
 21
482.286
 31
0.0
  0
LINE
  5
640
330
1E
100
AcDbEntity
  8
0
100
AcDbLine
 10
441.798
 20
473.1709999999998
 30
0.0
 11
443.8019999999998
 21
473.714
 31
0.0
  0
LINE
  5
641
330
1E
100
AcDbEntity
  8
0
100
AcDbLine
 10
444.655
 20
483.0
 30
0.0
 11
447.365
 21
483.0
 31
0.0
  0
LINE
  5
642
330
1E
100
AcDbEntity
  8
0
100
AcDbLine
 10
442.124
 20
483.0
 30
0.0
 11
444.655
 21
483.0
 31
0.0
  0
LINE
  5
643
330
1E
100
AcDbEntity
  8
0
100
AcDbLine
 10
445.115
 20
473.0
 30
0.0
 11
447.505
 21
473.0
 31
0.0
  0
LINE
  5
644
330
1E
100
AcDbEntity
  8
0
100
AcDbLine
 10
445.5069999999998
 20
482.286
 30
0.0
 11
447.444
 21
482.7399999999998
 31
0.0
  0
LINE
  5
645
330
1E
100
AcDbEntity
  8
0
100
AcDbLine
 10
445.5069999999998
 20
473.714
 30
0.0
 11
447.444
 21
473.2599999999997
 31
0.0
  0
LINE
  5
647
330
1E
100
AcDbEntity
  8
0
100
AcDbLine
 10
443.7359999999998
 20
483.0
 30
0.0
 11
446.559
 21
483.0
 31
0.0
  0
LINE
  5
648
330
1E
100
AcDbEntity
  8
0
100
AcDbLine
 10
441.028
 20
483.0
 30
0.0
 11
443.7359999999998
 21
483.0
 31
0.0
  0
LINE
  5
649
330
1E
100
AcDbEntity
  8
0
100
AcDbLine
 10
438.724
 20
483.0
 30
0.0
 11
441.028
 21
483.0
 31
0.0
  0
LINE
  5
64A
330
1E
100
AcDbEntity
  8
0
100
AcDbLine
 10
437.0209999999998
 20
483.0
 30
0.0
 11
438.724
 21
483.0
 31
0.0
  0
LINE
  5
64B
330
1E
100
AcDbEntity
  8
0
100
AcDbLine
 10
434.229194768646
 20
510.697487223757
 30
0.0
 11
434.602
 21
510.401
 31
0.0
  0
LINE
  5
64C
330
1E
100
AcDbEntity
  8
0
100
AcDbLine
 10
435.563
 20
508.0
 30
0.0
 11
435.563
 21
483.0
 31
0.0
  0
LINE
  5
64D
330
1E
100
AcDbEntity
  8
0
100
AcDbLine
 10
435.4519999999998
 20
508.879
 30
0.0
 11
435.563
 21
508.0
 31
0.0
  0
LINE
  5
64E
330
1E
100
AcDbEntity
  8
0
100
AcDbLine
 10
435.124
 20
509.698
 30
0.0
 11
435.4519999999998
 21
508.879
 31
0.0
  0
LINE
  5
64F
330
1E
100
AcDbEntity
  8
0
100
AcDbLine
 10
434.602
 20
510.401
 30
0.0
 11
435.124
 21
509.698
 31
0.0
  0
LINE
  5
650
330
1E
100
AcDbEntity
  8
0
100
AcDbLine
 10
435.91
 20
483.0
 30
0.0
 11
437.0209999999998
 21
483.0
 31
0.0
  0
LINE
  5
651
330
1E
100
AcDbEntity
  8
0
100
AcDbLine
 10
433.7619999999998
 20
510.898
 30
0.0
 11
434.461
 21
510.598
 31
0.0
  0
LINE
  5
652
330
1E
100
AcDbEntity
  8
0
100
AcDbLine
 10
433.0119999999998
 20
511.0
 30
0.0
 11
433.7619999999998
 21
510.898
 31
0.0
  0
LINE
  5
653
330
1E
100
AcDbEntity
  8
0
100
AcDbLine
 10
447.505
 20
473.0
 30
0.0
 11
449.8159999999998
 21
473.0
 31
0.0
  0
LINE
  5
655
330
1E
100
AcDbEntity
  8
0
100
AcDbLine
 10
447.365
 20
483.0
 30
0.0
 11
450.004
 21
483.0
 31
0.0
  0
LINE
  5
658
330
1E
100
AcDbEntity
  8
0
100
AcDbLine
 10
447.444
 20
482.7399999999998
 30
0.0
 11
450.211
 21
482.856
 31
0.0
  0
LINE
  5
659
330
1E
100
AcDbEntity
  8
0
100
AcDbLine
 10
447.444
 20
473.2599999999997
 30
0.0
 11
450.211
 21
473.144
 31
0.0
  0
LINE
  5
65A
330
1E
100
AcDbEntity
  8
0
100
AcDbLine
 10
449.8159999999998
 20
473.0
 30
0.0
 11
451.829
 21
473.0
 31
0.0
  0
LINE
  5
65B
330
1E
100
AcDbEntity
  8
0
100
AcDbLine
 10
451.829
 20
473.0
 30
0.0
 11
453.5059999999998
 21
473.0
 31
0.0
  0
LINE
  5
65C
330
1E
100
AcDbEntity
  8
0
100
AcDbLine
 10
450.004
 20
473.0
 30
0.0
 11
452.348
 21
473.0
 31
0.0
  0
LINE
  5
65E
330
1E
100
AcDbEntity
  8
0
100
AcDbLine
 10
450.004
 20
483.0
 30
0.0
 11
452.348
 21
483.0
 31
0.0
  0
LINE
  5
661
330
1E
100
AcDbEntity
  8
0
100
AcDbLine
 10
450.211
 20
482.856
 30
0.0
 11
452.962
 21
482.7009999999998
 31
0.0
  0
LINE
  5
662
330
1E
100
AcDbEntity
  8
0
100
AcDbLine
 10
450.211
 20
473.144
 30
0.0
 11
452.962
 21
473.299
 31
0.0
  0
LINE
  5
664
330
1E
100
AcDbEntity
  8
0
100
AcDbLine
 10
453.5059999999998
 20
473.0
 30
0.0
 11
454.673
 21
473.0
 31
0.0
  0
LINE
  5
665
330
1E
100
AcDbEntity
  8
0
100
AcDbLine
 10
452.962
 20
482.7009999999998
 30
0.0
 11
454.666
 21
482.286
 31
0.0
  0
LINE
  5
668
330
1E
100
AcDbEntity
  8
0
100
AcDbLine
 10
452.962
 20
473.299
 30
0.0
 11
454.666
 21
473.714
 31
0.0
  0
LINE
  5
669
330
1E
100
AcDbEntity
  8
0
100
AcDbLine
 10
452.348
 20
473.0
 30
0.0
 11
454.364
 21
473.0
 31
0.0
  0
LINE
  5
66B
330
1E
100
AcDbEntity
  8
0
100
AcDbLine
 10
452.348
 20
483.0
 30
0.0
 11
454.364
 21
483.0
 31
0.0
  0
LINE
  5
66D
330
1E
100
AcDbEntity
  8
0
100
AcDbLine
 10
449.3819999999998
 20
483.0
 30
0.0
 11
451.9989999999999
 21
483.0
 31
0.0
  0
LINE
  5
66E
330
1E
100
AcDbEntity
  8
0
100
AcDbLine
 10
451.9989999999999
 20
483.0
 30
0.0
 11
454.276
 21
483.0
 31
0.0
  0
LINE
  5
66F
330
1E
100
AcDbEntity
  8
0
100
AcDbLine
 10
454.673
 20
473.0
 30
0.0
 11
455.3259999999998
 21
473.0
 31
0.0
  0
LINE
  5
670
330
1E
100
AcDbEntity
  8
0
100
AcDbLine
 10
455.3709999999998
 20
450.0
 30
0.0
 11
455.3709999999998
 21
473.0
 31
0.0
  0
LINE
  5
671
330
1E
100
AcDbEntity
  8
0
100
AcDbLine
 10
455.3709999999998
 20
473.0
 30
0.0
 11
456.578
 21
473.0
 31
0.0
  0
LINE
  5
672
330
1E
100
AcDbEntity
  8
0
100
AcDbLine
 10
455.3709999999998
 20
473.0
 30
0.0
 11
455.3709999999998
 21
450.0
 31
0.0
  0
LINE
  5
673
330
1E
100
AcDbEntity
  8
0
100
AcDbLine
 10
454.666
 20
482.286
 30
0.0
 11
455.651
 21
482.286
 31
0.0
  0
LINE
  5
675
330
1E
100
AcDbEntity
  8
0
100
AcDbLine
 10
454.666
 20
473.714
 30
0.0
 11
455.651
 21
473.714
 31
0.0
  0
LINE
  5
677
330
1E
100
AcDbEntity
  8
0
100
AcDbLine
 10
455.651
 20
482.286
 30
0.0
 11
456.6559999999998
 21
482.7009999999998
 31
0.0
  0
LINE
  5
67D
330
1E
100
AcDbEntity
  8
0
100
AcDbLine
 10
455.651
 20
473.714
 30
0.0
 11
456.3439999999998
 21
473.714
 31
0.0
  0
LINE
  5
680
330
1E
100
AcDbEntity
  8
0
100
AcDbLine
 10
456.578
 20
473.0
 30
0.0
 11
456.7269999999998
 21
473.0
 31
0.0
  0
LINE
  5
682
330
1E
100
AcDbEntity
  8
0
100
AcDbLine
 10
456.3439999999998
 20
473.714
 30
0.0
 11
456.6559999999998
 21
473.299
 31
0.0
  0
LINE
  5
683
330
1E
100
AcDbEntity
  8
0
100
AcDbLine
 10
456.6559999999998
 20
473.299
 30
0.0
 11
457.123
 21
473.144
 31
0.0
  0
LINE
  5
684
330
1E
100
AcDbEntity
  8
0
100
AcDbLine
 10
456.7269999999998
 20
473.0
 30
0.0
 11
457.593
 21
473.2599999999997
 31
0.0
  0
LINE
  5
685
330
1E
100
AcDbEntity
  8
0
100
AcDbLine
 10
457.123
 20
482.856
 30
0.0
 11
457.593
 21
482.7399999999998
 31
0.0
  0
LINE
  5
686
330
1E
100
AcDbEntity
  8
0
100
AcDbLine
 10
457.123
 20
473.144
 30
0.0
 11
457.593
 21
473.2599999999997
 31
0.0
  0
LINE
  5
687
330
1E
100
AcDbEntity
  8
0
100
AcDbLine
 10
456.6559999999998
 20
482.7009999999998
 30
0.0
 11
457.123
 21
482.856
 31
0.0
  0
LINE
  5
68A
330
1E
100
AcDbEntity
  8
0
100
AcDbLine
 10
456.578
 20
483.0
 30
0.0
 11
456.7269999999998
 21
483.0
 31
0.0
  0
LINE
  5
68B
330
1E
100
AcDbEntity
  8
0
100
AcDbLine
 10
455.7789999999998
 20
483.0
 30
0.0
 11
456.578
 21
483.0
 31
0.0
  0
LINE
  5
68D
330
1E
100
AcDbEntity
  8
0
100
AcDbLine
 10
456.7269999999998
 20
483.0
 30
0.0
 11
457.16
 21
483.0
 31
0.0
  0
LINE
  5
68E
330
1E
100
AcDbEntity
  8
0
100
AcDbLine
 10
456.7269999999998
 20
483.0
 30
0.0
 11
457.593
 21
482.7399999999998
 31
0.0
  0
LINE
  5
690
330
1E
100
AcDbEntity
  8
0
100
AcDbLine
 10
454.276
 20
483.0
 30
0.0
 11
456.073
 21
483.0
 31
0.0
  0
LINE
  5
691
330
1E
100
AcDbEntity
  8
0
100
AcDbLine
 10
456.073
 20
483.0
 30
0.0
 11
457.1699999999998
 21
483.0
 31
0.0
  0
LINE
  5
692
330
1E
100
AcDbEntity
  8
0
100
AcDbLine
 10
457.593
 20
473.2599999999997
 30
0.0
 11
457.9219999999998
 21
473.714
 31
0.0
  0
LINE
  5
693
330
1E
100
AcDbEntity
  8
0
100
AcDbLine
 10
457.593
 20
482.7399999999998
 30
0.0
 11
457.9219999999998
 21
482.286
 31
0.0
  0
LINE
  5
694
330
1E
100
AcDbEntity
  8
0
100
AcDbLine
 10
457.9219999999998
 20
482.286
 30
0.0
 11
458.04
 21
481.571
 31
0.0
  0
LINE
  5
695
330
1E
100
AcDbEntity
  8
0
100
AcDbLine
 10
458.04
 20
474.429
 30
0.0
 11
458.04
 21
481.571
 31
0.0
  0
LINE
  5
696
330
1E
100
AcDbEntity
  8
0
100
AcDbLine
 10
458.04
 20
481.571
 30
0.0
 11
458.04
 21
474.429
 31
0.0
  0
LINE
  5
697
330
1E
100
AcDbEntity
  8
0
100
AcDbLine
 10
457.9219999999998
 20
473.714
 30
0.0
 11
458.04
 21
474.429
 31
0.0
  0
LINE
  5
698
330
1E
100
AcDbEntity
  8
0
100
AcDbLine
 10
457.1699999999998
 20
483.0
 30
0.0
 11
457.5059999999998
 21
483.0
 31
0.0
  0
LINE
  5
699
330
1E
100
AcDbEntity
  8
0
100
AcDbLine
 10
457.16
 20
483.0
 30
0.0
 11
457.5059999999998
 21
483.0
 31
0.0
  0
LINE
  5
69A
330
1E
100
AcDbEntity
  8
0
100
AcDbLine
 10
457.5059999999998
 20
508.0
 30
0.0
 11
457.5059999999998
 21
483.0
 31
0.0
  0
LINE
  5
69B
330
1E
100
AcDbEntity
  8
0
100
AcDbLine
 10
457.5059999999998
 20
483.0
 30
0.0
 11
457.5059999999998
 21
508.0
 31
0.0
  0
LINE
  5
69C
330
1E
100
AcDbEntity
  8
0
100
AcDbLine
 10
446.559
 20
483.0
 30
0.0
 11
449.3819999999998
 21
483.0
 31
0.0
  0
LINE
  5
69D
330
1E
100
AcDbEntity
  8
0
100
AcDbLine
 10
454.3219999999998
 20
520.302
 30
0.0
 11
456.6969999999998
 21
514.368
 31
0.0
  0
LINE
  5
69E
330
1E
100
AcDbEntity
  8
0
100
AcDbLine
 10
450.546
 20
525.398
 30
0.0
 11
454.3219999999998
 21
520.302
 31
0.0
  0
LINE
  5
69F
330
1E
100
AcDbEntity
  8
0
100
AcDbLine
 10
456.6969999999998
 20
514.368
 30
0.0
 11
457.5059999999998
 21
508.0
 31
0.0
  0
LINE
  5
6A0
330
1E
100
AcDbEntity
  8
0
100
AcDbLine
 10
445.624
 20
529.3079999999998
 30
0.0
 11
450.546
 21
525.398
 31
0.0
  0
LINE
  5
6A1
330
1E
100
AcDbEntity
  8
0
100
AcDbLine
 10
439.2619999999998
 20
532.148
 30
0.0
 11
445.086
 21
529.6509999999998
 31
0.0
  0
LINE
  5
6A2
330
1E
100
AcDbEntity
  8
0
100
AcDbLine
 10
433.0119999999998
 20
533.0
 30
0.0
 11
439.2619999999998
 21
532.148
 31
0.0
  0
LINE
  5
6A3
330
1E
100
AcDbEntity
  8
0
100
AcDbLine
 10
445.086
 20
529.6509999999998
 30
0.0
 11
445.624
 21
529.3079999999998
 31
0.0
  0
LINE
  5
6A4
330
1E
100
AcDbEntity
  8
0
100
AcDbLine
 10
482.1439999999998
 20
555.0
 30
0.0
 11
482.528
 21
555.0
 31
0.0
  0
LINE
  5
6A5
330
1E
100
AcDbEntity
  8
0
100
AcDbLine
 10
482.1439999999998
 20
560.0
 30
0.0
 11
482.528
 21
560.0
 31
0.0
  0
LINE
  5
6A6
330
1E
100
AcDbEntity
  8
0
100
AcDbLine
 10
482.0
 20
555.0
 30
0.0
 11
482.1439999999998
 21
555.0
 31
0.0
  0
LINE
  5
6A7
330
1E
100
AcDbEntity
  8
0
100
AcDbLine
 10
482.0
 20
555.0
 30
0.0
 11
482.0
 21
560.0
 31
0.0
  0
LINE
  5
6A8
330
1E
100
AcDbEntity
  8
0
100
AcDbLine
 10
484.016
 20
555.0
 30
0.0
 11
484.9759999999998
 21
555.0
 31
0.0
  0
LINE
  5
6A9
330
1E
100
AcDbEntity
  8
0
100
AcDbLine
 10
483.168
 20
555.0
 30
0.0
 11
484.016
 21
555.0
 31
0.0
  0
LINE
  5
6AA
330
1E
100
AcDbEntity
  8
0
100
AcDbLine
 10
484.016
 20
560.0
 30
0.0
 11
484.9759999999998
 21
560.0
 31
0.0
  0
LINE
  5
6AB
330
1E
100
AcDbEntity
  8
0
100
AcDbLine
 10
483.168
 20
560.0
 30
0.0
 11
484.016
 21
560.0
 31
0.0
  0
LINE
  5
6AC
330
1E
100
AcDbEntity
  8
0
100
AcDbLine
 10
482.528
 20
560.0
 30
0.0
 11
483.168
 21
560.0
 31
0.0
  0
LINE
  5
6AD
330
1E
100
AcDbEntity
  8
0
100
AcDbLine
 10
482.528
 20
555.0
 30
0.0
 11
483.168
 21
555.0
 31
0.0
  0
LINE
  5
6AE
330
1E
100
AcDbEntity
  8
0
100
AcDbLine
 10
484.9759999999998
 20
560.0
 30
0.0
 11
486.0
 21
560.0
 31
0.0
  0
LINE
  5
6AF
330
1E
100
AcDbEntity
  8
0
100
AcDbLine
 10
484.9759999999998
 20
555.0
 30
0.0
 11
486.0
 21
555.0
 31
0.0
  0
LINE
  5
6B0
330
1E
100
AcDbEntity
  8
0
100
AcDbLine
 10
484.453
 20
560.0
 30
0.0
 11
486.6469999999998
 21
560.0
 31
0.0
  0
LINE
  5
6B1
330
1E
100
AcDbEntity
  8
0
100
AcDbLine
 10
483.109
 20
560.0
 30
0.0
 11
484.453
 21
560.0
 31
0.0
  0
LINE
  5
6B2
330
1E
100
AcDbEntity
  8
0
100
AcDbLine
 10
482.3019999999998
 20
560.0
 30
0.0
 11
483.109
 21
560.0
 31
0.0
  0
LINE
  5
6B3
330
1E
100
AcDbEntity
  8
0
100
AcDbLine
 10
424.5169999999998
 20
585.0
 30
0.0
 11
424.981
 21
585.0
 31
0.0
  0
LINE
  5
6B4
330
1E
100
AcDbEntity
  8
0
100
AcDbLine
 10
424.981
 20
585.0
 30
0.0
 11
425.2839999999998
 21
585.0
 31
0.0
  0
LINE
  5
6B5
330
1E
100
AcDbEntity
  8
0
100
AcDbLine
 10
424.498
 20
589.0
 30
0.0
 11
424.988
 21
589.0
 31
0.0
  0
LINE
  5
6B6
330
1E
100
AcDbEntity
  8
0
100
AcDbLine
 10
424.988
 20
589.0
 30
0.0
 11
425.2869999999998
 21
589.0
 31
0.0
  0
LINE
  5
6B7
330
1E
100
AcDbEntity
  8
0
100
AcDbLine
 10
424.498
 20
585.0
 30
0.0
 11
424.988
 21
585.0
 31
0.0
  0
LINE
  5
6B8
330
1E
100
AcDbEntity
  8
0
100
AcDbLine
 10
424.988
 20
585.0
 30
0.0
 11
425.2869999999998
 21
585.0
 31
0.0
  0
LINE
  5
6B9
330
1E
100
AcDbEntity
  8
0
100
AcDbLine
 10
424.788
 20
589.0
 30
0.0
 11
425.276
 21
589.0
 31
0.0
  0
LINE
  5
6BA
330
1E
100
AcDbEntity
  8
0
100
AcDbLine
 10
425.379
 20
585.0
 30
0.0
 11
425.379
 21
589.0
 31
0.0
  0
LINE
  5
6BB
330
1E
100
AcDbEntity
  8
0
100
AcDbLine
 10
425.2869999999998
 20
589.0
 30
0.0
 11
425.379
 21
589.0
 31
0.0
  0
LINE
  5
6BC
330
1E
100
AcDbEntity
  8
0
100
AcDbLine
 10
425.2869999999998
 20
585.0
 30
0.0
 11
425.379
 21
585.0
 31
0.0
  0
LINE
  5
6BD
330
1E
100
AcDbEntity
  8
0
100
AcDbLine
 10
425.2839999999998
 20
585.0
 30
0.0
 11
425.379
 21
585.0
 31
0.0
  0
LINE
  5
6BE
330
1E
100
AcDbEntity
  8
0
100
AcDbLine
 10
425.431
 20
589.0
 30
0.0
 11
425.431
 21
592.0
 31
0.0
  0
LINE
  5
6BF
330
1E
100
AcDbEntity
  8
0
100
AcDbLine
 10
425.276
 20
589.0
 30
0.0
 11
425.431
 21
589.0
 31
0.0
  0
LINE
  5
6C0
330
1E
100
AcDbEntity
  8
0
100
AcDbLine
 10
424.788
 20
592.0
 30
0.0
 11
425.276
 21
592.0
 31
0.0
  0
LINE
  5
6C1
330
1E
100
AcDbEntity
  8
0
100
AcDbLine
 10
424.948
 20
600.214
 30
0.0
 11
424.948
 21
601.7859999999998
 31
0.0
  0
LINE
  5
6C2
330
1E
100
AcDbEntity
  8
0
100
AcDbLine
 10
424.948
 20
601.7859999999998
 30
0.0
 11
424.948
 21
600.214
 31
0.0
  0
LINE
  5
6C3
330
1E
100
AcDbEntity
  8
0
100
AcDbLine
 10
425.276
 20
592.0
 30
0.0
 11
425.431
 21
592.0
 31
0.0
  0
LINE
  5
6C4
330
1E
100
AcDbEntity
  8
0
100
AcDbLine
 10
425.431
 20
592.0
 30
0.0
 11
425.431
 21
589.0
 31
0.0
  0
LINE
  5
6C5
330
1E
100
AcDbEntity
  8
0
100
AcDbLine
 10
425.379
 20
589.0
 30
0.0
 11
425.431
 21
589.0
 31
0.0
  0
LINE
  5
6C6
330
1E
100
AcDbEntity
  8
0
100
AcDbLine
 10
425.379
 20
589.0
 30
0.0
 11
425.379
 21
585.0
 31
0.0
  0
LINE
  5
6C7
330
1E
100
AcDbEntity
  8
0
100
AcDbLine
 10
483.0
 20
565.0
 30
0.0
 11
483.0
 21
580.0
 31
0.0
  0
LINE
  5
6C8
330
1E
100
AcDbEntity
  8
0
100
AcDbLine
 10
484.453
 20
565.0
 30
0.0
 11
486.5299999999998
 21
565.0
 31
0.0
  0
LINE
  5
6C9
330
1E
100
AcDbEntity
  8
0
100
AcDbLine
 10
483.109
 20
565.0
 30
0.0
 11
484.453
 21
565.0
 31
0.0
  0
LINE
  5
6CA
330
1E
100
AcDbEntity
  8
0
100
AcDbLine
 10
485.2319999999998
 20
580.0
 30
0.0
 11
486.0
 21
580.0
 31
0.0
  0
LINE
  5
6CB
330
1E
100
AcDbEntity
  8
0
100
AcDbLine
 10
484.5119999999998
 20
580.0
 30
0.0
 11
485.2319999999998
 21
580.0
 31
0.0
  0
LINE
  5
6CC
330
1E
100
AcDbEntity
  8
0
100
AcDbLine
 10
483.8759999999998
 20
580.0
 30
0.0
 11
484.5119999999998
 21
580.0
 31
0.0
  0
LINE
  5
6CD
330
1E
100
AcDbEntity
  8
0
100
AcDbLine
 10
483.3959999999998
 20
580.0
 30
0.0
 11
483.8759999999998
 21
580.0
 31
0.0
  0
LINE
  5
6CE
330
1E
100
AcDbEntity
  8
0
100
AcDbLine
 10
485.0
 20
600.214
 30
0.0
 11
485.0
 21
601.7859999999998
 31
0.0
  0
LINE
  5
6CF
330
1E
100
AcDbEntity
  8
0
100
AcDbLine
 10
485.0
 20
600.214
 30
0.0
 11
485.72
 21
600.0
 31
0.0
  0
LINE
  5
6D0
330
1E
100
AcDbEntity
  8
0
100
AcDbLine
 10
485.0
 20
600.214
 30
0.0
 11
486.08
 21
600.214
 31
0.0
  0
LINE
  5
6D1
330
1E
100
AcDbEntity
  8
0
100
AcDbLine
 10
485.72
 20
600.0
 30
0.0
 11
486.0
 21
600.0
 31
0.0
  0
LINE
  5
6D2
330
1E
100
AcDbEntity
  8
0
100
AcDbLine
 10
485.0
 20
601.7859999999998
 30
0.0
 11
485.72
 21
602.0
 31
0.0
  0
LINE
  5
6D3
330
1E
100
AcDbEntity
  8
0
100
AcDbLine
 10
485.0
 20
601.7859999999998
 30
0.0
 11
485.0
 21
600.214
 31
0.0
  0
LINE
  5
6D4
330
1E
100
AcDbEntity
  8
0
100
AcDbLine
 10
485.0
 20
601.7859999999998
 30
0.0
 11
486.08
 21
601.7859999999998
 31
0.0
  0
LINE
  5
6D5
330
1E
100
AcDbEntity
  8
0
100
AcDbLine
 10
483.108
 20
580.0
 30
0.0
 11
483.3959999999998
 21
580.0
 31
0.0
  0
LINE
  5
6D6
330
1E
100
AcDbEntity
  8
0
100
AcDbLine
 10
483.0
 20
580.0
 30
0.0
 11
483.0
 21
565.0
 31
0.0
  0
LINE
  5
6D7
330
1E
100
AcDbEntity
  8
0
100
AcDbLine
 10
483.0
 20
580.0
 30
0.0
 11
483.108
 21
580.0
 31
0.0
  0
LINE
  5
6D8
330
1E
100
AcDbEntity
  8
0
100
AcDbLine
 10
482.3019999999998
 20
565.0
 30
0.0
 11
483.109
 21
565.0
 31
0.0
  0
LINE
  5
6D9
330
1E
100
AcDbEntity
  8
0
100
AcDbLine
 10
482.0
 20
565.0
 30
0.0
 11
482.0
 21
560.0
 31
0.0
  0
LINE
  5
6DA
330
1E
100
AcDbEntity
  8
0
100
AcDbLine
 10
482.0
 20
565.0
 30
0.0
 11
482.3019999999998
 21
565.0
 31
0.0
  0
LINE
  5
6DB
330
1E
100
AcDbEntity
  8
0
100
AcDbLine
 10
482.0
 20
560.0
 30
0.0
 11
482.3019999999998
 21
560.0
 31
0.0
  0
LINE
  5
6DC
330
1E
100
AcDbEntity
  8
0
100
AcDbLine
 10
482.0
 20
560.0
 30
0.0
 11
482.0
 21
565.0
 31
0.0
  0
LINE
  5
6DD
330
1E
100
AcDbEntity
  8
0
100
AcDbLine
 10
482.0
 20
560.0
 30
0.0
 11
482.0
 21
555.0
 31
0.0
  0
LINE
  5
6DE
330
1E
100
AcDbEntity
  8
0
100
AcDbLine
 10
482.0
 20
560.0
 30
0.0
 11
482.1439999999998
 21
560.0
 31
0.0
  0
LINE
  5
6DF
330
1E
100
AcDbEntity
  8
0
100
AcDbLine
 10
424.464
 20
602.0
 30
0.0
 11
424.948
 21
602.321
 31
0.0
  0
LINE
  5
6E0
330
1E
100
AcDbEntity
  8
0
100
AcDbLine
 10
424.464
 20
602.0
 30
0.0
 11
424.948
 21
601.7859999999998
 31
0.0
  0
LINE
  5
6E3
330
1E
100
AcDbEntity
  8
0
100
AcDbLine
 10
314.3899999999998
 20
602.0
 30
0.0
 11
314.8759999999998
 21
602.321
 31
0.0
  0
LINE
  5
6E4
330
1E
100
AcDbEntity
  8
0
100
AcDbLine
 10
314.3899999999998
 20
602.0
 30
0.0
 11
314.8759999999998
 21
601.7859999999998
 31
0.0
  0
LINE
  5
6E6
330
1E
100
AcDbEntity
  8
0
100
AcDbLine
 10
275.304
 20
602.321
 30
0.0
 11
276.9019999999999
 21
602.321
 31
0.0
  0
LINE
  5
6E7
330
1E
100
AcDbEntity
  8
0
100
AcDbLine
 10
276.9019999999999
 20
602.321
 30
0.0
 11
279.6259999999999
 21
602.321
 31
0.0
  0
LINE
  5
6E8
330
1E
100
AcDbEntity
  8
0
100
AcDbLine
 10
279.6259999999999
 20
602.321
 30
0.0
 11
283.5139999999999
 21
602.321
 31
0.0
  0
LINE
  5
6E9
330
1E
100
AcDbEntity
  8
0
100
AcDbLine
 10
283.5139999999999
 20
602.321
 30
0.0
 11
288.245
 21
602.321
 31
0.0
  0
LINE
  5
6EA
330
1E
100
AcDbEntity
  8
0
100
AcDbLine
 10
288.245
 20
602.321
 30
0.0
 11
293.3059999999998
 21
602.321
 31
0.0
  0
LINE
  5
6EB
330
1E
100
AcDbEntity
  8
0
100
AcDbLine
 10
293.3059999999998
 20
602.321
 30
0.0
 11
298.473
 21
602.321
 31
0.0
  0
LINE
  5
6EC
330
1E
100
AcDbEntity
  8
0
100
AcDbLine
 10
385.6809999999999
 20
602.321
 30
0.0
 11
387.7019999999998
 21
602.321
 31
0.0
  0
LINE
  5
6ED
330
1E
100
AcDbEntity
  8
0
100
AcDbLine
 10
387.7019999999998
 20
602.321
 30
0.0
 11
390.799
 21
602.321
 31
0.0
  0
LINE
  5
6EE
330
1E
100
AcDbEntity
  8
0
100
AcDbLine
 10
390.799
 20
602.321
 30
0.0
 11
394.9869999999998
 21
602.321
 31
0.0
  0
LINE
  5
6EF
330
1E
100
AcDbEntity
  8
0
100
AcDbLine
 10
394.9869999999998
 20
602.321
 30
0.0
 11
399.9109999999998
 21
602.321
 31
0.0
  0
LINE
  5
6F0
330
1E
100
AcDbEntity
  8
0
100
AcDbLine
 10
399.9109999999998
 20
602.321
 30
0.0
 11
405.044
 21
602.321
 31
0.0
  0
LINE
  5
6F1
330
1E
100
AcDbEntity
  8
0
100
AcDbLine
 10
424.948
 20
602.321
 30
0.0
 11
424.948
 21
604.6789999999998
 31
0.0
  0
LINE
  5
6F2
330
1E
100
AcDbEntity
  8
0
100
AcDbLine
 10
424.336
 20
602.321
 30
0.0
 11
424.948
 21
602.321
 31
0.0
  0
LINE
  5
6F3
330
1E
100
AcDbEntity
  8
0
100
AcDbLine
 10
422.3419999999999
 20
602.321
 30
0.0
 11
424.336
 21
602.321
 31
0.0
  0
LINE
  5
6F4
330
1E
100
AcDbEntity
  8
0
100
AcDbLine
 10
419.0749999999998
 20
602.321
 30
0.0
 11
422.3419999999999
 21
602.321
 31
0.0
  0
LINE
  5
6F5
330
1E
100
AcDbEntity
  8
0
100
AcDbLine
 10
414.9359999999998
 20
602.321
 30
0.0
 11
419.0749999999998
 21
602.321
 31
0.0
  0
LINE
  5
6F6
330
1E
100
AcDbEntity
  8
0
100
AcDbLine
 10
410.1759999999998
 20
602.321
 30
0.0
 11
414.9359999999998
 21
602.321
 31
0.0
  0
LINE
  5
6F7
330
1E
100
AcDbEntity
  8
0
100
AcDbLine
 10
405.044
 20
602.321
 30
0.0
 11
410.1759999999998
 21
602.321
 31
0.0
  0
LINE
  5
6F8
330
1E
100
AcDbEntity
  8
0
100
AcDbLine
 10
385.0519999999998
 20
602.321
 30
0.0
 11
385.0519999999998
 21
604.6789999999998
 31
0.0
  0
LINE
  5
6F9
330
1E
100
AcDbEntity
  8
0
100
AcDbLine
 10
385.0519999999998
 20
602.321
 30
0.0
 11
385.6809999999999
 21
602.321
 31
0.0
  0
LINE
  5
6FA
330
1E
100
AcDbEntity
  8
0
100
AcDbLine
 10
385.0519999999998
 20
602.321
 30
0.0
 11
385.536
 21
602.0
 31
0.0
  0
LINE
  5
6FB
330
1E
100
AcDbEntity
  8
0
100
AcDbLine
 10
313.819
 20
602.321
 30
0.0
 11
314.8759999999998
 21
602.321
 31
0.0
  0
LINE
  5
6FC
330
1E
100
AcDbEntity
  8
0
100
AcDbLine
 10
314.8759999999998
 20
602.321
 30
0.0
 11
314.8759999999998
 21
604.6789999999998
 31
0.0
  0
LINE
  5
6FD
330
1E
100
AcDbEntity
  8
0
100
AcDbLine
 10
311.404
 20
602.321
 30
0.0
 11
313.819
 21
602.321
 31
0.0
  0
LINE
  5
6FE
330
1E
100
AcDbEntity
  8
0
100
AcDbLine
 10
307.784
 20
602.321
 30
0.0
 11
311.404
 21
602.321
 31
0.0
  0
LINE
  5
6FF
330
1E
100
AcDbEntity
  8
0
100
AcDbLine
 10
303.39
 20
602.321
 30
0.0
 11
307.784
 21
602.321
 31
0.0
  0
LINE
  5
700
330
1E
100
AcDbEntity
  8
0
100
AcDbLine
 10
298.473
 20
602.321
 30
0.0
 11
303.39
 21
602.321
 31
0.0
  0
LINE
  5
701
330
1E
100
AcDbEntity
  8
0
100
AcDbLine
 10
275.124
 20
602.321
 30
0.0
 11
275.124
 21
604.6789999999998
 31
0.0
  0
LINE
  5
702
330
1E
100
AcDbEntity
  8
0
100
AcDbLine
 10
275.124
 20
602.321
 30
0.0
 11
275.304
 21
602.321
 31
0.0
  0
LINE
  5
703
330
1E
100
AcDbEntity
  8
0
100
AcDbLine
 10
275.124
 20
602.321
 30
0.0
 11
275.6099999999999
 21
602.0
 31
0.0
  0
LINE
  5
704
330
1E
100
AcDbEntity
  8
0
100
AcDbLine
 10
204.464
 20
602.0
 30
0.0
 11
204.9479999999999
 21
602.321
 31
0.0
  0
LINE
  5
705
330
1E
100
AcDbEntity
  8
0
100
AcDbLine
 10
204.464
 20
602.0
 30
0.0
 11
204.9479999999999
 21
601.7859999999998
 31
0.0
  0
LINE
  5
706
330
1E
100
AcDbEntity
  8
0
100
AcDbLine
 10
204.319
 20
602.321
 30
0.0
 11
204.9479999999999
 21
602.321
 31
0.0
  0
LINE
  5
707
330
1E
100
AcDbEntity
  8
0
100
AcDbLine
 10
204.9479999999999
 20
602.321
 30
0.0
 11
204.9479999999999
 21
604.6789999999998
 31
0.0
  0
LINE
  5
708
330
1E
100
AcDbEntity
  8
0
100
AcDbLine
 10
486.0
 20
560.0
 30
0.0
 11
487.0239999999998
 21
560.0
 31
0.0
  0
LINE
  5
709
330
1E
100
AcDbEntity
  8
0
100
AcDbLine
 10
486.0
 20
555.0
 30
0.0
 11
487.0239999999998
 21
555.0
 31
0.0
  0
LINE
  5
70A
330
1E
100
AcDbEntity
  8
0
100
AcDbLine
 10
486.5299999999998
 20
565.0
 30
0.0
 11
487.966
 21
565.0
 31
0.0
  0
LINE
  5
70B
330
1E
100
AcDbEntity
  8
0
100
AcDbLine
 10
487.0239999999998
 20
560.0
 30
0.0
 11
487.984
 21
560.0
 31
0.0
  0
LINE
  5
70C
330
1E
100
AcDbEntity
  8
0
100
AcDbLine
 10
487.0239999999998
 20
555.0
 30
0.0
 11
487.984
 21
555.0
 31
0.0
  0
LINE
  5
70D
330
1E
100
AcDbEntity
  8
0
100
AcDbLine
 10
486.6469999999998
 20
560.0
 30
0.0
 11
488.1569999999999
 21
560.0
 31
0.0
  0
LINE
  5
70E
330
1E
100
AcDbEntity
  8
0
100
AcDbLine
 10
486.0
 20
580.0
 30
0.0
 11
486.0
 21
600.0
 31
0.0
  0
LINE
  5
70F
330
1E
100
AcDbEntity
  8
0
100
AcDbLine
 10
486.0
 20
580.0
 30
0.0
 11
486.768
 21
580.0
 31
0.0
  0
LINE
  5
710
330
1E
100
AcDbEntity
  8
0
100
AcDbLine
 10
487.984
 20
560.0
 30
0.0
 11
488.832
 21
560.0
 31
0.0
  0
LINE
  5
711
330
1E
100
AcDbEntity
  8
0
100
AcDbLine
 10
488.832
 20
560.0
 30
0.0
 11
489.4719999999998
 21
560.0
 31
0.0
  0
LINE
  5
712
330
1E
100
AcDbEntity
  8
0
100
AcDbLine
 10
487.984
 20
555.0
 30
0.0
 11
488.832
 21
555.0
 31
0.0
  0
LINE
  5
713
330
1E
100
AcDbEntity
  8
0
100
AcDbLine
 10
488.832
 20
555.0
 30
0.0
 11
489.4719999999998
 21
555.0
 31
0.0
  0
LINE
  5
714
330
1E
100
AcDbEntity
  8
0
100
AcDbLine
 10
487.488
 20
580.0
 30
0.0
 11
488.124
 21
580.0
 31
0.0
  0
LINE
  5
715
330
1E
100
AcDbEntity
  8
0
100
AcDbLine
 10
488.124
 20
580.0
 30
0.0
 11
488.604
 21
580.0
 31
0.0
  0
LINE
  5
716
330
1E
100
AcDbEntity
  8
0
100
AcDbLine
 10
488.604
 20
580.0
 30
0.0
 11
488.8919999999997
 21
580.0
 31
0.0
  0
LINE
  5
717
330
1E
100
AcDbEntity
  8
0
100
AcDbLine
 10
488.8919999999997
 20
580.0
 30
0.0
 11
489.0
 21
580.0
 31
0.0
  0
LINE
  5
719
330
1E
100
AcDbEntity
  8
0
100
AcDbLine
 10
487.966
 20
565.0
 30
0.0
 11
490.6959999999998
 21
565.0
 31
0.0
  0
LINE
  5
71A
330
1E
100
AcDbEntity
  8
0
100
AcDbLine
 10
488.1569999999999
 20
560.0
 30
0.0
 11
490.8999999999998
 21
560.0
 31
0.0
  0
LINE
  5
71B
330
1E
100
AcDbEntity
  8
0
100
AcDbLine
 10
488.1569999999999
 20
560.0
 30
0.0
 11
490.6959999999998
 21
560.0
 31
0.0
  0
LINE
  5
71C
330
1E
100
AcDbEntity
  8
0
100
AcDbLine
 10
487.044
 20
580.0
 30
0.0
 11
489.828
 21
580.0
 31
0.0
  0
LINE
  5
71D
330
1E
100
AcDbEntity
  8
0
100
AcDbLine
 10
486.8
 20
600.0
 30
0.0
 11
489.6799999999998
 21
600.0
 31
0.0
  0
LINE
  5
71E
330
1E
100
AcDbEntity
  8
0
100
AcDbLine
 10
486.08
 20
601.7859999999998
 30
0.0
 11
488.9599999999998
 21
601.7859999999998
 31
0.0
  0
LINE
  5
71F
330
1E
100
AcDbEntity
  8
0
100
AcDbLine
 10
486.08
 20
600.214
 30
0.0
 11
488.9599999999998
 21
600.214
 31
0.0
  0
LINE
  5
721
330
1E
100
AcDbEntity
  8
0
100
AcDbLine
 10
488.9599999999998
 20
601.7859999999998
 30
0.0
 11
493.7599999999997
 21
601.7859999999998
 31
0.0
  0
LINE
  5
722
330
1E
100
AcDbEntity
  8
0
100
AcDbLine
 10
488.9599999999998
 20
600.214
 30
0.0
 11
493.7599999999997
 21
600.214
 31
0.0
  0
LINE
  5
723
330
1E
100
AcDbEntity
  8
0
100
AcDbLine
 10
487.044
 20
600.0
 30
0.0
 11
489.828
 21
600.0
 31
0.0
  0
LINE
  5
724
330
1E
100
AcDbEntity
  8
0
100
AcDbLine
 10
486.0
 20
600.0
 30
0.0
 11
486.0
 21
580.0
 31
0.0
  0
LINE
  5
725
330
1E
100
AcDbEntity
  8
0
100
AcDbLine
 10
486.0
 20
600.0
 30
0.0
 11
487.044
 21
600.0
 31
0.0
  0
LINE
  5
726
330
1E
100
AcDbEntity
  8
0
100
AcDbLine
 10
486.768
 20
580.0
 30
0.0
 11
487.044
 21
580.0
 31
0.0
  0
LINE
  5
727
330
1E
100
AcDbEntity
  8
0
100
AcDbLine
 10
486.768
 20
580.0
 30
0.0
 11
487.488
 21
580.0
 31
0.0
  0
LINE
  5
729
330
1E
100
AcDbEntity
  8
0
100
AcDbLine
 10
486.08
 20
602.321
 30
0.0
 11
488.9599999999998
 21
602.321
 31
0.0
  0
LINE
  5
72A
330
1E
100
AcDbEntity
  8
0
100
AcDbLine
 10
490.0
 20
555.0
 30
0.0
 11
490.0
 21
560.0
 31
0.0
  0
LINE
  5
72B
330
1E
100
AcDbEntity
  8
0
100
AcDbLine
 10
489.4719999999998
 20
555.0
 30
0.0
 11
489.8559999999998
 21
555.0
 31
0.0
  0
LINE
  5
72C
330
1E
100
AcDbEntity
  8
0
100
AcDbLine
 10
489.4719999999998
 20
560.0
 30
0.0
 11
489.8559999999998
 21
560.0
 31
0.0
  0
LINE
  5
72D
330
1E
100
AcDbEntity
  8
0
100
AcDbLine
 10
489.8559999999998
 20
560.0
 30
0.0
 11
490.0
 21
560.0
 31
0.0
  0
LINE
  5
72E
330
1E
100
AcDbEntity
  8
0
100
AcDbLine
 10
489.8559999999998
 20
555.0
 30
0.0
 11
490.0
 21
555.0
 31
0.0
  0
LINE
  5
72F
330
1E
100
AcDbEntity
  8
0
100
AcDbLine
 10
489.0
 20
565.0
 30
0.0
 11
489.0
 21
580.0
 31
0.0
  0
LINE
  5
730
330
1E
100
AcDbEntity
  8
0
100
AcDbLine
 10
490.0
 20
565.0
 30
0.0
 11
490.0
 21
580.0
 31
0.0
  0
LINE
  5
731
330
1E
100
AcDbEntity
  8
0
100
AcDbLine
 10
490.0
 20
560.0
 30
0.0
 11
490.0
 21
520.0
 31
0.0
  0
LINE
  5
732
330
1E
100
AcDbEntity
  8
0
100
AcDbLine
 10
490.0
 20
560.0
 30
0.0
 11
490.0
 21
555.0
 31
0.0
  0
LINE
  5
733
330
1E
100
AcDbEntity
  8
0
100
AcDbLine
 10
490.0
 20
580.0
 30
0.0
 11
490.0
 21
565.0
 31
0.0
  0
LINE
  5
734
330
1E
100
AcDbEntity
  8
0
100
AcDbLine
 10
490.0
 20
580.0
 30
0.0
 11
490.8999999999998
 21
580.0
 31
0.0
  0
LINE
  5
735
330
1E
100
AcDbEntity
  8
0
100
AcDbLine
 10
493.2999999999998
 20
520.0
 30
0.0
 11
497.2999999999998
 21
520.0
 31
0.0
  0
LINE
  5
736
330
1E
100
AcDbEntity
  8
0
100
AcDbLine
 10
493.2999999999998
 20
520.0
 30
0.0
 11
495.0
 21
520.0
 31
0.0
  0
LINE
  5
737
330
1E
100
AcDbEntity
  8
0
100
AcDbLine
 10
490.6959999999998
 20
565.0
 30
0.0
 11
495.176
 21
565.0
 31
0.0
  0
LINE
  5
738
330
1E
100
AcDbEntity
  8
0
100
AcDbLine
 10
490.6959999999998
 20
560.0
 30
0.0
 11
495.176
 21
560.0
 31
0.0
  0
LINE
  5
739
330
1E
100
AcDbEntity
  8
0
100
AcDbLine
 10
493.2999999999998
 20
580.0
 30
0.0
 11
497.2999999999998
 21
580.0
 31
0.0
  0
LINE
  5
73A
330
1E
100
AcDbEntity
  8
0
100
AcDbLine
 10
490.8999999999998
 20
580.0
 30
0.0
 11
493.2999999999998
 21
580.0
 31
0.0
  0
LINE
  5
73B
330
1E
100
AcDbEntity
  8
0
100
AcDbLine
 10
490.8999999999998
 20
520.0
 30
0.0
 11
493.2999999999998
 21
520.0
 31
0.0
  0
LINE
  5
73C
330
1E
100
AcDbEntity
  8
0
100
AcDbLine
 10
490.0
 20
520.0
 30
0.0
 11
490.8999999999998
 21
520.0
 31
0.0
  0
LINE
  5
73D
330
1E
100
AcDbEntity
  8
0
100
AcDbLine
 10
490.0
 20
520.0
 30
0.0
 11
490.0
 21
560.0
 31
0.0
  0
LINE
  5
73E
330
1E
100
AcDbEntity
  8
0
100
AcDbLine
 10
489.0
 20
580.0
 30
0.0
 11
489.828
 21
580.0
 31
0.0
  0
LINE
  5
73F
330
1E
100
AcDbEntity
  8
0
100
AcDbLine
 10
489.0
 20
580.0
 30
0.0
 11
489.0
 21
565.0
 31
0.0
  0
LINE
  5
740
330
1E
100
AcDbEntity
  8
0
100
AcDbLine
 10
495.0
 20
520.0
 30
0.0
 11
495.0
 21
470.0
 31
0.0
  0
LINE
  5
741
330
1E
100
AcDbEntity
  8
0
100
AcDbLine
 10
495.0
 20
520.0
 30
0.0
 11
495.72
 21
520.0
 31
0.0
  0
LINE
  5
742
330
1E
100
AcDbEntity
  8
0
100
AcDbLine
 10
497.0
 20
450.0
 30
0.0
 11
497.0
 21
470.0
 31
0.0
  0
LINE
  5
743
330
1E
100
AcDbEntity
  8
0
100
AcDbLine
 10
497.0
 20
470.0
 30
0.0
 11
497.0
 21
450.0
 31
0.0
  0
LINE
  5
744
330
1E
100
AcDbEntity
  8
0
100
AcDbLine
 10
497.6399999999999
 20
470.0
 30
0.0
 11
500.8399999999999
 21
470.0
 31
0.0
  0
LINE
  5
745
330
1E
100
AcDbEntity
  8
0
100
AcDbLine
 10
497.6399999999999
 20
520.0
 30
0.0
 11
500.8399999999999
 21
520.0
 31
0.0
  0
LINE
  5
746
330
1E
100
AcDbEntity
  8
0
100
AcDbLine
 10
495.72
 20
520.0
 30
0.0
 11
497.6399999999999
 21
520.0
 31
0.0
  0
LINE
  5
747
330
1E
100
AcDbEntity
  8
0
100
AcDbLine
 10
495.72
 20
470.0
 30
0.0
 11
497.6399999999999
 21
470.0
 31
0.0
  0
LINE
  5
748
330
1E
100
AcDbEntity
  8
0
100
AcDbLine
 10
495.72
 20
470.0
 30
0.0
 11
497.0
 21
470.0
 31
0.0
  0
LINE
  5
749
330
1E
100
AcDbEntity
  8
0
100
AcDbLine
 10
495.0
 20
470.0
 30
0.0
 11
495.72
 21
470.0
 31
0.0
  0
LINE
  5
74A
330
1E
100
AcDbEntity
  8
0
100
AcDbLine
 10
495.0
 20
470.0
 30
0.0
 11
495.0
 21
520.0
 31
0.0
  0
LINE
  5
74B
330
1E
100
AcDbEntity
  8
0
100
AcDbLine
 10
495.176
 20
565.0
 30
0.0
 11
501.112
 21
565.0
 31
0.0
  0
LINE
  5
74C
330
1E
100
AcDbEntity
  8
0
100
AcDbLine
 10
495.176
 20
560.0
 30
0.0
 11
501.112
 21
560.0
 31
0.0
  0
LINE
  5
74D
330
1E
100
AcDbEntity
  8
0
100
AcDbLine
 10
497.2999999999998
 20
580.0
 30
0.0
 11
502.6
 21
580.0
 31
0.0
  0
LINE
  5
74E
330
1E
100
AcDbEntity
  8
0
100
AcDbLine
 10
497.2999999999998
 20
520.0
 30
0.0
 11
502.6
 21
520.0
 31
0.0
  0
LINE
  5
74F
330
1E
100
AcDbEntity
  8
0
100
AcDbLine
 10
494.4679999999998
 20
580.0
 30
0.0
 11
500.616
 21
580.0
 31
0.0
  0
LINE
  5
750
330
1E
100
AcDbEntity
  8
0
100
AcDbLine
 10
489.6799999999998
 20
600.0
 30
0.0
 11
494.3599999999998
 21
600.0
 31
0.0
  0
LINE
  5
751
330
1E
100
AcDbEntity
  8
0
100
AcDbLine
 10
494.3599999999998
 20
600.0
 30
0.0
 11
500.48
 21
600.0
 31
0.0
  0
LINE
  5
752
330
1E
100
AcDbEntity
  8
0
100
AcDbLine
 10
493.7599999999997
 20
601.7859999999998
 30
0.0
 11
500.1199999999998
 21
601.7859999999998
 31
0.0
  0
LINE
  5
753
330
1E
100
AcDbEntity
  8
0
100
AcDbLine
 10
493.7599999999997
 20
600.214
 30
0.0
 11
500.1199999999998
 21
600.214
 31
0.0
  0
LINE
  5
754
330
1E
100
AcDbEntity
  8
0
100
AcDbLine
 10
500.1199999999998
 20
601.7859999999998
 30
0.0
 11
507.3199999999998
 21
601.7859999999998
 31
0.0
  0
LINE
  5
755
330
1E
100
AcDbEntity
  8
0
100
AcDbLine
 10
500.1199999999998
 20
600.214
 30
0.0
 11
507.3199999999998
 21
600.214
 31
0.0
  0
LINE
  5
756
330
1E
100
AcDbEntity
  8
0
100
AcDbLine
 10
494.4679999999998
 20
600.0
 30
0.0
 11
500.616
 21
600.0
 31
0.0
  0
LINE
  5
757
330
1E
100
AcDbEntity
  8
0
100
AcDbLine
 10
489.828
 20
600.0
 30
0.0
 11
494.4679999999998
 21
600.0
 31
0.0
  0
LINE
  5
758
330
1E
100
AcDbEntity
  8
0
100
AcDbLine
 10
489.828
 20
580.0
 30
0.0
 11
494.4679999999998
 21
580.0
 31
0.0
  0
LINE
  5
759
330
1E
100
AcDbEntity
  8
0
100
AcDbLine
 10
489.828
 20
580.0
 30
0.0
 11
490.0
 21
580.0
 31
0.0
  0
LINE
  5
75A
330
1E
100
AcDbEntity
  8
0
100
AcDbLine
 10
488.9599999999998
 20
602.321
 30
0.0
 11
493.7599999999997
 21
602.321
 31
0.0
  0
LINE
  5
75B
330
1E
100
AcDbEntity
  8
0
100
AcDbLine
 10
493.7599999999997
 20
602.321
 30
0.0
 11
500.1199999999998
 21
602.321
 31
0.0
  0
LINE
  5
75C
330
1E
100
AcDbEntity
  8
0
100
AcDbLine
 10
500.48
 20
600.0
 30
0.0
 11
507.4399999999998
 21
600.0
 31
0.0
  0
LINE
  5
75D
330
1E
100
AcDbEntity
  8
0
100
AcDbLine
 10
500.616
 20
600.0
 30
0.0
 11
507.5759999999998
 21
600.0
 31
0.0
  0
LINE
  5
760
330
1E
100
AcDbEntity
  8
0
100
AcDbLine
 10
505.0799999999998
 20
470.0
 30
0.0
 11
509.8799999999998
 21
470.0
 31
0.0
  0
LINE
  5
761
330
1E
100
AcDbEntity
  8
0
100
AcDbLine
 10
505.0799999999998
 20
520.0
 30
0.0
 11
509.8799999999998
 21
520.0
 31
0.0
  0
LINE
  5
762
330
1E
100
AcDbEntity
  8
0
100
AcDbLine
 10
500.8399999999999
 20
520.0
 30
0.0
 11
505.0799999999998
 21
520.0
 31
0.0
  0
LINE
  5
763
330
1E
100
AcDbEntity
  8
0
100
AcDbLine
 10
500.8399999999999
 20
470.0
 30
0.0
 11
505.0799999999998
 21
470.0
 31
0.0
  0
LINE
  5
764
330
1E
100
AcDbEntity
  8
0
100
AcDbLine
 10
509.8799999999998
 20
520.0
 30
0.0
 11
515.0
 21
520.0
 31
0.0
  0
LINE
  5
769
330
1E
100
AcDbEntity
  8
0
100
AcDbLine
 10
515.0
 20
470.0
 30
0.0
 11
520.12
 21
470.0
 31
0.0
  0
LINE
  5
76B
330
1E
100
AcDbEntity
  8
0
100
AcDbLine
 10
509.8799999999998
 20
470.0
 30
0.0
 11
515.0
 21
470.0
 31
0.0
  0
LINE
  5
76C
330
1E
100
AcDbEntity
  8
0
100
AcDbLine
 10
515.0
 20
520.0
 30
0.0
 11
521.3999999999998
 21
520.0
 31
0.0
  0
LINE
  5
76D
330
1E
100
AcDbEntity
  8
0
100
AcDbLine
 10
515.0
 20
520.0
 30
0.0
 11
520.12
 21
520.0
 31
0.0
  0
LINE
  5
76E
330
1E
100
AcDbEntity
  8
0
100
AcDbLine
 10
508.6
 20
520.0
 30
0.0
 11
515.0
 21
520.0
 31
0.0
  0
LINE
  5
76F
330
1E
100
AcDbEntity
  8
0
100
AcDbLine
 10
501.112
 20
565.0
 30
0.0
 11
507.8319999999997
 21
565.0
 31
0.0
  0
LINE
  5
770
330
1E
100
AcDbEntity
  8
0
100
AcDbLine
 10
501.112
 20
560.0
 30
0.0
 11
507.8319999999997
 21
560.0
 31
0.0
  0
LINE
  5
771
330
1E
100
AcDbEntity
  8
0
100
AcDbLine
 10
507.8319999999997
 20
565.0
 30
0.0
 11
515.0
 21
565.0
 31
0.0
  0
LINE
  5
772
330
1E
100
AcDbEntity
  8
0
100
AcDbLine
 10
515.0
 20
565.0
 30
0.0
 11
522.168
 21
565.0
 31
0.0
  0
LINE
  5
773
330
1E
100
AcDbEntity
  8
0
100
AcDbLine
 10
515.0
 20
560.0
 30
0.0
 11
522.168
 21
560.0
 31
0.0
  0
LINE
  5
774
330
1E
100
AcDbEntity
  8
0
100
AcDbLine
 10
507.8319999999997
 20
560.0
 30
0.0
 11
515.0
 21
560.0
 31
0.0
  0
LINE
  5
775
330
1E
100
AcDbEntity
  8
0
100
AcDbLine
 10
508.6
 20
580.0
 30
0.0
 11
515.0
 21
580.0
 31
0.0
  0
LINE
  5
776
330
1E
100
AcDbEntity
  8
0
100
AcDbLine
 10
502.6
 20
580.0
 30
0.0
 11
508.6
 21
580.0
 31
0.0
  0
LINE
  5
777
330
1E
100
AcDbEntity
  8
0
100
AcDbLine
 10
502.6
 20
520.0
 30
0.0
 11
508.6
 21
520.0
 31
0.0
  0
LINE
  5
778
330
1E
100
AcDbEntity
  8
0
100
AcDbLine
 10
515.0
 20
580.0
 30
0.0
 11
522.4239999999999
 21
580.0
 31
0.0
  0
LINE
  5
779
330
1E
100
AcDbEntity
  8
0
100
AcDbLine
 10
515.0
 20
580.0
 30
0.0
 11
521.3999999999998
 21
580.0
 31
0.0
  0
LINE
  5
77A
330
1E
100
AcDbEntity
  8
0
100
AcDbLine
 10
507.4399999999998
 20
600.0
 30
0.0
 11
515.0
 21
600.0
 31
0.0
  0
LINE
  5
77C
330
1E
100
AcDbEntity
  8
0
100
AcDbLine
 10
507.3199999999998
 20
601.7859999999998
 30
0.0
 11
515.0
 21
601.7859999999998
 31
0.0
  0
LINE
  5
77D
330
1E
100
AcDbEntity
  8
0
100
AcDbLine
 10
507.3199999999998
 20
600.214
 30
0.0
 11
515.0
 21
600.214
 31
0.0
  0
LINE
  5
77F
330
1E
100
AcDbEntity
  8
0
100
AcDbLine
 10
515.0
 20
601.7859999999998
 30
0.0
 11
522.6799999999998
 21
601.7859999999998
 31
0.0
  0
LINE
  5
780
330
1E
100
AcDbEntity
  8
0
100
AcDbLine
 10
515.0
 20
600.214
 30
0.0
 11
522.6799999999998
 21
600.214
 31
0.0
  0
LINE
  5
781
330
1E
100
AcDbEntity
  8
0
100
AcDbLine
 10
515.0
 20
600.0
 30
0.0
 11
522.4239999999999
 21
600.0
 31
0.0
  0
LINE
  5
782
330
1E
100
AcDbEntity
  8
0
100
AcDbLine
 10
507.5759999999998
 20
600.0
 30
0.0
 11
515.0
 21
600.0
 31
0.0
  0
LINE
  5
783
330
1E
100
AcDbEntity
  8
0
100
AcDbLine
 10
507.5759999999998
 20
580.0
 30
0.0
 11
515.0
 21
580.0
 31
0.0
  0
LINE
  5
784
330
1E
100
AcDbEntity
  8
0
100
AcDbLine
 10
500.616
 20
580.0
 30
0.0
 11
507.5759999999998
 21
580.0
 31
0.0
  0
LINE
  5
786
330
1E
100
AcDbEntity
  8
0
100
AcDbLine
 10
500.1199999999998
 20
602.321
 30
0.0
 11
507.3199999999998
 21
602.321
 31
0.0
  0
LINE
  5
787
330
1E
100
AcDbEntity
  8
0
100
AcDbLine
 10
507.3199999999998
 20
602.321
 30
0.0
 11
515.0
 21
602.321
 31
0.0
  0
LINE
  5
78B
330
1E
100
AcDbEntity
  8
0
100
AcDbLine
 10
520.12
 20
520.0
 30
0.0
 11
524.92
 21
520.0
 31
0.0
  0
LINE
  5
78C
330
1E
100
AcDbEntity
  8
0
100
AcDbLine
 10
520.12
 20
470.0
 30
0.0
 11
524.92
 21
470.0
 31
0.0
  0
LINE
  5
78D
330
1E
100
AcDbEntity
  8
0
100
AcDbLine
 10
522.168
 20
565.0
 30
0.0
 11
528.888
 21
565.0
 31
0.0
  0
LINE
  5
78E
330
1E
100
AcDbEntity
  8
0
100
AcDbLine
 10
522.168
 20
560.0
 30
0.0
 11
528.888
 21
560.0
 31
0.0
  0
LINE
  5
78F
330
1E
100
AcDbEntity
  8
0
100
AcDbLine
 10
521.3999999999998
 20
580.0
 30
0.0
 11
527.4
 21
580.0
 31
0.0
  0
LINE
  5
790
330
1E
100
AcDbEntity
  8
0
100
AcDbLine
 10
521.3999999999998
 20
520.0
 30
0.0
 11
527.4
 21
520.0
 31
0.0
  0
LINE
  5
791
330
1E
100
AcDbEntity
  8
0
100
AcDbLine
 10
524.92
 20
520.0
 30
0.0
 11
529.1599999999998
 21
520.0
 31
0.0
  0
LINE
  5
792
330
1E
100
AcDbEntity
  8
0
100
AcDbLine
 10
529.1599999999998
 20
520.0
 30
0.0
 11
532.3599999999998
 21
520.0
 31
0.0
  0
LINE
  5
793
330
1E
100
AcDbEntity
  8
0
100
AcDbLine
 10
524.92
 20
470.0
 30
0.0
 11
529.1599999999998
 21
470.0
 31
0.0
  0
LINE
  5
794
330
1E
100
AcDbEntity
  8
0
100
AcDbLine
 10
529.1599999999998
 20
470.0
 30
0.0
 11
532.3599999999998
 21
470.0
 31
0.0
  0
LINE
  5
795
330
1E
100
AcDbEntity
  8
0
100
AcDbLine
 10
528.888
 20
565.0
 30
0.0
 11
534.824
 21
565.0
 31
0.0
  0
LINE
  5
796
330
1E
100
AcDbEntity
  8
0
100
AcDbLine
 10
528.888
 20
560.0
 30
0.0
 11
534.824
 21
560.0
 31
0.0
  0
LINE
  5
797
330
1E
100
AcDbEntity
  8
0
100
AcDbLine
 10
527.4
 20
580.0
 30
0.0
 11
532.7
 21
580.0
 31
0.0
  0
LINE
  5
798
330
1E
100
AcDbEntity
  8
0
100
AcDbLine
 10
527.4
 20
520.0
 30
0.0
 11
532.7
 21
520.0
 31
0.0
  0
LINE
  5
799
330
1E
100
AcDbEntity
  8
0
100
AcDbLine
 10
522.4239999999999
 20
580.0
 30
0.0
 11
529.384
 21
580.0
 31
0.0
  0
LINE
  5
79B
330
1E
100
AcDbEntity
  8
0
100
AcDbLine
 10
522.6799999999998
 20
601.7859999999998
 30
0.0
 11
529.8799999999999
 21
601.7859999999998
 31
0.0
  0
LINE
  5
79C
330
1E
100
AcDbEntity
  8
0
100
AcDbLine
 10
522.6799999999998
 20
600.214
 30
0.0
 11
529.8799999999999
 21
600.214
 31
0.0
  0
LINE
  5
79D
330
1E
100
AcDbEntity
  8
0
100
AcDbLine
 10
522.4239999999999
 20
600.0
 30
0.0
 11
529.384
 21
600.0
 31
0.0
  0
LINE
  5
79F
330
1E
100
AcDbEntity
  8
0
100
AcDbLine
 10
529.8799999999999
 20
601.7859999999998
 30
0.0
 11
536.24
 21
601.7859999999998
 31
0.0
  0
LINE
  5
7A0
330
1E
100
AcDbEntity
  8
0
100
AcDbLine
 10
529.8799999999999
 20
600.214
 30
0.0
 11
536.24
 21
600.214
 31
0.0
  0
LINE
  5
7A1
330
1E
100
AcDbEntity
  8
0
100
AcDbLine
 10
529.384
 20
600.0
 30
0.0
 11
535.5319999999998
 21
600.0
 31
0.0
  0
LINE
  5
7A2
330
1E
100
AcDbEntity
  8
0
100
AcDbLine
 10
529.384
 20
580.0
 30
0.0
 11
535.5319999999998
 21
580.0
 31
0.0
  0
LINE
  5
7A3
330
1E
100
AcDbEntity
  8
0
100
AcDbLine
 10
533.0
 20
450.0
 30
0.0
 11
533.0
 21
470.0
 31
0.0
  0
LINE
  5
7A4
330
1E
100
AcDbEntity
  8
0
100
AcDbLine
 10
533.0
 20
470.0
 30
0.0
 11
534.2799999999998
 21
470.0
 31
0.0
  0
LINE
  5
7A5
330
1E
100
AcDbEntity
  8
0
100
AcDbLine
 10
533.0
 20
470.0
 30
0.0
 11
533.0
 21
450.0
 31
0.0
  0
LINE
  5
7A6
330
1E
100
AcDbEntity
  8
0
100
AcDbLine
 10
535.0
 20
470.0
 30
0.0
 11
535.0
 21
520.0
 31
0.0
  0
LINE
  5
7A7
330
1E
100
AcDbEntity
  8
0
100
AcDbLine
 10
532.3599999999998
 20
470.0
 30
0.0
 11
534.2799999999998
 21
470.0
 31
0.0
  0
LINE
  5
7A8
330
1E
100
AcDbEntity
  8
0
100
AcDbLine
 10
532.3599999999998
 20
520.0
 30
0.0
 11
534.2799999999998
 21
520.0
 31
0.0
  0
LINE
  5
7A9
330
1E
100
AcDbEntity
  8
0
100
AcDbLine
 10
534.2799999999998
 20
520.0
 30
0.0
 11
535.0
 21
520.0
 31
0.0
  0
LINE
  5
7AA
330
1E
100
AcDbEntity
  8
0
100
AcDbLine
 10
534.2799999999998
 20
470.0
 30
0.0
 11
535.0
 21
470.0
 31
0.0
  0
LINE
  5
7AB
330
1E
100
AcDbEntity
  8
0
100
AcDbLine
 10
535.0
 20
520.0
 30
0.0
 11
536.7
 21
520.0
 31
0.0
  0
LINE
  5
7AC
330
1E
100
AcDbEntity
  8
0
100
AcDbLine
 10
535.0
 20
520.0
 30
0.0
 11
535.0
 21
470.0
 31
0.0
  0
LINE
  5
7AD
330
1E
100
AcDbEntity
  8
0
100
AcDbLine
 10
534.824
 20
565.0
 30
0.0
 11
539.304
 21
565.0
 31
0.0
  0
LINE
  5
7AE
330
1E
100
AcDbEntity
  8
0
100
AcDbLine
 10
534.824
 20
560.0
 30
0.0
 11
539.304
 21
560.0
 31
0.0
  0
LINE
  5
7AF
330
1E
100
AcDbEntity
  8
0
100
AcDbLine
 10
532.7
 20
580.0
 30
0.0
 11
536.7
 21
580.0
 31
0.0
  0
LINE
  5
7B0
330
1E
100
AcDbEntity
  8
0
100
AcDbLine
 10
532.7
 20
520.0
 30
0.0
 11
536.7
 21
520.0
 31
0.0
  0
LINE
  5
7B1
330
1E
100
AcDbEntity
  8
0
100
AcDbLine
 10
538.3
 20
560.0
 30
0.0
 11
541.843
 21
560.0
 31
0.0
  0
LINE
  5
7B2
330
1E
100
AcDbEntity
  8
0
100
AcDbLine
 10
536.7
 20
580.0
 30
0.0
 11
539.1
 21
580.0
 31
0.0
  0
LINE
  5
7B3
330
1E
100
AcDbEntity
  8
0
100
AcDbLine
 10
539.1
 20
580.0
 30
0.0
 11
540.0
 21
580.0
 31
0.0
  0
LINE
  5
7B4
330
1E
100
AcDbEntity
  8
0
100
AcDbLine
 10
536.7
 20
520.0
 30
0.0
 11
539.1
 21
520.0
 31
0.0
  0
LINE
  5
7B5
330
1E
100
AcDbEntity
  8
0
100
AcDbLine
 10
540.0
 20
550.0
 30
0.0
 11
551.0
 21
550.0
 31
0.0
  0
LINE
  5
7B6
330
1E
100
AcDbEntity
  8
0
100
AcDbLine
 10
540.0
 20
555.0
 30
0.0
 11
540.144
 21
555.0
 31
0.0
  0
LINE
  5
7B7
330
1E
100
AcDbEntity
  8
0
100
AcDbLine
 10
540.0
 20
555.0
 30
0.0
 11
540.0
 21
560.0
 31
0.0
  0
LINE
  5
7B8
330
1E
100
AcDbEntity
  8
0
100
AcDbLine
 10
539.304
 20
560.0
 30
0.0
 11
541.843
 21
560.0
 31
0.0
  0
LINE
  5
7B9
330
1E
100
AcDbEntity
  8
0
100
AcDbLine
 10
539.304
 20
565.0
 30
0.0
 11
542.034
 21
565.0
 31
0.0
  0
LINE
  5
7BA
330
1E
100
AcDbEntity
  8
0
100
AcDbLine
 10
540.0
 20
560.0
 30
0.0
 11
540.0
 21
520.0
 31
0.0
  0
LINE
  5
7BB
330
1E
100
AcDbEntity
  8
0
100
AcDbLine
 10
540.0
 20
560.0
 30
0.0
 11
540.144
 21
560.0
 31
0.0
  0
LINE
  5
7BC
330
1E
100
AcDbEntity
  8
0
100
AcDbLine
 10
540.0
 20
560.0
 30
0.0
 11
540.0
 21
555.0
 31
0.0
  0
LINE
  5
7BD
330
1E
100
AcDbEntity
  8
0
100
AcDbLine
 10
540.144
 20
560.0
 30
0.0
 11
540.528
 21
560.0
 31
0.0
  0
LINE
  5
7BE
330
1E
100
AcDbEntity
  8
0
100
AcDbLine
 10
540.144
 20
555.0
 30
0.0
 11
540.528
 21
555.0
 31
0.0
  0
LINE
  5
7BF
330
1E
100
AcDbEntity
  8
0
100
AcDbLine
 10
540.0
 20
565.0
 30
0.0
 11
540.0
 21
580.0
 31
0.0
  0
LINE
  5
7C0
330
1E
100
AcDbEntity
  8
0
100
AcDbLine
 10
540.0
 20
520.0
 30
0.0
 11
540.0
 21
560.0
 31
0.0
  0
LINE
  5
7C1
330
1E
100
AcDbEntity
  8
0
100
AcDbLine
 10
539.1
 20
520.0
 30
0.0
 11
540.0
 21
520.0
 31
0.0
  0
LINE
  5
7C2
330
1E
100
AcDbEntity
  8
0
100
AcDbLine
 10
540.0
 20
580.0
 30
0.0
 11
540.172
 21
580.0
 31
0.0
  0
LINE
  5
7C3
330
1E
100
AcDbEntity
  8
0
100
AcDbLine
 10
540.0
 20
580.0
 30
0.0
 11
540.0
 21
565.0
 31
0.0
  0
LINE
  5
7C4
330
1E
100
AcDbEntity
  8
0
100
AcDbLine
 10
535.5319999999998
 20
580.0
 30
0.0
 11
540.172
 21
580.0
 31
0.0
  0
LINE
  5
7C5
330
1E
100
AcDbEntity
  8
0
100
AcDbLine
 10
536.24
 20
601.7859999999998
 30
0.0
 11
541.04
 21
601.7859999999998
 31
0.0
  0
LINE
  5
7C6
330
1E
100
AcDbEntity
  8
0
100
AcDbLine
 10
536.24
 20
600.214
 30
0.0
 11
541.04
 21
600.214
 31
0.0
  0
LINE
  5
7C7
330
1E
100
AcDbEntity
  8
0
100
AcDbLine
 10
535.5319999999998
 20
600.0
 30
0.0
 11
540.172
 21
600.0
 31
0.0
  0
LINE
  5
7C8
330
1E
100
AcDbEntity
  8
0
100
AcDbLine
 10
540.172
 20
600.0
 30
0.0
 11
542.956
 21
600.0
 31
0.0
  0
LINE
  5
7C9
330
1E
100
AcDbEntity
  8
0
100
AcDbLine
 10
540.172
 20
580.0
 30
0.0
 11
542.956
 21
580.0
 31
0.0
  0
LINE
  5
7CA
330
1E
100
AcDbEntity
  8
0
100
AcDbLine
 10
540.172
 20
580.0
 30
0.0
 11
541.0
 21
580.0
 31
0.0
  0
LINE
  5
7CB
330
1E
100
AcDbEntity
  8
0
100
AcDbLine
 10
540.528
 20
560.0
 30
0.0
 11
541.168
 21
560.0
 31
0.0
  0
LINE
  5
7CC
330
1E
100
AcDbEntity
  8
0
100
AcDbLine
 10
540.528
 20
555.0
 30
0.0
 11
541.168
 21
555.0
 31
0.0
  0
LINE
  5
7CD
330
1E
100
AcDbEntity
  8
0
100
AcDbLine
 10
541.04
 20
601.7859999999998
 30
0.0
 11
543.9199999999998
 21
601.7859999999998
 31
0.0
  0
LINE
  5
7CE
330
1E
100
AcDbEntity
  8
0
100
AcDbLine
 10
541.04
 20
600.214
 30
0.0
 11
543.9199999999998
 21
600.214
 31
0.0
  0
LINE
  5
7CF
330
1E
100
AcDbEntity
  8
0
100
AcDbLine
 10
541.0
 20
580.0
 30
0.0
 11
541.1080000000001
 21
580.0
 31
0.0
  0
LINE
  5
7D0
330
1E
100
AcDbEntity
  8
0
100
AcDbLine
 10
541.0
 20
580.0
 30
0.0
 11
541.0
 21
565.0
 31
0.0
  0
LINE
  5
7D1
330
1E
100
AcDbEntity
  8
0
100
AcDbLine
 10
541.0
 20
565.0
 30
0.0
 11
541.0
 21
580.0
 31
0.0
  0
LINE
  5
7D4
330
1E
100
AcDbEntity
  8
0
100
AcDbLine
 10
541.168
 20
560.0
 30
0.0
 11
542.016
 21
560.0
 31
0.0
  0
LINE
  5
7D5
330
1E
100
AcDbEntity
  8
0
100
AcDbLine
 10
541.168
 20
555.0
 30
0.0
 11
542.016
 21
555.0
 31
0.0
  0
LINE
  5
7D6
330
1E
100
AcDbEntity
  8
0
100
AcDbLine
 10
541.3959999999998
 20
580.0
 30
0.0
 11
541.8759999999998
 21
580.0
 31
0.0
  0
LINE
  5
7D7
330
1E
100
AcDbEntity
  8
0
100
AcDbLine
 10
541.1080000000001
 20
580.0
 30
0.0
 11
541.3959999999998
 21
580.0
 31
0.0
  0
LINE
  5
7D8
330
1E
100
AcDbEntity
  8
0
100
AcDbLine
 10
542.016
 20
560.0
 30
0.0
 11
542.9759999999999
 21
560.0
 31
0.0
  0
LINE
  5
7D9
330
1E
100
AcDbEntity
  8
0
100
AcDbLine
 10
542.9759999999999
 20
560.0
 30
0.0
 11
544.0
 21
560.0
 31
0.0
  0
LINE
  5
7DA
330
1E
100
AcDbEntity
  8
0
100
AcDbLine
 10
542.9759999999999
 20
555.0
 30
0.0
 11
544.0
 21
555.0
 31
0.0
  0
LINE
  5
7DB
330
1E
100
AcDbEntity
  8
0
100
AcDbLine
 10
542.016
 20
555.0
 30
0.0
 11
542.9759999999999
 21
555.0
 31
0.0
  0
LINE
  5
7DC
330
1E
100
AcDbEntity
  8
0
100
AcDbLine
 10
542.5119999999998
 20
580.0
 30
0.0
 11
543.2319999999998
 21
580.0
 31
0.0
  0
LINE
  5
7DD
330
1E
100
AcDbEntity
  8
0
100
AcDbLine
 10
541.8759999999998
 20
580.0
 30
0.0
 11
542.5119999999998
 21
580.0
 31
0.0
  0
LINE
  5
7DE
330
1E
100
AcDbEntity
  8
0
100
AcDbLine
 10
542.034
 20
565.0
 30
0.0
 11
543.47
 21
565.0
 31
0.0
  0
LINE
  5
7E0
330
1E
100
AcDbEntity
  8
0
100
AcDbLine
 10
541.843
 20
560.0
 30
0.0
 11
543.3530000000001
 21
560.0
 31
0.0
  0
LINE
  5
7E1
330
1E
100
AcDbEntity
  8
0
100
AcDbLine
 10
542.956
 20
600.0
 30
0.0
 11
544.0
 21
600.0
 31
0.0
  0
LINE
  5
7E2
330
1E
100
AcDbEntity
  8
0
100
AcDbLine
 10
542.956
 20
580.0
 30
0.0
 11
543.2319999999998
 21
580.0
 31
0.0
  0
LINE
  5
7E3
330
1E
100
AcDbEntity
  8
0
100
AcDbLine
 10
543.2319999999998
 20
580.0
 30
0.0
 11
544.0
 21
580.0
 31
0.0
  0
LINE
  5
7E4
330
1E
100
AcDbEntity
  8
0
100
AcDbLine
 10
544.0
 20
560.0
 30
0.0
 11
545.0239999999999
 21
560.0
 31
0.0
  0
LINE
  5
7E5
330
1E
100
AcDbEntity
  8
0
100
AcDbLine
 10
544.0
 20
555.0
 30
0.0
 11
545.0239999999999
 21
555.0
 31
0.0
  0
LINE
  5
7E6
330
1E
100
AcDbEntity
  8
0
100
AcDbLine
 10
543.47
 20
565.0
 30
0.0
 11
545.547
 21
565.0
 31
0.0
  0
LINE
  5
7E7
330
1E
100
AcDbEntity
  8
0
100
AcDbLine
 10
543.3530000000001
 20
560.0
 30
0.0
 11
545.547
 21
560.0
 31
0.0
  0
LINE
  5
7E8
330
1E
100
AcDbEntity
  8
0
100
AcDbLine
 10
543.9199999999998
 20
601.7859999999998
 30
0.0
 11
545.0
 21
601.7859999999998
 31
0.0
  0
LINE
  5
7E9
330
1E
100
AcDbEntity
  8
0
100
AcDbLine
 10
543.9199999999998
 20
600.214
 30
0.0
 11
545.0
 21
600.214
 31
0.0
  0
LINE
  5
7EA
330
1E
100
AcDbEntity
  8
0
100
AcDbLine
 10
544.28
 20
600.0
 30
0.0
 11
545.0
 21
600.214
 31
0.0
  0
LINE
  5
7EB
330
1E
100
AcDbEntity
  8
0
100
AcDbLine
 10
544.0
 20
600.0
 30
0.0
 11
544.0
 21
580.0
 31
0.0
  0
LINE
  5
7EC
330
1E
100
AcDbEntity
  8
0
100
AcDbLine
 10
544.0
 20
600.0
 30
0.0
 11
544.28
 21
600.0
 31
0.0
  0
LINE
  5
7ED
330
1E
100
AcDbEntity
  8
0
100
AcDbLine
 10
544.0
 20
580.0
 30
0.0
 11
544.0
 21
600.0
 31
0.0
  0
LINE
  5
7EE
330
1E
100
AcDbEntity
  8
0
100
AcDbLine
 10
544.0
 20
580.0
 30
0.0
 11
544.768
 21
580.0
 31
0.0
  0
LINE
  5
7F0
330
1E
100
AcDbEntity
  8
0
100
AcDbLine
 10
543.9199999999998
 20
602.321
 30
0.0
 11
545.0
 21
602.321
 31
0.0
  0
LINE
  5
7F1
330
1E
100
AcDbEntity
  8
0
100
AcDbLine
 10
541.04
 20
602.321
 30
0.0
 11
543.9199999999998
 21
602.321
 31
0.0
  0
LINE
  5
7F2
330
1E
100
AcDbEntity
  8
0
100
AcDbLine
 10
536.24
 20
602.321
 30
0.0
 11
541.04
 21
602.321
 31
0.0
  0
LINE
  5
7F3
330
1E
100
AcDbEntity
  8
0
100
AcDbLine
 10
529.8799999999999
 20
602.321
 30
0.0
 11
536.24
 21
602.321
 31
0.0
  0
LINE
  5
7F4
330
1E
100
AcDbEntity
  8
0
100
AcDbLine
 10
522.6799999999998
 20
602.321
 30
0.0
 11
529.8799999999999
 21
602.321
 31
0.0
  0
LINE
  5
7F5
330
1E
100
AcDbEntity
  8
0
100
AcDbLine
 10
515.0
 20
602.321
 30
0.0
 11
522.6799999999998
 21
602.321
 31
0.0
  0
LINE
  5
7F6
330
1E
100
AcDbEntity
  8
0
100
AcDbLine
 10
165.052
 20
604.6789999999998
 30
0.0
 11
165.052
 21
602.321
 31
0.0
  0
LINE
  5
7F7
330
1E
100
AcDbEntity
  8
0
100
AcDbLine
 10
165.052
 20
604.6789999999998
 30
0.0
 11
165.664
 21
604.6789999999998
 31
0.0
  0
LINE
  5
7F8
330
1E
100
AcDbEntity
  8
0
100
AcDbLine
 10
165.052
 20
604.6789999999998
 30
0.0
 11
165.5359999999999
 21
605.0
 31
0.0
  0
LINE
  5
7F9
330
1E
100
AcDbEntity
  8
0
100
AcDbLine
 10
165.664
 20
604.6789999999998
 30
0.0
 11
167.6579999999999
 21
604.6789999999998
 31
0.0
  0
LINE
  5
7FA
330
1E
100
AcDbEntity
  8
0
100
AcDbLine
 10
167.6579999999999
 20
604.6789999999998
 30
0.0
 11
170.925
 21
604.6789999999998
 31
0.0
  0
LINE
  5
7FB
330
1E
100
AcDbEntity
  8
0
100
AcDbLine
 10
170.925
 20
604.6789999999998
 30
0.0
 11
175.064
 21
604.6789999999998
 31
0.0
  0
LINE
  5
7FC
330
1E
100
AcDbEntity
  8
0
100
AcDbLine
 10
175.064
 20
604.6789999999998
 30
0.0
 11
179.824
 21
604.6789999999998
 31
0.0
  0
LINE
  5
7FD
330
1E
100
AcDbEntity
  8
0
100
AcDbLine
 10
202.298
 20
604.6789999999998
 30
0.0
 11
204.319
 21
604.6789999999998
 31
0.0
  0
LINE
  5
7FE
330
1E
100
AcDbEntity
  8
0
100
AcDbLine
 10
199.201
 20
604.6789999999998
 30
0.0
 11
202.298
 21
604.6789999999998
 31
0.0
  0
LINE
  5
7FF
330
1E
100
AcDbEntity
  8
0
100
AcDbLine
 10
195.013
 20
604.6789999999998
 30
0.0
 11
199.201
 21
604.6789999999998
 31
0.0
  0
LINE
  5
800
330
1E
100
AcDbEntity
  8
0
100
AcDbLine
 10
190.089
 20
604.6789999999998
 30
0.0
 11
195.013
 21
604.6789999999998
 31
0.0
  0
LINE
  5
801
330
1E
100
AcDbEntity
  8
0
100
AcDbLine
 10
184.9559999999999
 20
604.6789999999998
 30
0.0
 11
190.089
 21
604.6789999999998
 31
0.0
  0
LINE
  5
802
330
1E
100
AcDbEntity
  8
0
100
AcDbLine
 10
179.824
 20
604.6789999999998
 30
0.0
 11
184.9559999999999
 21
604.6789999999998
 31
0.0
  0
LINE
  5
803
330
1E
100
AcDbEntity
  8
0
100
AcDbLine
 10
275.304
 20
604.6789999999998
 30
0.0
 11
276.9019999999999
 21
604.6789999999998
 31
0.0
  0
LINE
  5
804
330
1E
100
AcDbEntity
  8
0
100
AcDbLine
 10
276.9019999999999
 20
604.6789999999998
 30
0.0
 11
279.6259999999999
 21
604.6789999999998
 31
0.0
  0
LINE
  5
805
330
1E
100
AcDbEntity
  8
0
100
AcDbLine
 10
279.6259999999999
 20
604.6789999999998
 30
0.0
 11
283.5139999999999
 21
604.6789999999998
 31
0.0
  0
LINE
  5
806
330
1E
100
AcDbEntity
  8
0
100
AcDbLine
 10
283.5139999999999
 20
604.6789999999998
 30
0.0
 11
288.245
 21
604.6789999999998
 31
0.0
  0
LINE
  5
807
330
1E
100
AcDbEntity
  8
0
100
AcDbLine
 10
288.245
 20
604.6789999999998
 30
0.0
 11
293.3059999999998
 21
604.6789999999998
 31
0.0
  0
LINE
  5
808
330
1E
100
AcDbEntity
  8
0
100
AcDbLine
 10
293.3059999999998
 20
604.6789999999998
 30
0.0
 11
298.473
 21
604.6789999999998
 31
0.0
  0
LINE
  5
809
330
1E
100
AcDbEntity
  8
0
100
AcDbLine
 10
385.6809999999999
 20
604.6789999999998
 30
0.0
 11
387.7019999999998
 21
604.6789999999998
 31
0.0
  0
LINE
  5
80A
330
1E
100
AcDbEntity
  8
0
100
AcDbLine
 10
387.7019999999998
 20
604.6789999999998
 30
0.0
 11
390.799
 21
604.6789999999998
 31
0.0
  0
LINE
  5
80B
330
1E
100
AcDbEntity
  8
0
100
AcDbLine
 10
390.799
 20
604.6789999999998
 30
0.0
 11
394.9869999999998
 21
604.6789999999998
 31
0.0
  0
LINE
  5
80C
330
1E
100
AcDbEntity
  8
0
100
AcDbLine
 10
394.9869999999998
 20
604.6789999999998
 30
0.0
 11
399.9109999999998
 21
604.6789999999998
 31
0.0
  0
LINE
  5
80D
330
1E
100
AcDbEntity
  8
0
100
AcDbLine
 10
399.9109999999998
 20
604.6789999999998
 30
0.0
 11
405.044
 21
604.6789999999998
 31
0.0
  0
LINE
  5
80E
330
1E
100
AcDbEntity
  8
0
100
AcDbLine
 10
424.336
 20
604.6789999999998
 30
0.0
 11
424.948
 21
604.6789999999998
 31
0.0
  0
LINE
  5
80F
330
1E
100
AcDbEntity
  8
0
100
AcDbLine
 10
424.948
 20
604.6789999999998
 30
0.0
 11
424.948
 21
602.321
 31
0.0
  0
LINE
  5
810
330
1E
100
AcDbEntity
  8
0
100
AcDbLine
 10
422.3419999999999
 20
604.6789999999998
 30
0.0
 11
424.336
 21
604.6789999999998
 31
0.0
  0
LINE
  5
811
330
1E
100
AcDbEntity
  8
0
100
AcDbLine
 10
419.0749999999998
 20
604.6789999999998
 30
0.0
 11
422.3419999999999
 21
604.6789999999998
 31
0.0
  0
LINE
  5
812
330
1E
100
AcDbEntity
  8
0
100
AcDbLine
 10
414.9359999999998
 20
604.6789999999998
 30
0.0
 11
419.0749999999998
 21
604.6789999999998
 31
0.0
  0
LINE
  5
813
330
1E
100
AcDbEntity
  8
0
100
AcDbLine
 10
410.1759999999998
 20
604.6789999999998
 30
0.0
 11
414.9359999999998
 21
604.6789999999998
 31
0.0
  0
LINE
  5
814
330
1E
100
AcDbEntity
  8
0
100
AcDbLine
 10
405.044
 20
604.6789999999998
 30
0.0
 11
410.1759999999998
 21
604.6789999999998
 31
0.0
  0
LINE
  5
815
330
1E
100
AcDbEntity
  8
0
100
AcDbLine
 10
385.0519999999998
 20
604.6789999999998
 30
0.0
 11
385.536
 21
605.0
 31
0.0
  0
LINE
  5
816
330
1E
100
AcDbEntity
  8
0
100
AcDbLine
 10
385.0519999999998
 20
604.6789999999998
 30
0.0
 11
385.6809999999999
 21
604.6789999999998
 31
0.0
  0
LINE
  5
817
330
1E
100
AcDbEntity
  8
0
100
AcDbLine
 10
385.0519999999998
 20
604.6789999999998
 30
0.0
 11
385.0519999999998
 21
602.321
 31
0.0
  0
LINE
  5
818
330
1E
100
AcDbEntity
  8
0
100
AcDbLine
 10
314.8759999999998
 20
604.6789999999998
 30
0.0
 11
314.8759999999998
 21
602.321
 31
0.0
  0
LINE
  5
819
330
1E
100
AcDbEntity
  8
0
100
AcDbLine
 10
313.819
 20
604.6789999999998
 30
0.0
 11
314.8759999999998
 21
604.6789999999998
 31
0.0
  0
LINE
  5
81A
330
1E
100
AcDbEntity
  8
0
100
AcDbLine
 10
311.404
 20
604.6789999999998
 30
0.0
 11
313.819
 21
604.6789999999998
 31
0.0
  0
LINE
  5
81B
330
1E
100
AcDbEntity
  8
0
100
AcDbLine
 10
307.784
 20
604.6789999999998
 30
0.0
 11
311.404
 21
604.6789999999998
 31
0.0
  0
LINE
  5
81C
330
1E
100
AcDbEntity
  8
0
100
AcDbLine
 10
303.39
 20
604.6789999999998
 30
0.0
 11
307.784
 21
604.6789999999998
 31
0.0
  0
LINE
  5
81D
330
1E
100
AcDbEntity
  8
0
100
AcDbLine
 10
298.473
 20
604.6789999999998
 30
0.0
 11
303.39
 21
604.6789999999998
 31
0.0
  0
LINE
  5
81E
330
1E
100
AcDbEntity
  8
0
100
AcDbLine
 10
275.124
 20
604.6789999999998
 30
0.0
 11
275.6099999999999
 21
605.0
 31
0.0
  0
LINE
  5
81F
330
1E
100
AcDbEntity
  8
0
100
AcDbLine
 10
275.124
 20
604.6789999999998
 30
0.0
 11
275.304
 21
604.6789999999998
 31
0.0
  0
LINE
  5
820
330
1E
100
AcDbEntity
  8
0
100
AcDbLine
 10
275.124
 20
604.6789999999998
 30
0.0
 11
275.124
 21
602.321
 31
0.0
  0
LINE
  5
821
330
1E
100
AcDbEntity
  8
0
100
AcDbLine
 10
204.9479999999999
 20
604.6789999999998
 30
0.0
 11
204.9479999999999
 21
602.321
 31
0.0
  0
LINE
  5
822
330
1E
100
AcDbEntity
  8
0
100
AcDbLine
 10
204.319
 20
604.6789999999998
 30
0.0
 11
204.9479999999999
 21
604.6789999999998
 31
0.0
  0
LINE
  5
823
330
1E
100
AcDbEntity
  8
0
100
AcDbLine
 10
486.08
 20
604.6789999999998
 30
0.0
 11
488.9599999999998
 21
604.6789999999998
 31
0.0
  0
LINE
  5
824
330
1E
100
AcDbEntity
  8
0
100
AcDbLine
 10
488.9599999999998
 20
604.6789999999998
 30
0.0
 11
493.7599999999997
 21
604.6789999999998
 31
0.0
  0
LINE
  5
825
330
1E
100
AcDbEntity
  8
0
100
AcDbLine
 10
493.7599999999997
 20
604.6789999999998
 30
0.0
 11
500.1199999999998
 21
604.6789999999998
 31
0.0
  0
LINE
  5
826
330
1E
100
AcDbEntity
  8
0
100
AcDbLine
 10
500.1199999999998
 20
604.6789999999998
 30
0.0
 11
507.3199999999998
 21
604.6789999999998
 31
0.0
  0
LINE
  5
827
330
1E
100
AcDbEntity
  8
0
100
AcDbLine
 10
507.3199999999998
 20
604.6789999999998
 30
0.0
 11
515.0
 21
604.6789999999998
 31
0.0
  0
LINE
  5
828
330
1E
100
AcDbEntity
  8
0
100
AcDbLine
 10
543.9199999999998
 20
604.6789999999998
 30
0.0
 11
545.0
 21
604.6789999999998
 31
0.0
  0
LINE
  5
829
330
1E
100
AcDbEntity
  8
0
100
AcDbLine
 10
541.04
 20
604.6789999999998
 30
0.0
 11
543.9199999999998
 21
604.6789999999998
 31
0.0
  0
LINE
  5
82A
330
1E
100
AcDbEntity
  8
0
100
AcDbLine
 10
536.24
 20
604.6789999999998
 30
0.0
 11
541.04
 21
604.6789999999998
 31
0.0
  0
LINE
  5
82B
330
1E
100
AcDbEntity
  8
0
100
AcDbLine
 10
529.8799999999999
 20
604.6789999999998
 30
0.0
 11
536.24
 21
604.6789999999998
 31
0.0
  0
LINE
  5
82C
330
1E
100
AcDbEntity
  8
0
100
AcDbLine
 10
522.6799999999998
 20
604.6789999999998
 30
0.0
 11
529.8799999999999
 21
604.6789999999998
 31
0.0
  0
LINE
  5
82D
330
1E
100
AcDbEntity
  8
0
100
AcDbLine
 10
515.0
 20
604.6789999999998
 30
0.0
 11
522.6799999999998
 21
604.6789999999998
 31
0.0
  0
LINE
  5
82E
330
1E
100
AcDbEntity
  8
0
100
AcDbLine
 10
485.0
 20
602.321
 30
0.0
 11
485.0
 21
604.6789999999998
 31
0.0
  0
LINE
  5
82F
330
1E
100
AcDbEntity
  8
0
100
AcDbLine
 10
485.0
 20
602.321
 30
0.0
 11
485.72
 21
602.0
 31
0.0
  0
LINE
  5
830
330
1E
100
AcDbEntity
  8
0
100
AcDbLine
 10
485.0
 20
602.321
 30
0.0
 11
486.08
 21
602.321
 31
0.0
  0
LINE
  5
831
330
1E
100
AcDbEntity
  8
0
100
AcDbLine
 10
544.28
 20
602.0
 30
0.0
 11
545.0
 21
602.321
 31
0.0
  0
LINE
  5
832
330
1E
100
AcDbEntity
  8
0
100
AcDbLine
 10
544.28
 20
602.0
 30
0.0
 11
545.0
 21
601.7859999999998
 31
0.0
  0
LINE
  5
833
330
1E
100
AcDbEntity
  8
0
100
AcDbLine
 10
165.5359999999999
 20
605.0
 30
0.0
 11
166.1899999999999
 21
605.0
 31
0.0
  0
LINE
  5
834
330
1E
100
AcDbEntity
  8
0
100
AcDbLine
 10
166.1899999999999
 20
605.0
 30
0.0
 11
168.148
 21
605.0
 31
0.0
  0
LINE
  5
835
330
1E
100
AcDbEntity
  8
0
100
AcDbLine
 10
171.2809999999999
 20
605.0
 30
0.0
 11
175.2659999999999
 21
605.0
 31
0.0
  0
LINE
  5
836
330
1E
100
AcDbEntity
  8
0
100
AcDbLine
 10
179.9479999999999
 20
605.0
 30
0.0
 11
185.002
 21
605.0
 31
0.0
  0
LINE
  5
837
330
1E
100
AcDbEntity
  8
0
100
AcDbLine
 10
168.148
 20
605.0
 30
0.0
 11
171.2809999999999
 21
605.0
 31
0.0
  0
LINE
  5
838
330
1E
100
AcDbEntity
  8
0
100
AcDbLine
 10
175.2659999999999
 20
605.0
 30
0.0
 11
179.9479999999999
 21
605.0
 31
0.0
  0
LINE
  5
839
330
1E
100
AcDbEntity
  8
0
100
AcDbLine
 10
197.652
 20
605.0
 30
0.0
 11
197.9659999999999
 21
605.58
 31
0.0
  0
LINE
  5
83A
330
1E
100
AcDbEntity
  8
0
100
AcDbLine
 10
194.73
 20
605.0
 30
0.0
 11
198.799
 21
605.0
 31
0.0
  0
LINE
  5
83B
330
1E
100
AcDbEntity
  8
0
100
AcDbLine
 10
278.0
 20
605.0
 30
0.0
 11
278.0
 21
610.0
 31
0.0
  0
LINE
  5
83C
330
1E
100
AcDbEntity
  8
0
100
AcDbLine
 10
275.7769999999999
 20
605.0
 30
0.0
 11
277.361
 21
605.0
 31
0.0
  0
LINE
  5
83D
330
1E
100
AcDbEntity
  8
0
100
AcDbLine
 10
277.361
 20
605.0
 30
0.0
 11
280.057
 21
605.0
 31
0.0
  0
LINE
  5
83E
330
1E
100
AcDbEntity
  8
0
100
AcDbLine
 10
280.057
 20
605.0
 30
0.0
 11
283.8379999999999
 21
605.0
 31
0.0
  0
LINE
  5
83F
330
1E
100
AcDbEntity
  8
0
100
AcDbLine
 10
283.8379999999999
 20
605.0
 30
0.0
 11
288.3979999999999
 21
605.0
 31
0.0
  0
LINE
  5
840
330
1E
100
AcDbEntity
  8
0
100
AcDbLine
 10
310.9399999999999
 20
605.0
 30
0.0
 11
313.304
 21
605.0
 31
0.0
  0
LINE
  5
841
330
1E
100
AcDbEntity
  8
0
100
AcDbLine
 10
303.228
 20
605.0
 30
0.0
 11
310.9399999999999
 21
605.0
 31
0.0
  0
LINE
  5
842
330
1E
100
AcDbEntity
  8
0
100
AcDbLine
 10
312.0
 20
605.0
 30
0.0
 11
312.0
 21
610.0
 31
0.0
  0
LINE
  5
843
330
1E
100
AcDbEntity
  8
0
100
AcDbLine
 10
288.3979999999999
 20
605.0
 30
0.0
 11
293.3009999999999
 21
605.0
 31
0.0
  0
LINE
  5
844
330
1E
100
AcDbEntity
  8
0
100
AcDbLine
 10
293.3009999999999
 20
605.0
 30
0.0
 11
298.3899999999998
 21
605.0
 31
0.0
  0
LINE
  5
845
330
1E
100
AcDbEntity
  8
0
100
AcDbLine
 10
385.536
 20
605.0
 30
0.0
 11
388.145
 21
605.0
 31
0.0
  0
LINE
  5
846
330
1E
100
AcDbEntity
  8
0
100
AcDbLine
 10
388.145
 20
605.0
 30
0.0
 11
391.2009999999998
 21
605.0
 31
0.0
  0
LINE
  5
847
330
1E
100
AcDbEntity
  8
0
100
AcDbLine
 10
395.27
 20
605.0
 30
0.0
 11
400.0189999999998
 21
605.0
 31
0.0
  0
LINE
  5
848
330
1E
100
AcDbEntity
  8
0
100
AcDbLine
 10
391.2009999999998
 20
605.0
 30
0.0
 11
395.27
 21
605.0
 31
0.0
  0
LINE
  5
849
330
1E
100
AcDbEntity
  8
0
100
AcDbLine
 10
400.0189999999998
 20
605.0
 30
0.0
 11
404.998
 21
605.0
 31
0.0
  0
LINE
  5
84A
330
1E
100
AcDbEntity
  8
0
100
AcDbLine
 10
417.652
 20
605.0
 30
0.0
 11
417.966
 21
605.58
 31
0.0
  0
LINE
  5
84B
330
1E
100
AcDbEntity
  8
0
100
AcDbLine
 10
423.81
 20
605.0
 30
0.0
 11
424.464
 21
605.0
 31
0.0
  0
LINE
  5
84C
330
1E
100
AcDbEntity
  8
0
100
AcDbLine
 10
410.0519999999998
 20
605.0
 30
0.0
 11
418.719
 21
605.0
 31
0.0
  0
LINE
  5
84D
330
1E
100
AcDbEntity
  8
0
100
AcDbLine
 10
424.464
 20
605.0
 30
0.0
 11
424.948
 21
604.6789999999998
 31
0.0
  0
LINE
  5
84E
330
1E
100
AcDbEntity
  8
0
100
AcDbLine
 10
418.719
 20
605.0
 30
0.0
 11
423.81
 21
605.0
 31
0.0
  0
LINE
  5
84F
330
1E
100
AcDbEntity
  8
0
100
AcDbLine
 10
404.998
 20
605.0
 30
0.0
 11
410.0519999999998
 21
605.0
 31
0.0
  0
LINE
  5
850
330
1E
100
AcDbEntity
  8
0
100
AcDbLine
 10
314.3899999999998
 20
605.0
 30
0.0
 11
314.8759999999998
 21
604.6789999999998
 31
0.0
  0
LINE
  5
851
330
1E
100
AcDbEntity
  8
0
100
AcDbLine
 10
313.304
 20
605.0
 30
0.0
 11
314.3899999999998
 21
605.0
 31
0.0
  0
LINE
  5
852
330
1E
100
AcDbEntity
  8
0
100
AcDbLine
 10
298.3899999999998
 20
605.0
 30
0.0
 11
303.228
 21
605.0
 31
0.0
  0
LINE
  5
853
330
1E
100
AcDbEntity
  8
0
100
AcDbLine
 10
275.6099999999999
 20
605.0
 30
0.0
 11
275.7769999999999
 21
605.0
 31
0.0
  0
LINE
  5
854
330
1E
100
AcDbEntity
  8
0
100
AcDbLine
 10
201.8549999999999
 20
605.0
 30
0.0
 11
204.464
 21
605.0
 31
0.0
  0
LINE
  5
855
330
1E
100
AcDbEntity
  8
0
100
AcDbLine
 10
198.799
 20
605.0
 30
0.0
 11
201.8549999999999
 21
605.0
 31
0.0
  0
LINE
  5
856
330
1E
100
AcDbEntity
  8
0
100
AcDbLine
 10
189.981
 20
605.0
 30
0.0
 11
194.73
 21
605.0
 31
0.0
  0
LINE
  5
857
330
1E
100
AcDbEntity
  8
0
100
AcDbLine
 10
185.002
 20
605.0
 30
0.0
 11
189.981
 21
605.0
 31
0.0
  0
LINE
  5
858
330
1E
100
AcDbEntity
  8
0
100
AcDbLine
 10
204.464
 20
605.0
 30
0.0
 11
204.9479999999999
 21
604.6789999999998
 31
0.0
  0
LINE
  5
859
330
1E
100
AcDbEntity
  8
0
100
AcDbLine
 10
485.72
 20
605.0
 30
0.0
 11
494.3599999999998
 21
605.0
 31
0.0
  0
LINE
  5
85A
330
1E
100
AcDbEntity
  8
0
100
AcDbLine
 10
494.3599999999998
 20
605.0
 30
0.0
 11
500.48
 21
605.0
 31
0.0
  0
LINE
  5
85B
330
1E
100
AcDbEntity
  8
0
100
AcDbLine
 10
500.48
 20
605.0
 30
0.0
 11
507.4399999999998
 21
605.0
 31
0.0
  0
LINE
  5
85C
330
1E
100
AcDbEntity
  8
0
100
AcDbLine
 10
172.034
 20
605.58
 30
0.0
 11
172.034
 21
614.4199999999998
 31
0.0
  0
LINE
  5
85D
330
1E
100
AcDbEntity
  8
0
100
AcDbLine
 10
172.034
 20
605.58
 30
0.0
 11
172.3479999999999
 21
605.0
 31
0.0
  0
LINE
  5
85E
330
1E
100
AcDbEntity
  8
0
100
AcDbLine
 10
197.9659999999999
 20
605.58
 30
0.0
 11
197.9659999999999
 21
614.4199999999998
 31
0.0
  0
LINE
  5
85F
330
1E
100
AcDbEntity
  8
0
100
AcDbLine
 10
280.0
 20
610.0
 30
0.0
 11
280.0
 21
614.0
 31
0.0
  0
LINE
  5
860
330
1E
100
AcDbEntity
  8
0
100
AcDbLine
 10
290.6479999999999
 20
610.0
 30
0.0
 11
295.0
 21
610.0
 31
0.0
  0
LINE
  5
861
330
1E
100
AcDbEntity
  8
0
100
AcDbLine
 10
286.5679999999998
 20
610.0
 30
0.0
 11
290.6479999999999
 21
610.0
 31
0.0
  0
LINE
  5
862
330
1E
100
AcDbEntity
  8
0
100
AcDbLine
 10
282.9639999999999
 20
610.0
 30
0.0
 11
286.5679999999998
 21
610.0
 31
0.0
  0
LINE
  5
863
330
1E
100
AcDbEntity
  8
0
100
AcDbLine
 10
280.244
 20
610.0
 30
0.0
 11
282.9639999999999
 21
610.0
 31
0.0
  0
LINE
  5
864
330
1E
100
AcDbEntity
  8
0
100
AcDbLine
 10
278.612
 20
610.0
 30
0.0
 11
280.244
 21
610.0
 31
0.0
  0
LINE
  5
865
330
1E
100
AcDbEntity
  8
0
100
AcDbLine
 10
278.0
 20
610.0
 30
0.0
 11
278.612
 21
610.0
 31
0.0
  0
LINE
  5
866
330
1E
100
AcDbEntity
  8
0
100
AcDbLine
 10
278.0
 20
610.0
 30
0.0
 11
278.0
 21
605.0
 31
0.0
  0
LINE
  5
867
330
1E
100
AcDbEntity
  8
0
100
AcDbLine
 10
295.0
 20
610.0
 30
0.0
 11
299.352
 21
610.0
 31
0.0
  0
LINE
  5
868
330
1E
100
AcDbEntity
  8
0
100
AcDbLine
 10
299.352
 20
610.0
 30
0.0
 11
303.432
 21
610.0
 31
0.0
  0
LINE
  5
869
330
1E
100
AcDbEntity
  8
0
100
AcDbLine
 10
303.432
 20
610.0
 30
0.0
 11
307.0359999999999
 21
610.0
 31
0.0
  0
LINE
  5
86A
330
1E
100
AcDbEntity
  8
0
100
AcDbLine
 10
307.0359999999999
 20
610.0
 30
0.0
 11
309.7559999999998
 21
610.0
 31
0.0
  0
LINE
  5
86B
330
1E
100
AcDbEntity
  8
0
100
AcDbLine
 10
310.0
 20
610.0
 30
0.0
 11
310.0
 21
614.0
 31
0.0
  0
LINE
  5
86C
330
1E
100
AcDbEntity
  8
0
100
AcDbLine
 10
309.7559999999998
 20
610.0
 30
0.0
 11
311.3879999999998
 21
610.0
 31
0.0
  0
LINE
  5
86D
330
1E
100
AcDbEntity
  8
0
100
AcDbLine
 10
280.244
 20
614.0
 30
0.0
 11
282.9639999999999
 21
614.0
 31
0.0
  0
LINE
  5
86E
330
1E
100
AcDbEntity
  8
0
100
AcDbLine
 10
278.612
 20
614.0
 30
0.0
 11
280.0
 21
614.0
 31
0.0
  0
LINE
  5
86F
330
1E
100
AcDbEntity
  8
0
100
AcDbLine
 10
278.612
 20
614.0
 30
0.0
 11
280.244
 21
614.0
 31
0.0
  0
LINE
  5
870
330
1E
100
AcDbEntity
  8
0
100
AcDbLine
 10
278.0
 20
614.0
 30
0.0
 11
278.0
 21
616.0
 31
0.0
  0
LINE
  5
871
330
1E
100
AcDbEntity
  8
0
100
AcDbLine
 10
278.0
 20
614.0
 30
0.0
 11
278.612
 21
614.0
 31
0.0
  0
LINE
  5
872
330
1E
100
AcDbEntity
  8
0
100
AcDbLine
 10
282.9639999999999
 20
614.0
 30
0.0
 11
286.5679999999998
 21
614.0
 31
0.0
  0
LINE
  5
873
330
1E
100
AcDbEntity
  8
0
100
AcDbLine
 10
290.6479999999999
 20
614.0
 30
0.0
 11
295.0
 21
614.0
 31
0.0
  0
LINE
  5
874
330
1E
100
AcDbEntity
  8
0
100
AcDbLine
 10
286.5679999999998
 20
614.0
 30
0.0
 11
290.6479999999999
 21
614.0
 31
0.0
  0
LINE
  5
875
330
1E
100
AcDbEntity
  8
0
100
AcDbLine
 10
291.16
 20
614.0
 30
0.0
 11
295.0
 21
614.0
 31
0.0
  0
LINE
  5
876
330
1E
100
AcDbEntity
  8
0
100
AcDbLine
 10
287.56
 20
614.0
 30
0.0
 11
291.16
 21
614.0
 31
0.0
  0
LINE
  5
877
330
1E
100
AcDbEntity
  8
0
100
AcDbLine
 10
284.3799999999998
 20
614.0
 30
0.0
 11
287.56
 21
614.0
 31
0.0
  0
LINE
  5
878
330
1E
100
AcDbEntity
  8
0
100
AcDbLine
 10
281.98
 20
614.0
 30
0.0
 11
284.3799999999998
 21
614.0
 31
0.0
  0
LINE
  5
879
330
1E
100
AcDbEntity
  8
0
100
AcDbLine
 10
280.54
 20
614.0
 30
0.0
 11
281.98
 21
614.0
 31
0.0
  0
LINE
  5
87A
330
1E
100
AcDbEntity
  8
0
100
AcDbLine
 10
280.0
 20
614.0
 30
0.0
 11
280.54
 21
614.0
 31
0.0
  0
LINE
  5
87B
330
1E
100
AcDbEntity
  8
0
100
AcDbLine
 10
280.0
 20
614.0
 30
0.0
 11
280.0
 21
610.0
 31
0.0
  0
LINE
  5
87C
330
1E
100
AcDbEntity
  8
0
100
AcDbLine
 10
299.352
 20
614.0
 30
0.0
 11
303.432
 21
614.0
 31
0.0
  0
LINE
  5
87D
330
1E
100
AcDbEntity
  8
0
100
AcDbLine
 10
295.0
 20
614.0
 30
0.0
 11
298.84
 21
614.0
 31
0.0
  0
LINE
  5
87E
330
1E
100
AcDbEntity
  8
0
100
AcDbLine
 10
295.0
 20
614.0
 30
0.0
 11
299.352
 21
614.0
 31
0.0
  0
LINE
  5
87F
330
1E
100
AcDbEntity
  8
0
100
AcDbLine
 10
298.84
 20
614.0
 30
0.0
 11
302.4399999999999
 21
614.0
 31
0.0
  0
LINE
  5
880
330
1E
100
AcDbEntity
  8
0
100
AcDbLine
 10
303.432
 20
614.0
 30
0.0
 11
307.0359999999999
 21
614.0
 31
0.0
  0
LINE
  5
881
330
1E
100
AcDbEntity
  8
0
100
AcDbLine
 10
307.0359999999999
 20
614.0
 30
0.0
 11
309.7559999999998
 21
614.0
 31
0.0
  0
LINE
  5
882
330
1E
100
AcDbEntity
  8
0
100
AcDbLine
 10
302.4399999999999
 20
614.0
 30
0.0
 11
305.62
 21
614.0
 31
0.0
  0
LINE
  5
883
330
1E
100
AcDbEntity
  8
0
100
AcDbLine
 10
305.62
 20
614.0
 30
0.0
 11
308.02
 21
614.0
 31
0.0
  0
LINE
  5
884
330
1E
100
AcDbEntity
  8
0
100
AcDbLine
 10
309.7559999999998
 20
614.0
 30
0.0
 11
311.3879999999998
 21
614.0
 31
0.0
  0
LINE
  5
885
330
1E
100
AcDbEntity
  8
0
100
AcDbLine
 10
308.02
 20
614.0
 30
0.0
 11
309.4599999999998
 21
614.0
 31
0.0
  0
LINE
  5
886
330
1E
100
AcDbEntity
  8
0
100
AcDbLine
 10
172.3479999999999
 20
615.0
 30
0.0
 11
172.773
 21
615.0
 31
0.0
  0
LINE
  5
887
330
1E
100
AcDbEntity
  8
0
100
AcDbLine
 10
172.773
 20
615.0
 30
0.0
 11
174.0459999999999
 21
615.0
 31
0.0
  0
LINE
  5
888
330
1E
100
AcDbEntity
  8
0
100
AcDbLine
 10
174.0459999999999
 20
615.0
 30
0.0
 11
176.083
 21
615.0
 31
0.0
  0
LINE
  5
889
330
1E
100
AcDbEntity
  8
0
100
AcDbLine
 10
176.083
 20
615.0
 30
0.0
 11
178.673
 21
615.0
 31
0.0
  0
LINE
  5
88A
330
1E
100
AcDbEntity
  8
0
100
AcDbLine
 10
178.673
 20
615.0
 30
0.0
 11
181.7159999999999
 21
615.0
 31
0.0
  0
LINE
  5
88B
330
1E
100
AcDbEntity
  8
0
100
AcDbLine
 10
193.97
 20
615.0
 30
0.0
 11
195.9559999999999
 21
615.0
 31
0.0
  0
LINE
  5
88C
330
1E
100
AcDbEntity
  8
0
100
AcDbLine
 10
191.324
 20
615.0
 30
0.0
 11
193.97
 21
615.0
 31
0.0
  0
LINE
  5
88D
330
1E
100
AcDbEntity
  8
0
100
AcDbLine
 10
188.2379999999999
 20
615.0
 30
0.0
 11
191.324
 21
615.0
 31
0.0
  0
LINE
  5
88E
330
1E
100
AcDbEntity
  8
0
100
AcDbLine
 10
185.002
 20
615.0
 30
0.0
 11
188.2379999999999
 21
615.0
 31
0.0
  0
LINE
  5
88F
330
1E
100
AcDbEntity
  8
0
100
AcDbLine
 10
181.7159999999999
 20
615.0
 30
0.0
 11
185.002
 21
615.0
 31
0.0
  0
LINE
  5
890
330
1E
100
AcDbEntity
  8
0
100
AcDbLine
 10
172.034
 20
614.4199999999998
 30
0.0
 11
172.034
 21
605.58
 31
0.0
  0
LINE
  5
891
330
1E
100
AcDbEntity
  8
0
100
AcDbLine
 10
172.034
 20
614.4199999999998
 30
0.0
 11
172.3479999999999
 21
615.0
 31
0.0
  0
LINE
  5
892
330
1E
100
AcDbEntity
  8
0
100
AcDbLine
 10
174.028
 20
615.623
 30
0.0
 11
174.028
 21
620.3769999999998
 31
0.0
  0
LINE
  5
893
330
1E
100
AcDbEntity
  8
0
100
AcDbLine
 10
174.028
 20
615.623
 30
0.0
 11
174.2949999999999
 21
615.0
 31
0.0
  0
LINE
  5
894
330
1E
100
AcDbEntity
  8
0
100
AcDbLine
 10
195.9559999999999
 20
615.0
 30
0.0
 11
197.2559999999999
 21
615.0
 31
0.0
  0
LINE
  5
895
330
1E
100
AcDbEntity
  8
0
100
AcDbLine
 10
197.9659999999999
 20
614.4199999999998
 30
0.0
 11
197.9659999999999
 21
605.58
 31
0.0
  0
LINE
  5
896
330
1E
100
AcDbEntity
  8
0
100
AcDbLine
 10
197.2559999999999
 20
615.0
 30
0.0
 11
197.652
 21
615.0
 31
0.0
  0
LINE
  5
897
330
1E
100
AcDbEntity
  8
0
100
AcDbLine
 10
197.652
 20
615.0
 30
0.0
 11
197.9659999999999
 21
614.4199999999998
 31
0.0
  0
LINE
  5
898
330
1E
100
AcDbEntity
  8
0
100
AcDbLine
 10
195.705
 20
615.0
 30
0.0
 11
195.972
 21
615.623
 31
0.0
  0
LINE
  5
899
330
1E
100
AcDbEntity
  8
0
100
AcDbLine
 10
195.972
 20
615.623
 30
0.0
 11
195.972
 21
620.3769999999998
 31
0.0
  0
LINE
  5
89A
330
1E
100
AcDbEntity
  8
0
100
AcDbLine
 10
290.6479999999999
 20
616.0
 30
0.0
 11
295.0
 21
616.0
 31
0.0
  0
LINE
  5
89B
330
1E
100
AcDbEntity
  8
0
100
AcDbLine
 10
286.5679999999998
 20
616.0
 30
0.0
 11
290.6479999999999
 21
616.0
 31
0.0
  0
LINE
  5
89C
330
1E
100
AcDbEntity
  8
0
100
AcDbLine
 10
282.9639999999999
 20
616.0
 30
0.0
 11
286.5679999999998
 21
616.0
 31
0.0
  0
LINE
  5
89D
330
1E
100
AcDbEntity
  8
0
100
AcDbLine
 10
280.244
 20
616.0
 30
0.0
 11
282.9639999999999
 21
616.0
 31
0.0
  0
LINE
  5
89E
330
1E
100
AcDbEntity
  8
0
100
AcDbLine
 10
278.612
 20
616.0
 30
0.0
 11
280.244
 21
616.0
 31
0.0
  0
LINE
  5
89F
330
1E
100
AcDbEntity
  8
0
100
AcDbLine
 10
278.0
 20
616.0
 30
0.0
 11
278.612
 21
616.0
 31
0.0
  0
LINE
  5
8A0
330
1E
100
AcDbEntity
  8
0
100
AcDbLine
 10
278.0
 20
616.0
 30
0.0
 11
278.0
 21
614.0
 31
0.0
  0
LINE
  5
8A1
330
1E
100
AcDbEntity
  8
0
100
AcDbLine
 10
295.0
 20
616.0
 30
0.0
 11
299.352
 21
616.0
 31
0.0
  0
LINE
  5
8A2
330
1E
100
AcDbEntity
  8
0
100
AcDbLine
 10
299.352
 20
616.0
 30
0.0
 11
303.432
 21
616.0
 31
0.0
  0
LINE
  5
8A3
330
1E
100
AcDbEntity
  8
0
100
AcDbLine
 10
303.432
 20
616.0
 30
0.0
 11
307.0359999999999
 21
616.0
 31
0.0
  0
LINE
  5
8A4
330
1E
100
AcDbEntity
  8
0
100
AcDbLine
 10
174.2949999999999
 20
621.0
 30
0.0
 11
174.654
 21
621.0
 31
0.0
  0
LINE
  5
8A5
330
1E
100
AcDbEntity
  8
0
100
AcDbLine
 10
174.654
 20
621.0
 30
0.0
 11
175.7309999999999
 21
621.0
 31
0.0
  0
LINE
  5
8A6
330
1E
100
AcDbEntity
  8
0
100
AcDbLine
 10
174.028
 20
620.3769999999998
 30
0.0
 11
174.028
 21
615.623
 31
0.0
  0
LINE
  5
8A7
330
1E
100
AcDbEntity
  8
0
100
AcDbLine
 10
174.028
 20
620.3769999999998
 30
0.0
 11
174.2949999999999
 21
621.0
 31
0.0
  0
LINE
  5
8A8
330
1E
100
AcDbEntity
  8
0
100
AcDbLine
 10
175.009
 20
627.857
 30
0.0
 11
175.164
 21
628.4289999999998
 31
0.0
  0
LINE
  5
8A9
330
1E
100
AcDbEntity
  8
0
100
AcDbLine
 10
175.009
 20
627.857
 30
0.0
 11
175.009
 21
622.143
 31
0.0
  0
LINE
  5
8AE
330
1E
100
AcDbEntity
  8
0
100
AcDbLine
 10
175.009
 20
622.143
 30
0.0
 11
175.164
 21
621.571
 31
0.0
  0
LINE
  5
8AF
330
1E
100
AcDbEntity
  8
0
100
AcDbLine
 10
175.009
 20
622.143
 30
0.0
 11
175.009
 21
627.857
 31
0.0
  0
LINE
  5
8B0
330
1E
100
AcDbEntity
  8
0
100
AcDbLine
 10
175.164
 20
628.4289999999998
 30
0.0
 11
175.714
 21
628.863
 31
0.0
  0
LINE
  5
8B1
330
1E
100
AcDbEntity
  8
0
100
AcDbLine
 10
175.164
 20
628.4289999999998
 30
0.0
 11
175.231
 21
628.4289999999998
 31
0.0
  0
LINE
  5
8B4
330
1E
100
AcDbEntity
  8
0
100
AcDbLine
 10
175.231
 20
628.4289999999998
 30
0.0
 11
175.602
 21
628.4289999999998
 31
0.0
  0
LINE
  5
8B6
330
1E
100
AcDbEntity
  8
0
100
AcDbLine
 10
175.231
 20
621.571
 30
0.0
 11
175.602
 21
621.571
 31
0.0
  0
LINE
  5
8B7
330
1E
100
AcDbEntity
  8
0
100
AcDbLine
 10
175.602
 20
628.4289999999998
 30
0.0
 11
176.8319999999999
 21
628.7919999999997
 31
0.0
  0
LINE
  5
8B8
330
1E
100
AcDbEntity
  8
0
100
AcDbLine
 10
175.602
 20
621.571
 30
0.0
 11
176.8319999999999
 21
621.2080000000002
 31
0.0
  0
LINE
  5
8BA
330
1E
100
AcDbEntity
  8
0
100
AcDbLine
 10
175.714
 20
621.1369999999998
 30
0.0
 11
176.2909999999999
 21
621.0
 31
0.0
  0
LINE
  5
8BB
330
1E
100
AcDbEntity
  8
0
100
AcDbLine
 10
175.7309999999999
 20
621.0
 30
0.0
 11
177.455
 21
621.0
 31
0.0
  0
LINE
  5
8BC
330
1E
100
AcDbEntity
  8
0
100
AcDbLine
 10
177.455
 20
621.0
 30
0.0
 11
179.6459999999999
 21
621.0
 31
0.0
  0
LINE
  5
8BD
330
1E
100
AcDbEntity
  8
0
100
AcDbLine
 10
176.597
 20
629.0
 30
0.0
 11
177.465
 21
629.0
 31
0.0
  0
LINE
  5
8C0
330
1E
100
AcDbEntity
  8
0
100
AcDbLine
 10
176.8319999999999
 20
628.7919999999997
 30
0.0
 11
178.589
 21
628.885
 31
0.0
  0
LINE
  5
8C2
330
1E
100
AcDbEntity
  8
0
100
AcDbLine
 10
176.8319999999999
 20
621.2080000000002
 30
0.0
 11
178.589
 21
621.1149999999999
 31
0.0
  0
LINE
  5
8C3
330
1E
100
AcDbEntity
  8
0
100
AcDbLine
 10
175.714
 20
628.863
 30
0.0
 11
176.2909999999999
 21
629.0
 31
0.0
  0
LINE
  5
8C6
330
1E
100
AcDbEntity
  8
0
100
AcDbLine
 10
176.2909999999999
 20
629.0
 30
0.0
 11
176.5349999999999
 21
629.0
 31
0.0
  0
LINE
  5
8C7
330
1E
100
AcDbEntity
  8
0
100
AcDbLine
 10
176.2909999999999
 20
629.0
 30
0.0
 11
176.597
 21
629.0
 31
0.0
  0
LINE
  5
8C8
330
1E
100
AcDbEntity
  8
0
100
AcDbLine
 10
175.164
 20
621.571
 30
0.0
 11
175.714
 21
621.1369999999998
 31
0.0
  0
LINE
  5
8C9
330
1E
100
AcDbEntity
  8
0
100
AcDbLine
 10
175.164
 20
621.571
 30
0.0
 11
175.231
 21
621.571
 31
0.0
  0
LINE
  5
8CA
330
1E
100
AcDbEntity
  8
0
100
AcDbLine
 10
177.214
 20
635.0
 30
0.0
 11
177.476
 21
635.0
 31
0.0
  0
LINE
  5
8CB
330
1E
100
AcDbEntity
  8
0
100
AcDbLine
 10
177.214
 20
635.0
 30
0.0
 11
177.458
 21
635.0
 31
0.0
  0
LINE
  5
8CC
330
1E
100
AcDbEntity
  8
0
100
AcDbLine
 10
177.465
 20
629.0
 30
0.0
 11
178.908
 21
629.0
 31
0.0
  0
LINE
  5
8CE
330
1E
100
AcDbEntity
  8
0
100
AcDbLine
 10
178.589
 20
621.1149999999999
 30
0.0
 11
180.337
 21
621.239
 31
0.0
  0
LINE
  5
8D1
330
1E
100
AcDbEntity
  8
0
100
AcDbLine
 10
178.589
 20
628.885
 30
0.0
 11
180.337
 21
628.7609999999999
 31
0.0
  0
LINE
  5
8D2
330
1E
100
AcDbEntity
  8
0
100
AcDbLine
 10
178.908
 20
629.0
 30
0.0
 11
180.71
 21
629.0
 31
0.0
  0
LINE
  5
8D4
330
1E
100
AcDbEntity
  8
0
100
AcDbLine
 10
177.476
 20
635.0
 30
0.0
 11
178.259
 21
635.0
 31
0.0
  0
LINE
  5
8D5
330
1E
100
AcDbEntity
  8
0
100
AcDbLine
 10
178.259
 20
635.0
 30
0.0
 11
179.512
 21
635.0
 31
0.0
  0
LINE
  5
8D6
330
1E
100
AcDbEntity
  8
0
100
AcDbLine
 10
177.458
 20
635.0
 30
0.0
 11
178.2579999999999
 21
635.0
 31
0.0
  0
LINE
  5
8D7
330
1E
100
AcDbEntity
  8
0
100
AcDbLine
 10
177.0209999999999
 20
636.7919999999998
 30
0.0
 11
177.0209999999999
 21
635.208
 31
0.0
  0
LINE
  5
8D8
330
1E
100
AcDbEntity
  8
0
100
AcDbLine
 10
177.0209999999999
 20
636.7919999999998
 30
0.0
 11
177.2659999999999
 21
636.7919999999998
 31
0.0
  0
LINE
  5
8D9
330
1E
100
AcDbEntity
  8
0
100
AcDbLine
 10
177.0209999999999
 20
636.7919999999998
 30
0.0
 11
177.214
 21
637.0
 31
0.0
  0
LINE
  5
8DA
330
1E
100
AcDbEntity
  8
0
100
AcDbLine
 10
177.0209999999999
 20
635.208
 30
0.0
 11
177.2659999999999
 21
635.208
 31
0.0
  0
LINE
  5
8DB
330
1E
100
AcDbEntity
  8
0
100
AcDbLine
 10
177.0209999999999
 20
635.208
 30
0.0
 11
177.0209999999999
 21
636.7919999999998
 31
0.0
  0
LINE
  5
8DC
330
1E
100
AcDbEntity
  8
0
100
AcDbLine
 10
177.0209999999999
 20
635.208
 30
0.0
 11
177.214
 21
635.0
 31
0.0
  0
LINE
  5
8DD
330
1E
100
AcDbEntity
  8
0
100
AcDbLine
 10
177.2659999999999
 20
636.7919999999998
 30
0.0
 11
178.0629999999999
 21
636.7919999999998
 31
0.0
  0
LINE
  5
8DE
330
1E
100
AcDbEntity
  8
0
100
AcDbLine
 10
177.2659999999999
 20
635.208
 30
0.0
 11
178.0629999999999
 21
635.208
 31
0.0
  0
LINE
  5
8DF
330
1E
100
AcDbEntity
  8
0
100
AcDbLine
 10
178.0629999999999
 20
636.7919999999998
 30
0.0
 11
179.37
 21
636.7919999999998
 31
0.0
  0
LINE
  5
8E0
330
1E
100
AcDbEntity
  8
0
100
AcDbLine
 10
178.0629999999999
 20
635.208
 30
0.0
 11
179.37
 21
635.208
 31
0.0
  0
LINE
  5
8E1
330
1E
100
AcDbEntity
  8
0
100
AcDbLine
 10
177.214
 20
637.0
 30
0.0
 11
177.476
 21
637.0
 31
0.0
  0
LINE
  5
8E2
330
1E
100
AcDbEntity
  8
0
100
AcDbLine
 10
177.476
 20
637.0
 30
0.0
 11
178.259
 21
637.0
 31
0.0
  0
LINE
  5
8E3
330
1E
100
AcDbEntity
  8
0
100
AcDbLine
 10
178.259
 20
637.0
 30
0.0
 11
179.512
 21
637.0
 31
0.0
  0
LINE
  5
8E4
330
1E
100
AcDbEntity
  8
0
100
AcDbLine
 10
179.37
 20
636.7919999999998
 30
0.0
 11
181.0259999999999
 21
636.7919999999998
 31
0.0
  0
LINE
  5
8E5
330
1E
100
AcDbEntity
  8
0
100
AcDbLine
 10
179.37
 20
635.208
 30
0.0
 11
181.0259999999999
 21
635.208
 31
0.0
  0
LINE
  5
8E6
330
1E
100
AcDbEntity
  8
0
100
AcDbLine
 10
178.2579999999999
 20
635.0
 30
0.0
 11
179.4799999999999
 21
635.0
 31
0.0
  0
LINE
  5
8E7
330
1E
100
AcDbEntity
  8
0
100
AcDbLine
 10
179.6459999999999
 20
621.0
 30
0.0
 11
182.2209999999999
 21
621.0
 31
0.0
  0
LINE
  5
8E8
330
1E
100
AcDbEntity
  8
0
100
AcDbLine
 10
179.512
 20
637.0
 30
0.0
 11
181.1059999999999
 21
637.0
 31
0.0
  0
LINE
  5
8E9
330
1E
100
AcDbEntity
  8
0
100
AcDbLine
 10
179.512
 20
635.0
 30
0.0
 11
181.1059999999999
 21
635.0
 31
0.0
  0
LINE
  5
8EA
330
1E
100
AcDbEntity
  8
0
100
AcDbLine
 10
179.4799999999999
 20
635.0
 30
0.0
 11
181.108
 21
635.0
 31
0.0
  0
LINE
  5
8EB
330
1E
100
AcDbEntity
  8
0
100
AcDbLine
 10
180.013
 20
637.0
 30
0.0
 11
180.013
 21
645.3769999999998
 31
0.0
  0
LINE
  5
8EC
330
1E
100
AcDbEntity
  8
0
100
AcDbLine
 10
180.134
 20
646.0
 30
0.0
 11
180.297
 21
646.0
 31
0.0
  0
LINE
  5
8EE
330
1E
100
AcDbEntity
  8
0
100
AcDbLine
 10
180.337
 20
621.239
 30
0.0
 11
181.4359999999999
 21
621.571
 31
0.0
  0
LINE
  5
8F0
330
1E
100
AcDbEntity
  8
0
100
AcDbLine
 10
180.337
 20
628.7609999999999
 30
0.0
 11
181.4359999999999
 21
628.4289999999998
 31
0.0
  0
LINE
  5
8F3
330
1E
100
AcDbEntity
  8
0
100
AcDbLine
 10
181.4359999999999
 20
628.4289999999998
 30
0.0
 11
182.4709999999999
 21
628.4289999999998
 31
0.0
  0
LINE
  5
8F5
330
1E
100
AcDbEntity
  8
0
100
AcDbLine
 10
181.4359999999999
 20
621.571
 30
0.0
 11
182.4709999999999
 21
621.571
 31
0.0
  0
LINE
  5
8F6
330
1E
100
AcDbEntity
  8
0
100
AcDbLine
 10
181.1059999999999
 20
635.0
 30
0.0
 11
182.979
 21
635.0
 31
0.0
  0
LINE
  5
8F7
330
1E
100
AcDbEntity
  8
0
100
AcDbLine
 10
181.0259999999999
 20
636.7919999999998
 30
0.0
 11
182.929
 21
636.7919999999998
 31
0.0
  0
LINE
  5
8F8
330
1E
100
AcDbEntity
  8
0
100
AcDbLine
 10
181.1059999999999
 20
637.0
 30
0.0
 11
182.979
 21
637.0
 31
0.0
  0
LINE
  5
8F9
330
1E
100
AcDbEntity
  8
0
100
AcDbLine
 10
181.0259999999999
 20
635.208
 30
0.0
 11
182.929
 21
635.208
 31
0.0
  0
LINE
  5
8FA
330
1E
100
AcDbEntity
  8
0
100
AcDbLine
 10
181.108
 20
635.0
 30
0.0
 11
182.0079999999999
 21
635.0
 31
0.0
  0
LINE
  5
8FB
330
1E
100
AcDbEntity
  8
0
100
AcDbLine
 10
180.297
 20
646.0
 30
0.0
 11
180.787
 21
646.0
 31
0.0
  0
LINE
  5
8FC
330
1E
100
AcDbEntity
  8
0
100
AcDbLine
 10
180.787
 20
646.0
 30
0.0
 11
181.5699999999999
 21
646.0
 31
0.0
  0
LINE
  5
8FD
330
1E
100
AcDbEntity
  8
0
100
AcDbLine
 10
182.0079999999999
 20
635.0
 30
0.0
 11
182.0999999999999
 21
635.0
 31
0.0
  0
LINE
  5
8FE
330
1E
100
AcDbEntity
  8
0
100
AcDbLine
 10
182.0079999999999
 20
635.0
 30
0.0
 11
182.0079999999999
 21
629.0
 31
0.0
  0
LINE
  5
8FF
330
1E
100
AcDbEntity
  8
0
100
AcDbLine
 10
182.0079999999999
 20
629.0
 30
0.0
 11
182.0079999999999
 21
635.0
 31
0.0
  0
LINE
  5
900
330
1E
100
AcDbEntity
  8
0
100
AcDbLine
 10
182.2209999999999
 20
621.0
 30
0.0
 11
185.0009999999999
 21
621.0
 31
0.0
  0
LINE
  5
902
330
1E
100
AcDbEntity
  8
0
100
AcDbLine
 10
180.71
 20
629.0
 30
0.0
 11
185.102
 21
629.0
 31
0.0
  0
LINE
  5
907
330
1E
100
AcDbEntity
  8
0
100
AcDbLine
 10
182.4709999999999
 20
628.4289999999998
 30
0.0
 11
183.585
 21
628.4289999999998
 31
0.0
  0
LINE
  5
909
330
1E
100
AcDbEntity
  8
0
100
AcDbLine
 10
182.4709999999999
 20
621.571
 30
0.0
 11
183.585
 21
621.571
 31
0.0
  0
LINE
  5
90A
330
1E
100
AcDbEntity
  8
0
100
AcDbLine
 10
182.0999999999999
 20
635.0
 30
0.0
 11
182.399
 21
635.0
 31
0.0
  0
LINE
  5
90B
330
1E
100
AcDbEntity
  8
0
100
AcDbLine
 10
182.399
 20
635.0
 30
0.0
 11
182.889
 21
635.0
 31
0.0
  0
LINE
  5
90C
330
1E
100
AcDbEntity
  8
0
100
AcDbLine
 10
183.585
 20
628.4289999999998
 30
0.0
 11
185.0659999999999
 21
628.7609999999999
 31
0.0
  0
LINE
  5
90D
330
1E
100
AcDbEntity
  8
0
100
AcDbLine
 10
183.585
 20
621.571
 30
0.0
 11
185.0659999999999
 21
621.239
 31
0.0
  0
LINE
  5
90E
330
1E
100
AcDbEntity
  8
0
100
AcDbLine
 10
182.889
 20
635.0
 30
0.0
 11
183.5099999999999
 21
635.0
 31
0.0
  0
LINE
  5
90F
330
1E
100
AcDbEntity
  8
0
100
AcDbLine
 10
183.5099999999999
 20
635.0
 30
0.0
 11
184.224
 21
635.0
 31
0.0
  0
LINE
  5
910
330
1E
100
AcDbEntity
  8
0
100
AcDbLine
 10
184.224
 20
635.0
 30
0.0
 11
184.993
 21
635.0
 31
0.0
  0
LINE
  5
911
330
1E
100
AcDbEntity
  8
0
100
AcDbLine
 10
182.979
 20
635.0
 30
0.0
 11
185.0009999999999
 21
635.0
 31
0.0
  0
LINE
  5
912
330
1E
100
AcDbEntity
  8
0
100
AcDbLine
 10
185.0009999999999
 20
621.0
 30
0.0
 11
187.74
 21
621.0
 31
0.0
  0
LINE
  5
913
330
1E
100
AcDbEntity
  8
0
100
AcDbLine
 10
184.993
 20
635.0
 30
0.0
 11
185.763
 21
635.0
 31
0.0
  0
LINE
  5
914
330
1E
100
AcDbEntity
  8
0
100
AcDbLine
 10
185.0009999999999
 20
635.0
 30
0.0
 11
186.993
 21
635.0
 31
0.0
  0
LINE
  5
915
330
1E
100
AcDbEntity
  8
0
100
AcDbLine
 10
184.982
 20
635.208
 30
0.0
 11
187.0359999999999
 21
635.208
 31
0.0
  0
LINE
  5
916
330
1E
100
AcDbEntity
  8
0
100
AcDbLine
 10
185.0009999999999
 20
637.0
 30
0.0
 11
186.993
 21
637.0
 31
0.0
  0
LINE
  5
917
330
1E
100
AcDbEntity
  8
0
100
AcDbLine
 10
182.979
 20
637.0
 30
0.0
 11
185.0009999999999
 21
637.0
 31
0.0
  0
LINE
  5
918
330
1E
100
AcDbEntity
  8
0
100
AcDbLine
 10
184.982
 20
636.7919999999998
 30
0.0
 11
187.0359999999999
 21
636.7919999999998
 31
0.0
  0
LINE
  5
919
330
1E
100
AcDbEntity
  8
0
100
AcDbLine
 10
182.929
 20
636.7919999999998
 30
0.0
 11
184.982
 21
636.7919999999998
 31
0.0
  0
LINE
  5
91A
330
1E
100
AcDbEntity
  8
0
100
AcDbLine
 10
182.929
 20
635.208
 30
0.0
 11
184.982
 21
635.208
 31
0.0
  0
LINE
  5
91B
330
1E
100
AcDbEntity
  8
0
100
AcDbLine
 10
181.5699999999999
 20
646.0
 30
0.0
 11
182.5659999999999
 21
646.0
 31
0.0
  0
LINE
  5
91C
330
1E
100
AcDbEntity
  8
0
100
AcDbLine
 10
182.5659999999999
 20
646.0
 30
0.0
 11
183.7369999999999
 21
646.0
 31
0.0
  0
LINE
  5
91E
330
1E
100
AcDbEntity
  8
0
100
AcDbLine
 10
185.102
 20
629.0
 30
0.0
 11
187.3269999999999
 21
629.0
 31
0.0
  0
LINE
  5
91F
330
1E
100
AcDbEntity
  8
0
100
AcDbLine
 10
185.0659999999999
 20
628.7609999999999
 30
0.0
 11
187.4399999999999
 21
628.885
 31
0.0
  0
LINE
  5
922
330
1E
100
AcDbEntity
  8
0
100
AcDbLine
 10
185.0659999999999
 20
621.239
 30
0.0
 11
187.4399999999999
 21
621.1149999999999
 31
0.0
  0
LINE
  5
924
330
1E
100
AcDbEntity
  8
0
100
AcDbLine
 10
186.502
 20
635.0
 30
0.0
 11
187.1299999999999
 21
635.0
 31
0.0
  0
LINE
  5
925
330
1E
100
AcDbEntity
  8
0
100
AcDbLine
 10
185.763
 20
635.0
 30
0.0
 11
186.502
 21
635.0
 31
0.0
  0
LINE
  5
927
330
1E
100
AcDbEntity
  8
0
100
AcDbLine
 10
187.3269999999999
 20
629.0
 30
0.0
 11
189.4529999999999
 21
629.0
 31
0.0
  0
LINE
  5
929
330
1E
100
AcDbEntity
  8
0
100
AcDbLine
 10
187.1299999999999
 20
635.0
 30
0.0
 11
187.5949999999999
 21
635.0
 31
0.0
  0
LINE
  5
92A
330
1E
100
AcDbEntity
  8
0
100
AcDbLine
 10
186.993
 20
635.0
 30
0.0
 11
188.8919999999998
 21
635.0
 31
0.0
  0
LINE
  5
92B
330
1E
100
AcDbEntity
  8
0
100
AcDbLine
 10
186.993
 20
637.0
 30
0.0
 11
188.8919999999998
 21
637.0
 31
0.0
  0
LINE
  5
92C
330
1E
100
AcDbEntity
  8
0
100
AcDbLine
 10
187.0359999999999
 20
636.7919999999998
 30
0.0
 11
189.005
 21
636.7919999999998
 31
0.0
  0
LINE
  5
92D
330
1E
100
AcDbEntity
  8
0
100
AcDbLine
 10
187.0359999999999
 20
635.208
 30
0.0
 11
189.005
 21
635.208
 31
0.0
  0
LINE
  5
92E
330
1E
100
AcDbEntity
  8
0
100
AcDbLine
 10
187.4399999999999
 20
628.885
 30
0.0
 11
189.827
 21
628.7919999999997
 31
0.0
  0
LINE
  5
930
330
1E
100
AcDbEntity
  8
0
100
AcDbLine
 10
187.4399999999999
 20
621.1149999999999
 30
0.0
 11
189.827
 21
621.2080000000002
 31
0.0
  0
LINE
  5
932
330
1E
100
AcDbEntity
  8
0
100
AcDbLine
 10
187.74
 20
621.0
 30
0.0
 11
190.3509999999999
 21
621.0
 31
0.0
  0
LINE
  5
933
330
1E
100
AcDbEntity
  8
0
100
AcDbLine
 10
187.5949999999999
 20
635.0
 30
0.0
 11
187.898
 21
635.0
 31
0.0
  0
LINE
  5
934
330
1E
100
AcDbEntity
  8
0
100
AcDbLine
 10
187.898
 20
635.0
 30
0.0
 11
187.992
 21
635.0
 31
0.0
  0
LINE
  5
935
330
1E
100
AcDbEntity
  8
0
100
AcDbLine
 10
187.992
 20
629.0
 30
0.0
 11
187.992
 21
635.0
 31
0.0
  0
LINE
  5
936
330
1E
100
AcDbEntity
  8
0
100
AcDbLine
 10
188.8919999999998
 20
635.0
 30
0.0
 11
190.52
 21
635.0
 31
0.0
  0
LINE
  5
937
330
1E
100
AcDbEntity
  8
0
100
AcDbLine
 10
188.894
 20
635.0
 30
0.0
 11
190.488
 21
635.0
 31
0.0
  0
LINE
  5
938
330
1E
100
AcDbEntity
  8
0
100
AcDbLine
 10
188.8919999999998
 20
637.0
 30
0.0
 11
190.52
 21
637.0
 31
0.0
  0
LINE
  5
939
330
1E
100
AcDbEntity
  8
0
100
AcDbLine
 10
189.005
 20
636.7919999999998
 30
0.0
 11
190.68
 21
636.7919999999998
 31
0.0
  0
LINE
  5
93A
330
1E
100
AcDbEntity
  8
0
100
AcDbLine
 10
189.005
 20
635.208
 30
0.0
 11
190.68
 21
635.208
 31
0.0
  0
LINE
  5
93B
330
1E
100
AcDbEntity
  8
0
100
AcDbLine
 10
187.992
 20
635.0
 30
0.0
 11
188.894
 21
635.0
 31
0.0
  0
LINE
  5
93C
330
1E
100
AcDbEntity
  8
0
100
AcDbLine
 10
187.992
 20
635.0
 30
0.0
 11
187.992
 21
629.0
 31
0.0
  0
LINE
  5
93D
330
1E
100
AcDbEntity
  8
0
100
AcDbLine
 10
189.4529999999999
 20
629.0
 30
0.0
 11
191.2379999999999
 21
629.0
 31
0.0
  0
LINE
  5
93F
330
1E
100
AcDbEntity
  8
0
100
AcDbLine
 10
189.827
 20
628.7919999999997
 30
0.0
 11
191.4979999999999
 21
628.4289999999998
 31
0.0
  0
LINE
  5
942
330
1E
100
AcDbEntity
  8
0
100
AcDbLine
 10
189.827
 20
621.2080000000002
 30
0.0
 11
191.4979999999999
 21
621.571
 31
0.0
  0
LINE
  5
943
330
1E
100
AcDbEntity
  8
0
100
AcDbLine
 10
189.214
 20
646.0
 30
0.0
 11
189.714
 21
646.0
 31
0.0
  0
LINE
  5
944
330
1E
100
AcDbEntity
  8
0
100
AcDbLine
 10
188.4499999999999
 20
646.0
 30
0.0
 11
189.214
 21
646.0
 31
0.0
  0
LINE
  5
945
330
1E
100
AcDbEntity
  8
0
100
AcDbLine
 10
187.432
 20
646.0
 30
0.0
 11
188.4499999999999
 21
646.0
 31
0.0
  0
LINE
  5
946
330
1E
100
AcDbEntity
  8
0
100
AcDbLine
 10
186.245
 20
646.0
 30
0.0
 11
187.432
 21
646.0
 31
0.0
  0
LINE
  5
947
330
1E
100
AcDbEntity
  8
0
100
AcDbLine
 10
185.0009999999999
 20
646.0
 30
0.0
 11
186.245
 21
646.0
 31
0.0
  0
LINE
  5
948
330
1E
100
AcDbEntity
  8
0
100
AcDbLine
 10
183.7369999999999
 20
646.0
 30
0.0
 11
185.0009999999999
 21
646.0
 31
0.0
  0
LINE
  5
949
330
1E
100
AcDbEntity
  8
0
100
AcDbLine
 10
180.013
 20
645.3769999999998
 30
0.0
 11
180.013
 21
637.0
 31
0.0
  0
LINE
  5
94A
330
1E
100
AcDbEntity
  8
0
100
AcDbLine
 10
180.013
 20
645.3769999999998
 30
0.0
 11
180.134
 21
646.0
 31
0.0
  0
LINE
  5
94B
330
1E
100
AcDbEntity
  8
0
100
AcDbLine
 10
189.714
 20
646.0
 30
0.0
 11
189.8659999999999
 21
646.0
 31
0.0
  0
LINE
  5
94C
330
1E
100
AcDbEntity
  8
0
100
AcDbLine
 10
190.3509999999999
 20
621.0
 30
0.0
 11
192.59
 21
621.0
 31
0.0
  0
LINE
  5
94E
330
1E
100
AcDbEntity
  8
0
100
AcDbLine
 10
191.4979999999999
 20
621.571
 30
0.0
 11
192.252
 21
621.571
 31
0.0
  0
LINE
  5
94F
330
1E
100
AcDbEntity
  8
0
100
AcDbLine
 10
191.2379999999999
 20
629.0
 30
0.0
 11
192.58
 21
629.0
 31
0.0
  0
LINE
  5
953
330
1E
100
AcDbEntity
  8
0
100
AcDbLine
 10
191.4979999999999
 20
628.4289999999998
 30
0.0
 11
192.252
 21
628.4289999999998
 31
0.0
  0
LINE
  5
955
330
1E
100
AcDbEntity
  8
0
100
AcDbLine
 10
190.52
 20
635.0
 30
0.0
 11
191.742
 21
635.0
 31
0.0
  0
LINE
  5
957
330
1E
100
AcDbEntity
  8
0
100
AcDbLine
 10
192.252
 20
628.4289999999998
 30
0.0
 11
192.5509999999999
 21
628.4289999999998
 31
0.0
  0
LINE
  5
95C
330
1E
100
AcDbEntity
  8
0
100
AcDbLine
 10
192.252
 20
621.571
 30
0.0
 11
192.5509999999999
 21
621.571
 31
0.0
  0
LINE
  5
960
330
1E
100
AcDbEntity
  8
0
100
AcDbLine
 10
191.742
 20
635.0
 30
0.0
 11
192.542
 21
635.0
 31
0.0
  0
LINE
  5
961
330
1E
100
AcDbEntity
  8
0
100
AcDbLine
 10
192.59
 20
621.0
 30
0.0
 11
194.27
 21
621.0
 31
0.0
  0
LINE
  5
963
330
1E
100
AcDbEntity
  8
0
100
AcDbLine
 10
192.58
 20
629.0
 30
0.0
 11
193.4649999999999
 21
629.0
 31
0.0
  0
LINE
  5
964
330
1E
100
AcDbEntity
  8
0
100
AcDbLine
 10
192.5509999999999
 20
628.4289999999998
 30
0.0
 11
193.1
 21
628.863
 31
0.0
  0
LINE
  5
965
330
1E
100
AcDbEntity
  8
0
100
AcDbLine
 10
192.5509999999999
 20
621.571
 30
0.0
 11
193.1
 21
621.1369999999998
 31
0.0
  0
LINE
  5
966
330
1E
100
AcDbEntity
  8
0
100
AcDbLine
 10
192.542
 20
635.0
 30
0.0
 11
192.7859999999999
 21
635.0
 31
0.0
  0
LINE
  5
967
330
1E
100
AcDbEntity
  8
0
100
AcDbLine
 10
192.524
 20
635.0
 30
0.0
 11
192.7859999999999
 21
635.0
 31
0.0
  0
LINE
  5
968
330
1E
100
AcDbEntity
  8
0
100
AcDbLine
 10
191.7409999999999
 20
635.0
 30
0.0
 11
192.524
 21
635.0
 31
0.0
  0
LINE
  5
969
330
1E
100
AcDbEntity
  8
0
100
AcDbLine
 10
190.52
 20
637.0
 30
0.0
 11
191.742
 21
637.0
 31
0.0
  0
LINE
  5
96A
330
1E
100
AcDbEntity
  8
0
100
AcDbLine
 10
190.68
 20
636.7919999999998
 30
0.0
 11
191.919
 21
636.7919999999998
 31
0.0
  0
LINE
  5
96B
330
1E
100
AcDbEntity
  8
0
100
AcDbLine
 10
191.742
 20
637.0
 30
0.0
 11
192.542
 21
637.0
 31
0.0
  0
LINE
  5
96C
330
1E
100
AcDbEntity
  8
0
100
AcDbLine
 10
191.919
 20
636.7919999999998
 30
0.0
 11
192.727
 21
636.7919999999998
 31
0.0
  0
LINE
  5
96D
330
1E
100
AcDbEntity
  8
0
100
AcDbLine
 10
191.919
 20
635.208
 30
0.0
 11
192.727
 21
635.208
 31
0.0
  0
LINE
  5
96E
330
1E
100
AcDbEntity
  8
0
100
AcDbLine
 10
190.68
 20
635.208
 30
0.0
 11
191.919
 21
635.208
 31
0.0
  0
LINE
  5
96F
330
1E
100
AcDbEntity
  8
0
100
AcDbLine
 10
190.488
 20
635.0
 30
0.0
 11
191.7409999999999
 21
635.0
 31
0.0
  0
LINE
  5
970
330
1E
100
AcDbEntity
  8
0
100
AcDbLine
 10
192.727
 20
635.208
 30
0.0
 11
192.979
 21
635.208
 31
0.0
  0
LINE
  5
971
330
1E
100
AcDbEntity
  8
0
100
AcDbLine
 10
192.542
 20
637.0
 30
0.0
 11
192.7859999999999
 21
637.0
 31
0.0
  0
LINE
  5
972
330
1E
100
AcDbEntity
  8
0
100
AcDbLine
 10
192.7859999999999
 20
635.0
 30
0.0
 11
192.979
 21
635.208
 31
0.0
  0
LINE
  5
973
330
1E
100
AcDbEntity
  8
0
100
AcDbLine
 10
194.27
 20
621.0
 30
0.0
 11
195.3699999999999
 21
621.0
 31
0.0
  0
LINE
  5
974
330
1E
100
AcDbEntity
  8
0
100
AcDbLine
 10
193.7089999999999
 20
621.0
 30
0.0
 11
194.2859999999999
 21
621.1369999999998
 31
0.0
  0
LINE
  5
975
330
1E
100
AcDbEntity
  8
0
100
AcDbLine
 10
193.1
 20
628.863
 30
0.0
 11
193.6929999999999
 21
628.943
 31
0.0
  0
LINE
  5
976
330
1E
100
AcDbEntity
  8
0
100
AcDbLine
 10
193.1
 20
621.1369999999998
 30
0.0
 11
193.6929999999999
 21
621.057
 31
0.0
  0
LINE
  5
977
330
1E
100
AcDbEntity
  8
0
100
AcDbLine
 10
193.6929999999999
 20
621.057
 30
0.0
 11
194.2859999999999
 21
621.1369999999998
 31
0.0
  0
LINE
  5
978
330
1E
100
AcDbEntity
  8
0
100
AcDbLine
 10
195.3699999999999
 20
621.0
 30
0.0
 11
195.705
 21
621.0
 31
0.0
  0
LINE
  5
979
330
1E
100
AcDbEntity
  8
0
100
AcDbLine
 10
195.972
 20
620.3769999999998
 30
0.0
 11
195.972
 21
615.623
 31
0.0
  0
LINE
  5
97A
330
1E
100
AcDbEntity
  8
0
100
AcDbLine
 10
195.705
 20
621.0
 30
0.0
 11
195.972
 21
620.3769999999998
 31
0.0
  0
LINE
  5
97C
330
1E
100
AcDbEntity
  8
0
100
AcDbLine
 10
194.9909999999999
 20
627.857
 30
0.0
 11
194.9909999999999
 21
622.143
 31
0.0
  0
LINE
  5
97D
330
1E
100
AcDbEntity
  8
0
100
AcDbLine
 10
194.9909999999999
 20
622.143
 30
0.0
 11
194.9909999999999
 21
627.857
 31
0.0
  0
LINE
  5
97E
330
1E
100
AcDbEntity
  8
0
100
AcDbLine
 10
194.8359999999999
 20
628.4289999999998
 30
0.0
 11
194.9909999999999
 21
627.857
 31
0.0
  0
LINE
  5
97F
330
1E
100
AcDbEntity
  8
0
100
AcDbLine
 10
194.8359999999999
 20
621.571
 30
0.0
 11
194.9909999999999
 21
622.143
 31
0.0
  0
LINE
  5
980
330
1E
100
AcDbEntity
  8
0
100
AcDbLine
 10
194.2859999999999
 20
621.1369999999998
 30
0.0
 11
194.8359999999999
 21
621.571
 31
0.0
  0
LINE
  5
981
330
1E
100
AcDbEntity
  8
0
100
AcDbLine
 10
193.4649999999999
 20
629.0
 30
0.0
 11
193.7089999999999
 21
629.0
 31
0.0
  0
LINE
  5
982
330
1E
100
AcDbEntity
  8
0
100
AcDbLine
 10
193.7089999999999
 20
629.0
 30
0.0
 11
194.2859999999999
 21
628.863
 31
0.0
  0
LINE
  5
983
330
1E
100
AcDbEntity
  8
0
100
AcDbLine
 10
193.6929999999999
 20
628.943
 30
0.0
 11
194.2859999999999
 21
628.863
 31
0.0
  0
LINE
  5
985
330
1E
100
AcDbEntity
  8
0
100
AcDbLine
 10
194.2859999999999
 20
628.863
 30
0.0
 11
194.8359999999999
 21
628.4289999999998
 31
0.0
  0
LINE
  5
986
330
1E
100
AcDbEntity
  8
0
100
AcDbLine
 10
192.979
 20
635.208
 30
0.0
 11
192.979
 21
636.7919999999998
 31
0.0
  0
LINE
  5
987
330
1E
100
AcDbEntity
  8
0
100
AcDbLine
 10
192.979
 20
636.7919999999998
 30
0.0
 11
192.979
 21
635.208
 31
0.0
  0
LINE
  5
988
330
1E
100
AcDbEntity
  8
0
100
AcDbLine
 10
192.727
 20
636.7919999999998
 30
0.0
 11
192.979
 21
636.7919999999998
 31
0.0
  0
LINE
  5
989
330
1E
100
AcDbEntity
  8
0
100
AcDbLine
 10
192.7859999999999
 20
637.0
 30
0.0
 11
192.979
 21
636.7919999999998
 31
0.0
  0
LINE
  5
98A
330
1E
100
AcDbEntity
  8
0
100
AcDbLine
 10
189.9869999999999
 20
637.0
 30
0.0
 11
189.9869999999999
 21
645.3769999999998
 31
0.0
  0
LINE
  5
98B
330
1E
100
AcDbEntity
  8
0
100
AcDbLine
 10
189.9869999999999
 20
645.3769999999998
 30
0.0
 11
189.9869999999999
 21
637.0
 31
0.0
  0
LINE
  5
98C
330
1E
100
AcDbEntity
  8
0
100
AcDbLine
 10
189.8659999999999
 20
646.0
 30
0.0
 11
189.9869999999999
 21
645.3769999999998
 31
0.0
  0
LINE
  5
98D
330
1E
100
AcDbEntity
  8
0
100
AcDbLine
 10
307.0359999999999
 20
616.0
 30
0.0
 11
309.7559999999998
 21
616.0
 31
0.0
  0
LINE
  5
98E
330
1E
100
AcDbEntity
  8
0
100
AcDbLine
 10
309.7559999999998
 20
616.0
 30
0.0
 11
311.3879999999998
 21
616.0
 31
0.0
  0
LINE
  5
98F
330
1E
100
AcDbEntity
  8
0
100
AcDbLine
 10
309.4599999999998
 20
614.0
 30
0.0
 11
310.0
 21
614.0
 31
0.0
  0
LINE
  5
990
330
1E
100
AcDbEntity
  8
0
100
AcDbLine
 10
312.0
 20
614.0
 30
0.0
 11
312.0
 21
616.0
 31
0.0
  0
LINE
  5
991
330
1E
100
AcDbEntity
  8
0
100
AcDbLine
 10
311.3879999999998
 20
616.0
 30
0.0
 11
312.0
 21
616.0
 31
0.0
  0
LINE
  5
992
330
1E
100
AcDbEntity
  8
0
100
AcDbLine
 10
312.0
 20
616.0
 30
0.0
 11
312.0
 21
614.0
 31
0.0
  0
LINE
  5
993
330
1E
100
AcDbEntity
  8
0
100
AcDbLine
 10
311.3879999999998
 20
614.0
 30
0.0
 11
312.0
 21
614.0
 31
0.0
  0
LINE
  5
994
330
1E
100
AcDbEntity
  8
0
100
AcDbLine
 10
310.0
 20
614.0
 30
0.0
 11
310.0
 21
610.0
 31
0.0
  0
LINE
  5
995
330
1E
100
AcDbEntity
  8
0
100
AcDbLine
 10
310.0
 20
614.0
 30
0.0
 11
311.3879999999998
 21
614.0
 31
0.0
  0
LINE
  5
996
330
1E
100
AcDbEntity
  8
0
100
AcDbLine
 10
311.3879999999998
 20
610.0
 30
0.0
 11
312.0
 21
610.0
 31
0.0
  0
LINE
  5
997
330
1E
100
AcDbEntity
  8
0
100
AcDbLine
 10
392.0339999999998
 20
605.58
 30
0.0
 11
392.0339999999998
 21
614.4199999999998
 31
0.0
  0
LINE
  5
998
330
1E
100
AcDbEntity
  8
0
100
AcDbLine
 10
392.0339999999998
 20
605.58
 30
0.0
 11
392.3479999999998
 21
605.0
 31
0.0
  0
LINE
  5
999
330
1E
100
AcDbEntity
  8
0
100
AcDbLine
 10
392.744
 20
615.0
 30
0.0
 11
394.044
 21
615.0
 31
0.0
  0
LINE
  5
99A
330
1E
100
AcDbEntity
  8
0
100
AcDbLine
 10
392.3479999999998
 20
615.0
 30
0.0
 11
392.744
 21
615.0
 31
0.0
  0
LINE
  5
99B
330
1E
100
AcDbEntity
  8
0
100
AcDbLine
 10
392.0339999999998
 20
614.4199999999998
 30
0.0
 11
392.3479999999998
 21
615.0
 31
0.0
  0
LINE
  5
99C
330
1E
100
AcDbEntity
  8
0
100
AcDbLine
 10
392.0339999999998
 20
614.4199999999998
 30
0.0
 11
392.0339999999998
 21
605.58
 31
0.0
  0
LINE
  5
99D
330
1E
100
AcDbEntity
  8
0
100
AcDbLine
 10
394.028
 20
615.623
 30
0.0
 11
394.028
 21
620.3769999999998
 31
0.0
  0
LINE
  5
99E
330
1E
100
AcDbEntity
  8
0
100
AcDbLine
 10
394.028
 20
615.623
 30
0.0
 11
394.295
 21
615.0
 31
0.0
  0
LINE
  5
99F
330
1E
100
AcDbEntity
  8
0
100
AcDbLine
 10
394.044
 20
615.0
 30
0.0
 11
396.0299999999998
 21
615.0
 31
0.0
  0
LINE
  5
9A0
330
1E
100
AcDbEntity
  8
0
100
AcDbLine
 10
394.6299999999998
 20
621.0
 30
0.0
 11
395.73
 21
621.0
 31
0.0
  0
LINE
  5
9A1
330
1E
100
AcDbEntity
  8
0
100
AcDbLine
 10
394.295
 20
621.0
 30
0.0
 11
394.6299999999998
 21
621.0
 31
0.0
  0
LINE
  5
9A2
330
1E
100
AcDbEntity
  8
0
100
AcDbLine
 10
394.028
 20
620.3769999999998
 30
0.0
 11
394.295
 21
621.0
 31
0.0
  0
LINE
  5
9A3
330
1E
100
AcDbEntity
  8
0
100
AcDbLine
 10
394.028
 20
620.3769999999998
 30
0.0
 11
394.028
 21
615.623
 31
0.0
  0
LINE
  5
9A4
330
1E
100
AcDbEntity
  8
0
100
AcDbLine
 10
395.009
 20
627.857
 30
0.0
 11
395.1639999999999
 21
628.4289999999998
 31
0.0
  0
LINE
  5
9A5
330
1E
100
AcDbEntity
  8
0
100
AcDbLine
 10
395.009
 20
627.857
 30
0.0
 11
395.009
 21
622.143
 31
0.0
  0
LINE
  5
9A7
330
1E
100
AcDbEntity
  8
0
100
AcDbLine
 10
395.009
 20
622.143
 30
0.0
 11
395.1639999999999
 21
621.571
 31
0.0
  0
LINE
  5
9A8
330
1E
100
AcDbEntity
  8
0
100
AcDbLine
 10
395.009
 20
622.143
 30
0.0
 11
395.009
 21
627.857
 31
0.0
  0
LINE
  5
9A9
330
1E
100
AcDbEntity
  8
0
100
AcDbLine
 10
396.0299999999998
 20
615.0
 30
0.0
 11
398.6759999999998
 21
615.0
 31
0.0
  0
LINE
  5
9AA
330
1E
100
AcDbEntity
  8
0
100
AcDbLine
 10
395.73
 20
621.0
 30
0.0
 11
397.41
 21
621.0
 31
0.0
  0
LINE
  5
9AB
330
1E
100
AcDbEntity
  8
0
100
AcDbLine
 10
396.8999999999998
 20
621.1369999999998
 30
0.0
 11
397.449
 21
621.571
 31
0.0
  0
LINE
  5
9AC
330
1E
100
AcDbEntity
  8
0
100
AcDbLine
 10
396.3069999999998
 20
621.057
 30
0.0
 11
396.8999999999998
 21
621.1369999999998
 31
0.0
  0
LINE
  5
9AD
330
1E
100
AcDbEntity
  8
0
100
AcDbLine
 10
395.7139999999998
 20
621.1369999999998
 30
0.0
 11
396.3069999999998
 21
621.057
 31
0.0
  0
LINE
  5
9AE
330
1E
100
AcDbEntity
  8
0
100
AcDbLine
 10
395.7139999999998
 20
621.1369999999998
 30
0.0
 11
396.2909999999998
 21
621.0
 31
0.0
  0
LINE
  5
9AF
330
1E
100
AcDbEntity
  8
0
100
AcDbLine
 10
395.1639999999999
 20
621.571
 30
0.0
 11
395.7139999999998
 21
621.1369999999998
 31
0.0
  0
LINE
  5
9B0
330
1E
100
AcDbEntity
  8
0
100
AcDbLine
 10
396.8999999999998
 20
628.863
 30
0.0
 11
397.449
 21
628.4289999999998
 31
0.0
  0
LINE
  5
9B4
330
1E
100
AcDbEntity
  8
0
100
AcDbLine
 10
396.2909999999998
 20
629.0
 30
0.0
 11
396.535
 21
629.0
 31
0.0
  0
LINE
  5
9B5
330
1E
100
AcDbEntity
  8
0
100
AcDbLine
 10
396.535
 20
629.0
 30
0.0
 11
397.42
 21
629.0
 31
0.0
  0
LINE
  5
9B6
330
1E
100
AcDbEntity
  8
0
100
AcDbLine
 10
396.3069999999998
 20
628.943
 30
0.0
 11
396.8999999999998
 21
628.863
 31
0.0
  0
LINE
  5
9B8
330
1E
100
AcDbEntity
  8
0
100
AcDbLine
 10
395.7139999999998
 20
628.863
 30
0.0
 11
396.3069999999998
 21
628.943
 31
0.0
  0
LINE
  5
9B9
330
1E
100
AcDbEntity
  8
0
100
AcDbLine
 10
395.7139999999998
 20
628.863
 30
0.0
 11
396.2909999999998
 21
629.0
 31
0.0
  0
LINE
  5
9BA
330
1E
100
AcDbEntity
  8
0
100
AcDbLine
 10
395.1639999999999
 20
628.4289999999998
 30
0.0
 11
395.7139999999998
 21
628.863
 31
0.0
  0
LINE
  5
9BB
330
1E
100
AcDbEntity
  8
0
100
AcDbLine
 10
397.41
 20
621.0
 30
0.0
 11
399.649
 21
621.0
 31
0.0
  0
LINE
  5
9BC
330
1E
100
AcDbEntity
  8
0
100
AcDbLine
 10
397.449
 20
621.571
 30
0.0
 11
397.748
 21
621.571
 31
0.0
  0
LINE
  5
9BE
330
1E
100
AcDbEntity
  8
0
100
AcDbLine
 10
397.449
 20
628.4289999999998
 30
0.0
 11
397.748
 21
628.4289999999998
 31
0.0
  0
LINE
  5
9BF
330
1E
100
AcDbEntity
  8
0
100
AcDbLine
 10
397.42
 20
629.0
 30
0.0
 11
398.7619999999998
 21
629.0
 31
0.0
  0
LINE
  5
9C3
330
1E
100
AcDbEntity
  8
0
100
AcDbLine
 10
397.748
 20
621.571
 30
0.0
 11
398.5019999999998
 21
621.571
 31
0.0
  0
LINE
  5
9C9
330
1E
100
AcDbEntity
  8
0
100
AcDbLine
 10
397.748
 20
628.4289999999998
 30
0.0
 11
398.5019999999998
 21
628.4289999999998
 31
0.0
  0
LINE
  5
9CE
330
1E
100
AcDbEntity
  8
0
100
AcDbLine
 10
397.458
 20
635.0
 30
0.0
 11
398.258
 21
635.0
 31
0.0
  0
LINE
  5
9CF
330
1E
100
AcDbEntity
  8
0
100
AcDbLine
 10
398.258
 20
635.0
 30
0.0
 11
399.48
 21
635.0
 31
0.0
  0
LINE
  5
9D0
330
1E
100
AcDbEntity
  8
0
100
AcDbLine
 10
397.2139999999998
 20
635.0
 30
0.0
 11
397.476
 21
635.0
 31
0.0
  0
LINE
  5
9D1
330
1E
100
AcDbEntity
  8
0
100
AcDbLine
 10
397.2139999999998
 20
635.0
 30
0.0
 11
397.458
 21
635.0
 31
0.0
  0
LINE
  5
9D2
330
1E
100
AcDbEntity
  8
0
100
AcDbLine
 10
397.476
 20
635.0
 30
0.0
 11
398.259
 21
635.0
 31
0.0
  0
LINE
  5
9D3
330
1E
100
AcDbEntity
  8
0
100
AcDbLine
 10
398.5019999999998
 20
621.571
 30
0.0
 11
400.173
 21
621.2080000000002
 31
0.0
  0
LINE
  5
9D4
330
1E
100
AcDbEntity
  8
0
100
AcDbLine
 10
398.6759999999998
 20
615.0
 30
0.0
 11
401.7619999999998
 21
615.0
 31
0.0
  0
LINE
  5
9D5
330
1E
100
AcDbEntity
  8
0
100
AcDbLine
 10
399.649
 20
621.0
 30
0.0
 11
402.2599999999997
 21
621.0
 31
0.0
  0
LINE
  5
9D6
330
1E
100
AcDbEntity
  8
0
100
AcDbLine
 10
398.7619999999998
 20
629.0
 30
0.0
 11
400.5469999999998
 21
629.0
 31
0.0
  0
LINE
  5
9D7
330
1E
100
AcDbEntity
  8
0
100
AcDbLine
 10
398.5019999999998
 20
628.4289999999998
 30
0.0
 11
400.173
 21
628.7919999999997
 31
0.0
  0
LINE
  5
9D8
330
1E
100
AcDbEntity
  8
0
100
AcDbLine
 10
399.48
 20
635.0
 30
0.0
 11
401.1079999999997
 21
635.0
 31
0.0
  0
LINE
  5
9D9
330
1E
100
AcDbEntity
  8
0
100
AcDbLine
 10
398.259
 20
635.0
 30
0.0
 11
399.5119999999998
 21
635.0
 31
0.0
  0
LINE
  5
9DA
330
1E
100
AcDbEntity
  8
0
100
AcDbLine
 10
397.273
 20
636.7919999999998
 30
0.0
 11
398.0809999999998
 21
636.7919999999998
 31
0.0
  0
LINE
  5
9DB
330
1E
100
AcDbEntity
  8
0
100
AcDbLine
 10
397.273
 20
635.208
 30
0.0
 11
398.0809999999998
 21
635.208
 31
0.0
  0
LINE
  5
9DC
330
1E
100
AcDbEntity
  8
0
100
AcDbLine
 10
398.0809999999998
 20
636.7919999999998
 30
0.0
 11
399.3199999999998
 21
636.7919999999998
 31
0.0
  0
LINE
  5
9DD
330
1E
100
AcDbEntity
  8
0
100
AcDbLine
 10
398.0809999999998
 20
635.208
 30
0.0
 11
399.3199999999998
 21
635.208
 31
0.0
  0
LINE
  5
9DE
330
1E
100
AcDbEntity
  8
0
100
AcDbLine
 10
399.3199999999998
 20
636.7919999999998
 30
0.0
 11
400.9949999999998
 21
636.7919999999998
 31
0.0
  0
LINE
  5
9DF
330
1E
100
AcDbEntity
  8
0
100
AcDbLine
 10
399.3199999999998
 20
635.208
 30
0.0
 11
400.9949999999998
 21
635.208
 31
0.0
  0
LINE
  5
9E0
330
1E
100
AcDbEntity
  8
0
100
AcDbLine
 10
399.5119999999998
 20
635.0
 30
0.0
 11
401.1059999999998
 21
635.0
 31
0.0
  0
LINE
  5
9E1
330
1E
100
AcDbEntity
  8
0
100
AcDbLine
 10
397.0209999999998
 20
635.208
 30
0.0
 11
397.0209999999998
 21
636.7919999999998
 31
0.0
  0
LINE
  5
9E2
330
1E
100
AcDbEntity
  8
0
100
AcDbLine
 10
397.0209999999998
 20
635.208
 30
0.0
 11
397.273
 21
635.208
 31
0.0
  0
LINE
  5
9E3
330
1E
100
AcDbEntity
  8
0
100
AcDbLine
 10
397.0209999999998
 20
635.208
 30
0.0
 11
397.2139999999998
 21
635.0
 31
0.0
  0
LINE
  5
9E4
330
1E
100
AcDbEntity
  8
0
100
AcDbLine
 10
397.458
 20
637.0
 30
0.0
 11
398.258
 21
637.0
 31
0.0
  0
LINE
  5
9E5
330
1E
100
AcDbEntity
  8
0
100
AcDbLine
 10
398.258
 20
637.0
 30
0.0
 11
399.48
 21
637.0
 31
0.0
  0
LINE
  5
9E6
330
1E
100
AcDbEntity
  8
0
100
AcDbLine
 10
399.48
 20
637.0
 30
0.0
 11
401.1079999999997
 21
637.0
 31
0.0
  0
LINE
  5
9E7
330
1E
100
AcDbEntity
  8
0
100
AcDbLine
 10
397.2139999999998
 20
637.0
 30
0.0
 11
397.458
 21
637.0
 31
0.0
  0
LINE
  5
9E8
330
1E
100
AcDbEntity
  8
0
100
AcDbLine
 10
397.0209999999998
 20
636.7919999999998
 30
0.0
 11
397.2139999999998
 21
637.0
 31
0.0
  0
LINE
  5
9E9
330
1E
100
AcDbEntity
  8
0
100
AcDbLine
 10
397.0209999999998
 20
636.7919999999998
 30
0.0
 11
397.273
 21
636.7919999999998
 31
0.0
  0
LINE
  5
9EA
330
1E
100
AcDbEntity
  8
0
100
AcDbLine
 10
397.0209999999998
 20
636.7919999999998
 30
0.0
 11
397.0209999999998
 21
635.208
 31
0.0
  0
LINE
  5
9EB
330
1E
100
AcDbEntity
  8
0
100
AcDbLine
 10
400.173
 20
621.2080000000002
 30
0.0
 11
402.5599999999998
 21
621.1149999999999
 31
0.0
  0
LINE
  5
9EC
330
1E
100
AcDbEntity
  8
0
100
AcDbLine
 10
401.7619999999998
 20
615.0
 30
0.0
 11
404.998
 21
615.0
 31
0.0
  0
LINE
  5
9EE
330
1E
100
AcDbEntity
  8
0
100
AcDbLine
 10
400.5469999999998
 20
629.0
 30
0.0
 11
402.6729999999998
 21
629.0
 31
0.0
  0
LINE
  5
9F0
330
1E
100
AcDbEntity
  8
0
100
AcDbLine
 10
400.173
 20
628.7919999999997
 30
0.0
 11
402.5599999999998
 21
628.885
 31
0.0
  0
LINE
  5
9F2
330
1E
100
AcDbEntity
  8
0
100
AcDbLine
 10
402.008
 20
635.0
 30
0.0
 11
402.008
 21
629.0
 31
0.0
  0
LINE
  5
9F3
330
1E
100
AcDbEntity
  8
0
100
AcDbLine
 10
402.008
 20
635.0
 30
0.0
 11
402.102
 21
635.0
 31
0.0
  0
LINE
  5
9F4
330
1E
100
AcDbEntity
  8
0
100
AcDbLine
 10
402.2599999999997
 20
621.0
 30
0.0
 11
404.999
 21
621.0
 31
0.0
  0
LINE
  5
9F5
330
1E
100
AcDbEntity
  8
0
100
AcDbLine
 10
402.102
 20
635.0
 30
0.0
 11
402.4049999999999
 21
635.0
 31
0.0
  0
LINE
  5
9F6
330
1E
100
AcDbEntity
  8
0
100
AcDbLine
 10
402.5599999999998
 20
621.1149999999999
 30
0.0
 11
404.9339999999999
 21
621.239
 31
0.0
  0
LINE
  5
9F9
330
1E
100
AcDbEntity
  8
0
100
AcDbLine
 10
402.6729999999998
 20
629.0
 30
0.0
 11
404.898
 21
629.0
 31
0.0
  0
LINE
  5
9FB
330
1E
100
AcDbEntity
  8
0
100
AcDbLine
 10
402.5599999999998
 20
628.885
 30
0.0
 11
404.9339999999999
 21
628.7609999999999
 31
0.0
  0
LINE
  5
9FD
330
1E
100
AcDbEntity
  8
0
100
AcDbLine
 10
402.4049999999999
 20
635.0
 30
0.0
 11
402.8699999999998
 21
635.0
 31
0.0
  0
LINE
  5
9FE
330
1E
100
AcDbEntity
  8
0
100
AcDbLine
 10
402.8699999999998
 20
635.0
 30
0.0
 11
403.498
 21
635.0
 31
0.0
  0
LINE
  5
9FF
330
1E
100
AcDbEntity
  8
0
100
AcDbLine
 10
402.008
 20
629.0
 30
0.0
 11
402.008
 21
635.0
 31
0.0
  0
LINE
  5
A00
330
1E
100
AcDbEntity
  8
0
100
AcDbLine
 10
401.1079999999997
 20
635.0
 30
0.0
 11
403.0069999999998
 21
635.0
 31
0.0
  0
LINE
  5
A02
330
1E
100
AcDbEntity
  8
0
100
AcDbLine
 10
404.9339999999999
 20
621.239
 30
0.0
 11
406.415
 21
621.571
 31
0.0
  0
LINE
  5
A03
330
1E
100
AcDbEntity
  8
0
100
AcDbLine
 10
404.998
 20
615.0
 30
0.0
 11
408.284
 21
615.0
 31
0.0
  0
LINE
  5
A04
330
1E
100
AcDbEntity
  8
0
100
AcDbLine
 10
404.999
 20
621.0
 30
0.0
 11
407.779
 21
621.0
 31
0.0
  0
LINE
  5
A05
330
1E
100
AcDbEntity
  8
0
100
AcDbLine
 10
404.9339999999999
 20
628.7609999999999
 30
0.0
 11
406.415
 21
628.4289999999998
 31
0.0
  0
LINE
  5
A08
330
1E
100
AcDbEntity
  8
0
100
AcDbLine
 10
404.898
 20
629.0
 30
0.0
 11
407.176
 21
629.0
 31
0.0
  0
LINE
  5
A0A
330
1E
100
AcDbEntity
  8
0
100
AcDbLine
 10
403.498
 20
635.0
 30
0.0
 11
404.237
 21
635.0
 31
0.0
  0
LINE
  5
A0B
330
1E
100
AcDbEntity
  8
0
100
AcDbLine
 10
404.237
 20
635.0
 30
0.0
 11
405.0069999999998
 21
635.0
 31
0.0
  0
LINE
  5
A0C
330
1E
100
AcDbEntity
  8
0
100
AcDbLine
 10
406.415
 20
628.4289999999998
 30
0.0
 11
407.5289999999998
 21
628.4289999999998
 31
0.0
  0
LINE
  5
A0E
330
1E
100
AcDbEntity
  8
0
100
AcDbLine
 10
406.415
 20
621.571
 30
0.0
 11
407.5289999999998
 21
621.571
 31
0.0
  0
LINE
  5
A10
330
1E
100
AcDbEntity
  8
0
100
AcDbLine
 10
407.5289999999998
 20
628.4289999999998
 30
0.0
 11
408.564
 21
628.4289999999998
 31
0.0
  0
LINE
  5
A13
330
1E
100
AcDbEntity
  8
0
100
AcDbLine
 10
407.176
 20
629.0
 30
0.0
 11
409.29
 21
629.0
 31
0.0
  0
LINE
  5
A15
330
1E
100
AcDbEntity
  8
0
100
AcDbLine
 10
407.5289999999998
 20
621.571
 30
0.0
 11
408.564
 21
621.571
 31
0.0
  0
LINE
  5
A18
330
1E
100
AcDbEntity
  8
0
100
AcDbLine
 10
407.779
 20
621.0
 30
0.0
 11
410.354
 21
621.0
 31
0.0
  0
LINE
  5
A19
330
1E
100
AcDbEntity
  8
0
100
AcDbLine
 10
407.8999999999998
 20
635.0
 30
0.0
 11
407.9919999999998
 21
635.0
 31
0.0
  0
LINE
  5
A1A
330
1E
100
AcDbEntity
  8
0
100
AcDbLine
 10
407.9919999999998
 20
629.0
 30
0.0
 11
407.9919999999998
 21
635.0
 31
0.0
  0
LINE
  5
A1B
330
1E
100
AcDbEntity
  8
0
100
AcDbLine
 10
407.601
 20
635.0
 30
0.0
 11
407.8999999999998
 21
635.0
 31
0.0
  0
LINE
  5
A1C
330
1E
100
AcDbEntity
  8
0
100
AcDbLine
 10
407.111
 20
635.0
 30
0.0
 11
407.601
 21
635.0
 31
0.0
  0
LINE
  5
A1D
330
1E
100
AcDbEntity
  8
0
100
AcDbLine
 10
406.4899999999998
 20
635.0
 30
0.0
 11
407.111
 21
635.0
 31
0.0
  0
LINE
  5
A1E
330
1E
100
AcDbEntity
  8
0
100
AcDbLine
 10
405.776
 20
635.0
 30
0.0
 11
406.4899999999998
 21
635.0
 31
0.0
  0
LINE
  5
A1F
330
1E
100
AcDbEntity
  8
0
100
AcDbLine
 10
405.0069999999998
 20
635.0
 30
0.0
 11
405.776
 21
635.0
 31
0.0
  0
LINE
  5
A20
330
1E
100
AcDbEntity
  8
0
100
AcDbLine
 10
407.0209999999998
 20
635.0
 30
0.0
 11
408.894
 21
635.0
 31
0.0
  0
LINE
  5
A21
330
1E
100
AcDbEntity
  8
0
100
AcDbLine
 10
403.0069999999998
 20
635.0
 30
0.0
 11
404.999
 21
635.0
 31
0.0
  0
LINE
  5
A22
330
1E
100
AcDbEntity
  8
0
100
AcDbLine
 10
404.999
 20
635.0
 30
0.0
 11
407.0209999999998
 21
635.0
 31
0.0
  0
LINE
  5
A23
330
1E
100
AcDbEntity
  8
0
100
AcDbLine
 10
408.284
 20
615.0
 30
0.0
 11
411.3269999999998
 21
615.0
 31
0.0
  0
LINE
  5
A24
330
1E
100
AcDbEntity
  8
0
100
AcDbLine
 10
408.564
 20
628.4289999999998
 30
0.0
 11
409.663
 21
628.7609999999999
 31
0.0
  0
LINE
  5
A25
330
1E
100
AcDbEntity
  8
0
100
AcDbLine
 10
408.564
 20
621.571
 30
0.0
 11
409.663
 21
621.239
 31
0.0
  0
LINE
  5
A28
330
1E
100
AcDbEntity
  8
0
100
AcDbLine
 10
409.663
 20
621.239
 30
0.0
 11
411.411
 21
621.1149999999999
 31
0.0
  0
LINE
  5
A2A
330
1E
100
AcDbEntity
  8
0
100
AcDbLine
 10
409.663
 20
628.7609999999999
 30
0.0
 11
411.411
 21
628.885
 31
0.0
  0
LINE
  5
A2B
330
1E
100
AcDbEntity
  8
0
100
AcDbLine
 10
409.29
 20
629.0
 30
0.0
 11
411.092
 21
629.0
 31
0.0
  0
LINE
  5
A2D
330
1E
100
AcDbEntity
  8
0
100
AcDbLine
 10
408.894
 20
635.0
 30
0.0
 11
410.488
 21
635.0
 31
0.0
  0
LINE
  5
A2E
330
1E
100
AcDbEntity
  8
0
100
AcDbLine
 10
408.8919999999998
 20
635.0
 30
0.0
 11
410.5199999999999
 21
635.0
 31
0.0
  0
LINE
  5
A2F
330
1E
100
AcDbEntity
  8
0
100
AcDbLine
 10
407.9919999999998
 20
635.0
 30
0.0
 11
408.8919999999998
 21
635.0
 31
0.0
  0
LINE
  5
A30
330
1E
100
AcDbEntity
  8
0
100
AcDbLine
 10
407.9919999999998
 20
635.0
 30
0.0
 11
407.9919999999998
 21
629.0
 31
0.0
  0
LINE
  5
A31
330
1E
100
AcDbEntity
  8
0
100
AcDbLine
 10
400.9949999999998
 20
635.208
 30
0.0
 11
402.9639999999998
 21
635.208
 31
0.0
  0
LINE
  5
A32
330
1E
100
AcDbEntity
  8
0
100
AcDbLine
 10
402.9639999999998
 20
635.208
 30
0.0
 11
405.018
 21
635.208
 31
0.0
  0
LINE
  5
A33
330
1E
100
AcDbEntity
  8
0
100
AcDbLine
 10
401.1079999999997
 20
637.0
 30
0.0
 11
403.0069999999998
 21
637.0
 31
0.0
  0
LINE
  5
A34
330
1E
100
AcDbEntity
  8
0
100
AcDbLine
 10
400.9949999999998
 20
636.7919999999998
 30
0.0
 11
402.9639999999998
 21
636.7919999999998
 31
0.0
  0
LINE
  5
A35
330
1E
100
AcDbEntity
  8
0
100
AcDbLine
 10
403.0069999999998
 20
637.0
 30
0.0
 11
404.999
 21
637.0
 31
0.0
  0
LINE
  5
A36
330
1E
100
AcDbEntity
  8
0
100
AcDbLine
 10
404.999
 20
637.0
 30
0.0
 11
407.0209999999998
 21
637.0
 31
0.0
  0
LINE
  5
A37
330
1E
100
AcDbEntity
  8
0
100
AcDbLine
 10
402.9639999999998
 20
636.7919999999998
 30
0.0
 11
405.018
 21
636.7919999999998
 31
0.0
  0
LINE
  5
A38
330
1E
100
AcDbEntity
  8
0
100
AcDbLine
 10
405.018
 20
635.208
 30
0.0
 11
407.071
 21
635.208
 31
0.0
  0
LINE
  5
A39
330
1E
100
AcDbEntity
  8
0
100
AcDbLine
 10
408.9739999999998
 20
635.208
 30
0.0
 11
410.63
 21
635.208
 31
0.0
  0
LINE
  5
A3A
330
1E
100
AcDbEntity
  8
0
100
AcDbLine
 10
407.0209999999998
 20
637.0
 30
0.0
 11
408.894
 21
637.0
 31
0.0
  0
LINE
  5
A3B
330
1E
100
AcDbEntity
  8
0
100
AcDbLine
 10
408.894
 20
637.0
 30
0.0
 11
410.488
 21
637.0
 31
0.0
  0
LINE
  5
A3C
330
1E
100
AcDbEntity
  8
0
100
AcDbLine
 10
408.9739999999998
 20
636.7919999999998
 30
0.0
 11
410.63
 21
636.7919999999998
 31
0.0
  0
LINE
  5
A3D
330
1E
100
AcDbEntity
  8
0
100
AcDbLine
 10
407.071
 20
636.7919999999998
 30
0.0
 11
408.9739999999998
 21
636.7919999999998
 31
0.0
  0
LINE
  5
A3E
330
1E
100
AcDbEntity
  8
0
100
AcDbLine
 10
407.071
 20
635.208
 30
0.0
 11
408.9739999999998
 21
635.208
 31
0.0
  0
LINE
  5
A3F
330
1E
100
AcDbEntity
  8
0
100
AcDbLine
 10
405.018
 20
636.7919999999998
 30
0.0
 11
407.071
 21
636.7919999999998
 31
0.0
  0
LINE
  5
A40
330
1E
100
AcDbEntity
  8
0
100
AcDbLine
 10
401.1059999999998
 20
635.0
 30
0.0
 11
402.008
 21
635.0
 31
0.0
  0
LINE
  5
A41
330
1E
100
AcDbEntity
  8
0
100
AcDbLine
 10
411.3269999999998
 20
615.0
 30
0.0
 11
413.917
 21
615.0
 31
0.0
  0
LINE
  5
A42
330
1E
100
AcDbEntity
  8
0
100
AcDbLine
 10
410.354
 20
621.0
 30
0.0
 11
412.5449999999998
 21
621.0
 31
0.0
  0
LINE
  5
A43
330
1E
100
AcDbEntity
  8
0
100
AcDbLine
 10
411.411
 20
628.885
 30
0.0
 11
413.168
 21
628.7919999999997
 31
0.0
  0
LINE
  5
A45
330
1E
100
AcDbEntity
  8
0
100
AcDbLine
 10
411.411
 20
621.1149999999999
 30
0.0
 11
413.168
 21
621.2080000000002
 31
0.0
  0
LINE
  5
A47
330
1E
100
AcDbEntity
  8
0
100
AcDbLine
 10
411.092
 20
629.0
 30
0.0
 11
413.4649999999998
 21
629.0
 31
0.0
  0
LINE
  5
A48
330
1E
100
AcDbEntity
  8
0
100
AcDbLine
 10
411.7409999999998
 20
635.0
 30
0.0
 11
412.5239999999998
 21
635.0
 31
0.0
  0
LINE
  5
A49
330
1E
100
AcDbEntity
  8
0
100
AcDbLine
 10
410.488
 20
635.0
 30
0.0
 11
411.7409999999998
 21
635.0
 31
0.0
  0
LINE
  5
A4A
330
1E
100
AcDbEntity
  8
0
100
AcDbLine
 10
412.5449999999998
 20
621.0
 30
0.0
 11
414.2689999999998
 21
621.0
 31
0.0
  0
LINE
  5
A4C
330
1E
100
AcDbEntity
  8
0
100
AcDbLine
 10
412.542
 20
635.0
 30
0.0
 11
412.786
 21
635.0
 31
0.0
  0
LINE
  5
A4D
330
1E
100
AcDbEntity
  8
0
100
AcDbLine
 10
415.9539999999998
 20
615.0
 30
0.0
 11
417.227
 21
615.0
 31
0.0
  0
LINE
  5
A4E
330
1E
100
AcDbEntity
  8
0
100
AcDbLine
 10
413.917
 20
615.0
 30
0.0
 11
415.9539999999998
 21
615.0
 31
0.0
  0
LINE
  5
A4F
330
1E
100
AcDbEntity
  8
0
100
AcDbLine
 10
415.7049999999999
 20
615.0
 30
0.0
 11
415.972
 21
615.623
 31
0.0
  0
LINE
  5
A50
330
1E
100
AcDbEntity
  8
0
100
AcDbLine
 10
417.227
 20
615.0
 30
0.0
 11
417.652
 21
615.0
 31
0.0
  0
LINE
  5
A51
330
1E
100
AcDbEntity
  8
0
100
AcDbLine
 10
417.652
 20
615.0
 30
0.0
 11
417.966
 21
614.4199999999998
 31
0.0
  0
LINE
  5
A52
330
1E
100
AcDbEntity
  8
0
100
AcDbLine
 10
417.966
 20
614.4199999999998
 30
0.0
 11
417.966
 21
605.58
 31
0.0
  0
LINE
  5
A53
330
1E
100
AcDbEntity
  8
0
100
AcDbLine
 10
417.966
 20
605.58
 30
0.0
 11
417.966
 21
614.4199999999998
 31
0.0
  0
LINE
  5
A54
330
1E
100
AcDbEntity
  8
0
100
AcDbLine
 10
415.972
 20
615.623
 30
0.0
 11
415.972
 21
620.3769999999998
 31
0.0
  0
LINE
  5
A55
330
1E
100
AcDbEntity
  8
0
100
AcDbLine
 10
415.3459999999998
 20
621.0
 30
0.0
 11
415.7049999999999
 21
621.0
 31
0.0
  0
LINE
  5
A56
330
1E
100
AcDbEntity
  8
0
100
AcDbLine
 10
415.7049999999999
 20
621.0
 30
0.0
 11
415.972
 21
620.3769999999998
 31
0.0
  0
LINE
  5
A57
330
1E
100
AcDbEntity
  8
0
100
AcDbLine
 10
414.2689999999998
 20
621.0
 30
0.0
 11
415.3459999999998
 21
621.0
 31
0.0
  0
LINE
  5
A58
330
1E
100
AcDbEntity
  8
0
100
AcDbLine
 10
415.972
 20
620.3769999999998
 30
0.0
 11
415.972
 21
615.623
 31
0.0
  0
LINE
  5
A59
330
1E
100
AcDbEntity
  8
0
100
AcDbLine
 10
413.7089999999998
 20
621.0
 30
0.0
 11
414.2859999999997
 21
621.1369999999998
 31
0.0
  0
LINE
  5
A5C
330
1E
100
AcDbEntity
  8
0
100
AcDbLine
 10
413.403
 20
629.0
 30
0.0
 11
413.7089999999998
 21
629.0
 31
0.0
  0
LINE
  5
A5D
330
1E
100
AcDbEntity
  8
0
100
AcDbLine
 10
413.168
 20
628.7919999999997
 30
0.0
 11
414.3979999999998
 21
628.4289999999998
 31
0.0
  0
LINE
  5
A60
330
1E
100
AcDbEntity
  8
0
100
AcDbLine
 10
413.168
 20
621.2080000000002
 30
0.0
 11
414.3979999999998
 21
621.571
 31
0.0
  0
LINE
  5
A65
330
1E
100
AcDbEntity
  8
0
100
AcDbLine
 10
413.7089999999998
 20
629.0
 30
0.0
 11
414.2859999999997
 21
628.863
 31
0.0
  0
LINE
  5
A66
330
1E
100
AcDbEntity
  8
0
100
AcDbLine
 10
413.4649999999998
 20
629.0
 30
0.0
 11
413.7089999999998
 21
629.0
 31
0.0
  0
LINE
  5
A67
330
1E
100
AcDbEntity
  8
0
100
AcDbLine
 10
414.3979999999998
 20
621.571
 30
0.0
 11
414.7689999999998
 21
621.571
 31
0.0
  0
LINE
  5
A68
330
1E
100
AcDbEntity
  8
0
100
AcDbLine
 10
414.7689999999998
 20
621.571
 30
0.0
 11
414.836
 21
621.571
 31
0.0
  0
LINE
  5
A6D
330
1E
100
AcDbEntity
  8
0
100
AcDbLine
 10
414.3979999999998
 20
628.4289999999998
 30
0.0
 11
414.991
 21
627.857
 31
0.0
  0
LINE
  5
A6F
330
1E
100
AcDbEntity
  8
0
100
AcDbLine
 10
414.991
 20
627.857
 30
0.0
 11
414.991
 21
622.143
 31
0.0
  0
LINE
  5
A70
330
1E
100
AcDbEntity
  8
0
100
AcDbLine
 10
414.991
 20
622.143
 30
0.0
 11
414.991
 21
627.857
 31
0.0
  0
LINE
  5
A71
330
1E
100
AcDbEntity
  8
0
100
AcDbLine
 10
414.836
 20
628.4289999999998
 30
0.0
 11
414.991
 21
627.857
 31
0.0
  0
LINE
  5
A72
330
1E
100
AcDbEntity
  8
0
100
AcDbLine
 10
414.836
 20
621.571
 30
0.0
 11
414.991
 21
622.143
 31
0.0
  0
LINE
  5
A73
330
1E
100
AcDbEntity
  8
0
100
AcDbLine
 10
414.2859999999997
 20
628.863
 30
0.0
 11
414.836
 21
628.4289999999998
 31
0.0
  0
LINE
  5
A74
330
1E
100
AcDbEntity
  8
0
100
AcDbLine
 10
414.2859999999997
 20
621.1369999999998
 30
0.0
 11
414.836
 21
621.571
 31
0.0
  0
LINE
  5
A75
330
1E
100
AcDbEntity
  8
0
100
AcDbLine
 10
412.786
 20
635.0
 30
0.0
 11
412.979
 21
635.208
 31
0.0
  0
LINE
  5
A76
330
1E
100
AcDbEntity
  8
0
100
AcDbLine
 10
412.5239999999998
 20
635.0
 30
0.0
 11
412.786
 21
635.0
 31
0.0
  0
LINE
  5
A77
330
1E
100
AcDbEntity
  8
0
100
AcDbLine
 10
411.742
 20
635.0
 30
0.0
 11
412.542
 21
635.0
 31
0.0
  0
LINE
  5
A78
330
1E
100
AcDbEntity
  8
0
100
AcDbLine
 10
410.488
 20
637.0
 30
0.0
 11
411.7409999999998
 21
637.0
 31
0.0
  0
LINE
  5
A79
330
1E
100
AcDbEntity
  8
0
100
AcDbLine
 10
410.63
 20
636.7919999999998
 30
0.0
 11
411.9369999999998
 21
636.7919999999998
 31
0.0
  0
LINE
  5
A7A
330
1E
100
AcDbEntity
  8
0
100
AcDbLine
 10
412.979
 20
635.208
 30
0.0
 11
412.979
 21
636.7919999999998
 31
0.0
  0
LINE
  5
A7B
330
1E
100
AcDbEntity
  8
0
100
AcDbLine
 10
412.734
 20
635.208
 30
0.0
 11
412.979
 21
635.208
 31
0.0
  0
LINE
  5
A7C
330
1E
100
AcDbEntity
  8
0
100
AcDbLine
 10
411.7409999999998
 20
637.0
 30
0.0
 11
412.5239999999998
 21
637.0
 31
0.0
  0
LINE
  5
A7D
330
1E
100
AcDbEntity
  8
0
100
AcDbLine
 10
412.734
 20
636.7919999999998
 30
0.0
 11
412.979
 21
636.7919999999998
 31
0.0
  0
LINE
  5
A7E
330
1E
100
AcDbEntity
  8
0
100
AcDbLine
 10
412.5239999999998
 20
637.0
 30
0.0
 11
412.786
 21
637.0
 31
0.0
  0
LINE
  5
A7F
330
1E
100
AcDbEntity
  8
0
100
AcDbLine
 10
412.786
 20
637.0
 30
0.0
 11
412.979
 21
636.7919999999998
 31
0.0
  0
LINE
  5
A80
330
1E
100
AcDbEntity
  8
0
100
AcDbLine
 10
412.979
 20
636.7919999999998
 30
0.0
 11
412.979
 21
635.208
 31
0.0
  0
LINE
  5
A81
330
1E
100
AcDbEntity
  8
0
100
AcDbLine
 10
411.9369999999998
 20
636.7919999999998
 30
0.0
 11
412.734
 21
636.7919999999998
 31
0.0
  0
LINE
  5
A82
330
1E
100
AcDbEntity
  8
0
100
AcDbLine
 10
411.9369999999998
 20
635.208
 30
0.0
 11
412.734
 21
635.208
 31
0.0
  0
LINE
  5
A83
330
1E
100
AcDbEntity
  8
0
100
AcDbLine
 10
410.63
 20
635.208
 30
0.0
 11
411.9369999999998
 21
635.208
 31
0.0
  0
LINE
  5
A84
330
1E
100
AcDbEntity
  8
0
100
AcDbLine
 10
410.5199999999999
 20
635.0
 30
0.0
 11
411.742
 21
635.0
 31
0.0
  0
LINE
  5
A85
330
1E
100
AcDbEntity
  8
0
100
AcDbLine
 10
409.987
 20
637.0
 30
0.0
 11
409.987
 21
645.3769999999998
 31
0.0
  0
LINE
  5
A86
330
1E
100
AcDbEntity
  8
0
100
AcDbLine
 10
409.987
 20
645.3769999999998
 30
0.0
 11
409.987
 21
637.0
 31
0.0
  0
LINE
  5
A87
330
1E
100
AcDbEntity
  8
0
100
AcDbLine
 10
400.013
 20
637.0
 30
0.0
 11
400.013
 21
645.3769999999998
 31
0.0
  0
LINE
  5
A88
330
1E
100
AcDbEntity
  8
0
100
AcDbLine
 10
400.286
 20
646.0
 30
0.0
 11
400.7859999999998
 21
646.0
 31
0.0
  0
LINE
  5
A89
330
1E
100
AcDbEntity
  8
0
100
AcDbLine
 10
400.7859999999998
 20
646.0
 30
0.0
 11
401.55
 21
646.0
 31
0.0
  0
LINE
  5
A8A
330
1E
100
AcDbEntity
  8
0
100
AcDbLine
 10
401.55
 20
646.0
 30
0.0
 11
402.568
 21
646.0
 31
0.0
  0
LINE
  5
A8B
330
1E
100
AcDbEntity
  8
0
100
AcDbLine
 10
402.568
 20
646.0
 30
0.0
 11
403.755
 21
646.0
 31
0.0
  0
LINE
  5
A8C
330
1E
100
AcDbEntity
  8
0
100
AcDbLine
 10
409.703
 20
646.0
 30
0.0
 11
409.8659999999998
 21
646.0
 31
0.0
  0
LINE
  5
A8D
330
1E
100
AcDbEntity
  8
0
100
AcDbLine
 10
409.8659999999998
 20
646.0
 30
0.0
 11
409.987
 21
645.3769999999998
 31
0.0
  0
LINE
  5
A8E
330
1E
100
AcDbEntity
  8
0
100
AcDbLine
 10
409.213
 20
646.0
 30
0.0
 11
409.703
 21
646.0
 31
0.0
  0
LINE
  5
A8F
330
1E
100
AcDbEntity
  8
0
100
AcDbLine
 10
408.4299999999998
 20
646.0
 30
0.0
 11
409.213
 21
646.0
 31
0.0
  0
LINE
  5
A90
330
1E
100
AcDbEntity
  8
0
100
AcDbLine
 10
407.434
 20
646.0
 30
0.0
 11
408.4299999999998
 21
646.0
 31
0.0
  0
LINE
  5
A91
330
1E
100
AcDbEntity
  8
0
100
AcDbLine
 10
406.263
 20
646.0
 30
0.0
 11
407.434
 21
646.0
 31
0.0
  0
LINE
  5
A92
330
1E
100
AcDbEntity
  8
0
100
AcDbLine
 10
403.755
 20
646.0
 30
0.0
 11
404.999
 21
646.0
 31
0.0
  0
LINE
  5
A93
330
1E
100
AcDbEntity
  8
0
100
AcDbLine
 10
404.999
 20
646.0
 30
0.0
 11
406.263
 21
646.0
 31
0.0
  0
LINE
  5
A94
330
1E
100
AcDbEntity
  8
0
100
AcDbLine
 10
400.1339999999998
 20
646.0
 30
0.0
 11
400.286
 21
646.0
 31
0.0
  0
LINE
  5
A95
330
1E
100
AcDbEntity
  8
0
100
AcDbLine
 10
400.013
 20
645.3769999999998
 30
0.0
 11
400.1339999999998
 21
646.0
 31
0.0
  0
LINE
  5
A96
330
1E
100
AcDbEntity
  8
0
100
AcDbLine
 10
400.013
 20
645.3769999999998
 30
0.0
 11
400.013
 21
637.0
 31
0.0
  0
LINE
  5
A97
330
1E
100
AcDbEntity
  8
0
100
AcDbLine
 10
312.0
 20
610.0
 30
0.0
 11
312.0
 21
605.0
 31
0.0
  0
LINE
  5
A98
330
1E
100
AcDbEntity
  8
0
100
AcDbLine
 10
507.4399999999998
 20
605.0
 30
0.0
 11
515.0
 21
605.0
 31
0.0
  0
LINE
  5
A99
330
1E
100
AcDbEntity
  8
0
100
AcDbLine
 10
522.5599999999998
 20
605.0
 30
0.0
 11
544.28
 21
605.0
 31
0.0
  0
LINE
  5
A9A
330
1E
100
AcDbEntity
  8
0
100
AcDbLine
 10
515.0
 20
605.0
 30
0.0
 11
522.5599999999998
 21
605.0
 31
0.0
  0
LINE
  5
A9B
330
1E
100
AcDbEntity
  8
0
100
AcDbLine
 10
485.0
 20
604.6789999999998
 30
0.0
 11
485.72
 21
605.0
 31
0.0
  0
LINE
  5
A9C
330
1E
100
AcDbEntity
  8
0
100
AcDbLine
 10
485.0
 20
604.6789999999998
 30
0.0
 11
485.0
 21
602.321
 31
0.0
  0
LINE
  5
A9D
330
1E
100
AcDbEntity
  8
0
100
AcDbLine
 10
485.0
 20
604.6789999999998
 30
0.0
 11
486.08
 21
604.6789999999998
 31
0.0
  0
LINE
  5
A9E
330
1E
100
AcDbEntity
  8
0
100
AcDbLine
 10
545.0
 20
600.214
 30
0.0
 11
545.0
 21
601.7859999999998
 31
0.0
  0
LINE
  5
A9F
330
1E
100
AcDbEntity
  8
0
100
AcDbLine
 10
545.0
 20
601.7859999999998
 30
0.0
 11
545.0
 21
600.214
 31
0.0
  0
LINE
  5
AA0
330
1E
100
AcDbEntity
  8
0
100
AcDbLine
 10
544.768
 20
580.0
 30
0.0
 11
545.4880000000001
 21
580.0
 31
0.0
  0
LINE
  5
AA1
330
1E
100
AcDbEntity
  8
0
100
AcDbLine
 10
545.0239999999999
 20
555.0
 30
0.0
 11
545.984
 21
555.0
 31
0.0
  0
LINE
  5
AA2
330
1E
100
AcDbEntity
  8
0
100
AcDbLine
 10
545.0239999999999
 20
560.0
 30
0.0
 11
545.984
 21
560.0
 31
0.0
  0
LINE
  5
AA3
330
1E
100
AcDbEntity
  8
0
100
AcDbLine
 10
545.984
 20
560.0
 30
0.0
 11
546.832
 21
560.0
 31
0.0
  0
LINE
  5
AA4
330
1E
100
AcDbEntity
  8
0
100
AcDbLine
 10
546.832
 20
560.0
 30
0.0
 11
547.4719999999998
 21
560.0
 31
0.0
  0
LINE
  5
AA5
330
1E
100
AcDbEntity
  8
0
100
AcDbLine
 10
545.984
 20
555.0
 30
0.0
 11
546.832
 21
555.0
 31
0.0
  0
LINE
  5
AA6
330
1E
100
AcDbEntity
  8
0
100
AcDbLine
 10
546.832
 20
555.0
 30
0.0
 11
547.4719999999998
 21
555.0
 31
0.0
  0
LINE
  5
AA7
330
1E
100
AcDbEntity
  8
0
100
AcDbLine
 10
545.547
 20
560.0
 30
0.0
 11
546.891
 21
560.0
 31
0.0
  0
LINE
  5
AA8
330
1E
100
AcDbEntity
  8
0
100
AcDbLine
 10
551.0
 20
450.0
 30
0.0
 11
551.0
 21
550.0
 31
0.0
  0
LINE
  5
AA9
330
1E
100
AcDbEntity
  8
0
100
AcDbLine
 10
551.0
 20
250.0
 30
0.0
 11
700.0
 21
50.0
 31
0.0
  0
LINE
  5
AAA
330
1E
100
AcDbEntity
  8
0
100
AcDbLine
 10
551.0
 20
550.0
 30
0.0
 11
551.0
 21
450.0
 31
0.0
  0
LINE
  5
AAB
330
1E
100
AcDbEntity
  8
0
100
AcDbLine
 10
551.0
 20
550.0
 30
0.0
 11
551.0
 21
250.0
 31
0.0
  0
LINE
  5
AAC
330
1E
100
AcDbEntity
  8
0
100
AcDbLine
 10
551.0
 20
250.0
 30
0.0
 11
551.0
 21
450.0
 31
0.0
  0
LINE
  5
AAD
330
1E
100
AcDbEntity
  8
0
100
AcDbLine
 10
551.0
 20
250.0
 30
0.0
 11
700.0
 21
50.0
 31
0.0
  0
LINE
  5
AAE
330
1E
100
AcDbEntity
  8
0
100
AcDbLine
 10
700.0
 20
50.0
 30
0.0
 11
700.0
 21
-0.0000000000000179
 31
0.0
  0
LINE
  5
AAF
330
1E
100
AcDbEntity
  8
0
100
AcDbLine
 10
700.0
 20
-0.0000000000000184
 30
0.0
 11
700.0
 21
50.0
 31
0.0
  0
LINE
  5
AB0
330
1E
100
AcDbEntity
  8
0
100
AcDbLine
 10
548.0
 20
555.0
 30
0.0
 11
548.0
 21
560.0
 31
0.0
  0
LINE
  5
AB1
330
1E
100
AcDbEntity
  8
0
100
AcDbLine
 10
547.4719999999998
 20
555.0
 30
0.0
 11
547.8559999999998
 21
555.0
 31
0.0
  0
LINE
  5
AB2
330
1E
100
AcDbEntity
  8
0
100
AcDbLine
 10
547.4719999999998
 20
560.0
 30
0.0
 11
547.8559999999998
 21
560.0
 31
0.0
  0
LINE
  5
AB3
330
1E
100
AcDbEntity
  8
0
100
AcDbLine
 10
547.8559999999998
 20
560.0
 30
0.0
 11
548.0
 21
560.0
 31
0.0
  0
LINE
  5
AB4
330
1E
100
AcDbEntity
  8
0
100
AcDbLine
 10
548.0
 20
560.0
 30
0.0
 11
548.0
 21
555.0
 31
0.0
  0
LINE
  5
AB5
330
1E
100
AcDbEntity
  8
0
100
AcDbLine
 10
547.8559999999998
 20
555.0
 30
0.0
 11
548.0
 21
555.0
 31
0.0
  0
LINE
  5
AB6
330
1E
100
AcDbEntity
  8
0
100
AcDbLine
 10
546.891
 20
560.0
 30
0.0
 11
547.698
 21
560.0
 31
0.0
  0
LINE
  5
AB7
330
1E
100
AcDbEntity
  8
0
100
AcDbLine
 10
545.547
 20
565.0
 30
0.0
 11
546.891
 21
565.0
 31
0.0
  0
LINE
  5
AB8
330
1E
100
AcDbEntity
  8
0
100
AcDbLine
 10
547.0
 20
565.0
 30
0.0
 11
547.0
 21
580.0
 31
0.0
  0
LINE
  5
AB9
330
1E
100
AcDbEntity
  8
0
100
AcDbLine
 10
546.891
 20
565.0
 30
0.0
 11
547.698
 21
565.0
 31
0.0
  0
LINE
  5
ABA
330
1E
100
AcDbEntity
  8
0
100
AcDbLine
 10
545.4880000000001
 20
580.0
 30
0.0
 11
546.124
 21
580.0
 31
0.0
  0
LINE
  5
ABB
330
1E
100
AcDbEntity
  8
0
100
AcDbLine
 10
546.124
 20
580.0
 30
0.0
 11
546.604
 21
580.0
 31
0.0
  0
LINE
  5
ABC
330
1E
100
AcDbEntity
  8
0
100
AcDbLine
 10
546.604
 20
580.0
 30
0.0
 11
546.8919999999998
 21
580.0
 31
0.0
  0
LINE
  5
ABD
330
1E
100
AcDbEntity
  8
0
100
AcDbLine
 10
546.8919999999998
 20
580.0
 30
0.0
 11
547.0
 21
580.0
 31
0.0
  0
LINE
  5
ABE
330
1E
100
AcDbEntity
  8
0
100
AcDbLine
 10
547.0
 20
580.0
 30
0.0
 11
547.0
 21
565.0
 31
0.0
  0
LINE
  5
ABF
330
1E
100
AcDbEntity
  8
0
100
AcDbLine
 10
547.698
 20
565.0
 30
0.0
 11
548.0
 21
565.0
 31
0.0
  0
LINE
  5
AC0
330
1E
100
AcDbEntity
  8
0
100
AcDbLine
 10
548.0
 20
565.0
 30
0.0
 11
548.0
 21
560.0
 31
0.0
  0
LINE
  5
AC1
330
1E
100
AcDbEntity
  8
0
100
AcDbLine
 10
547.698
 20
560.0
 30
0.0
 11
548.0
 21
560.0
 31
0.0
  0
LINE
  5
AC2
330
1E
100
AcDbEntity
  8
0
100
AcDbLine
 10
545.0
 20
602.321
 30
0.0
 11
545.0
 21
604.6789999999998
 31
0.0
  0
LINE
  5
AC3
330
1E
100
AcDbEntity
  8
0
100
AcDbLine
 10
545.0
 20
604.6789999999998
 30
0.0
 11
545.0
 21
602.321
 31
0.0
  0
LINE
  5
AC4
330
1E
100
AcDbEntity
  8
0
100
AcDbLine
 10
544.28
 20
605.0
 30
0.0
 11
545.0
 21
604.6789999999998
 31
0.0
  0
LINE
  5
AD3
330
1E
100
AcDbEntity
  8
0
100
AcDbLine
 10
258.9208766901029
 20
500.464
 30
0.0
 11
258.604291410445
 21
502.4039810392726
 31
0.0
  0
LINE
  5
AD4
330
1E
100
AcDbEntity
  8
0
100
AcDbLine
 10
258.604291410445
 20
502.4039810392726
 30
0.0
 11
257.9845480656213
 21
504.3209633215533
 31
0.0
  0
LINE
  5
AD5
330
1E
100
AcDbEntity
  8
0
100
AcDbLine
 10
257.9845480656213
 20
504.3209633215533
 30
0.0
 11
257.5799914529909
 21
505.0
 31
0.0
  0
LINE
  5
AD6
330
1E
100
AcDbEntity
  8
0
100
AcDbLine
 10
257.5753361064889
 20
487.0
 30
0.0
 11
258.2206412183586
 21
488.5722181573176
 31
0.0
  0
LINE
  5
AD7
330
1E
100
AcDbEntity
  8
0
100
AcDbLine
 10
258.2206412183586
 20
488.5722181573176
 30
0.0
 11
258.7518515994251
 21
490.2827554709772
 31
0.0
  0
LINE
  5
AD8
330
1E
100
AcDbEntity
  8
0
100
AcDbLine
 10
258.7518515994251
 20
490.2827554709772
 30
0.0
 11
258.92363785558
 21
491.5359999999998
 31
0.0
  0
LINE
  5
AD9
330
1E
100
AcDbEntity
  8
0
100
AcDbLine
 10
184.842
 20
484.0
 30
0.0
 11
184.842
 21
504.0
 31
0.0
  0
LINE
  5
ADA
330
1E
100
AcDbEntity
  8
0
100
AcDbLine
 10
149.0
 20
250.0
 30
0.0
 11
551.0
 21
250.0
 31
0.0
  0
LINE
  5
ADB
330
1E
100
AcDbEntity
  8
0
100
AcDbLine
 10
0.0000000000000003
 20
50.0
 30
0.0
 11
700.0
 21
50.0
 31
0.0
  0
ENDSEC
  0
SECTION
  2
OBJECTS
  0
DICTIONARY
  5
C
330
0
100
AcDbDictionary
281
     1
  3
ACAD_GROUP
350
D
  3
ACAD_LAYOUT
350
19
  3
ACAD_MLINESTYLE
350
16
  3
ACAD_PLOTSETTINGS
350
18
  3
ACAD_PLOTSTYLENAME
350
E
  3
AcDbVariableDictionary
350
AC9
  0
DICTIONARY
  5
D
102
{ACAD_REACTORS
330
C
102
}
330
C
100
AcDbDictionary
281
     1
  0
DICTIONARY
  5
19
102
{ACAD_REACTORS
330
C
102
}
330
C
100
AcDbDictionary
281
     1
  3
Layout1
350
1D
  3
Model
350
21
  0
DICTIONARY
  5
16
102
{ACAD_REACTORS
330
C
102
}
330
C
100
AcDbDictionary
281
     1
  3
Standard
350
17
  0
DICTIONARY
  5
18
102
{ACAD_REACTORS
330
C
102
}
330
C
100
AcDbDictionary
281
     1
  0
ACDBDICTIONARYWDFLT
  5
E
102
{ACAD_REACTORS
330
C
102
}
330
C
100
AcDbDictionary
281
     1
  3
Normal
350
F
100
AcDbDictionaryWithDefault
340
F
  0
DICTIONARY
  5
AC9
102
{ACAD_REACTORS
330
C
102
}
330
C
100
AcDbDictionary
281
     1
  3
DIMASSOC
350
ACA
  0
LAYOUT
  5
1D
102
{ACAD_REACTORS
330
19
102
}
330
19
100
AcDbPlotSettings
  1

  2
hp deskjet 980c series
  4

  6

 40
0.0
 41
0.0
 42
0.0
 43
0.0
 44
0.0
 45
0.0
 46
0.0
 47
0.0
 48
0.0
 49
0.0
140
0.0
141
0.0
142
1.0
143
1.0
 70
   688
 72
     0
 73
     0
 74
     5
  7

 75
    16
147
1.0
148
0.0
149
0.0
100
AcDbLayout
  1
Layout1
 70
     1
 71
     1
 10
0.0
 20
0.0
 11
12.0
 21
9.0
 12
0.0
 22
0.0
 32
0.0
 14
1.000000000000000E+20
 24
1.000000000000000E+20
 34
1.000000000000000E+20
 15
-1.000000000000000E+20
 25
-1.000000000000000E+20
 35
-1.000000000000000E+20
146
0.0
 13
0.0
 23
0.0
 33
0.0
 16
1.0
 26
0.0
 36
0.0
 17
0.0
 27
1.0
 37
0.0
 76
     0
330
1A
  0
LAYOUT
  5
21
102
{ACAD_REACTORS
330
19
102
}
330
19
100
AcDbPlotSettings
  1

  2
hp deskjet 980c series
  4

  6

 40
0.0
 41
0.0
 42
0.0
 43
0.0
 44
0.0
 45
0.0
 46
0.0
 47
0.0
 48
0.0
 49
0.0
140
0.0
141
0.0
142
1.0
143
1.0
 70
  1712
 72
     0
 73
     0
 74
     0
  7

 75
     0
147
1.0
148
0.0
149
0.0
100
AcDbLayout
  1
Model
 70
     1
 71
     0
 10
0.0
 20
0.0
 11
12.0
 21
9.0
 12
0.0
 22
0.0
 32
0.0
 14
0.0
 24
0.0
 34
0.0
 15
0.0
 25
0.0
 35
0.0
146
0.0
 13
0.0
 23
0.0
 33
0.0
 16
1.0
 26
0.0
 36
0.0
 17
0.0
 27
1.0
 37
0.0
 76
     0
330
1E
  0
MLINESTYLE
  5
17
102
{ACAD_REACTORS
330
16
102
}
330
16
100
AcDbMlineStyle
  2
STANDARD
 70
     0
  3

 62
   256
 51
90.0
 52
90.0
 71
     2
 49
0.5
 62
   256
  6
BYLAYER
 49
-0.5
 62
   256
  6
BYLAYER
  0
ACDBPLACEHOLDER
  5
F
102
{ACAD_REACTORS
330
E
102
}
330
E
  0
DICTIONARYVAR
  5
ACA
102
{ACAD_REACTORS
330
AC9
102
}
330
AC9
100
DictionaryVariables
280
     0
  1
1
  0
ENDSEC
  0
EOF
