  0
SECTION
  2
HEADER
  9
$ACADVER
  1
AC1015
  9
$ACADMAINTVER
 70
    13
  9
$DWGCODEPAGE
  3
ANSI_1252
  9
$INSBASE
 10
0.0
 20
0.0
 30
0.0
  9
$EXTMIN
 10
-0.147274999999974
 20
-0.0000000000000113
 30
0.0
  9
$EXTMAX
 10
425.1472749999999
 20
559.0
 30
0.0
  9
$LIMMIN
 10
0.0
 20
0.0
  9
$LIMMAX
 10
12.0
 20
9.0
  9
$ORTHOMODE
 70
     0
  9
$REGENMODE
 70
     1
  9
$FILLMODE
 70
     1
  9
$QTEXTMODE
 70
     0
  9
$MIRRTEXT
 70
     1
  9
$LTSCALE
 40
1.0
  9
$ATTMODE
 70
     1
  9
$TEXTSIZE
 40
0.2
  9
$TRACEWID
 40
0.05
  9
$TEXTSTYLE
  7
Standard
  9
$CLAYER
  8
0
  9
$CELTYPE
  6
Continuous
  9
$CECOLOR
 62
   256
  9
$CELTSCALE
 40
1.0
  9
$DISPSILH
 70
     0
  9
$DIMSCALE
 40
1.0
  9
$DIMASZ
 40
0.18
  9
$DIMEXO
 40
0.0625
  9
$DIMDLI
 40
0.38
  9
$DIMRND
 40
0.0
  9
$DIMDLE
 40
0.0
  9
$DIMEXE
 40
0.18
  9
$DIMTP
 40
0.0
  9
$DIMTM
 40
0.0
  9
$DIMTXT
 40
0.18
  9
$DIMCEN
 40
0.09
  9
$DIMTSZ
 40
0.0
  9
$DIMTOL
 70
     0
  9
$DIMLIM
 70
     0
  9
$DIMTIH
 70
     1
  9
$DIMTOH
 70
     1
  9
$DIMSE1
 70
     0
  9
$DIMSE2
 70
     0
  9
$DIMTAD
 70
     0
  9
$DIMZIN
 70
     0
  9
$DIMBLK
  1

  9
$DIMASO
 70
     1
  9
$DIMSHO
 70
     1
  9
$DIMPOST
  1

  9
$DIMAPOST
  1

  9
$DIMALT
 70
     0
  9
$DIMALTD
 70
     2
  9
$DIMALTF
 40
25.4
  9
$DIMLFAC
 40
1.0
  9
$DIMTOFL
 70
     0
  9
$DIMTVP
 40
0.0
  9
$DIMTIX
 70
     0
  9
$DIMSOXD
 70
     0
  9
$DIMSAH
 70
     0
  9
$DIMBLK1
  1

  9
$DIMBLK2
  1

  9
$DIMSTYLE
  2
Standard
  9
$DIMCLRD
 70
     0
  9
$DIMCLRE
 70
     0
  9
$DIMCLRT
 70
     0
  9
$DIMTFAC
 40
1.0
  9
$DIMGAP
 40
0.09
  9
$DIMJUST
 70
     0
  9
$DIMSD1
 70
     0
  9
$DIMSD2
 70
     0
  9
$DIMTOLJ
 70
     1
  9
$DIMTZIN
 70
     0
  9
$DIMALTZ
 70
     0
  9
$DIMALTTZ
 70
     0
  9
$DIMUPT
 70
     0
  9
$DIMDEC
 70
     4
  9
$DIMTDEC
 70
     4
  9
$DIMALTU
 70
     2
  9
$DIMALTTD
 70
     2
  9
$DIMTXSTY
  7
Standard
  9
$DIMAUNIT
 70
     0
  9
$DIMADEC
 70
     0
  9
$DIMALTRND
 40
0.0
  9
$DIMAZIN
 70
     0
  9
$DIMDSEP
 70
    46
  9
$DIMATFIT
 70
     3
  9
$DIMFRAC
 70
     0
  9
$DIMLDRBLK
  1

  9
$DIMLUNIT
 70
     2
  9
$DIMLWD
 70
    -2
  9
$DIMLWE
 70
    -2
  9
$DIMTMOVE
 70
     0
  9
$LUNITS
 70
     2
  9
$LUPREC
 70
     4
  9
$SKETCHINC
 40
0.1
  9
$FILLETRAD
 40
0.0
  9
$AUNITS
 70
     0
  9
$AUPREC
 70
     0
  9
$MENU
  1
.
  9
$ELEVATION
 40
0.0
  9
$PELEVATION
 40
0.0
  9
$THICKNESS
 40
0.0
  9
$LIMCHECK
 70
     0
  9
$CHAMFERA
 40
0.0
  9
$CHAMFERB
 40
0.0
  9
$CHAMFERC
 40
0.0
  9
$CHAMFERD
 40
0.0
  9
$SKPOLY
 70
     0
  9
$TDCREATE
 40
2454636.784219826
  9
$TDUCREATE
 40
2454636.700886493
  9
$TDUPDATE
 40
2454636.788845845
  9
$TDUUPDATE
 40
2454636.705512511
  9
$TDINDWG
 40
0.0046261921
  9
$TDUSRTIMER
 40
0.0046261921
  9
$USRTIMER
 70
     1
  9
$ANGBASE
 50
0.0
  9
$ANGDIR
 70
     0
  9
$PDMODE
 70
     0
  9
$PDSIZE
 40
0.0
  9
$PLINEWID
 40
0.0
  9
$SPLFRAME
 70
     0
  9
$SPLINETYPE
 70
     6
  9
$SPLINESEGS
 70
     8
  9
$HANDSEED
  5
2D4
  9
$SURFTAB1
 70
     6
  9
$SURFTAB2
 70
     6
  9
$SURFTYPE
 70
     6
  9
$SURFU
 70
     6
  9
$SURFV
 70
     6
  9
$UCSBASE
  2

  9
$UCSNAME
  2

  9
$UCSORG
 10
0.0
 20
0.0
 30
0.0
  9
$UCSXDIR
 10
1.0
 20
0.0
 30
0.0
  9
$UCSYDIR
 10
0.0
 20
1.0
 30
0.0
  9
$UCSORTHOREF
  2

  9
$UCSORTHOVIEW
 70
     1
  9
$UCSORGTOP
 10
0.0
 20
0.0
 30
0.0
  9
$UCSORGBOTTOM
 10
0.0
 20
0.0
 30
0.0
  9
$UCSORGLEFT
 10
0.0
 20
0.0
 30
0.0
  9
$UCSORGRIGHT
 10
0.0
 20
0.0
 30
0.0
  9
$UCSORGFRONT
 10
0.0
 20
0.0
 30
0.0
  9
$UCSORGBACK
 10
0.0
 20
0.0
 30
0.0
  9
$PUCSBASE
  2

  9
$PUCSNAME
  2

  9
$PUCSORG
 10
0.0
 20
0.0
 30
0.0
  9
$PUCSXDIR
 10
1.0
 20
0.0
 30
0.0
  9
$PUCSYDIR
 10
0.0
 20
1.0
 30
0.0
  9
$PUCSORTHOREF
  2

  9
$PUCSORTHOVIEW
 70
     0
  9
$PUCSORGTOP
 10
0.0
 20
0.0
 30
0.0
  9
$PUCSORGBOTTOM
 10
0.0
 20
0.0
 30
0.0
  9
$PUCSORGLEFT
 10
0.0
 20
0.0
 30
0.0
  9
$PUCSORGRIGHT
 10
0.0
 20
0.0
 30
0.0
  9
$PUCSORGFRONT
 10
0.0
 20
0.0
 30
0.0
  9
$PUCSORGBACK
 10
0.0
 20
0.0
 30
0.0
  9
$USERI1
 70
     0
  9
$USERI2
 70
     0
  9
$USERI3
 70
     0
  9
$USERI4
 70
     0
  9
$USERI5
 70
     0
  9
$USERR1
 40
0.0
  9
$USERR2
 40
0.0
  9
$USERR3
 40
0.0
  9
$USERR4
 40
0.0
  9
$USERR5
 40
0.0
  9
$WORLDVIEW
 70
     1
  9
$SHADEDGE
 70
     3
  9
$SHADEDIF
 70
    70
  9
$TILEMODE
 70
     1
  9
$MAXACTVP
 70
    64
  9
$PINSBASE
 10
0.0
 20
0.0
 30
0.0
  9
$PLIMCHECK
 70
     0
  9
$PEXTMIN
 10
1.000000000000000E+20
 20
1.000000000000000E+20
 30
1.000000000000000E+20
  9
$PEXTMAX
 10
-1.000000000000000E+20
 20
-1.000000000000000E+20
 30
-1.000000000000000E+20
  9
$PLIMMIN
 10
0.0
 20
0.0
  9
$PLIMMAX
 10
12.0
 20
9.0
  9
$UNITMODE
 70
     0
  9
$VISRETAIN
 70
     1
  9
$PLINEGEN
 70
     0
  9
$PSLTSCALE
 70
     1
  9
$TREEDEPTH
 70
  3020
  9
$CMLSTYLE
  2
Standard
  9
$CMLJUST
 70
     0
  9
$CMLSCALE
 40
1.0
  9
$PROXYGRAPHICS
 70
     1
  9
$MEASUREMENT
 70
     0
  9
$CELWEIGHT
370
    -1
  9
$ENDCAPS
280
     0
  9
$JOINSTYLE
280
     0
  9
$LWDISPLAY
290
     0
  9
$INSUNITS
 70
     0
  9
$HYPERLINKBASE
  1

  9
$STYLESHEET
  1

  9
$XEDIT
290
     1
  9
$CEPSNTYPE
380
     0
  9
$PSTYLEMODE
290
     1
  9
$FINGERPRINTGUID
  2
{4F195AF8-5354-451D-A44C-8EA48105E369}
  9
$VERSIONGUID
  2
{4CC79DB4-DE9E-4659-A29E-F59B6471D476}
  9
$EXTNAMES
290
     1
  9
$PSVPSCALE
 40
0.0
  9
$OLESTARTUP
290
     0
  0
ENDSEC
  0
SECTION
  2
CLASSES
  0
CLASS
  1
ACDBDICTIONARYWDFLT
  2
AcDbDictionaryWithDefault
  3
AutoCAD 2000
 90
        0
280
     0
281
     0
  0
CLASS
  1
ACDBPLACEHOLDER
  2
AcDbPlaceHolder
  3
AutoCAD 2000
 90
        0
280
     0
281
     0
  0
CLASS
  1
LAYOUT
  2
AcDbLayout
  3
AutoCAD 2000
 90
        0
280
     0
281
     0
  0
CLASS
  1
DICTIONARYVAR
  2
AcDbDictionaryVar
  3
AutoCAD 2000
 90
        0
280
     0
281
     0
  0
ENDSEC
  0
SECTION
  2
TABLES
  0
TABLE
  2
VPORT
  5
8
330
0
100
AcDbSymbolTable
 70
     2
  0
VPORT
  5
2D3
330
8
100
AcDbSymbolTableRecord
100
AcDbViewportTableRecord
  2
*Active
 70
     0
 10
0.0
 20
0.0
 11
1.0
 21
1.0
 12
212.5
 22
279.4999999999999
 13
0.0
 23
0.0
 14
1.0
 24
1.0
 15
0.0
 25
0.0
 16
0.0
 26
0.0
 36
1.0
 17
0.0
 27
0.0
 37
0.0
 40
563.2890025575448
 41
2.043533930857874
 42
50.0
 43
0.0
 44
0.0
 50
0.0
 51
0.0
 71
     0
 72
   100
 73
     1
 74
     3
 75
     0
 76
     0
 77
     0
 78
     0
281
     0
 65
     1
110
0.0
120
0.0
130
0.0
111
1.0
121
0.0
131
0.0
112
0.0
122
1.0
132
0.0
 79
     1
146
0.0
  0
ENDTAB
  0
TABLE
  2
LTYPE
  5
5
330
0
100
AcDbSymbolTable
 70
     1
  0
LTYPE
  5
13
330
5
100
AcDbSymbolTableRecord
100
AcDbLinetypeTableRecord
  2
ByBlock
 70
     0
  3

 72
    65
 73
     0
 40
0.0
  0
LTYPE
  5
14
330
5
100
AcDbSymbolTableRecord
100
AcDbLinetypeTableRecord
  2
ByLayer
 70
     0
  3

 72
    65
 73
     0
 40
0.0
  0
LTYPE
  5
15
330
5
100
AcDbSymbolTableRecord
100
AcDbLinetypeTableRecord
  2
Continuous
 70
     0
  3
Solid line
 72
    65
 73
     0
 40
0.0
  0
ENDTAB
  0
TABLE
  2
LAYER
  5
2
330
0
100
AcDbSymbolTable
 70
     1
  0
LAYER
  5
10
330
2
100
AcDbSymbolTableRecord
100
AcDbLayerTableRecord
  2
0
 70
     0
 62
     7
  6
Continuous
370
    -3
390
F
  0
ENDTAB
  0
TABLE
  2
STYLE
  5
3
330
0
100
AcDbSymbolTable
 70
     1
  0
STYLE
  5
11
330
3
100
AcDbSymbolTableRecord
100
AcDbTextStyleTableRecord
  2
Standard
 70
     0
 40
0.0
 41
1.0
 50
0.0
 71
     0
 42
0.2
  3
txt
  4

  0
ENDTAB
  0
TABLE
  2
VIEW
  5
6
330
0
100
AcDbSymbolTable
 70
     0
  0
ENDTAB
  0
TABLE
  2
UCS
  5
7
330
0
100
AcDbSymbolTable
 70
     0
  0
ENDTAB
  0
TABLE
  2
APPID
  5
9
330
0
100
AcDbSymbolTable
 70
     1
  0
APPID
  5
12
330
9
100
AcDbSymbolTableRecord
100
AcDbRegAppTableRecord
  2
ACAD
 70
     0
  0
ENDTAB
  0
TABLE
  2
DIMSTYLE
  5
A
330
0
100
AcDbSymbolTable
 70
     1
100
AcDbDimStyleTable
 71
     0
  0
DIMSTYLE
105
2CA
330
A
100
AcDbSymbolTableRecord
100
AcDbDimStyleTableRecord
  2
Standard
 70
     0
340
11
  0
ENDTAB
  0
TABLE
  2
BLOCK_RECORD
  5
1
330
0
100
AcDbSymbolTable
 70
     0
  0
BLOCK_RECORD
  5
1E
330
1
100
AcDbSymbolTableRecord
100
AcDbBlockTableRecord
  2
*Model_Space
340
21
  0
BLOCK_RECORD
  5
1A
330
1
100
AcDbSymbolTableRecord
100
AcDbBlockTableRecord
  2
*Paper_Space
340
1D
  0
ENDTAB
  0
ENDSEC
  0
SECTION
  2
BLOCKS
  0
BLOCK
  5
1F
330
1E
100
AcDbEntity
  8
0
100
AcDbBlockBegin
  2
*Model_Space
 70
     0
 10
0.0
 20
0.0
 30
0.0
  3
*Model_Space
  1

  0
ENDBLK
  5
20
330
1E
100
AcDbEntity
  8
0
100
AcDbBlockEnd
  0
BLOCK
  5
1B
330
1A
100
AcDbEntity
 67
     1
  8
0
100
AcDbBlockBegin
  2
*Paper_Space
 70
     0
 10
0.0
 20
0.0
 30
0.0
  3
*Paper_Space
  1

  0
ENDBLK
  5
1C
330
1A
100
AcDbEntity
 67
     1
  8
0
100
AcDbBlockEnd
  0
ENDSEC
  0
SECTION
  2
ENTITIES
  0
LINE
  5
22
330
1E
100
AcDbEntity
  8
0
100
AcDbLine
 10
10.752775
 20
434.0
 30
0.0
 11
13.152775
 21
434.0
 31
0.0
  0
LINE
  5
23
330
1E
100
AcDbEntity
  8
0
100
AcDbLine
 10
9.852775000000029
 20
434.0
 30
0.0
 11
9.852775000000029
 21
471.0
 31
0.0
  0
LINE
  5
24
330
1E
100
AcDbEntity
  8
0
100
AcDbLine
 10
9.852775000000029
 20
434.0
 30
0.0
 11
10.752775
 21
434.0
 31
0.0
  0
LINE
  5
25
330
1E
100
AcDbEntity
  8
0
100
AcDbLine
 10
9.852775000000029
 20
434.0
 30
0.0
 11
10.85277499999999
 21
433.0
 31
0.0
  0
LINE
  5
26
330
1E
100
AcDbEntity
  8
0
100
AcDbLine
 10
11.75277499999999
 20
433.0
 30
0.0
 11
14.052775
 21
433.0
 31
0.0
  0
LINE
  5
27
330
1E
100
AcDbEntity
  8
0
100
AcDbLine
 10
10.85277499999999
 20
433.0
 30
0.0
 11
11.75277499999999
 21
433.0
 31
0.0
  0
LINE
  5
28
330
1E
100
AcDbEntity
  8
0
100
AcDbLine
 10
10.85277499999999
 20
433.0
 30
0.0
 11
15.352775
 21
432.5
 31
0.0
  0
LINE
  5
29
330
1E
100
AcDbEntity
  8
0
100
AcDbLine
 10
13.152775
 20
434.0
 30
0.0
 11
17.25277499999999
 21
434.0
 31
0.0
  0
LINE
  5
2A
330
1E
100
AcDbEntity
  8
0
100
AcDbLine
 10
16.052775
 20
432.5
 30
0.0
 11
17.952775
 21
432.5
 31
0.0
  0
LINE
  5
2B
330
1E
100
AcDbEntity
  8
0
100
AcDbLine
 10
15.352775
 20
432.5
 30
0.0
 11
16.052775
 21
432.5
 31
0.0
  0
LINE
  5
2C
330
1E
100
AcDbEntity
  8
0
100
AcDbLine
 10
14.052775
 20
433.0
 30
0.0
 11
17.952775
 21
433.0
 31
0.0
  0
LINE
  5
2D
330
1E
100
AcDbEntity
  8
0
100
AcDbLine
 10
17.25277499999999
 20
434.0
 30
0.0
 11
22.45277499999999
 21
434.0
 31
0.0
  0
LINE
  5
2E
330
1E
100
AcDbEntity
  8
0
100
AcDbLine
 10
17.852775
 20
431.5
 30
0.0
 11
17.852775
 21
427.5
 31
0.0
  0
LINE
  5
2F
330
1E
100
AcDbEntity
  8
0
100
AcDbLine
 10
17.852775
 20
431.5
 30
0.0
 11
18.352775
 21
431.5
 31
0.0
  0
LINE
  5
30
330
1E
100
AcDbEntity
  8
0
100
AcDbLine
 10
17.852775
 20
431.5
 30
0.0
 11
18.352775
 21
432.0
 31
0.0
  0
LINE
  5
31
330
1E
100
AcDbEntity
  8
0
100
AcDbLine
 10
17.852775
 20
427.5
 30
0.0
 11
18.352775
 21
427.0
 31
0.0
  0
LINE
  5
32
330
1E
100
AcDbEntity
  8
0
100
AcDbLine
 10
17.852775
 20
427.5
 30
0.0
 11
18.352775
 21
427.5
 31
0.0
  0
LINE
  5
33
330
1E
100
AcDbEntity
  8
0
100
AcDbLine
 10
17.852775
 20
427.5
 30
0.0
 11
17.852775
 21
431.5
 31
0.0
  0
LINE
  5
34
330
1E
100
AcDbEntity
  8
0
100
AcDbLine
 10
17.952775
 20
432.5
 30
0.0
 11
19.852775
 21
432.5
 31
0.0
  0
LINE
  5
35
330
1E
100
AcDbEntity
  8
0
100
AcDbLine
 10
20.647275
 20
90.0
 30
0.0
 11
23.84727499999999
 21
112.9
 31
0.0
  0
LINE
  5
36
330
1E
100
AcDbEntity
  8
0
100
AcDbLine
 10
20.647275
 20
90.0
 30
0.0
 11
23.84727499999999
 21
67.09999999999999
 31
0.0
  0
LINE
  5
37
330
1E
100
AcDbEntity
  8
0
100
AcDbLine
 10
19.647275
 20
90.0
 30
0.0
 11
22.947275
 21
113.1
 31
0.0
  0
LINE
  5
38
330
1E
100
AcDbEntity
  8
0
100
AcDbLine
 10
19.647275
 20
90.0
 30
0.0
 11
22.947275
 21
66.90000000000001
 31
0.0
  0
LINE
  5
39
330
1E
100
AcDbEntity
  8
0
100
AcDbLine
 10
18.352775
 20
427.0
 30
0.0
 11
51.352775
 21
427.0
 31
0.0
  0
LINE
  5
3A
330
1E
100
AcDbEntity
  8
0
100
AcDbLine
 10
18.352775
 20
432.0
 30
0.0
 11
51.352775
 21
432.0
 31
0.0
  0
LINE
  5
3B
330
1E
100
AcDbEntity
  8
0
100
AcDbLine
 10
18.352775
 20
432.0
 30
0.0
 11
18.352775
 21
431.5
 31
0.0
  0
LINE
  5
3C
330
1E
100
AcDbEntity
  8
0
100
AcDbLine
 10
18.352775
 20
431.5
 30
0.0
 11
51.352775
 21
431.5
 31
0.0
  0
LINE
  5
3D
330
1E
100
AcDbEntity
  8
0
100
AcDbLine
 10
18.352775
 20
431.5
 30
0.0
 11
18.352775
 21
427.5
 31
0.0
  0
LINE
  5
3E
330
1E
100
AcDbEntity
  8
0
100
AcDbLine
 10
18.352775
 20
431.5
 30
0.0
 11
18.352775
 21
432.0
 31
0.0
  0
LINE
  5
3F
330
1E
100
AcDbEntity
  8
0
100
AcDbLine
 10
18.352775
 20
432.0
 30
0.0
 11
51.352775
 21
432.0
 31
0.0
  0
LINE
  5
40
330
1E
100
AcDbEntity
  8
0
100
AcDbLine
 10
19.852775
 20
432.5
 30
0.0
 11
19.852775
 21
432.0
 31
0.0
  0
LINE
  5
41
330
1E
100
AcDbEntity
  8
0
100
AcDbLine
 10
19.852775
 20
432.6935483870969
 30
0.0
 11
19.852775
 21
432.0
 31
0.0
  0
LINE
  5
42
330
1E
100
AcDbEntity
  8
0
100
AcDbLine
 10
19.852775
 20
432.0
 30
0.0
 11
19.852775
 21
432.5
 31
0.0
  0
LINE
  5
43
330
1E
100
AcDbEntity
  8
0
100
AcDbLine
 10
19.852775
 20
432.0
 30
0.0
 11
19.852775
 21
432.6935483870969
 31
0.0
  0
LINE
  5
44
330
1E
100
AcDbEntity
  8
0
100
AcDbLine
 10
18.352775
 20
431.5
 30
0.0
 11
51.352775
 21
431.5
 31
0.0
  0
LINE
  5
45
330
1E
100
AcDbEntity
  8
0
100
AcDbLine
 10
18.352775
 20
427.5
 30
0.0
 11
51.352775
 21
427.5
 31
0.0
  0
LINE
  5
46
330
1E
100
AcDbEntity
  8
0
100
AcDbLine
 10
18.352775
 20
427.5
 30
0.0
 11
51.352775
 21
427.5
 31
0.0
  0
LINE
  5
47
330
1E
100
AcDbEntity
  8
0
100
AcDbLine
 10
18.352775
 20
427.5
 30
0.0
 11
18.352775
 21
427.0
 31
0.0
  0
LINE
  5
48
330
1E
100
AcDbEntity
  8
0
100
AcDbLine
 10
18.352775
 20
427.5
 30
0.0
 11
18.352775
 21
431.5
 31
0.0
  0
LINE
  5
49
330
1E
100
AcDbEntity
  8
0
100
AcDbLine
 10
18.352775
 20
427.0
 30
0.0
 11
51.352775
 21
427.0
 31
0.0
  0
LINE
  5
4A
330
1E
100
AcDbEntity
  8
0
100
AcDbLine
 10
18.352775
 20
427.0
 30
0.0
 11
18.352775
 21
427.5
 31
0.0
  0
LINE
  5
4B
330
1E
100
AcDbEntity
  8
0
100
AcDbLine
 10
17.952775
 20
433.0
 30
0.0
 11
22.852775
 21
433.0
 31
0.0
  0
LINE
  5
4C
330
1E
100
AcDbEntity
  8
0
100
AcDbLine
 10
22.45277499999999
 20
434.0
 30
0.0
 11
28.45277499999999
 21
434.0
 31
0.0
  0
LINE
  5
4D
330
1E
100
AcDbEntity
  8
0
100
AcDbLine
 10
23.84727499999999
 20
67.09999999999999
 30
0.0
 11
32.54727499999999
 21
45.8
 31
0.0
  0
LINE
  5
4E
330
1E
100
AcDbEntity
  8
0
100
AcDbLine
 10
22.947275
 20
66.90000000000001
 30
0.0
 11
31.74727499999999
 21
45.3
 31
0.0
  0
LINE
  5
4F
330
1E
100
AcDbEntity
  8
0
100
AcDbLine
 10
22.947275
 20
66.90000000000001
 30
0.0
 11
31.74727499999999
 21
45.3
 31
0.0
  0
LINE
  5
50
330
1E
100
AcDbEntity
  8
0
100
AcDbLine
 10
23.84727499999999
 20
112.9
 30
0.0
 11
32.54727499999999
 21
134.1999999999999
 31
0.0
  0
LINE
  5
51
330
1E
100
AcDbEntity
  8
0
100
AcDbLine
 10
22.947275
 20
113.1
 30
0.0
 11
31.74727499999999
 21
134.6999999999999
 31
0.0
  0
LINE
  5
52
330
1E
100
AcDbEntity
  8
0
100
AcDbLine
 10
22.852775
 20
433.0
 30
0.0
 11
28.65277499999999
 21
433.0
 31
0.0
  0
LINE
  5
53
330
1E
100
AcDbEntity
  8
0
100
AcDbLine
 10
22.852775
 20
459.9
 30
0.0
 11
28.65277499999999
 21
458.4999999999999
 31
0.0
  0
LINE
  5
54
330
1E
100
AcDbEntity
  8
0
100
AcDbLine
 10
22.45277499999999
 20
458.8999999999999
 30
0.0
 11
28.45277499999999
 21
457.5
 31
0.0
  0
LINE
  5
55
330
1E
100
AcDbEntity
  8
0
100
AcDbLine
 10
17.952775
 20
462.1999999999999
 30
0.0
 11
22.852775
 21
459.9
 31
0.0
  0
LINE
  5
56
330
1E
100
AcDbEntity
  8
0
100
AcDbLine
 10
17.25277499999999
 20
461.2
 30
0.0
 11
22.45277499999999
 21
458.8999999999999
 31
0.0
  0
LINE
  5
57
330
1E
100
AcDbEntity
  8
0
100
AcDbLine
 10
14.052775
 20
465.0
 30
0.0
 11
17.952775
 21
462.1999999999999
 31
0.0
  0
LINE
  5
58
330
1E
100
AcDbEntity
  8
0
100
AcDbLine
 10
13.152775
 20
464.0
 30
0.0
 11
17.25277499999999
 21
461.2
 31
0.0
  0
LINE
  5
59
330
1E
100
AcDbEntity
  8
0
100
AcDbLine
 10
11.35277499999999
 20
470.0
 30
0.0
 11
11.35277499999999
 21
474.0
 31
0.0
  0
LINE
  5
5A
330
1E
100
AcDbEntity
  8
0
100
AcDbLine
 10
11.102775
 20
471.0
 30
0.0
 11
11.35277499999999
 21
471.0
 31
0.0
  0
LINE
  5
5B
330
1E
100
AcDbEntity
  8
0
100
AcDbLine
 10
11.75277499999999
 20
468.4
 30
0.0
 11
14.052775
 21
465.0
 31
0.0
  0
LINE
  5
5C
330
1E
100
AcDbEntity
  8
0
100
AcDbLine
 10
10.752775
 20
467.3999999999999
 30
0.0
 11
13.152775
 21
464.0
 31
0.0
  0
LINE
  5
5D
330
1E
100
AcDbEntity
  8
0
100
AcDbLine
 10
-0.147274999999974
 20
475.0
 30
0.0
 11
0.8527250000000259
 21
475.0
 31
0.0
  0
LINE
  5
5E
330
1E
100
AcDbEntity
  8
0
100
AcDbLine
 10
-0.147274999999974
 20
475.0
 30
0.0
 11
0.8527250000000259
 21
474.0
 31
0.0
  0
LINE
  5
5F
330
1E
100
AcDbEntity
  8
0
100
AcDbLine
 10
-0.147274999999974
 20
475.0
 30
0.0
 11
-0.147274999999974
 21
558.0
 31
0.0
  0
LINE
  5
60
330
1E
100
AcDbEntity
  8
0
100
AcDbLine
 10
-0.147274999999974
 20
475.0
 30
0.0
 11
-0.147274999999974
 21
505.1999999999999
 31
0.0
  0
LINE
  5
61
330
1E
100
AcDbEntity
  8
0
100
AcDbLine
 10
-0.147274999999974
 20
475.0
 30
0.0
 11
0.8527250000000259
 21
474.0
 31
0.0
  0
LINE
  5
62
330
1E
100
AcDbEntity
  8
0
100
AcDbLine
 10
-0.147274999999974
 20
475.0
 30
0.0
 11
0.8527250000000259
 21
475.0
 31
0.0
  0
LINE
  5
63
330
1E
100
AcDbEntity
  8
0
100
AcDbLine
 10
0.8527250000000289
 20
475.0
 30
0.0
 11
99.647275
 21
475.0
 31
0.0
  0
LINE
  5
64
330
1E
100
AcDbEntity
  8
0
100
AcDbLine
 10
0.8527250000000289
 20
474.0
 30
0.0
 11
99.647275
 21
474.0
 31
0.0
  0
LINE
  5
65
330
1E
100
AcDbEntity
  8
0
100
AcDbLine
 10
0.8527250000000289
 20
474.0
 30
0.0
 11
11.35277499999999
 21
474.0
 31
0.0
  0
LINE
  5
66
330
1E
100
AcDbEntity
  8
0
100
AcDbLine
 10
0.8527250000000259
 20
474.0
 30
0.0
 11
0.8527250000000259
 21
475.0
 31
0.0
  0
LINE
  5
67
330
1E
100
AcDbEntity
  8
0
100
AcDbLine
 10
0.8527250000000259
 20
474.0
 30
0.0
 11
11.35277499999999
 21
474.0
 31
0.0
  0
LINE
  5
68
330
1E
100
AcDbEntity
  8
0
100
AcDbLine
 10
0.8527250000000259
 20
474.0
 30
0.0
 11
99.647275
 21
474.0
 31
0.0
  0
LINE
  5
69
330
1E
100
AcDbEntity
  8
0
100
AcDbLine
 10
-0.147274999999974
 20
505.1999999999999
 30
0.0
 11
-0.147274999999974
 21
475.0
 31
0.0
  0
LINE
  5
6A
330
1E
100
AcDbEntity
  8
0
100
AcDbLine
 10
-0.147274999999974
 20
505.1999999999999
 30
0.0
 11
-0.147274999999974
 21
558.0
 31
0.0
  0
LINE
  5
6B
330
1E
100
AcDbEntity
  8
0
100
AcDbLine
 10
-0.147274999999974
 20
558.0
 30
0.0
 11
0.8527250000000259
 21
559.0
 31
0.0
  0
LINE
  5
6C
330
1E
100
AcDbEntity
  8
0
100
AcDbLine
 10
-0.147274999999974
 20
558.0
 30
0.0
 11
0.8527250000000259
 21
558.0
 31
0.0
  0
LINE
  5
6D
330
1E
100
AcDbEntity
  8
0
100
AcDbLine
 10
-0.147274999999974
 20
558.0
 30
0.0
 11
-0.147274999999974
 21
475.0
 31
0.0
  0
LINE
  5
6E
330
1E
100
AcDbEntity
  8
0
100
AcDbLine
 10
-0.147274999999974
 20
558.0
 30
0.0
 11
-0.147274999999974
 21
505.1999999999999
 31
0.0
  0
LINE
  5
6F
330
1E
100
AcDbEntity
  8
0
100
AcDbLine
 10
-0.147274999999974
 20
558.0
 30
0.0
 11
0.8527250000000259
 21
558.0
 31
0.0
  0
LINE
  5
70
330
1E
100
AcDbEntity
  8
0
100
AcDbLine
 10
-0.147274999999974
 20
558.0
 30
0.0
 11
0.8527250000000259
 21
559.0
 31
0.0
  0
LINE
  5
71
330
1E
100
AcDbEntity
  8
0
100
AcDbLine
 10
0.8527250000000259
 20
558.0
 30
0.0
 11
0.8527250000000259
 21
559.0
 31
0.0
  0
LINE
  5
72
330
1E
100
AcDbEntity
  8
0
100
AcDbLine
 10
0.8527250000000259
 20
558.0
 30
0.0
 11
79.64727499999999
 21
558.0
 31
0.0
  0
LINE
  5
73
330
1E
100
AcDbEntity
  8
0
100
AcDbLine
 10
0.8527250000000259
 20
558.0
 30
0.0
 11
0.8527250000000259
 21
475.0
 31
0.0
  0
LINE
  5
74
330
1E
100
AcDbEntity
  8
0
100
AcDbLine
 10
0.8527250000000289
 20
559.0
 30
0.0
 11
79.64727499999999
 21
559.0
 31
0.0
  0
LINE
  5
75
330
1E
100
AcDbEntity
  8
0
100
AcDbLine
 10
0.8527250000000289
 20
558.0
 30
0.0
 11
79.64727499999999
 21
558.0
 31
0.0
  0
LINE
  5
76
330
1E
100
AcDbEntity
  8
0
100
AcDbLine
 10
0.8527250000000259
 20
559.0
 30
0.0
 11
79.64727499999999
 21
559.0
 31
0.0
  0
LINE
  5
77
330
1E
100
AcDbEntity
  8
0
100
AcDbLine
 10
0.8527250000000259
 20
559.0
 30
0.0
 11
0.8527250000000259
 21
558.0
 31
0.0
  0
LINE
  5
78
330
1E
100
AcDbEntity
  8
0
100
AcDbLine
 10
0.8527250000000259
 20
475.0
 30
0.0
 11
99.647275
 21
475.0
 31
0.0
  0
LINE
  5
79
330
1E
100
AcDbEntity
  8
0
100
AcDbLine
 10
0.8527250000000259
 20
475.0
 30
0.0
 11
0.8527250000000259
 21
474.0
 31
0.0
  0
LINE
  5
7A
330
1E
100
AcDbEntity
  8
0
100
AcDbLine
 10
0.8527250000000259
 20
475.0
 30
0.0
 11
0.8527250000000259
 21
558.0
 31
0.0
  0
LINE
  5
7B
330
1E
100
AcDbEntity
  8
0
100
AcDbLine
 10
11.35277499999999
 20
474.0
 30
0.0
 11
11.35277499999999
 21
470.0
 31
0.0
  0
LINE
  5
7C
330
1E
100
AcDbEntity
  8
0
100
AcDbLine
 10
11.35277499999999
 20
474.0
 30
0.0
 11
12.152775
 21
474.0
 31
0.0
  0
LINE
  5
7D
330
1E
100
AcDbEntity
  8
0
100
AcDbLine
 10
18.252775
 20
474.0
 30
0.0
 11
23.052775
 21
474.0
 31
0.0
  0
LINE
  5
7E
330
1E
100
AcDbEntity
  8
0
100
AcDbLine
 10
14.452775
 20
474.0
 30
0.0
 11
18.252775
 21
474.0
 31
0.0
  0
LINE
  5
7F
330
1E
100
AcDbEntity
  8
0
100
AcDbLine
 10
12.152775
 20
474.0
 30
0.0
 11
14.452775
 21
474.0
 31
0.0
  0
LINE
  5
80
330
1E
100
AcDbEntity
  8
0
100
AcDbLine
 10
23.052775
 20
474.0
 30
0.0
 11
28.752775
 21
474.0
 31
0.0
  0
LINE
  5
81
330
1E
100
AcDbEntity
  8
0
100
AcDbLine
 10
10.85277499999999
 20
472.0
 30
0.0
 11
11.75277499999999
 21
468.4
 31
0.0
  0
LINE
  5
82
330
1E
100
AcDbEntity
  8
0
100
AcDbLine
 10
10.85277499999999
 20
472.0
 30
0.0
 11
11.35277499999999
 21
472.0
 31
0.0
  0
LINE
  5
83
330
1E
100
AcDbEntity
  8
0
100
AcDbLine
 10
9.852775000000029
 20
471.0
 30
0.0
 11
10.85277499999999
 21
472.0
 31
0.0
  0
LINE
  5
84
330
1E
100
AcDbEntity
  8
0
100
AcDbLine
 10
9.852775000000029
 20
471.0
 30
0.0
 11
10.752775
 21
467.3999999999999
 31
0.0
  0
LINE
  5
85
330
1E
100
AcDbEntity
  8
0
100
AcDbLine
 10
9.852775000000029
 20
471.0
 30
0.0
 11
9.852775000000029
 21
434.0
 31
0.0
  0
LINE
  5
86
330
1E
100
AcDbEntity
  8
0
100
AcDbLine
 10
28.45277499999999
 20
434.0
 30
0.0
 11
34.852775
 21
434.0
 31
0.0
  0
LINE
  5
87
330
1E
100
AcDbEntity
  8
0
100
AcDbLine
 10
32.54727499999999
 20
45.8
 30
0.0
 11
46.847275
 21
27.2
 31
0.0
  0
LINE
  5
88
330
1E
100
AcDbEntity
  8
0
100
AcDbLine
 10
31.74727499999999
 20
45.3
 30
0.0
 11
46.047275
 21
26.4
 31
0.0
  0
LINE
  5
89
330
1E
100
AcDbEntity
  8
0
100
AcDbLine
 10
31.74727499999999
 20
45.3
 30
0.0
 11
46.047275
 21
26.4
 31
0.0
  0
LINE
  5
8A
330
1E
100
AcDbEntity
  8
0
100
AcDbLine
 10
46.047275
 20
26.4
 30
0.0
 11
64.947275
 21
12.09999999999999
 31
0.0
  0
LINE
  5
8B
330
1E
100
AcDbEntity
  8
0
100
AcDbLine
 10
46.047275
 20
26.4
 30
0.0
 11
64.947275
 21
12.09999999999999
 31
0.0
  0
LINE
  5
8C
330
1E
100
AcDbEntity
  8
0
100
AcDbLine
 10
32.54727499999999
 20
134.1999999999999
 30
0.0
 11
46.847275
 21
152.8
 31
0.0
  0
LINE
  5
8D
330
1E
100
AcDbEntity
  8
0
100
AcDbLine
 10
31.74727499999999
 20
134.6999999999999
 30
0.0
 11
46.047275
 21
153.6
 31
0.0
  0
LINE
  5
8E
330
1E
100
AcDbEntity
  8
0
100
AcDbLine
 10
46.847275
 20
27.2
 30
0.0
 11
65.447275
 21
12.9
 31
0.0
  0
LINE
  5
8F
330
1E
100
AcDbEntity
  8
0
100
AcDbLine
 10
46.8472750000001
 20
27.19999999999989
 30
0.0
 11
65.447275
 21
12.9
 31
0.0
  0
LINE
  5
90
330
1E
100
AcDbEntity
  8
0
100
AcDbLine
 10
46.847275
 20
152.8
 30
0.0
 11
65.447275
 21
167.1
 31
0.0
  0
LINE
  5
91
330
1E
100
AcDbEntity
  8
0
100
AcDbLine
 10
46.047275
 20
153.6
 30
0.0
 11
64.947275
 21
167.9
 31
0.0
  0
LINE
  5
92
330
1E
100
AcDbEntity
  8
0
100
AcDbLine
 10
49.852775
 20
432.0
 30
0.0
 11
49.852775
 21
432.6935483870969
 31
0.0
  0
LINE
  5
93
330
1E
100
AcDbEntity
  8
0
100
AcDbLine
 10
51.352775
 20
432.0
 30
0.0
 11
51.852775
 21
431.5
 31
0.0
  0
LINE
  5
94
330
1E
100
AcDbEntity
  8
0
100
AcDbLine
 10
51.352775
 20
432.0
 30
0.0
 11
51.352775
 21
431.5
 31
0.0
  0
LINE
  5
95
330
1E
100
AcDbEntity
  8
0
100
AcDbLine
 10
51.352775
 20
431.5
 30
0.0
 11
51.852775
 21
431.5
 31
0.0
  0
LINE
  5
96
330
1E
100
AcDbEntity
  8
0
100
AcDbLine
 10
51.352775
 20
431.5
 30
0.0
 11
51.352775
 21
427.5
 31
0.0
  0
LINE
  5
97
330
1E
100
AcDbEntity
  8
0
100
AcDbLine
 10
51.352775
 20
431.5
 30
0.0
 11
51.352775
 21
432.0
 31
0.0
  0
LINE
  5
98
330
1E
100
AcDbEntity
  8
0
100
AcDbLine
 10
51.352775
 20
427.5
 30
0.0
 11
51.852775
 21
427.5
 31
0.0
  0
LINE
  5
99
330
1E
100
AcDbEntity
  8
0
100
AcDbLine
 10
51.352775
 20
427.5
 30
0.0
 11
51.352775
 21
427.0
 31
0.0
  0
LINE
  5
9A
330
1E
100
AcDbEntity
  8
0
100
AcDbLine
 10
51.352775
 20
427.5
 30
0.0
 11
51.352775
 21
431.5
 31
0.0
  0
LINE
  5
9B
330
1E
100
AcDbEntity
  8
0
100
AcDbLine
 10
51.352775
 20
427.0
 30
0.0
 11
51.852775
 21
427.5
 31
0.0
  0
LINE
  5
9C
330
1E
100
AcDbEntity
  8
0
100
AcDbLine
 10
51.352775
 20
427.0
 30
0.0
 11
51.352775
 21
427.5
 31
0.0
  0
LINE
  5
9D
330
1E
100
AcDbEntity
  8
0
100
AcDbLine
 10
51.852775
 20
431.5
 30
0.0
 11
51.852775
 21
427.5
 31
0.0
  0
LINE
  5
9E
330
1E
100
AcDbEntity
  8
0
100
AcDbLine
 10
51.852775
 20
427.5
 30
0.0
 11
51.852775
 21
431.5
 31
0.0
  0
LINE
  5
9F
330
1E
100
AcDbEntity
  8
0
100
AcDbLine
 10
86.54727499999999
 20
3.299999999999999
 30
0.0
 11
109.647275
 21
-0.0000000000000082
 31
0.0
  0
LINE
  5
A0
330
1E
100
AcDbEntity
  8
0
100
AcDbLine
 10
86.54727499999999
 20
3.299999999999999
 30
0.0
 11
109.647275
 21
-0.0000000000000082
 31
0.0
  0
LINE
  5
A1
330
1E
100
AcDbEntity
  8
0
100
AcDbLine
 10
86.54727499999999
 20
3.299999999999999
 30
0.0
 11
109.647275
 21
-0.0000000000000106
 31
0.0
  0
LINE
  5
A2
330
1E
100
AcDbEntity
  8
0
100
AcDbLine
 10
86.54727499999999
 20
3.299999999999999
 30
0.0
 11
109.647275
 21
-0.0000000000000107
 31
0.0
  0
LINE
  5
A3
330
1E
100
AcDbEntity
  8
0
100
AcDbLine
 10
86.54727499999999
 20
3.299999999999999
 30
0.0
 11
109.647275
 21
-0.0000000000000107
 31
0.0
  0
LINE
  5
A4
330
1E
100
AcDbEntity
  8
0
100
AcDbLine
 10
86.54727499999999
 20
3.299999999999999
 30
0.0
 11
109.647275
 21
-0.0000000000000107
 31
0.0
  0
LINE
  5
A5
330
1E
100
AcDbEntity
  8
0
100
AcDbLine
 10
65.447275
 20
12.9
 30
0.0
 11
86.74727500000001
 21
4.199999999999979
 31
0.0
  0
LINE
  5
A6
330
1E
100
AcDbEntity
  8
0
100
AcDbLine
 10
65.447275
 20
12.9
 30
0.0
 11
86.74727500000001
 21
4.199999999999979
 31
0.0
  0
LINE
  5
A7
330
1E
100
AcDbEntity
  8
0
100
AcDbLine
 10
64.947275
 20
12.09999999999999
 30
0.0
 11
86.54727499999999
 21
3.299999999999999
 31
0.0
  0
LINE
  5
A8
330
1E
100
AcDbEntity
  8
0
100
AcDbLine
 10
64.947275
 20
12.09999999999999
 30
0.0
 11
86.54727499999999
 21
3.299999999999999
 31
0.0
  0
LINE
  5
A9
330
1E
100
AcDbEntity
  8
0
100
AcDbLine
 10
64.947275
 20
12.09999999999999
 30
0.0
 11
86.54727499999999
 21
3.299999999999999
 31
0.0
  0
LINE
  5
AA
330
1E
100
AcDbEntity
  8
0
100
AcDbLine
 10
64.947275
 20
12.09999999999999
 30
0.0
 11
86.54727499999999
 21
3.299999999999999
 31
0.0
  0
LINE
  5
AB
330
1E
100
AcDbEntity
  8
0
100
AcDbLine
 10
64.947275
 20
12.09999999999999
 30
0.0
 11
86.54727499999999
 21
3.300000000000009
 31
0.0
  0
LINE
  5
AC
330
1E
100
AcDbEntity
  8
0
100
AcDbLine
 10
64.947275
 20
12.09999999999999
 30
0.0
 11
86.54727499999999
 21
3.299999999999999
 31
0.0
  0
LINE
  5
AD
330
1E
100
AcDbEntity
  8
0
100
AcDbLine
 10
64.947275
 20
12.09999999999999
 30
0.0
 11
86.54727499999999
 21
3.299999999999999
 31
0.0
  0
LINE
  5
AE
330
1E
100
AcDbEntity
  8
0
100
AcDbLine
 10
86.74727500000001
 20
4.199999999999979
 30
0.0
 11
109.647275
 21
0.9999999999999921
 31
0.0
  0
LINE
  5
AF
330
1E
100
AcDbEntity
  8
0
100
AcDbLine
 10
86.74727500000001
 20
4.199999999999979
 30
0.0
 11
109.647275
 21
0.9999999999999921
 31
0.0
  0
LINE
  5
B0
330
1E
100
AcDbEntity
  8
0
100
AcDbLine
 10
86.54727499999999
 20
3.299999999999999
 30
0.0
 11
109.647275
 21
-0.0000000000000113
 31
0.0
  0
LINE
  5
B1
330
1E
100
AcDbEntity
  8
0
100
AcDbLine
 10
86.54727499999999
 20
3.299999999999999
 30
0.0
 11
109.647275
 21
-0.0000000000000112
 31
0.0
  0
LINE
  5
B2
330
1E
100
AcDbEntity
  8
0
100
AcDbLine
 10
99.647275
 20
97.3
 30
0.0
 11
99.647275
 21
91.79999999999999
 31
0.0
  0
LINE
  5
B3
330
1E
100
AcDbEntity
  8
0
100
AcDbLine
 10
99.647275
 20
97.3
 30
0.0
 11
99.647275
 21
106.434
 31
0.0
  0
LINE
  5
B4
330
1E
100
AcDbEntity
  8
0
100
AcDbLine
 10
99.647275
 20
91.79999999999999
 30
0.0
 11
99.647275
 21
90.0
 31
0.0
  0
LINE
  5
B5
330
1E
100
AcDbEntity
  8
0
100
AcDbLine
 10
99.647275
 20
91.79999999999999
 30
0.0
 11
99.647275
 21
97.3
 31
0.0
  0
LINE
  5
B6
330
1E
100
AcDbEntity
  8
0
100
AcDbLine
 10
99.647275
 20
90.0
 30
0.0
 11
100.0472749999999
 21
87.4
 31
0.0
  0
LINE
  5
B7
330
1E
100
AcDbEntity
  8
0
100
AcDbLine
 10
99.647275
 20
90.0
 30
0.0
 11
99.647275
 21
91.79999999999999
 31
0.0
  0
LINE
  5
B8
330
1E
100
AcDbEntity
  8
0
100
AcDbLine
 10
99.647275
 20
106.434
 30
0.0
 11
99.647275
 21
118.8059999999999
 31
0.0
  0
LINE
  5
B9
330
1E
100
AcDbEntity
  8
0
100
AcDbLine
 10
99.647275
 20
106.434
 30
0.0
 11
99.647275
 21
97.3
 31
0.0
  0
LINE
  5
BA
330
1E
100
AcDbEntity
  8
0
100
AcDbLine
 10
99.647275
 20
118.8059999999999
 30
0.0
 11
99.647275
 21
134.43
 31
0.0
  0
LINE
  5
BB
330
1E
100
AcDbEntity
  8
0
100
AcDbLine
 10
99.647275
 20
118.8059999999999
 30
0.0
 11
99.647275
 21
106.434
 31
0.0
  0
LINE
  5
BC
330
1E
100
AcDbEntity
  8
0
100
AcDbLine
 10
65.447275
 20
167.1
 30
0.0
 11
86.74727500000001
 21
175.8
 31
0.0
  0
LINE
  5
BD
330
1E
100
AcDbEntity
  8
0
100
AcDbLine
 10
64.947275
 20
167.9
 30
0.0
 11
86.54727499999999
 21
176.6999999999999
 31
0.0
  0
LINE
  5
BE
330
1E
100
AcDbEntity
  8
0
100
AcDbLine
 10
86.74727500000001
 20
175.8
 30
0.0
 11
99.647275
 21
177.602620087336
 31
0.0
  0
LINE
  5
BF
330
1E
100
AcDbEntity
  8
0
100
AcDbLine
 10
86.54727499999999
 20
176.6999999999999
 30
0.0
 11
99.647275
 21
178.5714285714289
 31
0.0
  0
LINE
  5
C0
330
1E
100
AcDbEntity
  8
0
100
AcDbLine
 10
99.647275
 20
197.4719999999999
 30
0.0
 11
99.647275
 21
174.065
 31
0.0
  0
LINE
  5
C1
330
1E
100
AcDbEntity
  8
0
100
AcDbLine
 10
99.647275
 20
197.4719999999999
 30
0.0
 11
99.647275
 21
222.717
 31
0.0
  0
LINE
  5
C2
330
1E
100
AcDbEntity
  8
0
100
AcDbLine
 10
99.647275
 20
174.065
 30
0.0
 11
99.647275
 21
152.991
 31
0.0
  0
LINE
  5
C3
330
1E
100
AcDbEntity
  8
0
100
AcDbLine
 10
99.647275
 20
174.065
 30
0.0
 11
99.647275
 21
197.4719999999999
 31
0.0
  0
LINE
  5
C4
330
1E
100
AcDbEntity
  8
0
100
AcDbLine
 10
99.647275
 20
134.43
 30
0.0
 11
99.647275
 21
152.991
 31
0.0
  0
LINE
  5
C5
330
1E
100
AcDbEntity
  8
0
100
AcDbLine
 10
99.647275
 20
134.43
 30
0.0
 11
99.647275
 21
118.8059999999999
 31
0.0
  0
LINE
  5
C6
330
1E
100
AcDbEntity
  8
0
100
AcDbLine
 10
99.647275
 20
152.991
 30
0.0
 11
99.647275
 21
134.43
 31
0.0
  0
LINE
  5
C7
330
1E
100
AcDbEntity
  8
0
100
AcDbLine
 10
99.647275
 20
152.991
 30
0.0
 11
99.647275
 21
174.065
 31
0.0
  0
LINE
  5
C8
330
1E
100
AcDbEntity
  8
0
100
AcDbLine
 10
99.647275
 20
222.717
 30
0.0
 11
99.647275
 21
249.4
 31
0.0
  0
LINE
  5
C9
330
1E
100
AcDbEntity
  8
0
100
AcDbLine
 10
99.647275
 20
222.717
 30
0.0
 11
99.647275
 21
197.4719999999999
 31
0.0
  0
LINE
  5
CA
330
1E
100
AcDbEntity
  8
0
100
AcDbLine
 10
99.647275
 20
249.4
 30
0.0
 11
99.647275
 21
277.0
 31
0.0
  0
LINE
  5
CB
330
1E
100
AcDbEntity
  8
0
100
AcDbLine
 10
99.647275
 20
249.4
 30
0.0
 11
99.647275
 21
222.717
 31
0.0
  0
LINE
  5
CC
330
1E
100
AcDbEntity
  8
0
100
AcDbLine
 10
99.647275
 20
277.0
 30
0.0
 11
99.647275
 21
305.0
 31
0.0
  0
LINE
  5
CD
330
1E
100
AcDbEntity
  8
0
100
AcDbLine
 10
99.647275
 20
277.0
 30
0.0
 11
99.647275
 21
249.4
 31
0.0
  0
LINE
  5
CE
330
1E
100
AcDbEntity
  8
0
100
AcDbLine
 10
99.647275
 20
305.0
 30
0.0
 11
99.647275
 21
333.0
 31
0.0
  0
LINE
  5
CF
330
1E
100
AcDbEntity
  8
0
100
AcDbLine
 10
99.647275
 20
305.0
 30
0.0
 11
99.647275
 21
277.0
 31
0.0
  0
LINE
  5
D0
330
1E
100
AcDbEntity
  8
0
100
AcDbLine
 10
99.647275
 20
360.6
 30
0.0
 11
99.647275
 21
333.0
 31
0.0
  0
LINE
  5
D1
330
1E
100
AcDbEntity
  8
0
100
AcDbLine
 10
99.647275
 20
360.6
 30
0.0
 11
99.647275
 21
387.2828
 31
0.0
  0
LINE
  5
D2
330
1E
100
AcDbEntity
  8
0
100
AcDbLine
 10
99.647275
 20
333.0
 30
0.0
 11
99.647275
 21
305.0
 31
0.0
  0
LINE
  5
D3
330
1E
100
AcDbEntity
  8
0
100
AcDbLine
 10
99.647275
 20
333.0
 30
0.0
 11
99.647275
 21
360.6
 31
0.0
  0
LINE
  5
D4
330
1E
100
AcDbEntity
  8
0
100
AcDbLine
 10
109.647275
 20
-0.0000000000000106
 30
0.0
 11
132.747275
 21
3.299999999999999
 31
0.0
  0
LINE
  5
D5
330
1E
100
AcDbEntity
  8
0
100
AcDbLine
 10
109.647275
 20
0.9999999999999921
 30
0.0
 11
132.547275
 21
4.199999999999979
 31
0.0
  0
LINE
  5
D6
330
1E
100
AcDbEntity
  8
0
100
AcDbLine
 10
109.647275
 20
0.9999999999999921
 30
0.0
 11
132.547275
 21
4.199999999999979
 31
0.0
  0
LINE
  5
D7
330
1E
100
AcDbEntity
  8
0
100
AcDbLine
 10
109.647275
 20
-0.0000000000000082
 30
0.0
 11
132.747275
 21
3.299999999999999
 31
0.0
  0
LINE
  5
D8
330
1E
100
AcDbEntity
  8
0
100
AcDbLine
 10
109.647275
 20
-0.0000000000000082
 30
0.0
 11
132.747275
 21
3.299999999999999
 31
0.0
  0
LINE
  5
D9
330
1E
100
AcDbEntity
  8
0
100
AcDbLine
 10
109.647275
 20
-0.0000000000000107
 30
0.0
 11
132.747275
 21
3.299999999999999
 31
0.0
  0
LINE
  5
DA
330
1E
100
AcDbEntity
  8
0
100
AcDbLine
 10
112.247275
 20
80.4
 30
0.0
 11
114.647275
 21
81.3
 31
0.0
  0
LINE
  5
DB
330
1E
100
AcDbEntity
  8
0
100
AcDbLine
 10
109.647275
 20
80.0
 30
0.0
 11
112.247275
 21
80.4
 31
0.0
  0
LINE
  5
DC
330
1E
100
AcDbEntity
  8
0
100
AcDbLine
 10
132.547275
 20
4.199999999999979
 30
0.0
 11
153.8472749999999
 21
12.9
 31
0.0
  0
LINE
  5
DD
330
1E
100
AcDbEntity
  8
0
100
AcDbLine
 10
132.547275
 20
4.199999999999979
 30
0.0
 11
153.8472749999999
 21
12.9
 31
0.0
  0
LINE
  5
DE
330
1E
100
AcDbEntity
  8
0
100
AcDbLine
 10
132.747275
 20
3.299999999999999
 30
0.0
 11
154.347275
 21
12.09999999999999
 31
0.0
  0
LINE
  5
DF
330
1E
100
AcDbEntity
  8
0
100
AcDbLine
 10
132.747275
 20
3.299999999999999
 30
0.0
 11
154.347275
 21
12.09999999999999
 31
0.0
  0
LINE
  5
E0
330
1E
100
AcDbEntity
  8
0
100
AcDbLine
 10
132.747275
 20
3.299999999999999
 30
0.0
 11
154.347275
 21
12.09999999999999
 31
0.0
  0
LINE
  5
E1
330
1E
100
AcDbEntity
  8
0
100
AcDbLine
 10
132.747275
 20
3.299999999999999
 30
0.0
 11
154.347275
 21
12.09999999999999
 31
0.0
  0
LINE
  5
E2
330
1E
100
AcDbEntity
  8
0
100
AcDbLine
 10
172.4472749999999
 20
27.2
 30
0.0
 11
186.747275
 21
45.8
 31
0.0
  0
LINE
  5
E3
330
1E
100
AcDbEntity
  8
0
100
AcDbLine
 10
153.8472749999999
 20
12.9
 30
0.0
 11
172.4472749999999
 21
27.2
 31
0.0
  0
LINE
  5
E4
330
1E
100
AcDbEntity
  8
0
100
AcDbLine
 10
173.247275
 20
26.4
 30
0.0
 11
187.547275
 21
45.3
 31
0.0
  0
LINE
  5
E5
330
1E
100
AcDbEntity
  8
0
100
AcDbLine
 10
154.347275
 20
12.09999999999999
 30
0.0
 11
173.247275
 21
26.4
 31
0.0
  0
LINE
  5
E6
330
1E
100
AcDbEntity
  8
0
100
AcDbLine
 10
186.747275
 20
45.8
 30
0.0
 11
195.4472749999999
 21
67.09999999999999
 31
0.0
  0
LINE
  5
E7
330
1E
100
AcDbEntity
  8
0
100
AcDbLine
 10
196.347275
 20
66.90000000000001
 30
0.0
 11
199.647275
 21
90.0
 31
0.0
  0
LINE
  5
E8
330
1E
100
AcDbEntity
  8
0
100
AcDbLine
 10
187.547275
 20
45.3
 30
0.0
 11
196.347275
 21
66.90000000000001
 31
0.0
  0
LINE
  5
E9
330
1E
100
AcDbEntity
  8
0
100
AcDbLine
 10
195.4472749999999
 20
67.09999999999999
 30
0.0
 11
198.647275
 21
90.0
 31
0.0
  0
LINE
  5
EA
330
1E
100
AcDbEntity
  8
0
100
AcDbLine
 10
195.4472749999999
 20
67.09999999999999
 30
0.0
 11
198.647275
 21
90.0
 31
0.0
  0
LINE
  5
EB
330
1E
100
AcDbEntity
  8
0
100
AcDbLine
 10
173.247275
 20
26.4
 30
0.0
 11
187.547275
 21
45.3
 31
0.0
  0
LINE
  5
EC
330
1E
100
AcDbEntity
  8
0
100
AcDbLine
 10
154.347275
 20
12.09999999999999
 30
0.0
 11
173.247275
 21
26.4
 31
0.0
  0
LINE
  5
ED
330
1E
100
AcDbEntity
  8
0
100
AcDbLine
 10
132.747275
 20
3.299999999999999
 30
0.0
 11
154.347275
 21
12.09999999999999
 31
0.0
  0
LINE
  5
EE
330
1E
100
AcDbEntity
  8
0
100
AcDbLine
 10
100.0472749999999
 20
87.4
 30
0.0
 11
100.947275
 21
85.0
 31
0.0
  0
LINE
  5
EF
330
1E
100
AcDbEntity
  8
0
100
AcDbLine
 10
100.947275
 20
85.0
 30
0.0
 11
102.547275
 21
82.9
 31
0.0
  0
LINE
  5
F0
330
1E
100
AcDbEntity
  8
0
100
AcDbLine
 10
102.547275
 20
82.9
 30
0.0
 11
104.6472749999999
 21
81.3
 31
0.0
  0
LINE
  5
F1
330
1E
100
AcDbEntity
  8
0
100
AcDbLine
 10
119.6472749999999
 20
97.3
 30
0.0
 11
119.6472749999999
 21
91.79999999999999
 31
0.0
  0
LINE
  5
F2
330
1E
100
AcDbEntity
  8
0
100
AcDbLine
 10
119.6472749999999
 20
97.3
 30
0.0
 11
119.6472749999999
 21
106.434
 31
0.0
  0
LINE
  5
F3
330
1E
100
AcDbEntity
  8
0
100
AcDbLine
 10
119.6472749999999
 20
91.79999999999999
 30
0.0
 11
119.6472749999999
 21
90.0
 31
0.0
  0
LINE
  5
F4
330
1E
100
AcDbEntity
  8
0
100
AcDbLine
 10
119.6472749999999
 20
91.79999999999999
 30
0.0
 11
119.6472749999999
 21
97.3
 31
0.0
  0
LINE
  5
F5
330
1E
100
AcDbEntity
  8
0
100
AcDbLine
 10
119.6472749999999
 20
90.0
 30
0.0
 11
119.6472749999999
 21
91.79999999999999
 31
0.0
  0
LINE
  5
F6
330
1E
100
AcDbEntity
  8
0
100
AcDbLine
 10
119.247275
 20
87.4
 30
0.0
 11
119.6472749999999
 21
90.0
 31
0.0
  0
LINE
  5
F7
330
1E
100
AcDbEntity
  8
0
100
AcDbLine
 10
118.3472749999999
 20
85.0
 30
0.0
 11
119.247275
 21
87.4
 31
0.0
  0
LINE
  5
F8
330
1E
100
AcDbEntity
  8
0
100
AcDbLine
 10
116.7472749999999
 20
82.9
 30
0.0
 11
118.3472749999999
 21
85.0
 31
0.0
  0
LINE
  5
F9
330
1E
100
AcDbEntity
  8
0
100
AcDbLine
 10
114.647275
 20
81.3
 30
0.0
 11
116.7472749999999
 21
82.9
 31
0.0
  0
LINE
  5
FA
330
1E
100
AcDbEntity
  8
0
100
AcDbLine
 10
119.6472749999999
 20
106.434
 30
0.0
 11
119.6472749999999
 21
118.8059999999999
 31
0.0
  0
LINE
  5
FB
330
1E
100
AcDbEntity
  8
0
100
AcDbLine
 10
119.6472749999999
 20
106.434
 30
0.0
 11
119.6472749999999
 21
97.3
 31
0.0
  0
LINE
  5
FC
330
1E
100
AcDbEntity
  8
0
100
AcDbLine
 10
119.6472749999999
 20
118.8059999999999
 30
0.0
 11
119.6472749999999
 21
134.43
 31
0.0
  0
LINE
  5
FD
330
1E
100
AcDbEntity
  8
0
100
AcDbLine
 10
119.6472749999999
 20
118.8059999999999
 30
0.0
 11
119.6472749999999
 21
106.434
 31
0.0
  0
LINE
  5
FE
330
1E
100
AcDbEntity
  8
0
100
AcDbLine
 10
119.6472749999999
 20
134.43
 30
0.0
 11
119.6472749999999
 21
152.991
 31
0.0
  0
LINE
  5
FF
330
1E
100
AcDbEntity
  8
0
100
AcDbLine
 10
119.6472749999999
 20
134.43
 30
0.0
 11
119.6472749999999
 21
118.8059999999999
 31
0.0
  0
LINE
  5
100
330
1E
100
AcDbEntity
  8
0
100
AcDbLine
 10
186.747275
 20
134.1999999999999
 30
0.0
 11
195.4472749999999
 21
112.9
 31
0.0
  0
LINE
  5
101
330
1E
100
AcDbEntity
  8
0
100
AcDbLine
 10
119.6472749999999
 20
152.991
 30
0.0
 11
119.6472749999999
 21
134.43
 31
0.0
  0
LINE
  5
102
330
1E
100
AcDbEntity
  8
0
100
AcDbLine
 10
119.6472749999999
 20
152.991
 30
0.0
 11
119.6472749999999
 21
174.065
 31
0.0
  0
LINE
  5
103
330
1E
100
AcDbEntity
  8
0
100
AcDbLine
 10
172.4472749999999
 20
152.8
 30
0.0
 11
186.747275
 21
134.1999999999999
 31
0.0
  0
LINE
  5
104
330
1E
100
AcDbEntity
  8
0
100
AcDbLine
 10
195.4472749999999
 20
112.9
 30
0.0
 11
198.647275
 21
90.0
 31
0.0
  0
LINE
  5
105
330
1E
100
AcDbEntity
  8
0
100
AcDbLine
 10
196.347275
 20
113.1
 30
0.0
 11
199.647275
 21
90.0
 31
0.0
  0
LINE
  5
106
330
1E
100
AcDbEntity
  8
0
100
AcDbLine
 10
187.547275
 20
134.6999999999999
 30
0.0
 11
196.347275
 21
113.1
 31
0.0
  0
LINE
  5
107
330
1E
100
AcDbEntity
  8
0
100
AcDbLine
 10
153.8472749999999
 20
167.1
 30
0.0
 11
172.4472749999999
 21
152.8
 31
0.0
  0
LINE
  5
108
330
1E
100
AcDbEntity
  8
0
100
AcDbLine
 10
173.247275
 20
153.6
 30
0.0
 11
187.547275
 21
134.6999999999999
 31
0.0
  0
LINE
  5
109
330
1E
100
AcDbEntity
  8
0
100
AcDbLine
 10
119.6472749999999
 20
174.065
 30
0.0
 11
119.6472749999999
 21
152.991
 31
0.0
  0
LINE
  5
10A
330
1E
100
AcDbEntity
  8
0
100
AcDbLine
 10
119.6472749999999
 20
174.065
 30
0.0
 11
119.6472749999999
 21
197.4719999999999
 31
0.0
  0
LINE
  5
10B
330
1E
100
AcDbEntity
  8
0
100
AcDbLine
 10
119.6472749999999
 20
249.4
 30
0.0
 11
119.6472749999999
 21
277.0
 31
0.0
  0
LINE
  5
10C
330
1E
100
AcDbEntity
  8
0
100
AcDbLine
 10
119.6472749999999
 20
249.4
 30
0.0
 11
119.6472749999999
 21
222.717
 31
0.0
  0
LINE
  5
10D
330
1E
100
AcDbEntity
  8
0
100
AcDbLine
 10
119.6472749999999
 20
360.6
 30
0.0
 11
119.6472749999999
 21
333.0
 31
0.0
  0
LINE
  5
10E
330
1E
100
AcDbEntity
  8
0
100
AcDbLine
 10
119.6472749999999
 20
360.6
 30
0.0
 11
119.6472749999999
 21
387.2828
 31
0.0
  0
LINE
  5
10F
330
1E
100
AcDbEntity
  8
0
100
AcDbLine
 10
119.6472749999999
 20
333.0
 30
0.0
 11
119.6472749999999
 21
305.0
 31
0.0
  0
LINE
  5
110
330
1E
100
AcDbEntity
  8
0
100
AcDbLine
 10
119.6472749999999
 20
333.0
 30
0.0
 11
119.6472749999999
 21
360.6
 31
0.0
  0
LINE
  5
111
330
1E
100
AcDbEntity
  8
0
100
AcDbLine
 10
119.6472749999999
 20
305.0
 30
0.0
 11
119.6472749999999
 21
277.0
 31
0.0
  0
LINE
  5
112
330
1E
100
AcDbEntity
  8
0
100
AcDbLine
 10
119.6472749999999
 20
305.0
 30
0.0
 11
119.6472749999999
 21
333.0
 31
0.0
  0
LINE
  5
113
330
1E
100
AcDbEntity
  8
0
100
AcDbLine
 10
119.6472749999999
 20
277.0
 30
0.0
 11
119.6472749999999
 21
305.0
 31
0.0
  0
LINE
  5
114
330
1E
100
AcDbEntity
  8
0
100
AcDbLine
 10
119.6472749999999
 20
277.0
 30
0.0
 11
119.6472749999999
 21
249.4
 31
0.0
  0
LINE
  5
115
330
1E
100
AcDbEntity
  8
0
100
AcDbLine
 10
119.6472749999999
 20
222.717
 30
0.0
 11
119.6472749999999
 21
197.4719999999999
 31
0.0
  0
LINE
  5
116
330
1E
100
AcDbEntity
  8
0
100
AcDbLine
 10
119.6472749999999
 20
222.717
 30
0.0
 11
119.6472749999999
 21
249.4
 31
0.0
  0
LINE
  5
117
330
1E
100
AcDbEntity
  8
0
100
AcDbLine
 10
119.6472749999999
 20
197.4719999999999
 30
0.0
 11
119.6472749999999
 21
174.065
 31
0.0
  0
LINE
  5
118
330
1E
100
AcDbEntity
  8
0
100
AcDbLine
 10
119.6472749999999
 20
197.4719999999999
 30
0.0
 11
119.6472749999999
 21
222.717
 31
0.0
  0
LINE
  5
119
330
1E
100
AcDbEntity
  8
0
100
AcDbLine
 10
119.6472749999999
 20
387.2828
 30
0.0
 11
119.6472749999999
 21
412.528
 31
0.0
  0
LINE
  5
11A
330
1E
100
AcDbEntity
  8
0
100
AcDbLine
 10
119.6472749999999
 20
387.2828
 30
0.0
 11
119.6472749999999
 21
360.6
 31
0.0
  0
LINE
  5
11B
330
1E
100
AcDbEntity
  8
0
100
AcDbLine
 10
119.6472749999999
 20
412.528
 30
0.0
 11
119.6472749999999
 21
435.93517
 31
0.0
  0
LINE
  5
11C
330
1E
100
AcDbEntity
  8
0
100
AcDbLine
 10
119.6472749999999
 20
412.528
 30
0.0
 11
119.6472749999999
 21
387.2828
 31
0.0
  0
LINE
  5
11D
330
1E
100
AcDbEntity
  8
0
100
AcDbLine
 10
119.6472749999999
 20
177.602620087336
 30
0.0
 11
132.547275
 21
175.8
 31
0.0
  0
LINE
  5
11E
330
1E
100
AcDbEntity
  8
0
100
AcDbLine
 10
132.547275
 20
175.8
 30
0.0
 11
153.8472749999999
 21
167.1
 31
0.0
  0
LINE
  5
11F
330
1E
100
AcDbEntity
  8
0
100
AcDbLine
 10
339.647275
 20
407.4785
 30
0.0
 11
347.9472749999999
 21
406.3856999999999
 31
0.0
  0
LINE
  5
120
330
1E
100
AcDbEntity
  8
0
100
AcDbLine
 10
323.047275
 20
411.7207999999999
 30
0.0
 11
330.847275
 21
409.3424999999999
 31
0.0
  0
LINE
  5
121
330
1E
100
AcDbEntity
  8
0
100
AcDbLine
 10
322.547275
 20
411.9727
 30
0.0
 11
330.4472749999999
 21
409.4657999999999
 31
0.0
  0
LINE
  5
122
330
1E
100
AcDbEntity
  8
0
100
AcDbLine
 10
330.847275
 20
409.3424999999999
 30
0.0
 11
339.647275
 21
407.4785
 31
0.0
  0
LINE
  5
123
330
1E
100
AcDbEntity
  8
0
100
AcDbLine
 10
330.4472749999999
 20
409.4657999999999
 30
0.0
 11
338.9472749999999
 21
407.666
 31
0.0
  0
LINE
  5
124
330
1E
100
AcDbEntity
  8
0
100
AcDbLine
 10
338.9472749999999
 20
407.666
 30
0.0
 11
347.847275
 21
406.509
 31
0.0
  0
LINE
  5
125
330
1E
100
AcDbEntity
  8
0
100
AcDbLine
 10
356.6472749999999
 20
405.9357999999999
 30
0.0
 11
365.347275
 21
406.3856999999999
 31
0.0
  0
LINE
  5
126
330
1E
100
AcDbEntity
  8
0
100
AcDbLine
 10
365.347275
 20
406.3856999999999
 30
0.0
 11
373.6472749999999
 21
407.4785
 31
0.0
  0
LINE
  5
127
330
1E
100
AcDbEntity
  8
0
100
AcDbLine
 10
356.6472749999999
 20
406.059
 30
0.0
 11
365.447275
 21
406.509
 31
0.0
  0
LINE
  5
128
330
1E
100
AcDbEntity
  8
0
100
AcDbLine
 10
373.6472749999999
 20
407.4785
 30
0.0
 11
382.4472749999999
 21
409.3424999999999
 31
0.0
  0
LINE
  5
129
330
1E
100
AcDbEntity
  8
0
100
AcDbLine
 10
382.4472749999999
 20
409.3424999999999
 30
0.0
 11
390.247275
 21
411.7207999999999
 31
0.0
  0
LINE
  5
12A
330
1E
100
AcDbEntity
  8
0
100
AcDbLine
 10
390.247275
 20
411.7207999999999
 30
0.0
 11
396.732095264483
 21
414.537315179736
 31
0.0
  0
LINE
  5
12B
330
1E
100
AcDbEntity
  8
0
100
AcDbLine
 10
390.747275
 20
411.9727
 30
0.0
 11
398.2472749999999
 21
415.1866
 31
0.0
  0
LINE
  5
12C
330
1E
100
AcDbEntity
  8
0
100
AcDbLine
 10
382.847275
 20
409.4657999999999
 30
0.0
 11
390.747275
 21
411.9727
 31
0.0
  0
LINE
  5
12D
330
1E
100
AcDbEntity
  8
0
100
AcDbLine
 10
374.347275
 20
407.666
 30
0.0
 11
382.847275
 21
409.4657999999999
 31
0.0
  0
LINE
  5
12E
330
1E
100
AcDbEntity
  8
0
100
AcDbLine
 10
365.447275
 20
406.509
 30
0.0
 11
374.347275
 21
407.666
 31
0.0
  0
LINE
  5
12F
330
1E
100
AcDbEntity
  8
0
100
AcDbLine
 10
347.9472749999999
 20
406.3856999999999
 30
0.0
 11
356.6472749999999
 21
405.9357999999999
 31
0.0
  0
LINE
  5
130
330
1E
100
AcDbEntity
  8
0
100
AcDbLine
 10
347.847275
 20
406.509
 30
0.0
 11
356.6472749999999
 21
406.059
 31
0.0
  0
LINE
  5
131
330
1E
100
AcDbEntity
  8
0
100
AcDbLine
 10
132.747275
 20
176.6999999999999
 30
0.0
 11
154.347275
 21
167.9
 31
0.0
  0
LINE
  5
132
330
1E
100
AcDbEntity
  8
0
100
AcDbLine
 10
119.6472749999999
 20
178.5714285714289
 30
0.0
 11
132.747275
 21
176.6999999999999
 31
0.0
  0
LINE
  5
133
330
1E
100
AcDbEntity
  8
0
100
AcDbLine
 10
154.347275
 20
167.9
 30
0.0
 11
173.247275
 21
153.6
 31
0.0
  0
LINE
  5
134
330
1E
100
AcDbEntity
  8
0
100
AcDbLine
 10
104.6472749999999
 20
81.3
 30
0.0
 11
107.0472749999999
 21
80.4
 31
0.0
  0
LINE
  5
135
330
1E
100
AcDbEntity
  8
0
100
AcDbLine
 10
107.0472749999999
 20
80.4
 30
0.0
 11
109.647275
 21
80.0
 31
0.0
  0
LINE
  5
136
330
1E
100
AcDbEntity
  8
0
100
AcDbLine
 10
99.647275
 20
387.2828
 30
0.0
 11
99.647275
 21
412.528
 31
0.0
  0
LINE
  5
137
330
1E
100
AcDbEntity
  8
0
100
AcDbLine
 10
99.647275
 20
387.2828
 30
0.0
 11
99.647275
 21
360.6
 31
0.0
  0
LINE
  5
138
330
1E
100
AcDbEntity
  8
0
100
AcDbLine
 10
302.347275
 20
423.35
 30
0.0
 11
308.2472749999999
 21
418.9790499999999
 31
0.0
  0
LINE
  5
139
330
1E
100
AcDbEntity
  8
0
100
AcDbLine
 10
308.2472749999999
 20
418.9790499999999
 30
0.0
 11
315.047275
 21
415.1866
 31
0.0
  0
LINE
  5
13A
330
1E
100
AcDbEntity
  8
0
100
AcDbLine
 10
316.562454735517
 20
414.537315179736
 30
0.0
 11
323.047275
 21
411.7207999999999
 31
0.0
  0
LINE
  5
13B
330
1E
100
AcDbEntity
  8
0
100
AcDbLine
 10
315.047275
 20
415.1866
 30
0.0
 11
322.547275
 21
411.9727
 31
0.0
  0
LINE
  5
13C
330
1E
100
AcDbEntity
  8
0
100
AcDbLine
 10
338.9472749999999
 20
423.7529199999999
 30
0.0
 11
347.847275
 21
422.5958999999999
 31
0.0
  0
LINE
  5
13D
330
1E
100
AcDbEntity
  8
0
100
AcDbLine
 10
347.847275
 20
422.5958999999999
 30
0.0
 11
356.6472749999999
 21
422.1459499999999
 31
0.0
  0
LINE
  5
13E
330
1E
100
AcDbEntity
  8
0
100
AcDbLine
 10
297.347275
 20
428.1709099999999
 30
0.0
 11
302.347275
 21
423.35
 31
0.0
  0
LINE
  5
13F
330
1E
100
AcDbEntity
  8
0
100
AcDbLine
 10
322.547275
 20
428.0596
 30
0.0
 11
330.4472749999999
 21
425.55272
 31
0.0
  0
LINE
  5
140
330
1E
100
AcDbEntity
  8
0
100
AcDbLine
 10
330.4472749999999
 20
425.55272
 30
0.0
 11
338.9472749999999
 21
423.7529199999999
 31
0.0
  0
LINE
  5
141
330
1E
100
AcDbEntity
  8
0
100
AcDbLine
 10
315.047275
 20
431.2735299999999
 30
0.0
 11
322.547275
 21
428.0596
 31
0.0
  0
LINE
  5
142
330
1E
100
AcDbEntity
  8
0
100
AcDbLine
 10
323.047275
 20
429.33987
 30
0.0
 11
330.847275
 21
426.9615579999999
 31
0.0
  0
LINE
  5
143
330
1E
100
AcDbEntity
  8
0
100
AcDbLine
 10
330.847275
 20
426.9615579999999
 30
0.0
 11
339.647275
 21
425.09747
 31
0.0
  0
LINE
  5
144
330
1E
100
AcDbEntity
  8
0
100
AcDbLine
 10
339.647275
 20
425.09747
 30
0.0
 11
347.9472749999999
 21
424.0047299999999
 31
0.0
  0
LINE
  5
145
330
1E
100
AcDbEntity
  8
0
100
AcDbLine
 10
398.2472749999999
 20
415.1866
 30
0.0
 11
405.0472749999999
 21
418.9790499999999
 31
0.0
  0
LINE
  5
146
330
1E
100
AcDbEntity
  8
0
100
AcDbLine
 10
356.6472749999999
 20
422.1459499999999
 30
0.0
 11
365.447275
 21
422.5958999999999
 31
0.0
  0
LINE
  5
147
330
1E
100
AcDbEntity
  8
0
100
AcDbLine
 10
374.347275
 20
423.7529199999999
 30
0.0
 11
382.847275
 21
425.55272
 31
0.0
  0
LINE
  5
148
330
1E
100
AcDbEntity
  8
0
100
AcDbLine
 10
365.447275
 20
422.5958999999999
 30
0.0
 11
374.347275
 21
423.7529199999999
 31
0.0
  0
LINE
  5
149
330
1E
100
AcDbEntity
  8
0
100
AcDbLine
 10
382.847275
 20
425.55272
 30
0.0
 11
390.747275
 21
428.0596
 31
0.0
  0
LINE
  5
14A
330
1E
100
AcDbEntity
  8
0
100
AcDbLine
 10
390.747275
 20
428.0596
 30
0.0
 11
398.2472749999999
 21
431.2735299999999
 31
0.0
  0
LINE
  5
14B
330
1E
100
AcDbEntity
  8
0
100
AcDbLine
 10
382.4472749999999
 20
426.9615579999999
 30
0.0
 11
390.247275
 21
429.33987
 31
0.0
  0
LINE
  5
14C
330
1E
100
AcDbEntity
  8
0
100
AcDbLine
 10
373.6472749999999
 20
425.09747
 30
0.0
 11
382.4472749999999
 21
426.9615579999999
 31
0.0
  0
LINE
  5
14D
330
1E
100
AcDbEntity
  8
0
100
AcDbLine
 10
365.347275
 20
424.0047299999999
 30
0.0
 11
373.6472749999999
 21
425.09747
 31
0.0
  0
LINE
  5
14E
330
1E
100
AcDbEntity
  8
0
100
AcDbLine
 10
356.6472749999999
 20
423.5547799999999
 30
0.0
 11
365.347275
 21
424.0047299999999
 31
0.0
  0
LINE
  5
14F
330
1E
100
AcDbEntity
  8
0
100
AcDbLine
 10
405.0472749999999
 20
418.9790499999999
 30
0.0
 11
410.947275
 21
423.35
 31
0.0
  0
LINE
  5
150
330
1E
100
AcDbEntity
  8
0
100
AcDbLine
 10
410.947275
 20
423.35
 30
0.0
 11
415.9472749999999
 21
428.1709099999999
 31
0.0
  0
LINE
  5
151
330
1E
100
AcDbEntity
  8
0
100
AcDbLine
 10
398.2472749999999
 20
431.2735299999999
 30
0.0
 11
405.0472749999999
 21
435.0659799999999
 31
0.0
  0
LINE
  5
152
330
1E
100
AcDbEntity
  8
0
100
AcDbLine
 10
390.247275
 20
429.33987
 30
0.0
 11
397.6472749999999
 21
432.5538099999999
 31
0.0
  0
LINE
  5
153
330
1E
100
AcDbEntity
  8
0
100
AcDbLine
 10
415.9472749999999
 20
428.1709099999999
 30
0.0
 11
419.847275
 21
433.2489299999999
 31
0.0
  0
LINE
  5
154
330
1E
100
AcDbEntity
  8
0
100
AcDbLine
 10
347.9472749999999
 20
424.0047299999999
 30
0.0
 11
356.6472749999999
 21
423.5547799999999
 31
0.0
  0
LINE
  5
155
330
1E
100
AcDbEntity
  8
0
100
AcDbLine
 10
99.647275
 20
412.528
 30
0.0
 11
99.647275
 21
435.93517
 31
0.0
  0
LINE
  5
156
330
1E
100
AcDbEntity
  8
0
100
AcDbLine
 10
99.647275
 20
412.528
 30
0.0
 11
99.647275
 21
387.2828
 31
0.0
  0
LINE
  5
157
330
1E
100
AcDbEntity
  8
0
100
AcDbLine
 10
54.352775
 20
432.5
 30
0.0
 11
58.852775
 21
433.0
 31
0.0
  0
LINE
  5
158
330
1E
100
AcDbEntity
  8
0
100
AcDbLine
 10
53.652775
 20
432.5
 30
0.0
 11
54.352775
 21
432.5
 31
0.0
  0
LINE
  5
159
330
1E
100
AcDbEntity
  8
0
100
AcDbLine
 10
51.75277499999999
 20
432.5
 30
0.0
 11
53.652775
 21
432.5
 31
0.0
  0
LINE
  5
15A
330
1E
100
AcDbEntity
  8
0
100
AcDbLine
 10
34.852775
 20
433.0
 30
0.0
 11
41.05277499999999
 21
433.0
 31
0.0
  0
LINE
  5
15B
330
1E
100
AcDbEntity
  8
0
100
AcDbLine
 10
34.852775
 20
434.0
 30
0.0
 11
41.252775
 21
434.0
 31
0.0
  0
LINE
  5
15C
330
1E
100
AcDbEntity
  8
0
100
AcDbLine
 10
34.852775
 20
457.0
 30
0.0
 11
41.252775
 21
457.5
 31
0.0
  0
LINE
  5
15D
330
1E
100
AcDbEntity
  8
0
100
AcDbLine
 10
41.252775
 20
434.0
 30
0.0
 11
47.25277499999999
 21
434.0
 31
0.0
  0
LINE
  5
15E
330
1E
100
AcDbEntity
  8
0
100
AcDbLine
 10
41.05277499999999
 20
433.0
 30
0.0
 11
46.852775
 21
433.0
 31
0.0
  0
LINE
  5
15F
330
1E
100
AcDbEntity
  8
0
100
AcDbLine
 10
49.852775
 20
432.6935483870969
 30
0.0
 11
49.852775
 21
432.0
 31
0.0
  0
LINE
  5
160
330
1E
100
AcDbEntity
  8
0
100
AcDbLine
 10
51.75277499999999
 20
433.0
 30
0.0
 11
55.652775
 21
433.0
 31
0.0
  0
LINE
  5
161
330
1E
100
AcDbEntity
  8
0
100
AcDbLine
 10
46.852775
 20
433.0
 30
0.0
 11
51.75277499999999
 21
433.0
 31
0.0
  0
LINE
  5
162
330
1E
100
AcDbEntity
  8
0
100
AcDbLine
 10
55.652775
 20
433.0
 30
0.0
 11
57.952775
 21
433.0
 31
0.0
  0
LINE
  5
163
330
1E
100
AcDbEntity
  8
0
100
AcDbLine
 10
57.952775
 20
433.0
 30
0.0
 11
58.852775
 21
433.0
 31
0.0
  0
LINE
  5
164
330
1E
100
AcDbEntity
  8
0
100
AcDbLine
 10
56.552775
 20
434.0
 30
0.0
 11
58.952775
 21
434.0
 31
0.0
  0
LINE
  5
165
330
1E
100
AcDbEntity
  8
0
100
AcDbLine
 10
52.452775
 20
434.0
 30
0.0
 11
56.552775
 21
434.0
 31
0.0
  0
LINE
  5
166
330
1E
100
AcDbEntity
  8
0
100
AcDbLine
 10
47.25277499999999
 20
434.0
 30
0.0
 11
52.452775
 21
434.0
 31
0.0
  0
LINE
  5
167
330
1E
100
AcDbEntity
  8
0
100
AcDbLine
 10
293.4472749999999
 20
433.2489299999999
 30
0.0
 11
297.347275
 21
428.1709099999999
 31
0.0
  0
LINE
  5
168
330
1E
100
AcDbEntity
  8
0
100
AcDbLine
 10
397.6472749999999
 20
432.5538099999999
 30
0.0
 11
404.347275
 21
436.2819799999999
 31
0.0
  0
LINE
  5
169
330
1E
100
AcDbEntity
  8
0
100
AcDbLine
 10
419.847275
 20
433.2489299999999
 30
0.0
 11
422.647275
 21
438.7126
 31
0.0
  0
LINE
  5
16A
330
1E
100
AcDbEntity
  8
0
100
AcDbLine
 10
315.6472749999999
 20
432.5538099999999
 30
0.0
 11
323.047275
 21
429.33987
 31
0.0
  0
LINE
  5
16B
330
1E
100
AcDbEntity
  8
0
100
AcDbLine
 10
58.952775
 20
434.0
 30
0.0
 11
59.852775
 21
434.0
 31
0.0
  0
LINE
  5
16C
330
1E
100
AcDbEntity
  8
0
100
AcDbLine
 10
58.852775
 20
433.0
 30
0.0
 11
59.852775
 21
434.0
 31
0.0
  0
LINE
  5
16D
330
1E
100
AcDbEntity
  8
0
100
AcDbLine
 10
119.6472749999999
 20
435.93517
 30
0.0
 11
119.6472749999999
 21
457.0092
 31
0.0
  0
LINE
  5
16E
330
1E
100
AcDbEntity
  8
0
100
AcDbLine
 10
119.6472749999999
 20
435.93517
 30
0.0
 11
119.6472749999999
 21
412.528
 31
0.0
  0
LINE
  5
16F
330
1E
100
AcDbEntity
  8
0
100
AcDbLine
 10
99.647275
 20
435.93517
 30
0.0
 11
99.647275
 21
457.0092
 31
0.0
  0
LINE
  5
170
330
1E
100
AcDbEntity
  8
0
100
AcDbLine
 10
99.647275
 20
435.93517
 30
0.0
 11
99.647275
 21
412.528
 31
0.0
  0
LINE
  5
171
330
1E
100
AcDbEntity
  8
0
100
AcDbLine
 10
119.6472749999999
 20
457.0092
 30
0.0
 11
119.6472749999999
 21
435.93517
 31
0.0
  0
LINE
  5
172
330
1E
100
AcDbEntity
  8
0
100
AcDbLine
 10
119.6472749999999
 20
457.0092
 30
0.0
 11
119.6472749999999
 21
475.5702999999999
 31
0.0
  0
LINE
  5
173
330
1E
100
AcDbEntity
  8
0
100
AcDbLine
 10
99.647275
 20
457.0092
 30
0.0
 11
99.647275
 21
475.5702999999999
 31
0.0
  0
LINE
  5
174
330
1E
100
AcDbEntity
  8
0
100
AcDbLine
 10
99.647275
 20
457.0092
 30
0.0
 11
99.647275
 21
435.93517
 31
0.0
  0
LINE
  5
176
330
1E
100
AcDbEntity
  8
0
100
AcDbLine
 10
405.0472749999999
 20
435.0659799999999
 30
0.0
 11
410.947275
 21
439.4369
 31
0.0
  0
LINE
  5
177
330
1E
100
AcDbEntity
  8
0
100
AcDbLine
 10
404.347275
 20
436.2819799999999
 30
0.0
 11
410.147275
 21
440.5886999999999
 31
0.0
  0
LINE
  5
178
330
1E
100
AcDbEntity
  8
0
100
AcDbLine
 10
308.2472749999999
 20
435.0659799999999
 30
0.0
 11
315.047275
 21
431.2735299999999
 31
0.0
  0
LINE
  5
179
330
1E
100
AcDbEntity
  8
0
100
AcDbLine
 10
290.6472749999999
 20
438.7126
 30
0.0
 11
293.4472749999999
 21
433.2489299999999
 31
0.0
  0
LINE
  5
17A
330
1E
100
AcDbEntity
  8
0
100
AcDbLine
 10
288.847275
 20
444.4334
 30
0.0
 11
290.6472749999999
 21
438.7126
 31
0.0
  0
LINE
  5
17B
330
1E
100
AcDbEntity
  8
0
100
AcDbLine
 10
288.147275
 20
450.0899999999999
 30
0.0
 11
288.847275
 21
444.4334
 31
0.0
  0
LINE
  5
17C
330
1E
100
AcDbEntity
  8
0
100
AcDbLine
 10
288.147275
 20
450.0899999999999
 30
0.0
 11
288.147275
 21
466.1768999999999
 31
0.0
  0
LINE
  5
17D
330
1E
100
AcDbEntity
  8
0
100
AcDbLine
 10
290.6472749999999
 20
454.7996
 30
0.0
 11
293.4472749999999
 21
449.3358999999999
 31
0.0
  0
LINE
  5
17E
330
1E
100
AcDbEntity
  8
0
100
AcDbLine
 10
297.347275
 20
444.2578
 30
0.0
 11
302.347275
 21
439.4369
 31
0.0
  0
LINE
  5
17F
330
1E
100
AcDbEntity
  8
0
100
AcDbLine
 10
293.4472749999999
 20
449.3358999999999
 30
0.0
 11
297.347275
 21
444.2578
 31
0.0
  0
LINE
  5
180
330
1E
100
AcDbEntity
  8
0
100
AcDbLine
 10
422.647275
 20
438.7126
 30
0.0
 11
424.4472749999999
 21
444.4334
 31
0.0
  0
LINE
  5
181
330
1E
100
AcDbEntity
  8
0
100
AcDbLine
 10
410.947275
 20
439.4369
 30
0.0
 11
415.9472749999999
 21
444.2578
 31
0.0
  0
LINE
  5
182
330
1E
100
AcDbEntity
  8
0
100
AcDbLine
 10
410.147275
 20
440.5886999999999
 30
0.0
 11
415.1472749999999
 21
445.3453
 31
0.0
  0
LINE
  5
183
330
1E
100
AcDbEntity
  8
0
100
AcDbLine
 10
302.347275
 20
439.4369
 30
0.0
 11
308.2472749999999
 21
435.0659799999999
 31
0.0
  0
LINE
  5
184
330
1E
100
AcDbEntity
  8
0
100
AcDbLine
 10
415.9472749999999
 20
444.2578
 30
0.0
 11
419.847275
 21
449.3358999999999
 31
0.0
  0
LINE
  5
185
330
1E
100
AcDbEntity
  8
0
100
AcDbLine
 10
415.1472749999999
 20
445.3453
 30
0.0
 11
418.847275
 21
450.359
 31
0.0
  0
LINE
  5
186
330
1E
100
AcDbEntity
  8
0
100
AcDbLine
 10
424.4472749999999
 20
444.4334
 30
0.0
 11
425.1472749999999
 21
450.0899999999999
 31
0.0
  0
LINE
  5
187
330
1E
100
AcDbEntity
  8
0
100
AcDbLine
 10
425.1472749999999
 20
450.0899999999999
 30
0.0
 11
425.1472749999999
 21
466.1768999999999
 31
0.0
  0
LINE
  5
188
330
1E
100
AcDbEntity
  8
0
100
AcDbLine
 10
419.847275
 20
449.3358999999999
 30
0.0
 11
422.647275
 21
454.7996
 31
0.0
  0
LINE
  5
189
330
1E
100
AcDbEntity
  8
0
100
AcDbLine
 10
418.847275
 20
450.359
 30
0.0
 11
421.7472749999999
 21
456.0156
 31
0.0
  0
LINE
  5
18A
330
1E
100
AcDbEntity
  8
0
100
AcDbLine
 10
303.1472749999999
 20
440.5886999999999
 30
0.0
 11
308.947275
 21
436.2819799999999
 31
0.0
  0
LINE
  5
18B
330
1E
100
AcDbEntity
  8
0
100
AcDbLine
 10
298.147275
 20
445.3453
 30
0.0
 11
303.1472749999999
 21
440.5886999999999
 31
0.0
  0
LINE
  5
18C
330
1E
100
AcDbEntity
  8
0
100
AcDbLine
 10
422.647275
 20
454.7996
 30
0.0
 11
424.4472749999999
 21
460.5203999999999
 31
0.0
  0
LINE
  5
18D
330
1E
100
AcDbEntity
  8
0
100
AcDbLine
 10
421.7472749999999
 20
456.0156
 30
0.0
 11
423.447275
 21
461.3507
 31
0.0
  0
LINE
  5
18E
330
1E
100
AcDbEntity
  8
0
100
AcDbLine
 10
294.447275
 20
450.359
 30
0.0
 11
298.147275
 21
445.3453
 31
0.0
  0
LINE
  5
18F
330
1E
100
AcDbEntity
  8
0
100
AcDbLine
 10
291.547275
 20
456.0156
 30
0.0
 11
294.447275
 21
450.359
 31
0.0
  0
LINE
  5
190
330
1E
100
AcDbEntity
  8
0
100
AcDbLine
 10
308.947275
 20
436.2819799999999
 30
0.0
 11
315.6472749999999
 21
432.5538099999999
 31
0.0
  0
LINE
  5
192
330
1E
100
AcDbEntity
  8
0
100
AcDbLine
 10
59.852775
 20
434.0
 30
0.0
 11
59.852775
 21
471.0
 31
0.0
  0
LINE
  5
193
330
1E
100
AcDbEntity
  8
0
100
AcDbLine
 10
41.252775
 20
457.5
 30
0.0
 11
47.25277499999999
 21
458.8999999999999
 31
0.0
  0
LINE
  5
194
330
1E
100
AcDbEntity
  8
0
100
AcDbLine
 10
41.05277499999999
 20
458.4999999999999
 30
0.0
 11
46.852775
 21
459.9
 31
0.0
  0
LINE
  5
195
330
1E
100
AcDbEntity
  8
0
100
AcDbLine
 10
34.852775
 20
458.0
 30
0.0
 11
41.05277499999999
 21
458.4999999999999
 31
0.0
  0
LINE
  5
196
330
1E
100
AcDbEntity
  8
0
100
AcDbLine
 10
49.852775
 20
432.5
 30
0.0
 11
51.75277499999999
 21
432.5
 31
0.0
  0
LINE
  5
197
330
1E
100
AcDbEntity
  8
0
100
AcDbLine
 10
28.65277499999999
 20
433.0
 30
0.0
 11
34.852775
 21
433.0
 31
0.0
  0
LINE
  5
198
330
1E
100
AcDbEntity
  8
0
100
AcDbLine
 10
34.852775
 20
459.0
 30
0.0
 11
40.15277499999999
 21
459.0
 31
0.0
  0
LINE
  5
199
330
1E
100
AcDbEntity
  8
0
100
AcDbLine
 10
47.25277499999999
 20
458.8999999999999
 30
0.0
 11
52.452775
 21
461.2
 31
0.0
  0
LINE
  5
19A
330
1E
100
AcDbEntity
  8
0
100
AcDbLine
 10
40.15277499999999
 20
459.0
 30
0.0
 11
43.1242035714287
 21
459.0
 31
0.0
  0
LINE
  5
19B
330
1E
100
AcDbEntity
  8
0
100
AcDbLine
 10
28.65277499999999
 20
458.4999999999999
 30
0.0
 11
34.852775
 21
458.0
 31
0.0
  0
LINE
  5
19C
330
1E
100
AcDbEntity
  8
0
100
AcDbLine
 10
28.45277499999999
 20
457.5
 30
0.0
 11
34.852775
 21
457.0
 31
0.0
  0
LINE
  5
19D
330
1E
100
AcDbEntity
  8
0
100
AcDbLine
 10
46.852775
 20
459.9
 30
0.0
 11
51.75277499999999
 21
462.1999999999999
 31
0.0
  0
LINE
  5
19E
330
1E
100
AcDbEntity
  8
0
100
AcDbLine
 10
51.75277499999999
 20
462.1999999999999
 30
0.0
 11
55.652775
 21
465.0
 31
0.0
  0
LINE
  5
19F
330
1E
100
AcDbEntity
  8
0
100
AcDbLine
 10
55.652775
 20
465.0
 30
0.0
 11
57.952775
 21
468.4
 31
0.0
  0
LINE
  5
1A0
330
1E
100
AcDbEntity
  8
0
100
AcDbLine
 10
58.352775
 20
470.0
 30
0.0
 11
58.352775
 21
474.0
 31
0.0
  0
LINE
  5
1A1
330
1E
100
AcDbEntity
  8
0
100
AcDbLine
 10
57.952775
 20
468.4
 30
0.0
 11
58.852775
 21
472.0
 31
0.0
  0
LINE
  5
1A2
330
1E
100
AcDbEntity
  8
0
100
AcDbLine
 10
56.552775
 20
464.0
 30
0.0
 11
58.952775
 21
467.3999999999999
 31
0.0
  0
LINE
  5
1A3
330
1E
100
AcDbEntity
  8
0
100
AcDbLine
 10
52.452775
 20
461.2
 30
0.0
 11
56.552775
 21
464.0
 31
0.0
  0
LINE
  5
1A4
330
1E
100
AcDbEntity
  8
0
100
AcDbLine
 10
58.352775
 20
471.0
 30
0.0
 11
58.602775
 21
471.0
 31
0.0
  0
LINE
  5
1A5
330
1E
100
AcDbEntity
  8
0
100
AcDbLine
 10
288.847275
 20
460.5203999999999
 30
0.0
 11
290.6472749999999
 21
454.7996
 31
0.0
  0
LINE
  5
1A6
330
1E
100
AcDbEntity
  8
0
100
AcDbLine
 10
288.147275
 20
466.1768999999999
 30
0.0
 11
288.847275
 21
460.5203999999999
 31
0.0
  0
LINE
  5
1A7
330
1E
100
AcDbEntity
  8
0
100
AcDbLine
 10
288.147275
 20
466.1768999999999
 30
0.0
 11
288.147275
 21
450.0899999999999
 31
0.0
  0
LINE
  5
1A8
330
1E
100
AcDbEntity
  8
0
100
AcDbLine
 10
288.147275
 20
466.1768999999999
 30
0.0
 11
288.847275
 21
471.8333999999999
 31
0.0
  0
LINE
  5
1A9
330
1E
100
AcDbEntity
  8
0
100
AcDbLine
 10
424.4472749999999
 20
460.5203999999999
 30
0.0
 11
425.1472749999999
 21
466.1768999999999
 31
0.0
  0
LINE
  5
1AA
330
1E
100
AcDbEntity
  8
0
100
AcDbLine
 10
423.447275
 20
461.3507
 30
0.0
 11
424.1472749999999
 21
466.9429
 31
0.0
  0
LINE
  5
1AB
330
1E
100
AcDbEntity
  8
0
100
AcDbLine
 10
425.1472749999999
 20
466.1768999999999
 30
0.0
 11
425.1472749999999
 21
450.0899999999999
 31
0.0
  0
LINE
  5
1AC
330
1E
100
AcDbEntity
  8
0
100
AcDbLine
 10
289.847275
 20
461.3507
 30
0.0
 11
291.547275
 21
456.0156
 31
0.0
  0
LINE
  5
1AD
330
1E
100
AcDbEntity
  8
0
100
AcDbLine
 10
289.1472749999999
 20
466.9429
 30
0.0
 11
289.847275
 21
461.3507
 31
0.0
  0
LINE
  5
1AE
330
1E
100
AcDbEntity
  8
0
100
AcDbLine
 10
289.1472749999999
 20
466.9429
 30
0.0
 11
289.847275
 21
472.5351999999999
 31
0.0
  0
LINE
  5
1B1
330
1E
100
AcDbEntity
  8
0
100
AcDbLine
 10
58.952775
 20
467.3999999999999
 30
0.0
 11
59.852775
 21
471.0
 31
0.0
  0
LINE
  5
1B2
330
1E
100
AcDbEntity
  8
0
100
AcDbLine
 10
424.4472749999999
 20
471.8333999999999
 30
0.0
 11
425.1472749999999
 21
466.1768999999999
 31
0.0
  0
LINE
  5
1B3
330
1E
100
AcDbEntity
  8
0
100
AcDbLine
 10
288.847275
 20
471.8333999999999
 30
0.0
 11
290.6472749999999
 21
477.5541999999999
 31
0.0
  0
LINE
  5
1B4
330
1E
100
AcDbEntity
  8
0
100
AcDbLine
 10
59.852775
 20
471.0
 30
0.0
 11
59.852775
 21
434.0
 31
0.0
  0
LINE
  5
1B5
330
1E
100
AcDbEntity
  8
0
100
AcDbLine
 10
58.852775
 20
472.0
 30
0.0
 11
59.852775
 21
471.0
 31
0.0
  0
LINE
  5
1B6
330
1E
100
AcDbEntity
  8
0
100
AcDbLine
 10
34.852775
 20
474.0
 30
0.0
 11
40.952775
 21
474.0
 31
0.0
  0
LINE
  5
1B7
330
1E
100
AcDbEntity
  8
0
100
AcDbLine
 10
46.652775
 20
474.0
 30
0.0
 11
51.452775
 21
474.0
 31
0.0
  0
LINE
  5
1B8
330
1E
100
AcDbEntity
  8
0
100
AcDbLine
 10
51.452775
 20
474.0
 30
0.0
 11
55.252775
 21
474.0
 31
0.0
  0
LINE
  5
1B9
330
1E
100
AcDbEntity
  8
0
100
AcDbLine
 10
40.952775
 20
474.0
 30
0.0
 11
46.652775
 21
474.0
 31
0.0
  0
LINE
  5
1BA
330
1E
100
AcDbEntity
  8
0
100
AcDbLine
 10
423.447275
 20
472.5351999999999
 30
0.0
 11
424.1472749999999
 21
466.9429
 31
0.0
  0
LINE
  5
1BB
330
1E
100
AcDbEntity
  8
0
100
AcDbLine
 10
289.847275
 20
472.5351999999999
 30
0.0
 11
291.547275
 21
477.8703
 31
0.0
  0
LINE
  5
1BC
330
1E
100
AcDbEntity
  8
0
100
AcDbLine
 10
218.852275
 20
474.0
 30
0.0
 11
219.8522749999999
 21
475.0
 31
0.0
  0
LINE
  5
1BD
330
1E
100
AcDbEntity
  8
0
100
AcDbLine
 10
218.852275
 20
474.0
 30
0.0
 11
218.852275
 21
475.0
 31
0.0
  0
LINE
  5
1BE
330
1E
100
AcDbEntity
  8
0
100
AcDbLine
 10
119.6472749999999
 20
474.0
 30
0.0
 11
218.852275
 21
474.0
 31
0.0
  0
LINE
  5
1BF
330
1E
100
AcDbEntity
  8
0
100
AcDbLine
 10
58.352775
 20
474.0
 30
0.0
 11
58.352775
 21
470.0
 31
0.0
  0
LINE
  5
1C0
330
1E
100
AcDbEntity
  8
0
100
AcDbLine
 10
58.352775
 20
474.0
 30
0.0
 11
99.647275
 21
474.0
 31
0.0
  0
LINE
  5
1C1
330
1E
100
AcDbEntity
  8
0
100
AcDbLine
 10
99.647275
 20
491.1945
 30
0.0
 11
99.647275
 21
475.5702999999999
 31
0.0
  0
LINE
  5
1C2
330
1E
100
AcDbEntity
  8
0
100
AcDbLine
 10
99.647275
 20
491.1945
 30
0.0
 11
99.647275
 21
503.5656999999999
 31
0.0
  0
LINE
  5
1C3
330
1E
100
AcDbEntity
  8
0
100
AcDbLine
 10
99.647275
 20
475.5702999999999
 30
0.0
 11
99.647275
 21
457.0092
 31
0.0
  0
LINE
  5
1C4
330
1E
100
AcDbEntity
  8
0
100
AcDbLine
 10
99.647275
 20
475.5702999999999
 30
0.0
 11
99.647275
 21
491.1945
 31
0.0
  0
LINE
  5
1C5
330
1E
100
AcDbEntity
  8
0
100
AcDbLine
 10
97.415275
 20
516.75
 30
0.0
 11
98.656275
 21
513.6772999999999
 31
0.0
  0
LINE
  5
1C6
330
1E
100
AcDbEntity
  8
0
100
AcDbLine
 10
98.656275
 20
513.6772999999999
 30
0.0
 11
99.647275
 21
512.3656185166749
 31
0.0
  0
LINE
  5
1C7
330
1E
100
AcDbEntity
  8
0
100
AcDbLine
 10
98.36127500000001
 20
513.5590999999999
 30
0.0
 11
99.647275
 21
511.915656088387
 31
0.0
  0
LINE
  5
1C8
330
1E
100
AcDbEntity
  8
0
100
AcDbLine
 10
97.12027500000001
 20
516.6318
 30
0.0
 11
98.36127500000001
 21
513.5590999999999
 31
0.0
  0
LINE
  5
1C9
330
1E
100
AcDbEntity
  8
0
100
AcDbLine
 10
99.647275
 20
503.5656999999999
 30
0.0
 11
99.647275
 21
512.7
 31
0.0
  0
LINE
  5
1CA
330
1E
100
AcDbEntity
  8
0
100
AcDbLine
 10
99.647275
 20
503.5656999999999
 30
0.0
 11
99.647275
 21
491.1945
 31
0.0
  0
LINE
  5
1CB
330
1E
100
AcDbEntity
  8
0
100
AcDbLine
 10
99.647275
 20
512.7
 30
0.0
 11
99.647275
 21
518.2
 31
0.0
  0
LINE
  5
1CC
330
1E
100
AcDbEntity
  8
0
100
AcDbLine
 10
99.647275
 20
512.7
 30
0.0
 11
99.647275
 21
503.5656999999999
 31
0.0
  0
LINE
  5
1CD
330
1E
100
AcDbEntity
  8
0
100
AcDbLine
 10
96.94327499999999
 20
520.0
 30
0.0
 11
97.415275
 21
523.2499999999999
 31
0.0
  0
LINE
  5
1CE
330
1E
100
AcDbEntity
  8
0
100
AcDbLine
 10
96.94327499999999
 20
520.0
 30
0.0
 11
97.415275
 21
516.75
 31
0.0
  0
LINE
  5
1CF
330
1E
100
AcDbEntity
  8
0
100
AcDbLine
 10
97.415275
 20
523.2499999999999
 30
0.0
 11
98.656275
 21
526.3227
 31
0.0
  0
LINE
  5
1D0
330
1E
100
AcDbEntity
  8
0
100
AcDbLine
 10
98.36127500000001
 20
526.4409
 30
0.0
 11
100.4882749999999
 21
529.159
 31
0.0
  0
LINE
  5
1D1
330
1E
100
AcDbEntity
  8
0
100
AcDbLine
 10
98.656275
 20
526.3227
 30
0.0
 11
100.6652749999999
 21
528.9819999999999
 31
0.0
  0
LINE
  5
1D2
330
1E
100
AcDbEntity
  8
0
100
AcDbLine
 10
97.12027500000001
 20
523.3681999999999
 30
0.0
 11
98.36127500000001
 21
526.4409
 31
0.0
  0
LINE
  5
1D3
330
1E
100
AcDbEntity
  8
0
100
AcDbLine
 10
96.64727499999999
 20
520.0
 30
0.0
 11
97.12027500000001
 21
516.6318
 31
0.0
  0
LINE
  5
1D4
330
1E
100
AcDbEntity
  8
0
100
AcDbLine
 10
96.64727499999999
 20
520.0
 30
0.0
 11
97.12027500000001
 21
523.3681999999999
 31
0.0
  0
LINE
  5
1D5
330
1E
100
AcDbEntity
  8
0
100
AcDbLine
 10
99.647275
 20
518.2
 30
0.0
 11
99.647275
 21
520.0
 31
0.0
  0
LINE
  5
1D6
330
1E
100
AcDbEntity
  8
0
100
AcDbLine
 10
99.647275
 20
518.2
 30
0.0
 11
99.647275
 21
512.7
 31
0.0
  0
LINE
  5
1D7
330
1E
100
AcDbEntity
  8
0
100
AcDbLine
 10
119.6472749999999
 20
491.1945
 30
0.0
 11
119.6472749999999
 21
475.5702999999999
 31
0.0
  0
LINE
  5
1D8
330
1E
100
AcDbEntity
  8
0
100
AcDbLine
 10
119.6472749999999
 20
491.1945
 30
0.0
 11
119.6472749999999
 21
503.5656999999999
 31
0.0
  0
LINE
  5
1D9
330
1E
100
AcDbEntity
  8
0
100
AcDbLine
 10
119.6472749999999
 20
475.5702999999999
 30
0.0
 11
119.6472749999999
 21
457.0092
 31
0.0
  0
LINE
  5
1DA
330
1E
100
AcDbEntity
  8
0
100
AcDbLine
 10
119.6472749999999
 20
475.5702999999999
 30
0.0
 11
119.6472749999999
 21
491.1945
 31
0.0
  0
LINE
  5
1DB
330
1E
100
AcDbEntity
  8
0
100
AcDbLine
 10
119.6472749999999
 20
511.915656088387
 30
0.0
 11
120.9332749999999
 21
513.5590999999999
 31
0.0
  0
LINE
  5
1DC
330
1E
100
AcDbEntity
  8
0
100
AcDbLine
 10
119.6472749999999
 20
512.3656185166749
 30
0.0
 11
120.6382749999999
 21
513.6772999999999
 31
0.0
  0
LINE
  5
1DD
330
1E
100
AcDbEntity
  8
0
100
AcDbLine
 10
119.6472749999999
 20
511.915656088387
 30
0.0
 11
120.9332749999999
 21
513.5590999999999
 31
0.0
  0
LINE
  5
1DE
330
1E
100
AcDbEntity
  8
0
100
AcDbLine
 10
119.6472749999999
 20
503.5656999999999
 30
0.0
 11
119.6472749999999
 21
512.7
 31
0.0
  0
LINE
  5
1DF
330
1E
100
AcDbEntity
  8
0
100
AcDbLine
 10
119.6472749999999
 20
503.5656999999999
 30
0.0
 11
119.6472749999999
 21
491.1945
 31
0.0
  0
LINE
  5
1E0
330
1E
100
AcDbEntity
  8
0
100
AcDbLine
 10
119.6472749999999
 20
512.7
 30
0.0
 11
119.6472749999999
 21
518.2
 31
0.0
  0
LINE
  5
1E1
330
1E
100
AcDbEntity
  8
0
100
AcDbLine
 10
119.6472749999999
 20
512.7
 30
0.0
 11
119.6472749999999
 21
503.5656999999999
 31
0.0
  0
LINE
  5
1E2
330
1E
100
AcDbEntity
  8
0
100
AcDbLine
 10
119.6472749999999
 20
520.0
 30
0.0
 11
119.6472749999999
 21
518.2
 31
0.0
  0
LINE
  5
1E3
330
1E
100
AcDbEntity
  8
0
100
AcDbLine
 10
119.6472749999999
 20
518.2
 30
0.0
 11
119.6472749999999
 21
520.0
 31
0.0
  0
LINE
  5
1E4
330
1E
100
AcDbEntity
  8
0
100
AcDbLine
 10
119.6472749999999
 20
518.2
 30
0.0
 11
119.6472749999999
 21
512.7
 31
0.0
  0
LINE
  5
1E5
330
1E
100
AcDbEntity
  8
0
100
AcDbLine
 10
118.3472749999999
 20
525.0
 30
0.0
 11
119.247275
 21
522.5999999999999
 31
0.0
  0
LINE
  5
1E6
330
1E
100
AcDbEntity
  8
0
100
AcDbLine
 10
116.7472749999999
 20
527.0999999999999
 30
0.0
 11
118.3472749999999
 21
525.0
 31
0.0
  0
LINE
  5
1E7
330
1E
100
AcDbEntity
  8
0
100
AcDbLine
 10
100.947275
 20
525.0
 30
0.0
 11
102.547275
 21
527.0999999999999
 31
0.0
  0
LINE
  5
1E8
330
1E
100
AcDbEntity
  8
0
100
AcDbLine
 10
99.647275
 20
520.0
 30
0.0
 11
99.647275
 21
518.2
 31
0.0
  0
LINE
  5
1E9
330
1E
100
AcDbEntity
  8
0
100
AcDbLine
 10
79.64727499999999
 20
551.105
 30
0.0
 11
80.329075
 21
551.0
 31
0.0
  0
LINE
  5
1EA
330
1E
100
AcDbEntity
  8
0
100
AcDbLine
 10
79.64727499999999
 20
551.105
 30
0.0
 11
80.738175
 21
551.105
 31
0.0
  0
LINE
  5
1EB
330
1E
100
AcDbEntity
  8
0
100
AcDbLine
 10
79.64727499999999
 20
551.105
 30
0.0
 11
79.64727499999999
 21
559.0
 31
0.0
  0
LINE
  5
1EC
330
1E
100
AcDbEntity
  8
0
100
AcDbLine
 10
101.6472749999999
 20
530.06598785872
 30
0.0
 11
101.6472749999999
 21
551.0
 31
0.0
  0
LINE
  5
1ED
330
1E
100
AcDbEntity
  8
0
100
AcDbLine
 10
100.4882749999999
 20
529.159
 30
0.0
 11
103.206275
 21
531.2859999999999
 31
0.0
  0
LINE
  5
1EE
330
1E
100
AcDbEntity
  8
0
100
AcDbLine
 10
103.206275
 20
531.2859999999999
 30
0.0
 11
106.279275
 21
532.5269999999999
 31
0.0
  0
LINE
  5
1EF
330
1E
100
AcDbEntity
  8
0
100
AcDbLine
 10
100.6652749999999
 20
528.9819999999999
 30
0.0
 11
103.324275
 21
530.991
 31
0.0
  0
LINE
  5
1F0
330
1E
100
AcDbEntity
  8
0
100
AcDbLine
 10
103.324275
 20
530.991
 30
0.0
 11
106.397275
 21
532.2319999999999
 31
0.0
  0
LINE
  5
1F1
330
1E
100
AcDbEntity
  8
0
100
AcDbLine
 10
105.6832749999999
 20
551.0
 30
0.0
 11
107.574275
 21
551.0
 31
0.0
  0
LINE
  5
1F2
330
1E
100
AcDbEntity
  8
0
100
AcDbLine
 10
104.011275
 20
551.0
 30
0.0
 11
105.6832749999999
 21
551.0
 31
0.0
  0
LINE
  5
1F3
330
1E
100
AcDbEntity
  8
0
100
AcDbLine
 10
102.7012749999999
 20
551.0
 30
0.0
 11
104.011275
 21
551.0
 31
0.0
  0
LINE
  5
1F4
330
1E
100
AcDbEntity
  8
0
100
AcDbLine
 10
101.938275
 20
551.0
 30
0.0
 11
102.7012749999999
 21
551.0
 31
0.0
  0
LINE
  5
1F5
330
1E
100
AcDbEntity
  8
0
100
AcDbLine
 10
101.6472749999999
 20
551.0
 30
0.0
 11
101.6472749999999
 21
530.06598785872
 31
0.0
  0
LINE
  5
1F6
330
1E
100
AcDbEntity
  8
0
100
AcDbLine
 10
101.6472749999999
 20
551.0
 30
0.0
 11
101.938275
 21
551.0
 31
0.0
  0
LINE
  5
1F7
330
1E
100
AcDbEntity
  8
0
100
AcDbLine
 10
106.279275
 20
532.5269999999999
 30
0.0
 11
109.647275
 21
533.0
 31
0.0
  0
LINE
  5
1F8
330
1E
100
AcDbEntity
  8
0
100
AcDbLine
 10
106.397275
 20
532.2319999999999
 30
0.0
 11
109.647275
 21
532.7040000000001
 31
0.0
  0
LINE
  5
1F9
330
1E
100
AcDbEntity
  8
0
100
AcDbLine
 10
95.05627500000001
 20
551.0
 30
0.0
 11
101.6472749999999
 21
551.0
 31
0.0
  0
LINE
  5
1FA
330
1E
100
AcDbEntity
  8
0
100
AcDbLine
 10
88.919975
 20
551.0
 30
0.0
 11
95.05627500000001
 21
551.0
 31
0.0
  0
LINE
  5
1FB
330
1E
100
AcDbEntity
  8
0
100
AcDbLine
 10
84.283675
 20
551.0
 30
0.0
 11
88.919975
 21
551.0
 31
0.0
  0
LINE
  5
1FC
330
1E
100
AcDbEntity
  8
0
100
AcDbLine
 10
101.8742749999999
 20
551.105
 30
0.0
 11
109.647275
 21
551.105
 31
0.0
  0
LINE
  5
1FD
330
1E
100
AcDbEntity
  8
0
100
AcDbLine
 10
94.783275
 20
551.105
 30
0.0
 11
101.8742749999999
 21
551.105
 31
0.0
  0
LINE
  5
1FE
330
1E
100
AcDbEntity
  8
0
100
AcDbLine
 10
88.510875
 20
551.105
 30
0.0
 11
94.783275
 21
551.105
 31
0.0
  0
LINE
  5
1FF
330
1E
100
AcDbEntity
  8
0
100
AcDbLine
 10
83.601775
 20
551.105
 30
0.0
 11
88.510875
 21
551.105
 31
0.0
  0
LINE
  5
200
330
1E
100
AcDbEntity
  8
0
100
AcDbLine
 10
80.738175
 20
551.105
 30
0.0
 11
83.601775
 21
551.105
 31
0.0
  0
LINE
  5
201
330
1E
100
AcDbEntity
  8
0
100
AcDbLine
 10
81.419975
 20
551.0
 30
0.0
 11
84.283675
 21
551.0
 31
0.0
  0
LINE
  5
202
330
1E
100
AcDbEntity
  8
0
100
AcDbLine
 10
80.329075
 20
551.0
 30
0.0
 11
81.419975
 21
551.0
 31
0.0
  0
LINE
  5
203
330
1E
100
AcDbEntity
  8
0
100
AcDbLine
 10
104.6472749999999
 20
528.7
 30
0.0
 11
107.0472749999999
 21
529.6
 31
0.0
  0
LINE
  5
204
330
1E
100
AcDbEntity
  8
0
100
AcDbLine
 10
109.647275
 20
551.0
 30
0.0
 11
111.720275
 21
551.0
 31
0.0
  0
LINE
  5
205
330
1E
100
AcDbEntity
  8
0
100
AcDbLine
 10
107.574275
 20
551.0
 30
0.0
 11
109.647275
 21
551.0
 31
0.0
  0
LINE
  5
206
330
1E
100
AcDbEntity
  8
0
100
AcDbLine
 10
109.647275
 20
533.0
 30
0.0
 11
113.015275
 21
532.5269999999999
 31
0.0
  0
LINE
  5
207
330
1E
100
AcDbEntity
  8
0
100
AcDbLine
 10
109.647275
 20
532.7040000000001
 30
0.0
 11
112.8972749999999
 21
532.2319999999999
 31
0.0
  0
LINE
  5
208
330
1E
100
AcDbEntity
  8
0
100
AcDbLine
 10
109.647275
 20
551.105
 30
0.0
 11
117.420275
 21
551.105
 31
0.0
  0
LINE
  5
209
330
1E
100
AcDbEntity
  8
0
100
AcDbLine
 10
118.6292749999999
 20
528.9819999999999
 30
0.0
 11
120.6382749999999
 21
526.3227
 31
0.0
  0
LINE
  5
20A
330
1E
100
AcDbEntity
  8
0
100
AcDbLine
 10
118.806275
 20
529.159
 30
0.0
 11
120.9332749999999
 21
526.4409
 31
0.0
  0
LINE
  5
20B
330
1E
100
AcDbEntity
  8
0
100
AcDbLine
 10
111.720275
 20
551.0
 30
0.0
 11
113.611275
 21
551.0
 31
0.0
  0
LINE
  5
20C
330
1E
100
AcDbEntity
  8
0
100
AcDbLine
 10
117.647275
 20
530.06598785872
 30
0.0
 11
117.647275
 21
551.0
 31
0.0
  0
LINE
  5
20D
330
1E
100
AcDbEntity
  8
0
100
AcDbLine
 10
113.611275
 20
551.0
 30
0.0
 11
115.2832749999999
 21
551.0
 31
0.0
  0
LINE
  5
20E
330
1E
100
AcDbEntity
  8
0
100
AcDbLine
 10
115.2832749999999
 20
551.0
 30
0.0
 11
116.592275
 21
551.0
 31
0.0
  0
LINE
  5
20F
330
1E
100
AcDbEntity
  8
0
100
AcDbLine
 10
116.592275
 20
551.0
 30
0.0
 11
117.356275
 21
551.0
 31
0.0
  0
LINE
  5
210
330
1E
100
AcDbEntity
  8
0
100
AcDbLine
 10
117.356275
 20
551.0
 30
0.0
 11
117.647275
 21
551.0
 31
0.0
  0
LINE
  5
211
330
1E
100
AcDbEntity
  8
0
100
AcDbLine
 10
116.088275
 20
531.2859999999999
 30
0.0
 11
118.806275
 21
529.159
 31
0.0
  0
LINE
  5
212
330
1E
100
AcDbEntity
  8
0
100
AcDbLine
 10
113.015275
 20
532.5269999999999
 30
0.0
 11
116.088275
 21
531.2859999999999
 31
0.0
  0
LINE
  5
213
330
1E
100
AcDbEntity
  8
0
100
AcDbLine
 10
115.970275
 20
530.991
 30
0.0
 11
118.6292749999999
 21
528.9819999999999
 31
0.0
  0
LINE
  5
214
330
1E
100
AcDbEntity
  8
0
100
AcDbLine
 10
112.8972749999999
 20
532.2319999999999
 30
0.0
 11
115.970275
 21
530.991
 31
0.0
  0
LINE
  5
215
330
1E
100
AcDbEntity
  8
0
100
AcDbLine
 10
117.420275
 20
551.105
 30
0.0
 11
124.511275
 21
551.105
 31
0.0
  0
LINE
  5
216
330
1E
100
AcDbEntity
  8
0
100
AcDbLine
 10
117.647275
 20
551.0
 30
0.0
 11
124.2382749999999
 21
551.0
 31
0.0
  0
LINE
  5
217
330
1E
100
AcDbEntity
  8
0
100
AcDbLine
 10
117.647275
 20
551.0
 30
0.0
 11
117.647275
 21
530.06598785872
 31
0.0
  0
LINE
  5
218
330
1E
100
AcDbEntity
  8
0
100
AcDbLine
 10
112.247275
 20
529.6
 30
0.0
 11
114.647275
 21
528.7
 31
0.0
  0
LINE
  5
219
330
1E
100
AcDbEntity
  8
0
100
AcDbLine
 10
109.647275
 20
530.0
 30
0.0
 11
112.247275
 21
529.6
 31
0.0
  0
LINE
  5
21A
330
1E
100
AcDbEntity
  8
0
100
AcDbLine
 10
114.647275
 20
528.7
 30
0.0
 11
116.7472749999999
 21
527.0999999999999
 31
0.0
  0
LINE
  5
21B
330
1E
100
AcDbEntity
  8
0
100
AcDbLine
 10
107.0472749999999
 20
529.6
 30
0.0
 11
109.647275
 21
530.0
 31
0.0
  0
LINE
  5
21C
330
1E
100
AcDbEntity
  8
0
100
AcDbLine
 10
102.547275
 20
527.0999999999999
 30
0.0
 11
104.6472749999999
 21
528.7
 31
0.0
  0
LINE
  5
21D
330
1E
100
AcDbEntity
  8
0
100
AcDbLine
 10
120.9332749999999
 20
513.5590999999999
 30
0.0
 11
122.1742749999999
 21
516.6318
 31
0.0
  0
LINE
  5
21E
330
1E
100
AcDbEntity
  8
0
100
AcDbLine
 10
121.879275
 20
516.75
 30
0.0
 11
122.352275
 21
520.0
 31
0.0
  0
LINE
  5
21F
330
1E
100
AcDbEntity
  8
0
100
AcDbLine
 10
120.6382749999999
 20
513.6772999999999
 30
0.0
 11
121.879275
 21
516.75
 31
0.0
  0
LINE
  5
220
330
1E
100
AcDbEntity
  8
0
100
AcDbLine
 10
122.1742749999999
 20
516.6318
 30
0.0
 11
122.6472749999999
 21
520.0
 31
0.0
  0
LINE
  5
221
330
1E
100
AcDbEntity
  8
0
100
AcDbLine
 10
122.1742749999999
 20
523.3681999999999
 30
0.0
 11
122.6472749999999
 21
520.0
 31
0.0
  0
LINE
  5
222
330
1E
100
AcDbEntity
  8
0
100
AcDbLine
 10
121.879275
 20
523.2499999999999
 30
0.0
 11
122.352275
 21
520.0
 31
0.0
  0
LINE
  5
223
330
1E
100
AcDbEntity
  8
0
100
AcDbLine
 10
120.9332749999999
 20
526.4409
 30
0.0
 11
122.1742749999999
 21
523.3681999999999
 31
0.0
  0
LINE
  5
224
330
1E
100
AcDbEntity
  8
0
100
AcDbLine
 10
120.6382749999999
 20
526.3227
 30
0.0
 11
121.879275
 21
523.2499999999999
 31
0.0
  0
LINE
  5
225
330
1E
100
AcDbEntity
  8
0
100
AcDbLine
 10
124.2382749999999
 20
551.0
 30
0.0
 11
130.374275
 21
551.0
 31
0.0
  0
LINE
  5
226
330
1E
100
AcDbEntity
  8
0
100
AcDbLine
 10
130.374275
 20
551.0
 30
0.0
 11
135.011275
 21
551.0
 31
0.0
  0
LINE
  5
227
330
1E
100
AcDbEntity
  8
0
100
AcDbLine
 10
138.9652749999999
 20
551.0
 30
0.0
 11
139.647275
 21
551.105
 31
0.0
  0
LINE
  5
228
330
1E
100
AcDbEntity
  8
0
100
AcDbLine
 10
135.011275
 20
551.0
 30
0.0
 11
137.874275
 21
551.0
 31
0.0
  0
LINE
  5
229
330
1E
100
AcDbEntity
  8
0
100
AcDbLine
 10
124.511275
 20
551.105
 30
0.0
 11
130.7832749999999
 21
551.105
 31
0.0
  0
LINE
  5
22A
330
1E
100
AcDbEntity
  8
0
100
AcDbLine
 10
130.7832749999999
 20
551.105
 30
0.0
 11
135.692275
 21
551.105
 31
0.0
  0
LINE
  5
22B
330
1E
100
AcDbEntity
  8
0
100
AcDbLine
 10
135.692275
 20
551.105
 30
0.0
 11
138.556275
 21
551.105
 31
0.0
  0
LINE
  5
22C
330
1E
100
AcDbEntity
  8
0
100
AcDbLine
 10
138.556275
 20
551.105
 30
0.0
 11
139.647275
 21
551.105
 31
0.0
  0
LINE
  5
22D
330
1E
100
AcDbEntity
  8
0
100
AcDbLine
 10
139.647275
 20
551.105
 30
0.0
 11
139.647275
 21
559.0
 31
0.0
  0
LINE
  5
22E
330
1E
100
AcDbEntity
  8
0
100
AcDbLine
 10
137.874275
 20
551.0
 30
0.0
 11
138.9652749999999
 21
551.0
 31
0.0
  0
LINE
  5
22F
330
1E
100
AcDbEntity
  8
0
100
AcDbLine
 10
119.6472749999999
 20
475.0
 30
0.0
 11
218.852275
 21
475.0
 31
0.0
  0
LINE
  5
230
330
1E
100
AcDbEntity
  8
0
100
AcDbLine
 10
109.647275
 20
559.0
 30
0.0
 11
117.420275
 21
559.0
 31
0.0
  0
LINE
  5
231
330
1E
100
AcDbEntity
  8
0
100
AcDbLine
 10
117.420275
 20
559.0
 30
0.0
 11
124.511275
 21
559.0
 31
0.0
  0
LINE
  5
232
330
1E
100
AcDbEntity
  8
0
100
AcDbLine
 10
124.511275
 20
559.0
 30
0.0
 11
130.7832749999999
 21
559.0
 31
0.0
  0
LINE
  5
233
330
1E
100
AcDbEntity
  8
0
100
AcDbLine
 10
130.7832749999999
 20
559.0
 30
0.0
 11
135.692275
 21
559.0
 31
0.0
  0
LINE
  5
234
330
1E
100
AcDbEntity
  8
0
100
AcDbLine
 10
135.692275
 20
559.0
 30
0.0
 11
138.556275
 21
559.0
 31
0.0
  0
LINE
  5
235
330
1E
100
AcDbEntity
  8
0
100
AcDbLine
 10
138.556275
 20
559.0
 30
0.0
 11
139.647275
 21
559.0
 31
0.0
  0
LINE
  5
236
330
1E
100
AcDbEntity
  8
0
100
AcDbLine
 10
139.647275
 20
559.0
 30
0.0
 11
139.647275
 21
551.105
 31
0.0
  0
LINE
  5
237
330
1E
100
AcDbEntity
  8
0
100
AcDbLine
 10
101.8742749999999
 20
559.0
 30
0.0
 11
109.647275
 21
559.0
 31
0.0
  0
LINE
  5
238
330
1E
100
AcDbEntity
  8
0
100
AcDbLine
 10
94.783275
 20
559.0
 30
0.0
 11
101.8742749999999
 21
559.0
 31
0.0
  0
LINE
  5
239
330
1E
100
AcDbEntity
  8
0
100
AcDbLine
 10
88.510875
 20
559.0
 30
0.0
 11
94.783275
 21
559.0
 31
0.0
  0
LINE
  5
23A
330
1E
100
AcDbEntity
  8
0
100
AcDbLine
 10
83.601775
 20
559.0
 30
0.0
 11
88.510875
 21
559.0
 31
0.0
  0
LINE
  5
23B
330
1E
100
AcDbEntity
  8
0
100
AcDbLine
 10
80.738175
 20
559.0
 30
0.0
 11
83.601775
 21
559.0
 31
0.0
  0
LINE
  5
23C
330
1E
100
AcDbEntity
  8
0
100
AcDbLine
 10
79.64727499999999
 20
559.0
 30
0.0
 11
79.64727499999999
 21
551.105
 31
0.0
  0
LINE
  5
23D
330
1E
100
AcDbEntity
  8
0
100
AcDbLine
 10
79.64727499999999
 20
559.0
 30
0.0
 11
80.738175
 21
559.0
 31
0.0
  0
LINE
  5
23E
330
1E
100
AcDbEntity
  8
0
100
AcDbLine
 10
139.647275
 20
558.0
 30
0.0
 11
218.852275
 21
558.0
 31
0.0
  0
LINE
  5
23F
330
1E
100
AcDbEntity
  8
0
100
AcDbLine
 10
218.852275
 20
475.0
 30
0.0
 11
218.852275
 21
558.0
 31
0.0
  0
LINE
  5
240
330
1E
100
AcDbEntity
  8
0
100
AcDbLine
 10
218.852275
 20
475.0
 30
0.0
 11
219.8522749999999
 21
475.0
 31
0.0
  0
LINE
  5
241
330
1E
100
AcDbEntity
  8
0
100
AcDbLine
 10
218.852275
 20
475.0
 30
0.0
 11
218.852275
 21
474.0
 31
0.0
  0
LINE
  5
242
330
1E
100
AcDbEntity
  8
0
100
AcDbLine
 10
219.8522749999999
 20
538.751111381697
 30
0.0
 11
232.123275
 21
539.278
 31
0.0
  0
LINE
  5
243
330
1E
100
AcDbEntity
  8
0
100
AcDbLine
 10
219.8522749999999
 20
522.760430627164
 30
0.0
 11
232.8182749999999
 21
523.3181
 31
0.0
  0
LINE
  5
244
330
1E
100
AcDbEntity
  8
0
100
AcDbLine
 10
290.6472749999999
 20
477.5541999999999
 30
0.0
 11
293.4472749999999
 21
483.0179
 31
0.0
  0
LINE
  5
245
330
1E
100
AcDbEntity
  8
0
100
AcDbLine
 10
293.4472749999999
 20
483.0179
 30
0.0
 11
297.347275
 21
488.0959999999999
 31
0.0
  0
LINE
  5
246
330
1E
100
AcDbEntity
  8
0
100
AcDbLine
 10
297.347275
 20
488.0959999999999
 30
0.0
 11
302.347275
 21
492.9168999999999
 31
0.0
  0
LINE
  5
247
330
1E
100
AcDbEntity
  8
0
100
AcDbLine
 10
302.347275
 20
492.9168999999999
 30
0.0
 11
308.2472749999999
 21
497.2878
 31
0.0
  0
LINE
  5
248
330
1E
100
AcDbEntity
  8
0
100
AcDbLine
 10
308.2472749999999
 20
497.2878
 30
0.0
 11
315.047275
 21
501.0803
 31
0.0
  0
LINE
  5
249
330
1E
100
AcDbEntity
  8
0
100
AcDbLine
 10
315.047275
 20
501.0803
 30
0.0
 11
315.6472749999999
 21
501.3321
 31
0.0
  0
LINE
  5
24A
330
1E
100
AcDbEntity
  8
0
100
AcDbLine
 10
315.047275
 20
501.0803
 30
0.0
 11
316.56459041119
 21
501.7305000000029
 31
0.0
  0
LINE
  5
24B
330
1E
100
AcDbEntity
  8
0
100
AcDbLine
 10
308.947275
 20
497.6039
 30
0.0
 11
315.6472749999999
 21
501.3321
 31
0.0
  0
LINE
  5
24C
330
1E
100
AcDbEntity
  8
0
100
AcDbLine
 10
315.6472749999999
 20
501.3321
 30
0.0
 11
323.047275
 21
504.546
 31
0.0
  0
LINE
  5
24D
330
1E
100
AcDbEntity
  8
0
100
AcDbLine
 10
323.047275
 20
504.546
 30
0.0
 11
330.847275
 21
506.9243
 31
0.0
  0
LINE
  5
24E
330
1E
100
AcDbEntity
  8
0
100
AcDbLine
 10
330.847275
 20
506.9243
 30
0.0
 11
339.647275
 21
508.7884
 31
0.0
  0
LINE
  5
24F
330
1E
100
AcDbEntity
  8
0
100
AcDbLine
 10
344.1472749999999
 20
509.380881927711
 30
0.0
 11
344.1472749999999
 21
530.125
 31
0.0
  0
LINE
  5
250
330
1E
100
AcDbEntity
  8
0
100
AcDbLine
 10
344.301355365084
 20
509.401168556984
 30
0.0
 11
344.547275
 21
511.0966
 31
0.0
  0
LINE
  5
251
330
1E
100
AcDbEntity
  8
0
100
AcDbLine
 10
344.547275
 20
511.0966
 30
0.0
 11
345.847275
 21
513.6245999999999
 31
0.0
  0
LINE
  5
252
330
1E
100
AcDbEntity
  8
0
100
AcDbLine
 10
345.847275
 20
513.6245999999999
 30
0.0
 11
347.847275
 21
515.8460999999999
 31
0.0
  0
LINE
  5
253
330
1E
100
AcDbEntity
  8
0
100
AcDbLine
 10
347.847275
 20
515.8460999999999
 30
0.0
 11
350.447275
 21
517.5313999999999
 31
0.0
  0
LINE
  5
254
330
1E
100
AcDbEntity
  8
0
100
AcDbLine
 10
347.878214495546
 20
509.8721073109319
 30
0.0
 11
347.9472749999999
 21
510.3305999999999
 31
0.0
  0
LINE
  5
255
330
1E
100
AcDbEntity
  8
0
100
AcDbLine
 10
347.9472749999999
 20
510.3305999999999
 30
0.0
 11
348.847275
 21
512.1690999999999
 31
0.0
  0
LINE
  5
256
330
1E
100
AcDbEntity
  8
0
100
AcDbLine
 10
339.647275
 20
508.7884
 30
0.0
 11
347.9472749999999
 21
509.8811999999999
 31
0.0
  0
LINE
  5
257
330
1E
100
AcDbEntity
  8
0
100
AcDbLine
 10
365.347275
 20
510.3305999999999
 30
0.0
 11
365.4163355044539
 21
509.8721073109319
 31
0.0
  0
LINE
  5
258
330
1E
100
AcDbEntity
  8
0
100
AcDbLine
 10
369.1472749999999
 20
509.380881927711
 30
0.0
 11
369.1472749999999
 21
530.125
 31
0.0
  0
LINE
  5
259
330
1E
100
AcDbEntity
  8
0
100
AcDbLine
 10
365.347275
 20
509.8811999999999
 30
0.0
 11
373.6472749999999
 21
508.7884
 31
0.0
  0
LINE
  5
25A
330
1E
100
AcDbEntity
  8
0
100
AcDbLine
 10
348.847275
 20
512.1690999999999
 30
0.0
 11
350.2472749999999
 21
513.7011999999999
 31
0.0
  0
LINE
  5
25B
330
1E
100
AcDbEntity
  8
0
100
AcDbLine
 10
350.2472749999999
 20
513.7011999999999
 30
0.0
 11
352.147275
 21
514.9267999999999
 31
0.0
  0
LINE
  5
25C
330
1E
100
AcDbEntity
  8
0
100
AcDbLine
 10
350.447275
 20
517.5313999999999
 30
0.0
 11
353.4472749999999
 21
518.5272
 31
0.0
  0
LINE
  5
25D
330
1E
100
AcDbEntity
  8
0
100
AcDbLine
 10
353.4472749999999
 20
518.5272
 30
0.0
 11
356.6472749999999
 21
518.9103
 31
0.0
  0
LINE
  5
25E
330
1E
100
AcDbEntity
  8
0
100
AcDbLine
 10
352.147275
 20
514.9267999999999
 30
0.0
 11
354.347275
 21
515.6928999999999
 31
0.0
  0
LINE
  5
25F
330
1E
100
AcDbEntity
  8
0
100
AcDbLine
 10
368.7472749999999
 20
511.0966
 30
0.0
 11
368.9931946349159
 21
509.401168556984
 31
0.0
  0
LINE
  5
260
330
1E
100
AcDbEntity
  8
0
100
AcDbLine
 10
367.447275
 20
513.6245999999999
 30
0.0
 11
368.7472749999999
 21
511.0966
 31
0.0
  0
LINE
  5
261
330
1E
100
AcDbEntity
  8
0
100
AcDbLine
 10
364.4472749999999
 20
512.1690999999999
 30
0.0
 11
365.347275
 21
510.3305999999999
 31
0.0
  0
LINE
  5
262
330
1E
100
AcDbEntity
  8
0
100
AcDbLine
 10
363.047275
 20
513.7011999999999
 30
0.0
 11
364.4472749999999
 21
512.1690999999999
 31
0.0
  0
LINE
  5
263
330
1E
100
AcDbEntity
  8
0
100
AcDbLine
 10
365.447275
 20
515.8460999999999
 30
0.0
 11
367.447275
 21
513.6245999999999
 31
0.0
  0
LINE
  5
264
330
1E
100
AcDbEntity
  8
0
100
AcDbLine
 10
361.1472749999999
 20
514.9267999999999
 30
0.0
 11
363.047275
 21
513.7011999999999
 31
0.0
  0
LINE
  5
265
330
1E
100
AcDbEntity
  8
0
100
AcDbLine
 10
358.947275
 20
515.6928999999999
 30
0.0
 11
361.1472749999999
 21
514.9267999999999
 31
0.0
  0
LINE
  5
266
330
1E
100
AcDbEntity
  8
0
100
AcDbLine
 10
362.847275
 20
517.5313999999999
 30
0.0
 11
365.447275
 21
515.8460999999999
 31
0.0
  0
LINE
  5
267
330
1E
100
AcDbEntity
  8
0
100
AcDbLine
 10
359.847275
 20
518.5272
 30
0.0
 11
362.847275
 21
517.5313999999999
 31
0.0
  0
LINE
  5
268
330
1E
100
AcDbEntity
  8
0
100
AcDbLine
 10
356.6472749999999
 20
518.9103
 30
0.0
 11
359.847275
 21
518.5272
 31
0.0
  0
LINE
  5
269
330
1E
100
AcDbEntity
  8
0
100
AcDbLine
 10
356.6472749999999
 20
515.9992999999999
 30
0.0
 11
358.947275
 21
515.6928999999999
 31
0.0
  0
LINE
  5
26A
330
1E
100
AcDbEntity
  8
0
100
AcDbLine
 10
354.347275
 20
515.6928999999999
 30
0.0
 11
356.6472749999999
 21
515.9992999999999
 31
0.0
  0
LINE
  5
26B
330
1E
100
AcDbEntity
  8
0
100
AcDbLine
 10
356.6472749999999
 20
510.3310999999999
 30
0.0
 11
365.347275
 21
509.8811999999999
 31
0.0
  0
LINE
  5
26C
330
1E
100
AcDbEntity
  8
0
100
AcDbLine
 10
347.9472749999999
 20
509.8811999999999
 30
0.0
 11
356.6472749999999
 21
510.3310999999999
 31
0.0
  0
LINE
  5
26D
330
1E
100
AcDbEntity
  8
0
100
AcDbLine
 10
303.1472749999999
 20
493.2971999999999
 30
0.0
 11
308.947275
 21
497.6039
 31
0.0
  0
LINE
  5
26E
330
1E
100
AcDbEntity
  8
0
100
AcDbLine
 10
298.147275
 20
488.5405999999999
 30
0.0
 11
303.1472749999999
 21
493.2971999999999
 31
0.0
  0
LINE
  5
26F
330
1E
100
AcDbEntity
  8
0
100
AcDbLine
 10
294.447275
 20
483.5269
 30
0.0
 11
298.147275
 21
488.5405999999999
 31
0.0
  0
LINE
  5
270
330
1E
100
AcDbEntity
  8
0
100
AcDbLine
 10
291.547275
 20
477.8703
 30
0.0
 11
294.447275
 21
483.5269
 31
0.0
  0
LINE
  5
271
330
1E
100
AcDbEntity
  8
0
100
AcDbLine
 10
288.4852749999999
 20
526.1276
 30
0.0
 11
307.4742749999999
 21
527.266
 31
0.0
  0
LINE
  5
272
330
1E
100
AcDbEntity
  8
0
100
AcDbLine
 10
269.797275
 20
525.1218999999999
 30
0.0
 11
288.4852749999999
 21
526.1276
 31
0.0
  0
LINE
  5
273
330
1E
100
AcDbEntity
  8
0
100
AcDbLine
 10
248.407275
 20
524.0476
 30
0.0
 11
269.797275
 21
525.1218999999999
 31
0.0
  0
LINE
  5
274
330
1E
100
AcDbEntity
  8
0
100
AcDbLine
 10
232.8182749999999
 20
523.3181
 30
0.0
 11
248.407275
 21
524.0476
 31
0.0
  0
LINE
  5
275
330
1E
100
AcDbEntity
  8
0
100
AcDbLine
 10
422.647275
 20
477.5541999999999
 30
0.0
 11
424.4472749999999
 21
471.8333999999999
 31
0.0
  0
LINE
  5
276
330
1E
100
AcDbEntity
  8
0
100
AcDbLine
 10
415.9472749999999
 20
488.0959999999999
 30
0.0
 11
419.847275
 21
483.0179
 31
0.0
  0
LINE
  5
277
330
1E
100
AcDbEntity
  8
0
100
AcDbLine
 10
405.0472749999999
 20
497.2878
 30
0.0
 11
410.947275
 21
492.9168999999999
 31
0.0
  0
LINE
  5
278
330
1E
100
AcDbEntity
  8
0
100
AcDbLine
 10
404.347275
 20
497.6039
 30
0.0
 11
410.147275
 21
493.2971999999999
 31
0.0
  0
LINE
  5
279
330
1E
100
AcDbEntity
  8
0
100
AcDbLine
 10
410.947275
 20
492.9168999999999
 30
0.0
 11
415.9472749999999
 21
488.0959999999999
 31
0.0
  0
LINE
  5
27A
330
1E
100
AcDbEntity
  8
0
100
AcDbLine
 10
410.147275
 20
493.2971999999999
 30
0.0
 11
415.1472749999999
 21
488.5405999999999
 31
0.0
  0
LINE
  5
27B
330
1E
100
AcDbEntity
  8
0
100
AcDbLine
 10
415.1472749999999
 20
488.5405999999999
 30
0.0
 11
418.847275
 21
483.5269
 31
0.0
  0
LINE
  5
27C
330
1E
100
AcDbEntity
  8
0
100
AcDbLine
 10
419.847275
 20
483.0179
 30
0.0
 11
422.647275
 21
477.5541999999999
 31
0.0
  0
LINE
  5
27D
330
1E
100
AcDbEntity
  8
0
100
AcDbLine
 10
418.847275
 20
483.5269
 30
0.0
 11
421.7472749999999
 21
477.8703
 31
0.0
  0
LINE
  5
27E
330
1E
100
AcDbEntity
  8
0
100
AcDbLine
 10
421.7472749999999
 20
477.8703
 30
0.0
 11
423.447275
 21
472.5351999999999
 31
0.0
  0
LINE
  5
27F
330
1E
100
AcDbEntity
  8
0
100
AcDbLine
 10
398.2472749999999
 20
501.0803
 30
0.0
 11
405.0472749999999
 21
497.2878
 31
0.0
  0
LINE
  5
280
330
1E
100
AcDbEntity
  8
0
100
AcDbLine
 10
396.72995958881
 20
501.7305000000029
 30
0.0
 11
398.2472749999999
 21
501.0803
 31
0.0
  0
LINE
  5
281
330
1E
100
AcDbEntity
  8
0
100
AcDbLine
 10
397.6472749999999
 20
501.3321
 30
0.0
 11
404.347275
 21
497.6039
 31
0.0
  0
LINE
  5
282
330
1E
100
AcDbEntity
  8
0
100
AcDbLine
 10
397.6472749999999
 20
501.3321
 30
0.0
 11
398.2472749999999
 21
501.0803
 31
0.0
  0
LINE
  5
283
330
1E
100
AcDbEntity
  8
0
100
AcDbLine
 10
390.247275
 20
504.546
 30
0.0
 11
397.6472749999999
 21
501.3321
 31
0.0
  0
LINE
  5
284
330
1E
100
AcDbEntity
  8
0
100
AcDbLine
 10
382.4472749999999
 20
506.9243
 30
0.0
 11
390.247275
 21
504.546
 31
0.0
  0
LINE
  5
285
330
1E
100
AcDbEntity
  8
0
100
AcDbLine
 10
373.6472749999999
 20
508.7884
 30
0.0
 11
382.4472749999999
 21
506.9243
 31
0.0
  0
LINE
  5
286
330
1E
100
AcDbEntity
  8
0
100
AcDbLine
 10
370.247275
 20
526.7999999999999
 30
0.0
 11
370.6472749999999
 21
529.4999999999999
 31
0.0
  0
LINE
  5
287
330
1E
100
AcDbEntity
  8
0
100
AcDbLine
 10
369.1472749999999
 20
524.2
 30
0.0
 11
370.247275
 21
526.7999999999999
 31
0.0
  0
LINE
  5
288
330
1E
100
AcDbEntity
  8
0
100
AcDbLine
 10
333.532275
 20
529.065
 30
0.0
 11
342.6472749999999
 21
529.8287258304409
 31
0.0
  0
LINE
  5
289
330
1E
100
AcDbEntity
  8
0
100
AcDbLine
 10
322.354275
 20
528.214
 30
0.0
 11
333.532275
 21
529.065
 31
0.0
  0
LINE
  5
28A
330
1E
100
AcDbEntity
  8
0
100
AcDbLine
 10
307.4742749999999
 20
527.266
 30
0.0
 11
322.354275
 21
528.214
 31
0.0
  0
LINE
  5
28B
330
1E
100
AcDbEntity
  8
0
100
AcDbLine
 10
332.838275
 20
545.0239999999999
 30
0.0
 11
342.6472749999999
 21
545.84684719881
 31
0.0
  0
LINE
  5
28C
330
1E
100
AcDbEntity
  8
0
100
AcDbLine
 10
321.660275
 20
544.1729999999999
 30
0.0
 11
332.838275
 21
545.0239999999999
 31
0.0
  0
LINE
  5
28D
330
1E
100
AcDbEntity
  8
0
100
AcDbLine
 10
306.7692749999999
 20
543.225
 30
0.0
 11
321.660275
 21
544.1729999999999
 31
0.0
  0
LINE
  5
28E
330
1E
100
AcDbEntity
  8
0
100
AcDbLine
 10
287.7912749999999
 20
542.0869999999999
 30
0.0
 11
306.7692749999999
 21
543.225
 31
0.0
  0
LINE
  5
28F
330
1E
100
AcDbEntity
  8
0
100
AcDbLine
 10
269.103275
 20
541.082
 30
0.0
 11
287.7912749999999
 21
542.0869999999999
 31
0.0
  0
LINE
  5
290
330
1E
100
AcDbEntity
  8
0
100
AcDbLine
 10
247.7132749999999
 20
540.008
 30
0.0
 11
269.103275
 21
541.082
 31
0.0
  0
LINE
  5
291
330
1E
100
AcDbEntity
  8
0
100
AcDbLine
 10
232.123275
 20
539.278
 30
0.0
 11
247.7132749999999
 21
540.008
 31
0.0
  0
LINE
  5
292
330
1E
100
AcDbEntity
  8
0
100
AcDbLine
 10
342.6472749999999
 20
537.7999999999999
 30
0.0
 11
342.6472749999999
 21
529.4999999999999
 31
0.0
  0
LINE
  5
293
330
1E
100
AcDbEntity
  8
0
100
AcDbLine
 10
342.6472749999999
 20
537.7999999999999
 30
0.0
 11
342.6472749999999
 21
559.0
 31
0.0
  0
LINE
  5
294
330
1E
100
AcDbEntity
  8
0
100
AcDbLine
 10
344.1472749999999
 20
530.125
 30
0.0
 11
344.547275
 21
533.246
 31
0.0
  0
LINE
  5
295
330
1E
100
AcDbEntity
  8
0
100
AcDbLine
 10
344.1472749999999
 20
530.125
 30
0.0
 11
344.1472749999999
 21
509.380881927711
 31
0.0
  0
LINE
  5
296
330
1E
100
AcDbEntity
  8
0
100
AcDbLine
 10
344.547275
 20
533.246
 30
0.0
 11
345.847275
 21
536.1499999999999
 31
0.0
  0
LINE
  5
297
330
1E
100
AcDbEntity
  8
0
100
AcDbLine
 10
345.847275
 20
536.1499999999999
 30
0.0
 11
347.847275
 21
538.696
 31
0.0
  0
LINE
  5
298
330
1E
100
AcDbEntity
  8
0
100
AcDbLine
 10
347.847275
 20
538.696
 30
0.0
 11
350.447275
 21
540.589
 31
0.0
  0
LINE
  5
299
330
1E
100
AcDbEntity
  8
0
100
AcDbLine
 10
350.447275
 20
540.589
 30
0.0
 11
353.4472749999999
 21
541.753
 31
0.0
  0
LINE
  5
29A
330
1E
100
AcDbEntity
  8
0
100
AcDbLine
 10
368.7472749999999
 20
533.246
 30
0.0
 11
369.1472749999999
 21
530.125
 31
0.0
  0
LINE
  5
29B
330
1E
100
AcDbEntity
  8
0
100
AcDbLine
 10
369.1472749999999
 20
530.125
 30
0.0
 11
369.1472749999999
 21
509.380881927711
 31
0.0
  0
LINE
  5
29C
330
1E
100
AcDbEntity
  8
0
100
AcDbLine
 10
367.447275
 20
536.1499999999999
 30
0.0
 11
368.7472749999999
 21
533.246
 31
0.0
  0
LINE
  5
29D
330
1E
100
AcDbEntity
  8
0
100
AcDbLine
 10
365.447275
 20
538.696
 30
0.0
 11
367.447275
 21
536.1499999999999
 31
0.0
  0
LINE
  5
29E
330
1E
100
AcDbEntity
  8
0
100
AcDbLine
 10
362.847275
 20
540.589
 30
0.0
 11
365.447275
 21
538.696
 31
0.0
  0
LINE
  5
29F
330
1E
100
AcDbEntity
  8
0
100
AcDbLine
 10
359.847275
 20
541.753
 30
0.0
 11
362.847275
 21
540.589
 31
0.0
  0
LINE
  5
2A0
330
1E
100
AcDbEntity
  8
0
100
AcDbLine
 10
356.6472749999999
 20
542.1879999999999
 30
0.0
 11
359.847275
 21
541.753
 31
0.0
  0
LINE
  5
2A1
330
1E
100
AcDbEntity
  8
0
100
AcDbLine
 10
353.4472749999999
 20
541.753
 30
0.0
 11
356.6472749999999
 21
542.1879999999999
 31
0.0
  0
LINE
  5
2A2
330
1E
100
AcDbEntity
  8
0
100
AcDbLine
 10
370.6472749999999
 20
529.4999999999999
 30
0.0
 11
370.6472749999999
 21
559.0
 31
0.0
  0
LINE
  5
2A3
330
1E
100
AcDbEntity
  8
0
100
AcDbLine
 10
342.6472749999999
 20
529.4999999999999
 30
0.0
 11
342.6472749999999
 21
559.0
 31
0.0
  0
LINE
  5
2A4
330
1E
100
AcDbEntity
  8
0
100
AcDbLine
 10
342.6472749999999
 20
529.4999999999999
 30
0.0
 11
343.047275
 21
526.7999999999999
 31
0.0
  0
LINE
  5
2A5
330
1E
100
AcDbEntity
  8
0
100
AcDbLine
 10
342.6472749999999
 20
529.4999999999999
 30
0.0
 11
342.6472749999999
 21
537.7999999999999
 31
0.0
  0
LINE
  5
2A6
330
1E
100
AcDbEntity
  8
0
100
AcDbLine
 10
343.047275
 20
526.7999999999999
 30
0.0
 11
344.1472749999999
 21
524.2
 31
0.0
  0
LINE
  5
2A7
330
1E
100
AcDbEntity
  8
0
100
AcDbLine
 10
219.8522749999999
 20
475.0
 30
0.0
 11
219.8522749999999
 21
558.0
 31
0.0
  0
LINE
  5
2A8
330
1E
100
AcDbEntity
  8
0
100
AcDbLine
 10
342.6472749999999
 20
559.0
 30
0.0
 11
343.247275
 21
559.0
 31
0.0
  0
LINE
  5
2A9
330
1E
100
AcDbEntity
  8
0
100
AcDbLine
 10
342.6472749999999
 20
559.0
 30
0.0
 11
342.6472749999999
 21
529.4999999999999
 31
0.0
  0
LINE
  5
2AA
330
1E
100
AcDbEntity
  8
0
100
AcDbLine
 10
342.6472749999999
 20
559.0
 30
0.0
 11
342.6472749999999
 21
537.7999999999999
 31
0.0
  0
LINE
  5
2AB
330
1E
100
AcDbEntity
  8
0
100
AcDbLine
 10
343.247275
 20
559.0
 30
0.0
 11
344.347275
 21
559.0
 31
0.0
  0
LINE
  5
2AC
330
1E
100
AcDbEntity
  8
0
100
AcDbLine
 10
344.347275
 20
559.0
 30
0.0
 11
345.6472749999999
 21
559.0
 31
0.0
  0
LINE
  5
2AD
330
1E
100
AcDbEntity
  8
0
100
AcDbLine
 10
345.6472749999999
 20
559.0
 30
0.0
 11
346.047275
 21
559.0
 31
0.0
  0
LINE
  5
2AE
330
1E
100
AcDbEntity
  8
0
100
AcDbLine
 10
346.047275
 20
559.0
 30
0.0
 11
347.1472749999999
 21
559.0
 31
0.0
  0
LINE
  5
2AF
330
1E
100
AcDbEntity
  8
0
100
AcDbLine
 10
347.1472749999999
 20
559.0
 30
0.0
 11
348.847275
 21
559.0
 31
0.0
  0
LINE
  5
2B0
330
1E
100
AcDbEntity
  8
0
100
AcDbLine
 10
348.847275
 20
559.0
 30
0.0
 11
351.1472749999999
 21
559.0
 31
0.0
  0
LINE
  5
2B1
330
1E
100
AcDbEntity
  8
0
100
AcDbLine
 10
351.1472749999999
 20
559.0
 30
0.0
 11
353.847275
 21
559.0
 31
0.0
  0
LINE
  5
2B2
330
1E
100
AcDbEntity
  8
0
100
AcDbLine
 10
370.6472749999999
 20
559.0
 30
0.0
 11
370.6472749999999
 21
529.4999999999999
 31
0.0
  0
LINE
  5
2B3
330
1E
100
AcDbEntity
  8
0
100
AcDbLine
 10
370.047275
 20
559.0
 30
0.0
 11
370.6472749999999
 21
559.0
 31
0.0
  0
LINE
  5
2B4
330
1E
100
AcDbEntity
  8
0
100
AcDbLine
 10
368.947275
 20
559.0
 30
0.0
 11
370.047275
 21
559.0
 31
0.0
  0
LINE
  5
2B5
330
1E
100
AcDbEntity
  8
0
100
AcDbLine
 10
367.6472749999999
 20
559.0
 30
0.0
 11
368.947275
 21
559.0
 31
0.0
  0
LINE
  5
2B6
330
1E
100
AcDbEntity
  8
0
100
AcDbLine
 10
367.247275
 20
559.0
 30
0.0
 11
367.6472749999999
 21
559.0
 31
0.0
  0
LINE
  5
2B7
330
1E
100
AcDbEntity
  8
0
100
AcDbLine
 10
366.1472749999999
 20
559.0
 30
0.0
 11
367.247275
 21
559.0
 31
0.0
  0
LINE
  5
2B8
330
1E
100
AcDbEntity
  8
0
100
AcDbLine
 10
364.4472749999999
 20
559.0
 30
0.0
 11
366.1472749999999
 21
559.0
 31
0.0
  0
LINE
  5
2B9
330
1E
100
AcDbEntity
  8
0
100
AcDbLine
 10
362.1472749999999
 20
559.0
 30
0.0
 11
364.4472749999999
 21
559.0
 31
0.0
  0
LINE
  5
2BA
330
1E
100
AcDbEntity
  8
0
100
AcDbLine
 10
359.4472749999999
 20
559.0
 30
0.0
 11
362.1472749999999
 21
559.0
 31
0.0
  0
LINE
  5
2BB
330
1E
100
AcDbEntity
  8
0
100
AcDbLine
 10
356.6472749999999
 20
559.0
 30
0.0
 11
359.4472749999999
 21
559.0
 31
0.0
  0
LINE
  5
2BC
330
1E
100
AcDbEntity
  8
0
100
AcDbLine
 10
353.847275
 20
559.0
 30
0.0
 11
356.6472749999999
 21
559.0
 31
0.0
  0
LINE
  5
2BD
330
1E
100
AcDbEntity
  8
0
100
AcDbLine
 10
219.8522749999999
 20
558.0
 30
0.0
 11
219.8522749999999
 21
475.0
 31
0.0
  0
LINE
  5
2BE
330
1E
100
AcDbEntity
  8
0
100
AcDbLine
 10
218.852275
 20
558.0
 30
0.0
 11
219.8522749999999
 21
558.0
 31
0.0
  0
LINE
  5
2BF
330
1E
100
AcDbEntity
  8
0
100
AcDbLine
 10
218.852275
 20
558.0
 30
0.0
 11
218.852275
 21
559.0
 31
0.0
  0
LINE
  5
2C0
330
1E
100
AcDbEntity
  8
0
100
AcDbLine
 10
218.852275
 20
558.0
 30
0.0
 11
218.852275
 21
475.0
 31
0.0
  0
LINE
  5
2C1
330
1E
100
AcDbEntity
  8
0
100
AcDbLine
 10
218.852275
 20
559.0
 30
0.0
 11
218.852275
 21
558.0
 31
0.0
  0
LINE
  5
2C2
330
1E
100
AcDbEntity
  8
0
100
AcDbLine
 10
218.852275
 20
559.0
 30
0.0
 11
219.8522749999999
 21
558.0
 31
0.0
  0
LINE
  5
2C3
330
1E
100
AcDbEntity
  8
0
100
AcDbLine
 10
139.647275
 20
559.0
 30
0.0
 11
218.852275
 21
559.0
 31
0.0
  0
LINE
  5
2C4
330
1E
100
AcDbEntity
  8
0
100
AcDbLine
 10
57.552775
 20
474.0
 30
0.0
 11
58.352775
 21
474.0
 31
0.0
  0
LINE
  5
2C5
330
1E
100
AcDbEntity
  8
0
100
AcDbLine
 10
55.252775
 20
474.0
 30
0.0
 11
57.552775
 21
474.0
 31
0.0
  0
LINE
  5
2C6
330
1E
100
AcDbEntity
  8
0
100
AcDbLine
 10
58.352775
 20
472.0
 30
0.0
 11
58.852775
 21
472.0
 31
0.0
  0
LINE
  5
2C7
330
1E
100
AcDbEntity
  8
0
100
AcDbLine
 10
28.752775
 20
474.0
 30
0.0
 11
34.852775
 21
474.0
 31
0.0
  0
LINE
  5
2C8
330
1E
100
AcDbEntity
  8
0
100
AcDbLine
 10
29.552775
 20
459.0
 30
0.0
 11
34.852775
 21
459.0
 31
0.0
  0
LINE
  5
2C9
330
1E
100
AcDbEntity
  8
0
100
AcDbLine
 10
26.5813464285714
 20
459.0
 30
0.0
 11
29.552775
 21
459.0
 31
0.0
  0
LINE
  5
2CE
330
1E
100
AcDbEntity
  8
0
100
AcDbLine
 10
99.647275
 20
520.0
 30
0.0
 11
99.97947613416455
 21
523.3497639192424
 31
0.0
  0
LINE
  5
2CF
330
1E
100
AcDbEntity
  8
0
100
AcDbLine
 10
99.97947613416455
 20
523.3497639192424
 30
0.0
 11
100.947275
 21
525.0
 31
0.0
  0
LINE
  5
2D0
330
1E
100
AcDbEntity
  8
0
100
AcDbLine
 10
119.247275
 20
522.5999999999999
 30
0.0
 11
119.6472749999999
 21
520.0
 31
0.0
  0
ENDSEC
  0
SECTION
  2
OBJECTS
  0
DICTIONARY
  5
C
330
0
100
AcDbDictionary
281
     1
  3
ACAD_GROUP
350
D
  3
ACAD_LAYOUT
350
19
  3
ACAD_MLINESTYLE
350
16
  3
ACAD_PLOTSETTINGS
350
18
  3
ACAD_PLOTSTYLENAME
350
E
  3
AcDbVariableDictionary
350
2D1
  0
DICTIONARY
  5
D
102
{ACAD_REACTORS
330
C
102
}
330
C
100
AcDbDictionary
281
     1
  0
DICTIONARY
  5
19
102
{ACAD_REACTORS
330
C
102
}
330
C
100
AcDbDictionary
281
     1
  3
Layout1
350
1D
  3
Model
350
21
  0
DICTIONARY
  5
16
102
{ACAD_REACTORS
330
C
102
}
330
C
100
AcDbDictionary
281
     1
  3
Standard
350
17
  0
DICTIONARY
  5
18
102
{ACAD_REACTORS
330
C
102
}
330
C
100
AcDbDictionary
281
     1
  0
ACDBDICTIONARYWDFLT
  5
E
102
{ACAD_REACTORS
330
C
102
}
330
C
100
AcDbDictionary
281
     1
  3
Normal
350
F
100
AcDbDictionaryWithDefault
340
F
  0
DICTIONARY
  5
2D1
102
{ACAD_REACTORS
330
C
102
}
330
C
100
AcDbDictionary
281
     1
  3
DIMASSOC
350
2D2
  0
LAYOUT
  5
1D
102
{ACAD_REACTORS
330
19
102
}
330
19
100
AcDbPlotSettings
  1

  2
hp deskjet 980c series
  4

  6

 40
0.0
 41
0.0
 42
0.0
 43
0.0
 44
0.0
 45
0.0
 46
0.0
 47
0.0
 48
0.0
 49
0.0
140
0.0
141
0.0
142
1.0
143
1.0
 70
   688
 72
     0
 73
     0
 74
     5
  7

 75
    16
147
1.0
148
0.0
149
0.0
100
AcDbLayout
  1
Layout1
 70
     1
 71
     1
 10
0.0
 20
0.0
 11
12.0
 21
9.0
 12
0.0
 22
0.0
 32
0.0
 14
1.000000000000000E+20
 24
1.000000000000000E+20
 34
1.000000000000000E+20
 15
-1.000000000000000E+20
 25
-1.000000000000000E+20
 35
-1.000000000000000E+20
146
0.0
 13
0.0
 23
0.0
 33
0.0
 16
1.0
 26
0.0
 36
0.0
 17
0.0
 27
1.0
 37
0.0
 76
     0
330
1A
  0
LAYOUT
  5
21
102
{ACAD_REACTORS
330
19
102
}
330
19
100
AcDbPlotSettings
  1

  2
hp deskjet 980c series
  4

  6

 40
0.0
 41
0.0
 42
0.0
 43
0.0
 44
0.0
 45
0.0
 46
0.0
 47
0.0
 48
0.0
 49
0.0
140
0.0
141
0.0
142
1.0
143
1.0
 70
  1712
 72
     0
 73
     0
 74
     0
  7

 75
     0
147
1.0
148
0.0
149
0.0
100
AcDbLayout
  1
Model
 70
     1
 71
     0
 10
0.0
 20
0.0
 11
12.0
 21
9.0
 12
0.0
 22
0.0
 32
0.0
 14
0.0
 24
0.0
 34
0.0
 15
0.0
 25
0.0
 35
0.0
146
0.0
 13
0.0
 23
0.0
 33
0.0
 16
1.0
 26
0.0
 36
0.0
 17
0.0
 27
1.0
 37
0.0
 76
     0
330
1E
  0
MLINESTYLE
  5
17
102
{ACAD_REACTORS
330
16
102
}
330
16
100
AcDbMlineStyle
  2
STANDARD
 70
     0
  3

 62
   256
 51
90.0
 52
90.0
 71
     2
 49
0.5
 62
   256
  6
BYLAYER
 49
-0.5
 62
   256
  6
BYLAYER
  0
ACDBPLACEHOLDER
  5
F
102
{ACAD_REACTORS
330
E
102
}
330
E
  0
DICTIONARYVAR
  5
2D2
102
{ACAD_REACTORS
330
2D1
102
}
330
2D1
100
DictionaryVariables
280
     0
  1
1
  0
ENDSEC
  0
EOF
