  0
SECTION
  2
HEADER
  9
$ACADVER
  1
AC1015
  9
$ACADMAINTVER
 70
     6
  9
$DWGCODEPAGE
  3
ANSI_1252
  9
$INSBASE
 10
0.0
 20
0.0
 30
0.0
  9
$EXTMIN
 10
121.0
 20
0.0
 30
0.0
  9
$EXTMAX
 10
565.227864544333
 20
284.0
 30
0.0
  9
$LIMMIN
 10
0.0
 20
0.0
  9
$LIMMAX
 10
12.0
 20
9.0
  9
$ORTHOMODE
 70
     0
  9
$REGENMODE
 70
     1
  9
$FILLMODE
 70
     1
  9
$QTEXTMODE
 70
     0
  9
$MIRRTEXT
 70
     1
  9
$LTSCALE
 40
1.0
  9
$ATTMODE
 70
     1
  9
$TEXTSIZE
 40
0.2
  9
$TRACEWID
 40
0.05
  9
$TEXTSTYLE
  7
Standard
  9
$CLAYER
  8
0
  9
$CELTYPE
  6
Continuous
  9
$CECOLOR
 62
   256
  9
$CELTSCALE
 40
1.0
  9
$DISPSILH
 70
     0
  9
$DIMSCALE
 40
1.0
  9
$DIMASZ
 40
0.18
  9
$DIMEXO
 40
0.0625
  9
$DIMDLI
 40
0.38
  9
$DIMRND
 40
0.0
  9
$DIMDLE
 40
0.0
  9
$DIMEXE
 40
0.18
  9
$DIMTP
 40
0.0
  9
$DIMTM
 40
0.0
  9
$DIMTXT
 40
0.18
  9
$DIMCEN
 40
0.09
  9
$DIMTSZ
 40
0.0
  9
$DIMTOL
 70
     0
  9
$DIMLIM
 70
     0
  9
$DIMTIH
 70
     1
  9
$DIMTOH
 70
     1
  9
$DIMSE1
 70
     0
  9
$DIMSE2
 70
     0
  9
$DIMTAD
 70
     0
  9
$DIMZIN
 70
     0
  9
$DIMBLK
  1

  9
$DIMASO
 70
     1
  9
$DIMSHO
 70
     1
  9
$DIMPOST
  1

  9
$DIMAPOST
  1

  9
$DIMALT
 70
     0
  9
$DIMALTD
 70
     2
  9
$DIMALTF
 40
25.4
  9
$DIMLFAC
 40
1.0
  9
$DIMTOFL
 70
     0
  9
$DIMTVP
 40
0.0
  9
$DIMTIX
 70
     0
  9
$DIMSOXD
 70
     0
  9
$DIMSAH
 70
     0
  9
$DIMBLK1
  1

  9
$DIMBLK2
  1

  9
$DIMSTYLE
  2
Standard
  9
$DIMCLRD
 70
     0
  9
$DIMCLRE
 70
     0
  9
$DIMCLRT
 70
     0
  9
$DIMTFAC
 40
1.0
  9
$DIMGAP
 40
0.09
  9
$DIMJUST
 70
     0
  9
$DIMSD1
 70
     0
  9
$DIMSD2
 70
     0
  9
$DIMTOLJ
 70
     1
  9
$DIMTZIN
 70
     0
  9
$DIMALTZ
 70
     0
  9
$DIMALTTZ
 70
     0
  9
$DIMUPT
 70
     0
  9
$DIMDEC
 70
     4
  9
$DIMTDEC
 70
     4
  9
$DIMALTU
 70
     2
  9
$DIMALTTD
 70
     2
  9
$DIMTXSTY
  7
Standard
  9
$DIMAUNIT
 70
     0
  9
$DIMADEC
 70
     0
  9
$DIMALTRND
 40
0.0
  9
$DIMAZIN
 70
     0
  9
$DIMDSEP
 70
    46
  9
$DIMATFIT
 70
     3
  9
$DIMFRAC
 70
     0
  9
$DIMLDRBLK
  1

  9
$DIMLUNIT
 70
     2
  9
$DIMLWD
 70
    -2
  9
$DIMLWE
 70
    -2
  9
$DIMTMOVE
 70
     0
  9
$LUNITS
 70
     2
  9
$LUPREC
 70
     4
  9
$SKETCHINC
 40
0.1
  9
$FILLETRAD
 40
0.0
  9
$AUNITS
 70
     0
  9
$AUPREC
 70
     0
  9
$MENU
  1
.
  9
$ELEVATION
 40
0.0
  9
$PELEVATION
 40
0.0
  9
$THICKNESS
 40
0.0
  9
$LIMCHECK
 70
     0
  9
$CHAMFERA
 40
0.0
  9
$CHAMFERB
 40
0.0
  9
$CHAMFERC
 40
0.0
  9
$CHAMFERD
 40
0.0
  9
$SKPOLY
 70
     0
  9
$TDCREATE
 40
2454638.718205474
  9
$TDUCREATE
 40
2454638.634872141
  9
$TDUPDATE
 40
2456209.814429433
  9
$TDUUPDATE
 40
2456209.7310961
  9
$TDINDWG
 40
0.0110671644
  9
$TDUSRTIMER
 40
0.0110671644
  9
$USRTIMER
 70
     1
  9
$ANGBASE
 50
0.0
  9
$ANGDIR
 70
     0
  9
$PDMODE
 70
     0
  9
$PDSIZE
 40
0.0
  9
$PLINEWID
 40
0.0
  9
$SPLFRAME
 70
     0
  9
$SPLINETYPE
 70
     6
  9
$SPLINESEGS
 70
     8
  9
$HANDSEED
  5
1A5B
  9
$SURFTAB1
 70
     6
  9
$SURFTAB2
 70
     6
  9
$SURFTYPE
 70
     6
  9
$SURFU
 70
     6
  9
$SURFV
 70
     6
  9
$UCSBASE
  2

  9
$UCSNAME
  2

  9
$UCSORG
 10
0.0
 20
0.0
 30
0.0
  9
$UCSXDIR
 10
1.0
 20
0.0
 30
0.0
  9
$UCSYDIR
 10
0.0
 20
1.0
 30
0.0
  9
$UCSORTHOREF
  2

  9
$UCSORTHOVIEW
 70
     1
  9
$UCSORGTOP
 10
0.0
 20
0.0
 30
0.0
  9
$UCSORGBOTTOM
 10
0.0
 20
0.0
 30
0.0
  9
$UCSORGLEFT
 10
0.0
 20
0.0
 30
0.0
  9
$UCSORGRIGHT
 10
0.0
 20
0.0
 30
0.0
  9
$UCSORGFRONT
 10
0.0
 20
0.0
 30
0.0
  9
$UCSORGBACK
 10
0.0
 20
0.0
 30
0.0
  9
$PUCSBASE
  2

  9
$PUCSNAME
  2

  9
$PUCSORG
 10
0.0
 20
0.0
 30
0.0
  9
$PUCSXDIR
 10
1.0
 20
0.0
 30
0.0
  9
$PUCSYDIR
 10
0.0
 20
1.0
 30
0.0
  9
$PUCSORTHOREF
  2

  9
$PUCSORTHOVIEW
 70
     0
  9
$PUCSORGTOP
 10
0.0
 20
0.0
 30
0.0
  9
$PUCSORGBOTTOM
 10
0.0
 20
0.0
 30
0.0
  9
$PUCSORGLEFT
 10
0.0
 20
0.0
 30
0.0
  9
$PUCSORGRIGHT
 10
0.0
 20
0.0
 30
0.0
  9
$PUCSORGFRONT
 10
0.0
 20
0.0
 30
0.0
  9
$PUCSORGBACK
 10
0.0
 20
0.0
 30
0.0
  9
$USERI1
 70
     0
  9
$USERI2
 70
     0
  9
$USERI3
 70
     0
  9
$USERI4
 70
     0
  9
$USERI5
 70
     0
  9
$USERR1
 40
0.0
  9
$USERR2
 40
0.0
  9
$USERR3
 40
0.0
  9
$USERR4
 40
0.0
  9
$USERR5
 40
0.0
  9
$WORLDVIEW
 70
     1
  9
$SHADEDGE
 70
     3
  9
$SHADEDIF
 70
    70
  9
$TILEMODE
 70
     1
  9
$MAXACTVP
 70
    64
  9
$PINSBASE
 10
0.0
 20
0.0
 30
0.0
  9
$PLIMCHECK
 70
     0
  9
$PEXTMIN
 10
1.000000000000E+20
 20
1.000000000000E+20
 30
1.000000000000E+20
  9
$PEXTMAX
 10
-1.000000000000E+20
 20
-1.000000000000E+20
 30
-1.000000000000E+20
  9
$PLIMMIN
 10
0.0
 20
0.0
  9
$PLIMMAX
 10
12.0
 20
9.0
  9
$UNITMODE
 70
     0
  9
$VISRETAIN
 70
     1
  9
$PLINEGEN
 70
     0
  9
$PSLTSCALE
 70
     1
  9
$TREEDEPTH
 70
  3020
  9
$CMLSTYLE
  2
Standard
  9
$CMLJUST
 70
     0
  9
$CMLSCALE
 40
1.0
  9
$PROXYGRAPHICS
 70
     1
  9
$MEASUREMENT
 70
     0
  9
$CELWEIGHT
370
    -1
  9
$ENDCAPS
280
     0
  9
$JOINSTYLE
280
     0
  9
$LWDISPLAY
290
     0
  9
$INSUNITS
 70
     0
  9
$HYPERLINKBASE
  1

  9
$STYLESHEET
  1

  9
$XEDIT
290
     1
  9
$CEPSNTYPE
380
     0
  9
$PSTYLEMODE
290
     1
  9
$FINGERPRINTGUID
  2
{C6465F74-7A46-4FD2-9085-A73387B9E09C}
  9
$VERSIONGUID
  2
{CBBE6A2A-B6CA-444A-9177-691B527CC25A}
  9
$EXTNAMES
290
     1
  9
$PSVPSCALE
 40
0.0
  9
$OLESTARTUP
290
     0
  0
ENDSEC
  0
SECTION
  2
CLASSES
  0
CLASS
  1
ACDBDICTIONARYWDFLT
  2
AcDbDictionaryWithDefault
  3
ObjectDBX Classes
 90
        0
280
     0
281
     0
  0
CLASS
  1
ACDBPLACEHOLDER
  2
AcDbPlaceHolder
  3
ObjectDBX Classes
 90
        0
280
     0
281
     0
  0
CLASS
  1
LAYOUT
  2
AcDbLayout
  3
ObjectDBX Classes
 90
        0
280
     0
281
     0
  0
CLASS
  1
DICTIONARYVAR
  2
AcDbDictionaryVar
  3
ObjectDBX Classes
 90
        0
280
     0
281
     0
  0
CLASS
  1
SCALE
  2
AcDbScale
  3
ObjectDBX Classes
 90
     1153
280
     0
281
     0
  0
ENDSEC
  0
SECTION
  2
TABLES
  0
TABLE
  2
VPORT
  5
8
330
0
100
AcDbSymbolTable
 70
     1
  0
VPORT
  5
D81
330
8
100
AcDbSymbolTableRecord
100
AcDbViewportTableRecord
  2
*Active
 70
     0
 10
0.0
 20
0.0
 11
1.0
 21
1.0
 12
282.613932272166
 22
142.0
 13
0.0
 23
0.0
 14
1.0
 24
1.0
 15
0.0
 25
0.0
 16
0.0
 26
0.0
 36
1.0
 17
0.0
 27
0.0
 37
0.0
 40
289.68
 41
2.271724137931
 42
50.0
 43
0.0
 44
0.0
 50
0.0
 51
0.0
 71
    16
 72
   100
 73
     1
 74
     3
 75
     0
 76
     0
 77
     0
 78
     0
281
     0
 65
     1
110
0.0
120
0.0
130
0.0
111
1.0
121
0.0
131
0.0
112
0.0
122
1.0
132
0.0
 79
     1
146
0.0
  0
ENDTAB
  0
TABLE
  2
LTYPE
  5
5
330
0
100
AcDbSymbolTable
 70
     1
  0
LTYPE
  5
13
330
5
100
AcDbSymbolTableRecord
100
AcDbLinetypeTableRecord
  2
ByBlock
 70
     0
  3

 72
    65
 73
     0
 40
0.0
  0
LTYPE
  5
14
330
5
100
AcDbSymbolTableRecord
100
AcDbLinetypeTableRecord
  2
ByLayer
 70
     0
  3

 72
    65
 73
     0
 40
0.0
  0
LTYPE
  5
15
330
5
100
AcDbSymbolTableRecord
100
AcDbLinetypeTableRecord
  2
Continuous
 70
     0
  3
Solid line
 72
    65
 73
     0
 40
0.0
  0
ENDTAB
  0
TABLE
  2
LAYER
  5
2
330
0
100
AcDbSymbolTable
 70
     1
  0
LAYER
  5
10
330
2
100
AcDbSymbolTableRecord
100
AcDbLayerTableRecord
  2
0
 70
     0
 62
     7
  6
Continuous
370
    -3
390
F
  0
ENDTAB
  0
TABLE
  2
STYLE
  5
3
330
0
100
AcDbSymbolTable
 70
     1
  0
STYLE
  5
11
330
3
100
AcDbSymbolTableRecord
100
AcDbTextStyleTableRecord
  2
Standard
 70
     0
 40
0.0
 41
1.0
 50
0.0
 71
     0
 42
0.2
  3
txt
  4

  0
ENDTAB
  0
TABLE
  2
VIEW
  5
6
330
0
100
AcDbSymbolTable
 70
     0
  0
ENDTAB
  0
TABLE
  2
UCS
  5
7
330
0
100
AcDbSymbolTable
 70
     0
  0
ENDTAB
  0
TABLE
  2
APPID
  5
9
330
0
100
AcDbSymbolTable
 70
     1
  0
APPID
  5
12
330
9
100
AcDbSymbolTableRecord
100
AcDbRegAppTableRecord
  2
ACAD
 70
     0
  0
ENDTAB
  0
TABLE
  2
DIMSTYLE
  5
A
330
0
100
AcDbSymbolTable
 70
     1
100
AcDbDimStyleTable
  0
DIMSTYLE
105
D6E
330
A
100
AcDbSymbolTableRecord
100
AcDbDimStyleTableRecord
  2
Standard
 70
     0
340
11
  0
ENDTAB
  0
TABLE
  2
BLOCK_RECORD
  5
1
330
0
100
AcDbSymbolTable
 70
     2
  0
BLOCK_RECORD
  5
1E
330
1
100
AcDbSymbolTableRecord
100
AcDbBlockTableRecord
  2
*Model_Space
340
21
  0
BLOCK_RECORD
  5
1A
330
1
100
AcDbSymbolTableRecord
100
AcDbBlockTableRecord
  2
*Paper_Space
340
1D
  0
ENDTAB
  0
ENDSEC
  0
SECTION
  2
BLOCKS
  0
BLOCK
  5
1F
330
1E
100
AcDbEntity
  8
0
100
AcDbBlockBegin
  2
*Model_Space
 70
     0
 10
0.0
 20
0.0
 30
0.0
  3
*Model_Space
  1
*Model_Space
  0
ENDBLK
  5
20
330
1E
100
AcDbEntity
  8
0
100
AcDbBlockEnd
  0
BLOCK
  5
1B
330
1A
100
AcDbEntity
 67
     1
  8
0
100
AcDbBlockBegin
  2
*Paper_Space
 70
     0
 10
0.0
 20
0.0
 30
0.0
  3
*Paper_Space
  1
*Paper_Space
  0
ENDBLK
  5
1C
330
1A
100
AcDbEntity
 67
     1
  8
0
100
AcDbBlockEnd
  0
ENDSEC
  0
SECTION
  2
ENTITIES
  0
LINE
  5
2C
330
1E
100
AcDbEntity
  8
0
100
AcDbLine
 10
145.823529
 20
0.0
 30
0.0
 11
146.85294
 21
0.0
 31
0.0
  0
LINE
  5
2D
330
1E
100
AcDbEntity
  8
0
100
AcDbLine
 10
145.205882
 20
0.0
 30
0.0
 11
145.823529
 21
0.0
 31
0.0
  0
LINE
  5
2E
330
1E
100
AcDbEntity
  8
0
100
AcDbLine
 10
145.514706
 20
9.7
 30
0.0
 11
146.13235
 21
9.7
 31
0.0
  0
LINE
  5
2F
330
1E
100
AcDbEntity
  8
0
100
AcDbLine
 10
145.308824
 20
9.7
 30
0.0
 11
145.514706
 21
9.7
 31
0.0
  0
LINE
  5
30
330
1E
100
AcDbEntity
  8
0
100
AcDbLine
 10
145.0
 20
9.0
 30
0.0
 11
145.0
 21
0.0
 31
0.0
  0
LINE
  5
31
330
1E
100
AcDbEntity
  8
0
100
AcDbLine
 10
145.0
 20
0.0
 30
0.0
 11
145.205882
 21
0.0
 31
0.0
  0
LINE
  5
32
330
1E
100
AcDbEntity
  8
0
100
AcDbLine
 10
145.0
 20
0.0
 30
0.0
 11
145.0
 21
9.0
 31
0.0
  0
LINE
  5
33
330
1E
100
AcDbEntity
  8
0
100
AcDbLine
 10
146.13235
 20
9.7
 30
0.0
 11
147.05882
 21
9.7
 31
0.0
  0
LINE
  5
34
330
1E
100
AcDbEntity
  8
0
100
AcDbLine
 10
146.85294
 20
0.0
 30
0.0
 11
148.08823
 21
0.0
 31
0.0
  0
LINE
  5
3B
330
1E
100
AcDbEntity
  8
0
100
AcDbLine
 10
148.08823
 20
0.0
 30
0.0
 11
149.63235
 21
0.0
 31
0.0
  0
LINE
  5
3C
330
1E
100
AcDbEntity
  8
0
100
AcDbLine
 10
147.05882
 20
9.7
 30
0.0
 11
148.29412
 21
9.7
 31
0.0
  0
LINE
  5
3D
330
1E
100
AcDbEntity
  8
0
100
AcDbLine
 10
148.29412
 20
9.7
 30
0.0
 11
149.63235
 21
9.7
 31
0.0
  0
LINE
  5
3E
330
1E
100
AcDbEntity
  8
0
100
AcDbLine
 10
151.17647
 20
10.0
 30
0.0
 11
350.0
 21
10.0
 31
0.0
  0
LINE
  5
3F
330
1E
100
AcDbEntity
  8
0
100
AcDbLine
 10
149.63235
 20
9.7
 30
0.0
 11
151.17647
 21
9.7
 31
0.0
  0
LINE
  5
40
330
1E
100
AcDbEntity
  8
0
100
AcDbLine
 10
151.17647
 20
9.7
 30
0.0
 11
350.0
 21
9.7
 31
0.0
  0
LINE
  5
41
330
1E
100
AcDbEntity
  8
0
100
AcDbLine
 10
149.63235
 20
0.0
 30
0.0
 11
151.17647
 21
0.0
 31
0.0
  0
LINE
  5
DE
330
1E
100
AcDbEntity
  8
0
100
AcDbLine
 10
169.375
 20
10.0
 30
0.0
 11
170.0
 21
10.5
 31
0.0
  0
LINE
  5
DF
330
1E
100
AcDbEntity
  8
0
100
AcDbLine
 10
151.17647
 20
0.0
 30
0.0
 11
350.0
 21
0.0
 31
0.0
  0
LINE
  5
E0
330
1E
100
AcDbEntity
  8
0
100
AcDbLine
 10
151.17647
 20
0.0
 30
0.0
 11
170.039
 21
0.0
 31
0.0
  0
LINE
  5
E1
330
1E
100
AcDbEntity
  8
0
100
AcDbLine
 10
149.83823
 20
10.0
 30
0.0
 11
151.17647
 21
10.0
 31
0.0
  0
LINE
  5
E2
330
1E
100
AcDbEntity
  8
0
100
AcDbLine
 10
146.75
 20
10.0
 30
0.0
 11
147.57353
 21
10.0
 31
0.0
  0
LINE
  5
E3
330
1E
100
AcDbEntity
  8
0
100
AcDbLine
 10
146.23529
 20
10.0
 30
0.0
 11
146.75
 21
10.0
 31
0.0
  0
LINE
  5
E4
330
1E
100
AcDbEntity
  8
0
100
AcDbLine
 10
146.02941
 20
10.0
 30
0.0
 11
146.23529
 21
10.0
 31
0.0
  0
LINE
  5
E5
330
1E
100
AcDbEntity
  8
0
100
AcDbLine
 10
171.0
 20
13.0
 30
0.0
 11
171.0
 21
13.5
 31
0.0
  0
LINE
  5
E6
330
1E
100
AcDbEntity
  8
0
100
AcDbLine
 10
171.0
 20
13.5
 30
0.0
 11
171.0
 21
13.0
 31
0.0
  0
LINE
  5
E7
330
1E
100
AcDbEntity
  8
0
100
AcDbLine
 10
171.0
 20
13.5
 30
0.0
 11
171.1
 21
13.8
 31
0.0
  0
LINE
  5
E8
330
1E
100
AcDbEntity
  8
0
100
AcDbLine
 10
170.6
 20
11.4
 30
0.0
 11
171.0
 21
13.0
 31
0.0
  0
LINE
  5
E9
330
1E
100
AcDbEntity
  8
0
100
AcDbLine
 10
170.0
 20
10.5
 30
0.0
 11
170.6
 21
11.4
 31
0.0
  0
LINE
  5
28E
330
1E
100
AcDbEntity
  8
0
100
AcDbLine
 10
199.961
 20
0.0
 30
0.0
 11
279.099
 21
0.0
 31
0.0
  0
LINE
  5
290
330
1E
100
AcDbEntity
  8
0
100
AcDbLine
 10
171.1
 20
14.0
 30
0.0
 11
171.6
 21
14.0
 31
0.0
  0
LINE
  5
291
330
1E
100
AcDbEntity
  8
0
100
AcDbLine
 10
171.1
 20
14.0
 30
0.0
 11
171.3
 21
14.0
 31
0.0
  0
LINE
  5
292
330
1E
100
AcDbEntity
  8
0
100
AcDbLine
 10
171.1
 20
14.0
 30
0.0
 11
171.1
 21
15.2
 31
0.0
  0
LINE
  5
293
330
1E
100
AcDbEntity
  8
0
100
AcDbLine
 10
173.0
 20
14.0
 30
0.0
 11
175.2
 21
14.0
 31
0.0
  0
LINE
  5
294
330
1E
100
AcDbEntity
  8
0
100
AcDbLine
 10
171.6
 20
14.0
 30
0.0
 11
173.0
 21
14.0
 31
0.0
  0
LINE
  5
295
330
1E
100
AcDbEntity
  8
0
100
AcDbLine
 10
175.2
 20
14.0
 30
0.0
 11
178.1
 21
14.0
 31
0.0
  0
LINE
  5
296
330
1E
100
AcDbEntity
  8
0
100
AcDbLine
 10
178.1
 20
14.0
 30
0.0
 11
181.4
 21
14.0
 31
0.0
  0
LINE
  5
297
330
1E
100
AcDbEntity
  8
0
100
AcDbLine
 10
175.3
 20
14.0
 30
0.0
 11
178.2
 21
14.0
 31
0.0
  0
LINE
  5
298
330
1E
100
AcDbEntity
  8
0
100
AcDbLine
 10
181.4
 20
14.0
 30
0.0
 11
185.0
 21
14.0
 31
0.0
  0
LINE
  5
299
330
1E
100
AcDbEntity
  8
0
100
AcDbLine
 10
178.2
 20
14.0
 30
0.0
 11
181.5
 21
14.0
 31
0.0
  0
LINE
  5
29A
330
1E
100
AcDbEntity
  8
0
100
AcDbLine
 10
181.5
 20
14.0
 30
0.0
 11
185.0
 21
14.0
 31
0.0
  0
LINE
  5
29B
330
1E
100
AcDbEntity
  8
0
100
AcDbLine
 10
173.1
 20
14.0
 30
0.0
 11
175.3
 21
14.0
 31
0.0
  0
LINE
  5
29C
330
1E
100
AcDbEntity
  8
0
100
AcDbLine
 10
171.8
 20
14.0
 30
0.0
 11
173.1
 21
14.0
 31
0.0
  0
LINE
  5
29D
330
1E
100
AcDbEntity
  8
0
100
AcDbLine
 10
171.3
 20
14.0
 30
0.0
 11
171.8
 21
14.0
 31
0.0
  0
LINE
  5
29E
330
1E
100
AcDbEntity
  8
0
100
AcDbLine
 10
171.1
 20
13.8
 30
0.0
 11
171.3
 21
14.0
 31
0.0
  0
LINE
  5
29F
330
1E
100
AcDbEntity
  8
0
100
AcDbLine
 10
191.9
 20
14.0
 30
0.0
 11
194.8
 21
14.0
 31
0.0
  0
LINE
  5
2A0
330
1E
100
AcDbEntity
  8
0
100
AcDbLine
 10
188.6
 20
14.0
 30
0.0
 11
191.9
 21
14.0
 31
0.0
  0
LINE
  5
2A1
330
1E
100
AcDbEntity
  8
0
100
AcDbLine
 10
191.8
 20
14.0
 30
0.0
 11
194.7
 21
14.0
 31
0.0
  0
LINE
  5
2A2
330
1E
100
AcDbEntity
  8
0
100
AcDbLine
 10
188.5
 20
14.0
 30
0.0
 11
191.8
 21
14.0
 31
0.0
  0
LINE
  5
2A3
330
1E
100
AcDbEntity
  8
0
100
AcDbLine
 10
185.0
 20
14.0
 30
0.0
 11
188.5
 21
14.0
 31
0.0
  0
LINE
  5
2A4
330
1E
100
AcDbEntity
  8
0
100
AcDbLine
 10
185.0
 20
14.0
 30
0.0
 11
188.6
 21
14.0
 31
0.0
  0
LINE
  5
2A5
330
1E
100
AcDbEntity
  8
0
100
AcDbLine
 10
194.8
 20
14.0
 30
0.0
 11
197.0
 21
14.0
 31
0.0
  0
LINE
  5
2A6
330
1E
100
AcDbEntity
  8
0
100
AcDbLine
 10
197.0
 20
14.0
 30
0.0
 11
198.4
 21
14.0
 31
0.0
  0
LINE
  5
2A7
330
1E
100
AcDbEntity
  8
0
100
AcDbLine
 10
198.4
 20
14.0
 30
0.0
 11
198.9
 21
14.0
 31
0.0
  0
LINE
  5
2A8
330
1E
100
AcDbEntity
  8
0
100
AcDbLine
 10
194.7
 20
14.0
 30
0.0
 11
196.9
 21
14.0
 31
0.0
  0
LINE
  5
2A9
330
1E
100
AcDbEntity
  8
0
100
AcDbLine
 10
196.9
 20
14.0
 30
0.0
 11
198.2
 21
14.0
 31
0.0
  0
LINE
  5
2AA
330
1E
100
AcDbEntity
  8
0
100
AcDbLine
 10
198.9
 20
14.0
 30
0.0
 11
198.9
 21
15.2
 31
0.0
  0
LINE
  5
2AB
330
1E
100
AcDbEntity
  8
0
100
AcDbLine
 10
198.7
 20
14.0
 30
0.0
 11
198.9
 21
13.8
 31
0.0
  0
LINE
  5
2AC
330
1E
100
AcDbEntity
  8
0
100
AcDbLine
 10
198.7
 20
14.0
 30
0.0
 11
198.9
 21
14.0
 31
0.0
  0
LINE
  5
2AD
330
1E
100
AcDbEntity
  8
0
100
AcDbLine
 10
175.2
 20
15.2
 30
0.0
 11
178.1
 21
15.2
 31
0.0
  0
LINE
  5
2AE
330
1E
100
AcDbEntity
  8
0
100
AcDbLine
 10
191.9
 20
15.2
 30
0.0
 11
194.8
 21
15.2
 31
0.0
  0
LINE
  5
2AF
330
1E
100
AcDbEntity
  8
0
100
AcDbLine
 10
188.6
 20
15.2
 30
0.0
 11
191.9
 21
15.2
 31
0.0
  0
LINE
  5
2B0
330
1E
100
AcDbEntity
  8
0
100
AcDbLine
 10
185.0
 20
15.2
 30
0.0
 11
188.6
 21
15.2
 31
0.0
  0
LINE
  5
2B1
330
1E
100
AcDbEntity
  8
0
100
AcDbLine
 10
194.8
 20
15.2
 30
0.0
 11
197.0
 21
15.2
 31
0.0
  0
LINE
  5
2B2
330
1E
100
AcDbEntity
  8
0
100
AcDbLine
 10
197.0
 20
15.2
 30
0.0
 11
198.4
 21
15.2
 31
0.0
  0
LINE
  5
2B3
330
1E
100
AcDbEntity
  8
0
100
AcDbLine
 10
198.4
 20
15.2
 30
0.0
 11
198.9
 21
15.2
 31
0.0
  0
LINE
  5
2B4
330
1E
100
AcDbEntity
  8
0
100
AcDbLine
 10
178.1
 20
15.2
 30
0.0
 11
181.4
 21
15.2
 31
0.0
  0
LINE
  5
2B5
330
1E
100
AcDbEntity
  8
0
100
AcDbLine
 10
181.4
 20
15.2
 30
0.0
 11
185.0
 21
15.2
 31
0.0
  0
LINE
  5
2B6
330
1E
100
AcDbEntity
  8
0
100
AcDbLine
 10
173.0
 20
15.2
 30
0.0
 11
175.2
 21
15.2
 31
0.0
  0
LINE
  5
2B7
330
1E
100
AcDbEntity
  8
0
100
AcDbLine
 10
171.6
 20
15.2
 30
0.0
 11
173.0
 21
15.2
 31
0.0
  0
LINE
  5
2B8
330
1E
100
AcDbEntity
  8
0
100
AcDbLine
 10
171.1
 20
15.2
 30
0.0
 11
171.6
 21
15.2
 31
0.0
  0
LINE
  5
2B9
330
1E
100
AcDbEntity
  8
0
100
AcDbLine
 10
171.1
 20
15.2
 30
0.0
 11
171.1
 21
14.0
 31
0.0
  0
LINE
  5
2BA
330
1E
100
AcDbEntity
  8
0
100
AcDbLine
 10
171.1
 20
15.4
 30
0.0
 11
171.3
 21
15.2
 31
0.0
  0
LINE
  5
2BB
330
1E
100
AcDbEntity
  8
0
100
AcDbLine
 10
198.9
 20
15.2
 30
0.0
 11
198.9
 21
14.0
 31
0.0
  0
LINE
  5
2BC
330
1E
100
AcDbEntity
  8
0
100
AcDbLine
 10
198.9
 20
15.4
 30
0.0
 11
199.0
 21
15.7
 31
0.0
  0
LINE
  5
2BD
330
1E
100
AcDbEntity
  8
0
100
AcDbLine
 10
198.7
 20
15.2
 30
0.0
 11
198.9
 21
15.4
 31
0.0
  0
LINE
  5
2BE
330
1E
100
AcDbEntity
  8
0
100
AcDbLine
 10
198.2
 20
14.0
 30
0.0
 11
198.7
 21
14.0
 31
0.0
  0
LINE
  5
2BF
330
1E
100
AcDbEntity
  8
0
100
AcDbLine
 10
199.0
 20
13.5
 30
0.0
 11
199.0
 21
13.0
 31
0.0
  0
LINE
  5
2C0
330
1E
100
AcDbEntity
  8
0
100
AcDbLine
 10
198.9
 20
13.8
 30
0.0
 11
199.0
 21
13.5
 31
0.0
  0
LINE
  5
2C1
330
1E
100
AcDbEntity
  8
0
100
AcDbLine
 10
199.0
 20
13.0
 30
0.0
 11
199.4
 21
11.4
 31
0.0
  0
LINE
  5
2C2
330
1E
100
AcDbEntity
  8
0
100
AcDbLine
 10
199.0
 20
13.0
 30
0.0
 11
199.0
 21
13.5
 31
0.0
  0
LINE
  5
2C3
330
1E
100
AcDbEntity
  8
0
100
AcDbLine
 10
199.4
 20
11.4
 30
0.0
 11
200.0
 21
10.5
 31
0.0
  0
LINE
  5
2C4
330
1E
100
AcDbEntity
  8
0
100
AcDbLine
 10
200.0
 20
10.5
 30
0.0
 11
200.625
 21
10.0
 31
0.0
  0
LINE
  5
2C5
330
1E
100
AcDbEntity
  8
0
100
AcDbLine
 10
171.0
 20
15.7
 30
0.0
 11
171.3182
 21
45.0
 31
0.0
  0
LINE
  5
2C6
330
1E
100
AcDbEntity
  8
0
100
AcDbLine
 10
171.0
 20
15.7
 30
0.0
 11
171.1
 21
15.4
 31
0.0
  0
LINE
  5
2C7
330
1E
100
AcDbEntity
  8
0
100
AcDbLine
 10
199.0
 20
15.7
 30
0.0
 11
199.0
 21
58.0
 31
0.0
  0
LINE
  5
42C
330
1E
100
AcDbEntity
  8
0
100
AcDbLine
 10
310.901
 20
0.0
 30
0.0
 11
350.0
 21
0.0
 31
0.0
  0
LINE
  5
4B4
330
1E
100
AcDbEntity
  8
0
100
AcDbLine
 10
350.0
 20
9.7
 30
0.0
 11
548.824
 21
9.7
 31
0.0
  0
LINE
  5
691
330
1E
100
AcDbEntity
  8
0
100
AcDbLine
 10
419.961
 20
0.0
 30
0.0
 11
486.0
 21
0.0
 31
0.0
  0
LINE
  5
693
330
1E
100
AcDbEntity
  8
0
100
AcDbLine
 10
350.0
 20
0.0
 30
0.0
 11
548.824
 21
0.0
 31
0.0
  0
LINE
  5
694
330
1E
100
AcDbEntity
  8
0
100
AcDbLine
 10
350.0
 20
0.0
 30
0.0
 11
390.039
 21
0.0
 31
0.0
  0
LINE
  5
695
330
1E
100
AcDbEntity
  8
0
100
AcDbLine
 10
350.0
 20
10.0
 30
0.0
 11
548.824
 21
10.0
 31
0.0
  0
LINE
  5
6EC
330
1E
100
AcDbEntity
  8
0
100
AcDbLine
 10
389.375
 20
10.0
 30
0.0
 11
390.0
 21
10.5
 31
0.0
  0
LINE
  5
6ED
330
1E
100
AcDbEntity
  8
0
100
AcDbLine
 10
317.8
 20
10.3
 30
0.0
 11
318.325
 21
10.0
 31
0.0
  0
LINE
  5
6EE
330
1E
100
AcDbEntity
  8
0
100
AcDbLine
 10
317.0
 20
12.0
 30
0.0
 11
317.3
 21
11.0
 31
0.0
  0
LINE
  5
6EF
330
1E
100
AcDbEntity
  8
0
100
AcDbLine
 10
317.0
 20
12.0
 30
0.0
 11
317.0
 21
33.5
 31
0.0
  0
LINE
  5
6F0
330
1E
100
AcDbEntity
  8
0
100
AcDbLine
 10
390.0
 20
10.5
 30
0.0
 11
390.6
 21
11.4
 31
0.0
  0
LINE
  5
6F1
330
1E
100
AcDbEntity
  8
0
100
AcDbLine
 10
390.6
 20
11.4
 30
0.0
 11
391.0
 21
13.0
 31
0.0
  0
LINE
  5
6F2
330
1E
100
AcDbEntity
  8
0
100
AcDbLine
 10
419.4
 20
11.4
 30
0.0
 11
420.0
 21
10.5
 31
0.0
  0
LINE
  5
6F3
330
1E
100
AcDbEntity
  8
0
100
AcDbLine
 10
420.0
 20
10.5
 30
0.0
 11
420.625
 21
10.0
 31
0.0
  0
LINE
  5
6F4
330
1E
100
AcDbEntity
  8
0
100
AcDbLine
 10
317.3
 20
11.0
 30
0.0
 11
317.8
 21
10.3
 31
0.0
  0
LINE
  5
6F5
330
1E
100
AcDbEntity
  8
0
100
AcDbLine
 10
391.0
 20
13.5
 30
0.0
 11
391.1
 21
13.8
 31
0.0
  0
LINE
  5
6F6
330
1E
100
AcDbEntity
  8
0
100
AcDbLine
 10
391.0
 20
13.5
 30
0.0
 11
391.0
 21
13.0
 31
0.0
  0
LINE
  5
6F7
330
1E
100
AcDbEntity
  8
0
100
AcDbLine
 10
391.0
 20
13.0
 30
0.0
 11
391.0
 21
13.5
 31
0.0
  0
LINE
  5
6F8
330
1E
100
AcDbEntity
  8
0
100
AcDbLine
 10
391.1
 20
14.0
 30
0.0
 11
391.6
 21
14.0
 31
0.0
  0
LINE
  5
6F9
330
1E
100
AcDbEntity
  8
0
100
AcDbLine
 10
391.1
 20
14.0
 30
0.0
 11
391.3
 21
14.0
 31
0.0
  0
LINE
  5
6FA
330
1E
100
AcDbEntity
  8
0
100
AcDbLine
 10
391.1
 20
14.0
 30
0.0
 11
391.1
 21
15.2
 31
0.0
  0
LINE
  5
6FB
330
1E
100
AcDbEntity
  8
0
100
AcDbLine
 10
393.0
 20
14.0
 30
0.0
 11
395.2
 21
14.0
 31
0.0
  0
LINE
  5
6FC
330
1E
100
AcDbEntity
  8
0
100
AcDbLine
 10
391.6
 20
14.0
 30
0.0
 11
393.0
 21
14.0
 31
0.0
  0
LINE
  5
6FD
330
1E
100
AcDbEntity
  8
0
100
AcDbLine
 10
395.2
 20
14.0
 30
0.0
 11
398.1
 21
14.0
 31
0.0
  0
LINE
  5
6FE
330
1E
100
AcDbEntity
  8
0
100
AcDbLine
 10
398.1
 20
14.0
 30
0.0
 11
401.4
 21
14.0
 31
0.0
  0
LINE
  5
6FF
330
1E
100
AcDbEntity
  8
0
100
AcDbLine
 10
395.3
 20
14.0
 30
0.0
 11
398.2
 21
14.0
 31
0.0
  0
LINE
  5
700
330
1E
100
AcDbEntity
  8
0
100
AcDbLine
 10
401.4
 20
14.0
 30
0.0
 11
405.0
 21
14.0
 31
0.0
  0
LINE
  5
701
330
1E
100
AcDbEntity
  8
0
100
AcDbLine
 10
398.2
 20
14.0
 30
0.0
 11
401.5
 21
14.0
 31
0.0
  0
LINE
  5
702
330
1E
100
AcDbEntity
  8
0
100
AcDbLine
 10
401.5
 20
14.0
 30
0.0
 11
405.0
 21
14.0
 31
0.0
  0
LINE
  5
703
330
1E
100
AcDbEntity
  8
0
100
AcDbLine
 10
411.9
 20
14.0
 30
0.0
 11
414.8
 21
14.0
 31
0.0
  0
LINE
  5
704
330
1E
100
AcDbEntity
  8
0
100
AcDbLine
 10
408.6
 20
14.0
 30
0.0
 11
411.9
 21
14.0
 31
0.0
  0
LINE
  5
705
330
1E
100
AcDbEntity
  8
0
100
AcDbLine
 10
411.8
 20
14.0
 30
0.0
 11
414.7
 21
14.0
 31
0.0
  0
LINE
  5
706
330
1E
100
AcDbEntity
  8
0
100
AcDbLine
 10
408.5
 20
14.0
 30
0.0
 11
411.8
 21
14.0
 31
0.0
  0
LINE
  5
707
330
1E
100
AcDbEntity
  8
0
100
AcDbLine
 10
405.0
 20
14.0
 30
0.0
 11
408.5
 21
14.0
 31
0.0
  0
LINE
  5
708
330
1E
100
AcDbEntity
  8
0
100
AcDbLine
 10
405.0
 20
14.0
 30
0.0
 11
408.6
 21
14.0
 31
0.0
  0
LINE
  5
709
330
1E
100
AcDbEntity
  8
0
100
AcDbLine
 10
393.1
 20
14.0
 30
0.0
 11
395.3
 21
14.0
 31
0.0
  0
LINE
  5
70A
330
1E
100
AcDbEntity
  8
0
100
AcDbLine
 10
391.8
 20
14.0
 30
0.0
 11
393.1
 21
14.0
 31
0.0
  0
LINE
  5
70B
330
1E
100
AcDbEntity
  8
0
100
AcDbLine
 10
391.3
 20
14.0
 30
0.0
 11
391.8
 21
14.0
 31
0.0
  0
LINE
  5
70C
330
1E
100
AcDbEntity
  8
0
100
AcDbLine
 10
391.1
 20
13.8
 30
0.0
 11
391.3
 21
14.0
 31
0.0
  0
LINE
  5
70D
330
1E
100
AcDbEntity
  8
0
100
AcDbLine
 10
414.8
 20
14.0
 30
0.0
 11
417.0
 21
14.0
 31
0.0
  0
LINE
  5
70E
330
1E
100
AcDbEntity
  8
0
100
AcDbLine
 10
417.0
 20
14.0
 30
0.0
 11
418.4
 21
14.0
 31
0.0
  0
LINE
  5
70F
330
1E
100
AcDbEntity
  8
0
100
AcDbLine
 10
414.7
 20
14.0
 30
0.0
 11
416.9
 21
14.0
 31
0.0
  0
LINE
  5
710
330
1E
100
AcDbEntity
  8
0
100
AcDbLine
 10
416.9
 20
14.0
 30
0.0
 11
418.2
 21
14.0
 31
0.0
  0
LINE
  5
711
330
1E
100
AcDbEntity
  8
0
100
AcDbLine
 10
418.9
 20
14.0
 30
0.0
 11
418.9
 21
15.2
 31
0.0
  0
LINE
  5
712
330
1E
100
AcDbEntity
  8
0
100
AcDbLine
 10
418.4
 20
14.0
 30
0.0
 11
418.9
 21
14.0
 31
0.0
  0
LINE
  5
713
330
1E
100
AcDbEntity
  8
0
100
AcDbLine
 10
418.2
 20
14.0
 30
0.0
 11
418.7
 21
14.0
 31
0.0
  0
LINE
  5
714
330
1E
100
AcDbEntity
  8
0
100
AcDbLine
 10
391.1
 20
15.2
 30
0.0
 11
391.6
 21
15.2
 31
0.0
  0
LINE
  5
715
330
1E
100
AcDbEntity
  8
0
100
AcDbLine
 10
391.1
 20
15.2
 30
0.0
 11
391.1
 21
14.0
 31
0.0
  0
LINE
  5
716
330
1E
100
AcDbEntity
  8
0
100
AcDbLine
 10
395.2
 20
15.2
 30
0.0
 11
398.1
 21
15.2
 31
0.0
  0
LINE
  5
717
330
1E
100
AcDbEntity
  8
0
100
AcDbLine
 10
398.1
 20
15.2
 30
0.0
 11
401.4
 21
15.2
 31
0.0
  0
LINE
  5
718
330
1E
100
AcDbEntity
  8
0
100
AcDbLine
 10
401.4
 20
15.2
 30
0.0
 11
405.0
 21
15.2
 31
0.0
  0
LINE
  5
719
330
1E
100
AcDbEntity
  8
0
100
AcDbLine
 10
393.0
 20
15.2
 30
0.0
 11
395.2
 21
15.2
 31
0.0
  0
LINE
  5
71A
330
1E
100
AcDbEntity
  8
0
100
AcDbLine
 10
391.6
 20
15.2
 30
0.0
 11
393.0
 21
15.2
 31
0.0
  0
LINE
  5
71B
330
1E
100
AcDbEntity
  8
0
100
AcDbLine
 10
411.9
 20
15.2
 30
0.0
 11
414.8
 21
15.2
 31
0.0
  0
LINE
  5
71C
330
1E
100
AcDbEntity
  8
0
100
AcDbLine
 10
408.6
 20
15.2
 30
0.0
 11
411.9
 21
15.2
 31
0.0
  0
LINE
  5
71D
330
1E
100
AcDbEntity
  8
0
100
AcDbLine
 10
405.0
 20
15.2
 30
0.0
 11
408.6
 21
15.2
 31
0.0
  0
LINE
  5
71E
330
1E
100
AcDbEntity
  8
0
100
AcDbLine
 10
414.8
 20
15.2
 30
0.0
 11
417.0
 21
15.2
 31
0.0
  0
LINE
  5
71F
330
1E
100
AcDbEntity
  8
0
100
AcDbLine
 10
417.0
 20
15.2
 30
0.0
 11
418.4
 21
15.2
 31
0.0
  0
LINE
  5
720
330
1E
100
AcDbEntity
  8
0
100
AcDbLine
 10
418.4
 20
15.2
 30
0.0
 11
418.9
 21
15.2
 31
0.0
  0
LINE
  5
721
330
1E
100
AcDbEntity
  8
0
100
AcDbLine
 10
391.1
 20
15.4
 30
0.0
 11
391.3
 21
15.2
 31
0.0
  0
LINE
  5
722
330
1E
100
AcDbEntity
  8
0
100
AcDbLine
 10
391.0
 20
15.7
 30
0.0
 11
391.0
 21
58.0
 31
0.0
  0
LINE
  5
723
330
1E
100
AcDbEntity
  8
0
100
AcDbLine
 10
391.0
 20
15.7
 30
0.0
 11
391.1
 21
15.4
 31
0.0
  0
LINE
  5
724
330
1E
100
AcDbEntity
  8
0
100
AcDbLine
 10
418.9
 20
15.2
 30
0.0
 11
418.9
 21
14.0
 31
0.0
  0
LINE
  5
725
330
1E
100
AcDbEntity
  8
0
100
AcDbLine
 10
418.9
 20
15.4
 30
0.0
 11
419.0
 21
15.7
 31
0.0
  0
LINE
  5
726
330
1E
100
AcDbEntity
  8
0
100
AcDbLine
 10
418.7
 20
15.2
 30
0.0
 11
418.9
 21
15.4
 31
0.0
  0
LINE
  5
727
330
1E
100
AcDbEntity
  8
0
100
AcDbLine
 10
418.7
 20
14.0
 30
0.0
 11
418.9
 21
13.8
 31
0.0
  0
LINE
  5
728
330
1E
100
AcDbEntity
  8
0
100
AcDbLine
 10
418.7
 20
14.0
 30
0.0
 11
418.9
 21
14.0
 31
0.0
  0
LINE
  5
729
330
1E
100
AcDbEntity
  8
0
100
AcDbLine
 10
418.9
 20
13.8
 30
0.0
 11
419.0
 21
13.5
 31
0.0
  0
LINE
  5
72A
330
1E
100
AcDbEntity
  8
0
100
AcDbLine
 10
419.0
 20
13.5
 30
0.0
 11
419.0
 21
13.0
 31
0.0
  0
LINE
  5
737
330
1E
100
AcDbEntity
  8
0
100
AcDbLine
 10
419.0
 20
13.0
 30
0.0
 11
419.4
 21
11.4
 31
0.0
  0
LINE
  5
738
330
1E
100
AcDbEntity
  8
0
100
AcDbLine
 10
419.0
 20
13.0
 30
0.0
 11
419.0
 21
13.5
 31
0.0
  0
LINE
  5
739
330
1E
100
AcDbEntity
  8
0
100
AcDbLine
 10
273.0
 20
12.0
 30
0.0
 11
273.0
 21
33.5
 31
0.0
  0
LINE
  5
73A
330
1E
100
AcDbEntity
  8
0
100
AcDbLine
 10
272.7
 20
11.0
 30
0.0
 11
273.0
 21
12.0
 31
0.0
  0
LINE
  5
73B
330
1E
100
AcDbEntity
  8
0
100
AcDbLine
 10
272.2
 20
10.3
 30
0.0
 11
272.7
 21
11.0
 31
0.0
  0
LINE
  5
73C
330
1E
100
AcDbEntity
  8
0
100
AcDbLine
 10
271.675
 20
10.0
 30
0.0
 11
272.2
 21
10.3
 31
0.0
  0
LINE
  5
73D
330
1E
100
AcDbEntity
  8
0
100
AcDbLine
 10
279.5
 20
33.5
 30
0.0
 11
284.1
 21
33.5
 31
0.0
  0
LINE
  5
73E
330
1E
100
AcDbEntity
  8
0
100
AcDbLine
 10
284.1
 20
33.5
 30
0.0
 11
289.3
 21
33.5
 31
0.0
  0
LINE
  5
73F
330
1E
100
AcDbEntity
  8
0
100
AcDbLine
 10
310.5
 20
33.5
 30
0.0
 11
314.1
 21
33.5
 31
0.0
  0
LINE
  5
740
330
1E
100
AcDbEntity
  8
0
100
AcDbLine
 10
314.1
 20
33.5
 30
0.0
 11
316.2
 21
33.5
 31
0.0
  0
LINE
  5
748
330
1E
100
AcDbEntity
  8
0
100
AcDbLine
 10
317.0
 20
33.5
 30
0.0
 11
317.0
 21
12.0
 31
0.0
  0
LINE
  5
749
330
1E
100
AcDbEntity
  8
0
100
AcDbLine
 10
316.2
 20
33.5
 30
0.0
 11
317.0
 21
33.5
 31
0.0
  0
LINE
  5
74A
330
1E
100
AcDbEntity
  8
0
100
AcDbLine
 10
305.9
 20
33.5
 30
0.0
 11
310.5
 21
33.5
 31
0.0
  0
LINE
  5
74B
330
1E
100
AcDbEntity
  8
0
100
AcDbLine
 10
300.7
 20
33.5
 30
0.0
 11
305.9
 21
33.5
 31
0.0
  0
LINE
  5
74C
330
1E
100
AcDbEntity
  8
0
100
AcDbLine
 10
295.0
 20
33.5
 30
0.0
 11
300.7
 21
33.5
 31
0.0
  0
LINE
  5
74D
330
1E
100
AcDbEntity
  8
0
100
AcDbLine
 10
289.3
 20
33.5
 30
0.0
 11
295.0
 21
33.5
 31
0.0
  0
LINE
  5
74E
330
1E
100
AcDbEntity
  8
0
100
AcDbLine
 10
275.9
 20
33.5
 30
0.0
 11
279.5
 21
33.5
 31
0.0
  0
LINE
  5
74F
330
1E
100
AcDbEntity
  8
0
100
AcDbLine
 10
273.8
 20
33.5
 30
0.0
 11
275.9
 21
33.5
 31
0.0
  0
LINE
  5
750
330
1E
100
AcDbEntity
  8
0
100
AcDbLine
 10
171.1864
 20
46.0
 30
0.0
 11
171.3182
 21
45.0
 31
0.0
  0
LINE
  5
751
330
1E
100
AcDbEntity
  8
0
100
AcDbLine
 10
169.7208
 20
49.9104
 30
0.0
 11
170.6591
 21
47.9
 31
0.0
  0
LINE
  5
753
330
1E
100
AcDbEntity
  8
0
100
AcDbLine
 10
170.6591
 20
47.9
 30
0.0
 11
171.1864
 21
46.0
 31
0.0
  0
LINE
  5
75E
330
1E
100
AcDbEntity
  8
0
100
AcDbLine
 10
168.325
 20
52.0394
 30
0.0
 11
169.7208
 21
49.9104
 31
0.0
  0
LINE
  5
75F
330
1E
100
AcDbEntity
  8
0
100
AcDbLine
 10
131.0747
 20
57.1557
 30
0.0
 11
134.5014
 21
57.0203
 31
0.0
  0
LINE
  5
760
330
1E
100
AcDbEntity
  8
0
100
AcDbLine
 10
127.8436
 20
57.3046
 30
0.0
 11
131.0747
 21
57.1557
 31
0.0
  0
LINE
  5
761
330
1E
100
AcDbEntity
  8
0
100
AcDbLine
 10
124.8575
 20
57.4718
 30
0.0
 11
127.8436
 21
57.3046
 31
0.0
  0
LINE
  5
762
330
1E
100
AcDbEntity
  8
0
100
AcDbLine
 10
121.3858
 20
57.9232
 30
0.0
 11
124.8575
 21
57.4718
 31
0.0
  0
LINE
  5
768
330
1E
100
AcDbEntity
  8
0
100
AcDbLine
 10
121.0
 20
58.1941
 30
0.0
 11
121.3858
 21
57.9232
 31
0.0
  0
LINE
  5
769
330
1E
100
AcDbEntity
  8
0
100
AcDbLine
 10
121.0
 20
58.1941
 30
0.0
 11
121.0
 21
59.5485
 31
0.0
  0
LINE
  5
76B
330
1E
100
AcDbEntity
  8
0
100
AcDbLine
 10
166.3709
 20
53.7629
 30
0.0
 11
168.325
 21
52.0394
 31
0.0
  0
LINE
  5
76C
330
1E
100
AcDbEntity
  8
0
100
AcDbLine
 10
164.1375
 20
54.6753
 30
0.0
 11
166.3709
 21
53.7629
 31
0.0
  0
LINE
  5
76E
330
1E
100
AcDbEntity
  8
0
100
AcDbLine
 10
161.9042
 20
55.0809
 30
0.0
 11
164.1375
 21
54.6753
 31
0.0
  0
LINE
  5
771
330
1E
100
AcDbEntity
  8
0
100
AcDbLine
 10
134.5014
 20
57.0203
 30
0.0
 11
161.9042
 21
55.0809
 31
0.0
  0
LINE
  5
777
330
1E
100
AcDbEntity
  8
0
100
AcDbLine
 10
121.0
 20
59.5485
 30
0.0
 11
121.0
 21
58.1941
 31
0.0
  0
LINE
  5
779
330
1E
100
AcDbEntity
  8
0
100
AcDbLine
 10
121.0
 20
59.5485
 30
0.0
 11
121.2572
 21
59.8194
 31
0.0
  0
LINE
  5
77B
330
1E
100
AcDbEntity
  8
0
100
AcDbLine
 10
121.6429
 20
60.0
 30
0.0
 11
198.3409
 21
60.0
 31
0.0
  0
LINE
  5
77C
330
1E
100
AcDbEntity
  8
0
100
AcDbLine
 10
121.2572
 20
59.8194
 30
0.0
 11
121.6429
 21
60.0
 31
0.0
  0
LINE
  5
78B
330
1E
100
AcDbEntity
  8
0
100
AcDbLine
 10
198.3409
 20
60.0
 30
0.0
 11
198.7364
 21
59.8
 31
0.0
  0
LINE
  5
78D
330
1E
100
AcDbEntity
  8
0
100
AcDbLine
 10
199.0
 20
59.5
 30
0.0
 11
199.0
 21
58.0
 31
0.0
  0
LINE
  5
78E
330
1E
100
AcDbEntity
  8
0
100
AcDbLine
 10
198.7364
 20
59.8
 30
0.0
 11
199.0
 21
59.5
 31
0.0
  0
LINE
  5
790
330
1E
100
AcDbEntity
  8
0
100
AcDbLine
 10
199.0
 20
58.0
 30
0.0
 11
199.0
 21
59.5
 31
0.0
  0
LINE
  5
791
330
1E
100
AcDbEntity
  8
0
100
AcDbLine
 10
199.0
 20
58.0
 30
0.0
 11
199.0
 21
15.7
 31
0.0
  0
LINE
  5
796
330
1E
100
AcDbEntity
  8
0
100
AcDbLine
 10
279.8
 20
34.0
 30
0.0
 11
284.3
 21
34.0
 31
0.0
  0
LINE
  5
797
330
1E
100
AcDbEntity
  8
0
100
AcDbLine
 10
284.3
 20
34.0
 30
0.0
 11
289.5
 21
34.0
 31
0.0
  0
LINE
  5
798
330
1E
100
AcDbEntity
  8
0
100
AcDbLine
 10
310.2
 20
34.0
 30
0.0
 11
313.6
 21
34.0
 31
0.0
  0
LINE
  5
799
330
1E
100
AcDbEntity
  8
0
100
AcDbLine
 10
313.6
 20
34.0
 30
0.0
 11
315.7
 21
34.0
 31
0.0
  0
LINE
  5
79C
330
1E
100
AcDbEntity
  8
0
100
AcDbLine
 10
316.5
 20
34.0
 30
0.0
 11
317.0
 21
33.5
 31
0.0
  0
LINE
  5
79D
330
1E
100
AcDbEntity
  8
0
100
AcDbLine
 10
315.7
 20
34.0
 30
0.0
 11
316.5
 21
34.0
 31
0.0
  0
LINE
  5
79E
330
1E
100
AcDbEntity
  8
0
100
AcDbLine
 10
305.7
 20
34.0
 30
0.0
 11
310.2
 21
34.0
 31
0.0
  0
LINE
  5
79F
330
1E
100
AcDbEntity
  8
0
100
AcDbLine
 10
300.5
 20
34.0
 30
0.0
 11
305.7
 21
34.0
 31
0.0
  0
LINE
  5
7A0
330
1E
100
AcDbEntity
  8
0
100
AcDbLine
 10
295.0
 20
34.0
 30
0.0
 11
300.5
 21
34.0
 31
0.0
  0
LINE
  5
7A1
330
1E
100
AcDbEntity
  8
0
100
AcDbLine
 10
289.5
 20
34.0
 30
0.0
 11
295.0
 21
34.0
 31
0.0
  0
LINE
  5
7A2
330
1E
100
AcDbEntity
  8
0
100
AcDbLine
 10
278.0
 20
34.0
 30
0.0
 11
279.5
 21
34.5
 31
0.0
  0
LINE
  5
7A3
330
1E
100
AcDbEntity
  8
0
100
AcDbLine
 10
276.4
 20
34.0
 30
0.0
 11
279.8
 21
34.0
 31
0.0
  0
LINE
  5
7A6
330
1E
100
AcDbEntity
  8
0
100
AcDbLine
 10
309.5
 20
35.5
 30
0.0
 11
310.5
 21
34.5
 31
0.0
  0
LINE
  5
7A7
330
1E
100
AcDbEntity
  8
0
100
AcDbLine
 10
310.5
 20
34.5
 30
0.0
 11
312.0
 21
34.0
 31
0.0
  0
LINE
  5
7A9
330
1E
100
AcDbEntity
  8
0
100
AcDbLine
 10
280.5
 20
35.5
 30
0.0
 11
281.0
 21
37.5
 31
0.0
  0
LINE
  5
7AE
330
1E
100
AcDbEntity
  8
0
100
AcDbLine
 10
418.682
 20
45.0
 30
0.0
 11
418.814
 21
46.0
 31
0.0
  0
LINE
  5
7AF
330
1E
100
AcDbEntity
  8
0
100
AcDbLine
 10
418.682
 20
45.0
 30
0.0
 11
419.0
 21
15.7
 31
0.0
  0
LINE
  5
7B0
330
1E
100
AcDbEntity
  8
0
100
AcDbLine
 10
418.814
 20
46.0
 30
0.0
 11
419.341
 21
47.9
 31
0.0
  0
LINE
  5
7BE
330
1E
100
AcDbEntity
  8
0
100
AcDbLine
 10
419.341
 20
47.9
 30
0.0
 11
420.279
 21
49.9104
 31
0.0
  0
LINE
  5
7BF
330
1E
100
AcDbEntity
  8
0
100
AcDbLine
 10
420.279
 20
49.9104
 30
0.0
 11
421.675
 21
52.0394
 31
0.0
  0
LINE
  5
7C1
330
1E
100
AcDbEntity
  8
0
100
AcDbLine
 10
421.675
 20
52.0394
 30
0.0
 11
423.629
 21
53.7629
 31
0.0
  0
LINE
  5
7C2
330
1E
100
AcDbEntity
  8
0
100
AcDbLine
 10
423.629
 20
53.7629
 30
0.0
 11
425.862
 21
54.6753
 31
0.0
  0
LINE
  5
7C3
330
1E
100
AcDbEntity
  8
0
100
AcDbLine
 10
391.0
 20
59.5
 30
0.0
 11
391.264
 21
59.8
 31
0.0
  0
LINE
  5
7C4
330
1E
100
AcDbEntity
  8
0
100
AcDbLine
 10
391.0
 20
59.5
 30
0.0
 11
391.0
 21
58.0
 31
0.0
  0
LINE
  5
7D5
330
1E
100
AcDbEntity
  8
0
100
AcDbLine
 10
395.482
 20
60.0
 30
0.0
 11
468.357
 21
60.0
 31
0.0
  0
LINE
  5
7D6
330
1E
100
AcDbEntity
  8
0
100
AcDbLine
 10
393.373
 20
60.0
 30
0.0
 11
395.482
 21
60.0
 31
0.0
  0
LINE
  5
7D7
330
1E
100
AcDbEntity
  8
0
100
AcDbLine
 10
392.186
 20
60.0
 30
0.0
 11
393.373
 21
60.0
 31
0.0
  0
LINE
  5
7D8
330
1E
100
AcDbEntity
  8
0
100
AcDbLine
 10
391.659
 20
60.0
 30
0.0
 11
392.186
 21
60.0
 31
0.0
  0
LINE
  5
7D9
330
1E
100
AcDbEntity
  8
0
100
AcDbLine
 10
391.264
 20
59.8
 30
0.0
 11
391.659
 21
60.0
 31
0.0
  0
LINE
  5
7DA
330
1E
100
AcDbEntity
  8
0
100
AcDbLine
 10
391.0
 20
58.0
 30
0.0
 11
391.0
 21
59.5
 31
0.0
  0
LINE
  5
7DB
330
1E
100
AcDbEntity
  8
0
100
AcDbLine
 10
391.0
 20
58.0
 30
0.0
 11
391.0
 21
15.7
 31
0.0
  0
LINE
  5
7DC
330
1E
100
AcDbEntity
  8
0
100
AcDbLine
 10
425.862
 20
54.6753
 30
0.0
 11
428.096
 21
55.0809
 31
0.0
  0
LINE
  5
7DD
330
1E
100
AcDbEntity
  8
0
100
AcDbLine
 10
455.499
 20
57.0203
 30
0.0
 11
458.925
 21
57.1557
 31
0.0
  0
LINE
  5
7DE
330
1E
100
AcDbEntity
  8
0
100
AcDbLine
 10
458.925
 20
57.1557
 30
0.0
 11
462.156
 21
57.3046
 31
0.0
  0
LINE
  5
7E1
330
1E
100
AcDbEntity
  8
0
100
AcDbLine
 10
462.156
 20
57.3046
 30
0.0
 11
465.142
 21
57.4718
 31
0.0
  0
LINE
  5
7EC
330
1E
100
AcDbEntity
  8
0
100
AcDbLine
 10
469.0
 20
58.1941
 30
0.0
 11
469.0
 21
59.5485
 31
0.0
  0
LINE
  5
7ED
330
1E
100
AcDbEntity
  8
0
100
AcDbLine
 10
468.614
 20
57.9232
 30
0.0
 11
469.0
 21
58.1941
 31
0.0
  0
LINE
  5
7F6
330
1E
100
AcDbEntity
  8
0
100
AcDbLine
 10
468.357
 20
60.0
 30
0.0
 11
468.743
 21
59.8194
 31
0.0
  0
LINE
  5
7F7
330
1E
100
AcDbEntity
  8
0
100
AcDbLine
 10
468.743
 20
59.8194
 30
0.0
 11
469.0
 21
59.5485
 31
0.0
  0
LINE
  5
7F8
330
1E
100
AcDbEntity
  8
0
100
AcDbLine
 10
469.0
 20
59.5485
 30
0.0
 11
469.0
 21
58.1941
 31
0.0
  0
LINE
  5
7F9
330
1E
100
AcDbEntity
  8
0
100
AcDbLine
 10
465.142
 20
57.4718
 30
0.0
 11
468.614
 21
57.9232
 31
0.0
  0
LINE
  5
7FA
330
1E
100
AcDbEntity
  8
0
100
AcDbLine
 10
428.096
 20
55.0809
 30
0.0
 11
455.499
 21
57.0203
 31
0.0
  0
LINE
  5
7FB
330
1E
100
AcDbEntity
  8
0
100
AcDbLine
 10
309.0
 20
37.5
 30
0.0
 11
309.0
 21
165.515
 31
0.0
  0
LINE
  5
7FC
330
1E
100
AcDbEntity
  8
0
100
AcDbLine
 10
309.0
 20
37.5
 30
0.0
 11
309.5
 21
35.5
 31
0.0
  0
LINE
  5
7FD
330
1E
100
AcDbEntity
  8
0
100
AcDbLine
 10
281.0
 20
37.5
 30
0.0
 11
281.0
 21
217.0
 31
0.0
  0
LINE
  5
7FF
330
1E
100
AcDbEntity
  8
0
100
AcDbLine
 10
279.5
 20
34.5
 30
0.0
 11
280.5
 21
35.5
 31
0.0
  0
LINE
  5
800
330
1E
100
AcDbEntity
  8
0
100
AcDbLine
 10
274.3
 20
34.0
 30
0.0
 11
276.4
 21
34.0
 31
0.0
  0
LINE
  5
801
330
1E
100
AcDbEntity
  8
0
100
AcDbLine
 10
273.5
 20
34.0
 30
0.0
 11
274.3
 21
34.0
 31
0.0
  0
LINE
  5
802
330
1E
100
AcDbEntity
  8
0
100
AcDbLine
 10
273.0
 20
33.5
 30
0.0
 11
273.0
 21
12.0
 31
0.0
  0
LINE
  5
803
330
1E
100
AcDbEntity
  8
0
100
AcDbLine
 10
273.0
 20
33.5
 30
0.0
 11
273.8
 21
33.5
 31
0.0
  0
LINE
  5
804
330
1E
100
AcDbEntity
  8
0
100
AcDbLine
 10
273.0
 20
33.5
 30
0.0
 11
273.5
 21
34.0
 31
0.0
  0
LINE
  5
A29
330
1E
100
AcDbEntity
  8
0
100
AcDbLine
 10
282.2
 20
163.599
 30
0.0
 11
283.4
 21
162.253
 31
0.0
  0
LINE
  5
A2A
330
1E
100
AcDbEntity
  8
0
100
AcDbLine
 10
282.2
 20
166.517
 30
0.0
 11
283.4
 21
167.863
 31
0.0
  0
LINE
  5
A2B
330
1E
100
AcDbEntity
  8
0
100
AcDbLine
 10
281.533
 20
167.03
 30
0.0
 11
282.867
 21
168.433
 31
0.0
  0
LINE
  5
A2C
330
1E
100
AcDbEntity
  8
0
100
AcDbLine
 10
282.867
 20
168.433
 30
0.0
 11
285.133
 21
169.667
 31
0.0
  0
LINE
  5
A2D
330
1E
100
AcDbEntity
  8
0
100
AcDbLine
 10
281.667
 20
165.058
 30
0.0
 11
282.2
 21
163.599
 31
0.0
  0
LINE
  5
A2E
330
1E
100
AcDbEntity
  8
0
100
AcDbLine
 10
281.667
 20
165.058
 30
0.0
 11
282.2
 21
166.517
 31
0.0
  0
LINE
  5
A2F
330
1E
100
AcDbEntity
  8
0
100
AcDbLine
 10
281.0
 20
165.515
 30
0.0
 11
281.533
 21
164.0
 31
0.0
  0
LINE
  5
A30
330
1E
100
AcDbEntity
  8
0
100
AcDbLine
 10
281.0
 20
165.515
 30
0.0
 11
281.0
 21
237.282
 31
0.0
  0
LINE
  5
A31
330
1E
100
AcDbEntity
  8
0
100
AcDbLine
 10
281.0
 20
165.515
 30
0.0
 11
281.533
 21
167.03
 31
0.0
  0
LINE
  5
A32
330
1E
100
AcDbEntity
  8
0
100
AcDbLine
 10
281.533
 20
164.0
 30
0.0
 11
282.867
 21
162.598
 31
0.0
  0
LINE
  5
A33
330
1E
100
AcDbEntity
  8
0
100
AcDbLine
 10
298.467
 20
159.672
 30
0.0
 11
301.667
 21
160.177
 31
0.0
  0
LINE
  5
A34
330
1E
100
AcDbEntity
  8
0
100
AcDbLine
 10
295.0
 20
159.447
 30
0.0
 11
298.467
 21
159.672
 31
0.0
  0
LINE
  5
A35
330
1E
100
AcDbEntity
  8
0
100
AcDbLine
 10
283.4
 20
166.348
 30
0.0
 11
284.6
 21
167.583
 31
0.0
  0
LINE
  5
A36
330
1E
100
AcDbEntity
  8
0
100
AcDbLine
 10
283.4
 20
167.863
 30
0.0
 11
285.533
 21
169.041
 31
0.0
  0
LINE
  5
A37
330
1E
100
AcDbEntity
  8
0
100
AcDbLine
 10
283.0
 20
165.058
 30
0.0
 11
283.4
 21
163.767
 31
0.0
  0
LINE
  5
A38
330
1E
100
AcDbEntity
  8
0
100
AcDbLine
 10
283.0
 20
165.058
 30
0.0
 11
283.4
 21
166.348
 31
0.0
  0
LINE
  5
A39
330
1E
100
AcDbEntity
  8
0
100
AcDbLine
 10
283.4
 20
163.767
 30
0.0
 11
284.6
 21
162.533
 31
0.0
  0
LINE
  5
A3A
330
1E
100
AcDbEntity
  8
0
100
AcDbLine
 10
284.6
 20
167.583
 30
0.0
 11
286.467
 21
168.649
 31
0.0
  0
LINE
  5
A3B
330
1E
100
AcDbEntity
  8
0
100
AcDbLine
 10
284.333
 20
166.888
 30
0.0
 11
284.733
 21
165.71
 31
0.0
  0
LINE
  5
A3C
330
1E
100
AcDbEntity
  8
0
100
AcDbLine
 10
284.333
 20
166.888
 30
0.0
 11
284.552336668117
 21
167.533946487603
 31
0.0
  0
LINE
  5
A3D
330
1E
100
AcDbEntity
  8
0
100
AcDbLine
 10
285.533
 20
169.041
 30
0.0
 11
288.333
 21
169.939
 31
0.0
  0
LINE
  5
A3E
330
1E
100
AcDbEntity
  8
0
100
AcDbLine
 10
285.133
 20
169.667
 30
0.0
 11
288.067
 21
170.621
 31
0.0
  0
LINE
  5
A3F
330
1E
100
AcDbEntity
  8
0
100
AcDbLine
 10
284.733
 20
165.71
 30
0.0
 11
285.8
 21
164.644
 31
0.0
  0
LINE
  5
A40
330
1E
100
AcDbEntity
  8
0
100
AcDbLine
 10
286.467
 20
168.649
 30
0.0
 11
289.0
 21
169.434
 31
0.0
  0
LINE
  5
A41
330
1E
100
AcDbEntity
  8
0
100
AcDbLine
 10
288.333
 20
169.939
 30
0.0
 11
291.533
 21
170.444
 31
0.0
  0
LINE
  5
A42
330
1E
100
AcDbEntity
  8
0
100
AcDbLine
 10
288.067
 20
170.621
 30
0.0
 11
291.4
 21
171.182
 31
0.0
  0
LINE
  5
A43
330
1E
100
AcDbEntity
  8
0
100
AcDbLine
 10
285.8
 20
164.644
 30
0.0
 11
287.533
 21
163.746
 31
0.0
  0
LINE
  5
A44
330
1E
100
AcDbEntity
  8
0
100
AcDbLine
 10
287.533
 20
163.746
 30
0.0
 11
289.667
 21
163.016
 31
0.0
  0
LINE
  5
A45
330
1E
100
AcDbEntity
  8
0
100
AcDbLine
 10
284.6
 20
162.533
 30
0.0
 11
286.467
 21
161.467
 31
0.0
  0
LINE
  5
A46
330
1E
100
AcDbEntity
  8
0
100
AcDbLine
 10
286.467
 20
161.467
 30
0.0
 11
289.0
 21
160.682
 31
0.0
  0
LINE
  5
A47
330
1E
100
AcDbEntity
  8
0
100
AcDbLine
 10
283.4
 20
162.253
 30
0.0
 11
285.533
 21
161.074
 31
0.0
  0
LINE
  5
A48
330
1E
100
AcDbEntity
  8
0
100
AcDbLine
 10
285.533
 20
161.074
 30
0.0
 11
288.333
 21
160.177
 31
0.0
  0
LINE
  5
A49
330
1E
100
AcDbEntity
  8
0
100
AcDbLine
 10
298.067
 20
160.177
 30
0.0
 11
301.0
 21
160.682
 31
0.0
  0
LINE
  5
A4A
330
1E
100
AcDbEntity
  8
0
100
AcDbLine
 10
295.0
 20
160.008
 30
0.0
 11
298.067
 21
160.177
 31
0.0
  0
LINE
  5
A4B
330
1E
100
AcDbEntity
  8
0
100
AcDbLine
 10
301.667
 20
160.177
 30
0.0
 11
304.467
 21
161.074
 31
0.0
  0
LINE
  5
A4C
330
1E
100
AcDbEntity
  8
0
100
AcDbLine
 10
289.0
 20
169.434
 30
0.0
 11
291.933
 21
169.939
 31
0.0
  0
LINE
  5
A4D
330
1E
100
AcDbEntity
  8
0
100
AcDbLine
 10
301.0
 20
160.682
 30
0.0
 11
303.533
 21
161.467
 31
0.0
  0
LINE
  5
A4E
330
1E
100
AcDbEntity
  8
0
100
AcDbLine
 10
297.8
 20
162.568
 30
0.0
 11
300.333
 21
163.016
 31
0.0
  0
LINE
  5
A4F
330
1E
100
AcDbEntity
  8
0
100
AcDbLine
 10
295.0
 20
162.399
 30
0.0
 11
297.8
 21
162.568
 31
0.0
  0
LINE
  5
A50
330
1E
100
AcDbEntity
  8
0
100
AcDbLine
 10
305.4
 20
162.533
 30
0.0
 11
306.6
 21
163.767
 31
0.0
  0
LINE
  5
A51
330
1E
100
AcDbEntity
  8
0
100
AcDbLine
 10
303.533
 20
161.467
 30
0.0
 11
305.4
 21
162.533
 31
0.0
  0
LINE
  5
A52
330
1E
100
AcDbEntity
  8
0
100
AcDbLine
 10
306.6
 20
162.253
 30
0.0
 11
307.133
 21
162.598
 31
0.0
  0
LINE
  5
A53
330
1E
100
AcDbEntity
  8
0
100
AcDbLine
 10
306.6
 20
162.253
 30
0.0
 11
307.8
 21
163.599
 31
0.0
  0
LINE
  5
A54
330
1E
100
AcDbEntity
  8
0
100
AcDbLine
 10
304.467
 20
161.074
 30
0.0
 11
306.6
 21
162.253
 31
0.0
  0
LINE
  5
A55
330
1E
100
AcDbEntity
  8
0
100
AcDbLine
 10
306.739509076764
 20
162.383542237336
 30
0.0
 11
307.133
 21
162.598
 31
0.0
  0
LINE
  5
A56
330
1E
100
AcDbEntity
  8
0
100
AcDbLine
 10
300.333
 20
163.016
 30
0.0
 11
302.467
 21
163.746
 31
0.0
  0
LINE
  5
A57
330
1E
100
AcDbEntity
  8
0
100
AcDbLine
 10
303.533
 20
168.649
 30
0.0
 11
305.4
 21
167.583
 31
0.0
  0
LINE
  5
A58
330
1E
100
AcDbEntity
  8
0
100
AcDbLine
 10
301.0
 20
169.434
 30
0.0
 11
303.533
 21
168.649
 31
0.0
  0
LINE
  5
A59
330
1E
100
AcDbEntity
  8
0
100
AcDbLine
 10
298.067
 20
169.939
 30
0.0
 11
301.0
 21
169.434
 31
0.0
  0
LINE
  5
A5A
330
1E
100
AcDbEntity
  8
0
100
AcDbLine
 10
301.667
 20
169.939
 30
0.0
 11
304.467
 21
169.041
 31
0.0
  0
LINE
  5
A5B
330
1E
100
AcDbEntity
  8
0
100
AcDbLine
 10
304.467
 20
169.041
 30
0.0
 11
306.6
 21
167.863
 31
0.0
  0
LINE
  5
A5C
330
1E
100
AcDbEntity
  8
0
100
AcDbLine
 10
305.447663331883
 20
167.533946487603
 30
0.0
 11
305.667
 21
166.888
 31
0.0
  0
LINE
  5
A5D
330
1E
100
AcDbEntity
  8
0
100
AcDbLine
 10
306.6
 20
166.348
 30
0.0
 11
307.0
 21
165.058
 31
0.0
  0
LINE
  5
A5E
330
1E
100
AcDbEntity
  8
0
100
AcDbLine
 10
305.4
 20
167.583
 30
0.0
 11
306.6
 21
166.348
 31
0.0
  0
LINE
  5
A5F
330
1E
100
AcDbEntity
  8
0
100
AcDbLine
 10
306.6
 20
167.863
 30
0.0
 11
307.8
 21
166.517
 31
0.0
  0
LINE
  5
A60
330
1E
100
AcDbEntity
  8
0
100
AcDbLine
 10
304.867
 20
169.667
 30
0.0
 11
307.133
 21
168.433
 31
0.0
  0
LINE
  5
A61
330
1E
100
AcDbEntity
  8
0
100
AcDbLine
 10
305.267
 20
165.71
 30
0.0
 11
305.667
 21
166.888
 31
0.0
  0
LINE
  5
A62
330
1E
100
AcDbEntity
  8
0
100
AcDbLine
 10
304.2
 20
164.644
 30
0.0
 11
305.267
 21
165.71
 31
0.0
  0
LINE
  5
A63
330
1E
100
AcDbEntity
  8
0
100
AcDbLine
 10
302.467
 20
163.746
 30
0.0
 11
304.2
 21
164.644
 31
0.0
  0
LINE
  5
A64
330
1E
100
AcDbEntity
  8
0
100
AcDbLine
 10
307.8
 20
166.517
 30
0.0
 11
308.333
 21
165.058
 31
0.0
  0
LINE
  5
A65
330
1E
100
AcDbEntity
  8
0
100
AcDbLine
 10
308.467
 20
167.03
 30
0.0
 11
309.0
 21
165.515
 31
0.0
  0
LINE
  5
A66
330
1E
100
AcDbEntity
  8
0
100
AcDbLine
 10
307.133
 20
168.433
 30
0.0
 11
308.467
 21
167.03
 31
0.0
  0
LINE
  5
A67
330
1E
100
AcDbEntity
  8
0
100
AcDbLine
 10
306.6
 20
163.767
 30
0.0
 11
307.0
 21
165.058
 31
0.0
  0
LINE
  5
A68
330
1E
100
AcDbEntity
  8
0
100
AcDbLine
 10
307.8
 20
163.599
 30
0.0
 11
308.333
 21
165.058
 31
0.0
  0
LINE
  5
A69
330
1E
100
AcDbEntity
  8
0
100
AcDbLine
 10
308.467
 20
164.0
 30
0.0
 11
309.0
 21
165.515
 31
0.0
  0
LINE
  5
A6A
330
1E
100
AcDbEntity
  8
0
100
AcDbLine
 10
307.133
 20
162.598
 30
0.0
 11
308.467
 21
164.0
 31
0.0
  0
LINE
  5
A6B
330
1E
100
AcDbEntity
  8
0
100
AcDbLine
 10
309.0
 20
165.515
 30
0.0
 11
309.0
 21
37.5
 31
0.0
  0
LINE
  5
A6C
330
1E
100
AcDbEntity
  8
0
100
AcDbLine
 10
309.0
 20
165.515
 30
0.0
 11
309.0
 21
237.282
 31
0.0
  0
LINE
  5
A6D
330
1E
100
AcDbEntity
  8
0
100
AcDbLine
 10
295.0
 20
170.107
 30
0.0
 11
298.067
 21
169.939
 31
0.0
  0
LINE
  5
A6E
330
1E
100
AcDbEntity
  8
0
100
AcDbLine
 10
298.467
 20
170.444
 30
0.0
 11
301.667
 21
169.939
 31
0.0
  0
LINE
  5
A6F
330
1E
100
AcDbEntity
  8
0
100
AcDbLine
 10
295.0
 20
170.668
 30
0.0
 11
298.467
 21
170.444
 31
0.0
  0
LINE
  5
A70
330
1E
100
AcDbEntity
  8
0
100
AcDbLine
 10
301.933
 20
170.621
 30
0.0
 11
304.867
 21
169.667
 31
0.0
  0
LINE
  5
A71
330
1E
100
AcDbEntity
  8
0
100
AcDbLine
 10
298.6
 20
171.182
 30
0.0
 11
301.933
 21
170.621
 31
0.0
  0
LINE
  5
A72
330
1E
100
AcDbEntity
  8
0
100
AcDbLine
 10
291.933
 20
169.939
 30
0.0
 11
295.0
 21
170.107
 31
0.0
  0
LINE
  5
A73
330
1E
100
AcDbEntity
  8
0
100
AcDbLine
 10
291.533
 20
170.444
 30
0.0
 11
295.0
 21
170.668
 31
0.0
  0
LINE
  5
A74
330
1E
100
AcDbEntity
  8
0
100
AcDbLine
 10
295.0
 20
171.406
 30
0.0
 11
298.6
 21
171.182
 31
0.0
  0
LINE
  5
A75
330
1E
100
AcDbEntity
  8
0
100
AcDbLine
 10
291.4
 20
171.182
 30
0.0
 11
295.0
 21
171.406
 31
0.0
  0
LINE
  5
A76
330
1E
100
AcDbEntity
  8
0
100
AcDbLine
 10
289.667
 20
163.016
 30
0.0
 11
292.2
 21
162.568
 31
0.0
  0
LINE
  5
A77
330
1E
100
AcDbEntity
  8
0
100
AcDbLine
 10
292.2
 20
162.568
 30
0.0
 11
295.0
 21
162.399
 31
0.0
  0
LINE
  5
A78
330
1E
100
AcDbEntity
  8
0
100
AcDbLine
 10
289.0
 20
160.682
 30
0.0
 11
291.933
 21
160.177
 31
0.0
  0
LINE
  5
A79
330
1E
100
AcDbEntity
  8
0
100
AcDbLine
 10
291.933
 20
160.177
 30
0.0
 11
295.0
 21
160.008
 31
0.0
  0
LINE
  5
A7A
330
1E
100
AcDbEntity
  8
0
100
AcDbLine
 10
288.333
 20
160.177
 30
0.0
 11
291.533
 21
159.672
 31
0.0
  0
LINE
  5
A7B
330
1E
100
AcDbEntity
  8
0
100
AcDbLine
 10
291.533
 20
159.672
 30
0.0
 11
295.0
 21
159.447
 31
0.0
  0
LINE
  5
A7C
330
1E
100
AcDbEntity
  8
0
100
AcDbLine
 10
282.867
 20
162.598
 30
0.0
 11
283.260490923236
 21
162.383542237336
 31
0.0
  0
LINE
  5
A7D
330
1E
100
AcDbEntity
  8
0
100
AcDbLine
 10
282.867
 20
162.598
 30
0.0
 11
283.4
 21
162.253
 31
0.0
  0
LINE
  5
A97
330
1E
100
AcDbEntity
  8
0
100
AcDbLine
 10
281.0
 20
230.717
 30
0.0
 11
281.0
 21
223.918
 31
0.0
  0
LINE
  5
A98
330
1E
100
AcDbEntity
  8
0
100
AcDbLine
 10
281.0
 20
230.717
 30
0.0
 11
281.0
 21
237.282
 31
0.0
  0
LINE
  5
A99
330
1E
100
AcDbEntity
  8
0
100
AcDbLine
 10
281.0
 20
223.918
 30
0.0
 11
281.0
 21
217.0
 31
0.0
  0
LINE
  5
A9A
330
1E
100
AcDbEntity
  8
0
100
AcDbLine
 10
281.0
 20
223.918
 30
0.0
 11
281.0
 21
230.717
 31
0.0
  0
LINE
  5
A9B
330
1E
100
AcDbEntity
  8
0
100
AcDbLine
 10
281.0
 20
243.5
 30
0.0
 11
281.0
 21
249.264
 31
0.0
  0
LINE
  5
A9C
330
1E
100
AcDbEntity
  8
0
100
AcDbLine
 10
281.0
 20
243.5
 30
0.0
 11
281.0
 21
237.282
 31
0.0
  0
LINE
  5
A9D
330
1E
100
AcDbEntity
  8
0
100
AcDbLine
 10
281.0
 20
249.264
 30
0.0
 11
281.0
 21
254.477
 31
0.0
  0
LINE
  5
A9E
330
1E
100
AcDbEntity
  8
0
100
AcDbLine
 10
281.0
 20
249.264
 30
0.0
 11
281.0
 21
243.5
 31
0.0
  0
LINE
  5
A9F
330
1E
100
AcDbEntity
  8
0
100
AcDbLine
 10
281.0
 20
265.966
 30
0.0
 11
281.0
 21
262.899
 31
0.0
  0
LINE
  5
AA0
330
1E
100
AcDbEntity
  8
0
100
AcDbLine
 10
281.0
 20
265.966
 30
0.0
 11
281.0
 21
268.194
 31
0.0
  0
LINE
  5
AA1
330
1E
100
AcDbEntity
  8
0
100
AcDbLine
 10
281.0
 20
262.899
 30
0.0
 11
281.0
 21
259.048
 31
0.0
  0
LINE
  5
AA2
330
1E
100
AcDbEntity
  8
0
100
AcDbLine
 10
281.0
 20
262.899
 30
0.0
 11
281.0
 21
265.966
 31
0.0
  0
LINE
  5
AA3
330
1E
100
AcDbEntity
  8
0
100
AcDbLine
 10
281.0
 20
259.048
 30
0.0
 11
281.0
 21
262.899
 31
0.0
  0
LINE
  5
AA4
330
1E
100
AcDbEntity
  8
0
100
AcDbLine
 10
281.0
 20
259.048
 30
0.0
 11
281.0
 21
254.477
 31
0.0
  0
LINE
  5
AA5
330
1E
100
AcDbEntity
  8
0
100
AcDbLine
 10
281.0
 20
268.194
 30
0.0
 11
281.0
 21
269.547
 31
0.0
  0
LINE
  5
AA6
330
1E
100
AcDbEntity
  8
0
100
AcDbLine
 10
281.0
 20
268.194
 30
0.0
 11
281.0
 21
265.966
 31
0.0
  0
LINE
  5
AA7
330
1E
100
AcDbEntity
  8
0
100
AcDbLine
 10
281.0
 20
270.0
 30
0.0
 11
281.5
 21
273.6
 31
0.0
  0
LINE
  5
AA8
330
1E
100
AcDbEntity
  8
0
100
AcDbLine
 10
281.0
 20
270.0
 30
0.0
 11
281.0
 21
269.547
 31
0.0
  0
LINE
  5
AA9
330
1E
100
AcDbEntity
  8
0
100
AcDbLine
 10
281.0
 20
270.0
 30
0.0
 11
281.031594364625
 21
269.772520574697
 31
0.0
  0
LINE
  5
AAA
330
1E
100
AcDbEntity
  8
0
100
AcDbLine
 10
281.0
 20
269.547
 30
0.0
 11
281.0
 21
270.0
 31
0.0
  0
LINE
  5
AAB
330
1E
100
AcDbEntity
  8
0
100
AcDbLine
 10
281.0
 20
269.547
 30
0.0
 11
281.0
 21
268.194
 31
0.0
  0
LINE
  5
AAC
330
1E
100
AcDbEntity
  8
0
100
AcDbLine
 10
281.0
 20
254.477
 30
0.0
 11
281.0
 21
249.264
 31
0.0
  0
LINE
  5
AAD
330
1E
100
AcDbEntity
  8
0
100
AcDbLine
 10
281.0
 20
254.477
 30
0.0
 11
281.0
 21
259.048
 31
0.0
  0
LINE
  5
AAE
330
1E
100
AcDbEntity
  8
0
100
AcDbLine
 10
309.0
 20
237.282
 30
0.0
 11
309.0
 21
243.5
 31
0.0
  0
LINE
  5
AAF
330
1E
100
AcDbEntity
  8
0
100
AcDbLine
 10
309.0
 20
237.282
 30
0.0
 11
309.0
 21
165.515
 31
0.0
  0
LINE
  5
AB0
330
1E
100
AcDbEntity
  8
0
100
AcDbLine
 10
309.0
 20
249.264
 30
0.0
 11
309.0
 21
243.5
 31
0.0
  0
LINE
  5
AB1
330
1E
100
AcDbEntity
  8
0
100
AcDbLine
 10
309.0
 20
249.264
 30
0.0
 11
309.0
 21
254.477
 31
0.0
  0
LINE
  5
AB2
330
1E
100
AcDbEntity
  8
0
100
AcDbLine
 10
309.0
 20
254.477
 30
0.0
 11
309.0
 21
259.048
 31
0.0
  0
LINE
  5
AB3
330
1E
100
AcDbEntity
  8
0
100
AcDbLine
 10
309.0
 20
254.477
 30
0.0
 11
309.0
 21
249.264
 31
0.0
  0
LINE
  5
AB4
330
1E
100
AcDbEntity
  8
0
100
AcDbLine
 10
309.0
 20
259.048
 30
0.0
 11
309.0
 21
262.899
 31
0.0
  0
LINE
  5
AB5
330
1E
100
AcDbEntity
  8
0
100
AcDbLine
 10
309.0
 20
259.048
 30
0.0
 11
309.0
 21
254.477
 31
0.0
  0
LINE
  5
AB6
330
1E
100
AcDbEntity
  8
0
100
AcDbLine
 10
309.0
 20
262.899
 30
0.0
 11
309.0
 21
265.966
 31
0.0
  0
LINE
  5
AB7
330
1E
100
AcDbEntity
  8
0
100
AcDbLine
 10
309.0
 20
262.899
 30
0.0
 11
309.0
 21
259.048
 31
0.0
  0
LINE
  5
AB8
330
1E
100
AcDbEntity
  8
0
100
AcDbLine
 10
309.0
 20
265.966
 30
0.0
 11
309.0
 21
268.194
 31
0.0
  0
LINE
  5
AB9
330
1E
100
AcDbEntity
  8
0
100
AcDbLine
 10
309.0
 20
265.966
 30
0.0
 11
309.0
 21
262.899
 31
0.0
  0
LINE
  5
ABA
330
1E
100
AcDbEntity
  8
0
100
AcDbLine
 10
309.0
 20
268.194
 30
0.0
 11
309.0
 21
269.547
 31
0.0
  0
LINE
  5
ABB
330
1E
100
AcDbEntity
  8
0
100
AcDbLine
 10
309.0
 20
268.194
 30
0.0
 11
309.0
 21
265.966
 31
0.0
  0
LINE
  5
ABC
330
1E
100
AcDbEntity
  8
0
100
AcDbLine
 10
309.0
 20
243.5
 30
0.0
 11
309.0
 21
249.264
 31
0.0
  0
LINE
  5
ABD
330
1E
100
AcDbEntity
  8
0
100
AcDbLine
 10
309.0
 20
243.5
 30
0.0
 11
309.0
 21
237.282
 31
0.0
  0
LINE
  5
ABE
330
1E
100
AcDbEntity
  8
0
100
AcDbLine
 10
309.0
 20
269.547
 30
0.0
 11
309.0
 21
270.0
 31
0.0
  0
LINE
  5
ABF
330
1E
100
AcDbEntity
  8
0
100
AcDbLine
 10
309.0
 20
269.547
 30
0.0
 11
309.0
 21
268.194
 31
0.0
  0
LINE
  5
AC0
330
1E
100
AcDbEntity
  8
0
100
AcDbLine
 10
308.968405635375
 20
269.772520574697
 30
0.0
 11
309.0
 21
270.0
 31
0.0
  0
LINE
  5
AC1
330
1E
100
AcDbEntity
  8
0
100
AcDbLine
 10
308.5
 20
273.6
 30
0.0
 11
309.0
 21
270.0
 31
0.0
  0
LINE
  5
AC2
330
1E
100
AcDbEntity
  8
0
100
AcDbLine
 10
309.0
 20
270.0
 30
0.0
 11
309.0
 21
269.547
 31
0.0
  0
LINE
  5
AC3
330
1E
100
AcDbEntity
  8
0
100
AcDbLine
 10
304.9
 20
279.9
 30
0.0
 11
307.1
 21
277.0
 31
0.0
  0
LINE
  5
AC4
330
1E
100
AcDbEntity
  8
0
100
AcDbLine
 10
307.1
 20
277.0
 30
0.0
 11
308.5
 21
273.6
 31
0.0
  0
LINE
  5
AC5
330
1E
100
AcDbEntity
  8
0
100
AcDbLine
 10
298.6
 20
283.5
 30
0.0
 11
302.0
 21
282.1
 31
0.0
  0
LINE
  5
AC6
330
1E
100
AcDbEntity
  8
0
100
AcDbLine
 10
302.0
 20
282.1
 30
0.0
 11
304.9
 21
279.9
 31
0.0
  0
LINE
  5
AC7
330
1E
100
AcDbEntity
  8
0
100
AcDbLine
 10
295.0
 20
284.0
 30
0.0
 11
298.6
 21
283.5
 31
0.0
  0
LINE
  5
AC8
330
1E
100
AcDbEntity
  8
0
100
AcDbLine
 10
291.4
 20
283.5
 30
0.0
 11
295.0
 21
284.0
 31
0.0
  0
LINE
  5
AC9
330
1E
100
AcDbEntity
  8
0
100
AcDbLine
 10
288.0
 20
282.1
 30
0.0
 11
291.4
 21
283.5
 31
0.0
  0
LINE
  5
ACA
330
1E
100
AcDbEntity
  8
0
100
AcDbLine
 10
285.1
 20
279.9
 30
0.0
 11
288.0
 21
282.1
 31
0.0
  0
LINE
  5
ACB
330
1E
100
AcDbEntity
  8
0
100
AcDbLine
 10
282.9
 20
277.0
 30
0.0
 11
285.1
 21
279.9
 31
0.0
  0
LINE
  5
ACC
330
1E
100
AcDbEntity
  8
0
100
AcDbLine
 10
281.5
 20
273.6
 30
0.0
 11
282.9
 21
277.0
 31
0.0
  0
LINE
  5
ACD
330
1E
100
AcDbEntity
  8
0
100
AcDbLine
 10
281.0
 20
237.282
 30
0.0
 11
281.0
 21
165.515
 31
0.0
  0
LINE
  5
ACE
330
1E
100
AcDbEntity
  8
0
100
AcDbLine
 10
281.0
 20
237.282
 30
0.0
 11
281.0
 21
243.5
 31
0.0
  0
LINE
  5
ACF
330
1E
100
AcDbEntity
  8
0
100
AcDbLine
 10
281.0
 20
237.282
 30
0.0
 11
281.0
 21
230.717
 31
0.0
  0
LINE
  5
AD0
330
1E
100
AcDbEntity
  8
0
100
AcDbLine
 10
281.0
 20
217.0
 30
0.0
 11
281.0
 21
37.5
 31
0.0
  0
LINE
  5
AD1
330
1E
100
AcDbEntity
  8
0
100
AcDbLine
 10
281.0
 20
217.0
 30
0.0
 11
281.0
 21
223.918
 31
0.0
  0
LINE
  5
C6F
330
1E
100
AcDbEntity
  8
0
100
AcDbLine
 10
544.0
 20
0.0
 30
0.0
 11
548.824
 21
0.0
 31
0.0
  0
LINE
  5
CA3
330
1E
100
AcDbEntity
  8
0
100
AcDbLine
 10
548.824
 20
10.0
 30
0.0
 11
550.162
 21
10.0
 31
0.0
  0
LINE
  5
CA4
330
1E
100
AcDbEntity
  8
0
100
AcDbLine
 10
548.824
 20
9.7
 30
0.0
 11
550.368
 21
9.7
 31
0.0
  0
LINE
  5
CAA
330
1E
100
AcDbEntity
  8
0
100
AcDbLine
 10
553.147
 20
0.0
 30
0.0
 11
554.176
 21
0.0
 31
0.0
  0
LINE
  5
CAB
330
1E
100
AcDbEntity
  8
0
100
AcDbLine
 10
551.912
 20
0.0
 30
0.0
 11
553.147
 21
0.0
 31
0.0
  0
LINE
  5
CAC
330
1E
100
AcDbEntity
  8
0
100
AcDbLine
 10
550.162
 20
10.0
 30
0.0
 11
551.397
 21
10.0
 31
0.0
  0
LINE
  5
CAD
330
1E
100
AcDbEntity
  8
0
100
AcDbLine
 10
552.941
 20
9.7
 30
0.0
 11
553.868
 21
9.7
 31
0.0
  0
LINE
  5
CAE
330
1E
100
AcDbEntity
  8
0
100
AcDbLine
 10
553.868
 20
9.7
 30
0.0
 11
554.485
 21
9.7
 31
0.0
  0
LINE
  5
CAF
330
1E
100
AcDbEntity
  8
0
100
AcDbLine
 10
552.426
 20
10.0
 30
0.0
 11
553.25
 21
10.0
 31
0.0
  0
LINE
  5
CB0
330
1E
100
AcDbEntity
  8
0
100
AcDbLine
 10
553.25
 20
10.0
 30
0.0
 11
553.765
 21
10.0
 31
0.0
  0
LINE
  5
CB1
330
1E
100
AcDbEntity
  8
0
100
AcDbLine
 10
553.765
 20
10.0
 30
0.0
 11
553.971
 21
10.0
 31
0.0
  0
LINE
  5
CB2
330
1E
100
AcDbEntity
  8
0
100
AcDbLine
 10
553.971
 20
10.0
 30
0.0
 11
554.691
 21
9.7
 31
0.0
  0
LINE
  5
CB3
330
1E
100
AcDbEntity
  8
0
100
AcDbLine
 10
551.397
 20
10.0
 30
0.0
 11
552.426
 21
10.0
 31
0.0
  0
LINE
  5
CB4
330
1E
100
AcDbEntity
  8
0
100
AcDbLine
 10
551.706
 20
9.7
 30
0.0
 11
552.941
 21
9.7
 31
0.0
  0
LINE
  5
CB5
330
1E
100
AcDbEntity
  8
0
100
AcDbLine
 10
550.368
 20
9.7
 30
0.0
 11
551.706
 21
9.7
 31
0.0
  0
LINE
  5
CB6
330
1E
100
AcDbEntity
  8
0
100
AcDbLine
 10
550.368
 20
0.0
 30
0.0
 11
551.912
 21
0.0
 31
0.0
  0
LINE
  5
CB7
330
1E
100
AcDbEntity
  8
0
100
AcDbLine
 10
548.824
 20
0.0
 30
0.0
 11
550.368
 21
0.0
 31
0.0
  0
LINE
  5
CC8
330
1E
100
AcDbEntity
  8
0
100
AcDbLine
 10
554.176
 20
0.0
 30
0.0
 11
554.794
 21
0.0
 31
0.0
  0
LINE
  5
CC9
330
1E
100
AcDbEntity
  8
0
100
AcDbLine
 10
554.794
 20
0.0
 30
0.0
 11
555.0
 21
0.0
 31
0.0
  0
LINE
  5
CCA
330
1E
100
AcDbEntity
  8
0
100
AcDbLine
 10
554.485
 20
9.7
 30
0.0
 11
554.691
 21
9.7
 31
0.0
  0
LINE
  5
CCB
330
1E
100
AcDbEntity
  8
0
100
AcDbLine
 10
554.691
 20
9.7
 30
0.0
 11
555.0
 21
9.0
 31
0.0
  0
LINE
  5
CCC
330
1E
100
AcDbEntity
  8
0
100
AcDbLine
 10
555.0
 20
9.0
 30
0.0
 11
555.0
 21
0.0
 31
0.0
  0
LINE
  5
CCD
330
1E
100
AcDbEntity
  8
0
100
AcDbLine
 10
555.0
 20
0.0
 30
0.0
 11
555.0
 21
9.0
 31
0.0
  0
LINE
  5
D72
330
1E
100
AcDbEntity
  8
0
100
AcDbLine
 10
145.0
 20
9.0
 30
0.0
 11
145.308824
 21
9.7
 31
0.0
  0
LINE
  5
D73
330
1E
100
AcDbEntity
  8
0
100
AcDbLine
 10
145.308824
 20
9.7
 30
0.0
 11
146.02941
 21
10.0
 31
0.0
  0
LINE
  5
D74
330
1E
100
AcDbEntity
  8
0
100
AcDbLine
 10
146.02941
 20
10.0
 30
0.0
 11
149.83823
 21
10.0
 31
0.0
  0
LINE
  5
1570
330
1E
100
AcDbEntity
  8
0
100
AcDbLine
 10
493.715864544333
 20
10.181457483079
 30
0.0
 11
495.213864544333
 21
10.399737483079
 31
0.0
  0
LINE
  5
1572
330
1E
100
AcDbEntity
  8
0
100
AcDbLine
 10
495.213864544333
 20
10.399737483079
 30
0.0
 11
497.455972378687
 21
11.672849751724
 31
0.0
  0
LINE
  5
1579
330
1E
100
AcDbEntity
  8
0
100
AcDbLine
 10
535.370864544333
 20
10.308377483079
 30
0.0
 11
536.701864544332
 21
10.181457483079
 31
0.0
  0
LINE
  5
1586
330
1E
100
AcDbEntity
  8
0
100
AcDbLine
 10
533.248864544332
 20
11.271757483079
 30
0.0
 11
535.370864544333
 21
10.308377483079
 31
0.0
  0
LINE
  5
1587
330
1E
100
AcDbEntity
  8
0
100
AcDbLine
 10
497.455972378687
 20
11.672849751723
 30
0.0
 11
498.570864544333
 21
12.898557483079
 31
0.0
  0
LINE
  5
1588
330
1E
100
AcDbEntity
  8
0
100
AcDbLine
 10
531.935040227052
 20
12.69903299464
 30
0.0
 11
533.248864544332
 21
11.271757483079
 31
0.0
  0
LINE
  5
1589
330
1E
100
AcDbEntity
  8
0
100
AcDbLine
 10
498.570864544333
 20
12.898557483079
 30
0.0
 11
499.145864544333
 21
14.411957483079
 31
0.0
  0
LINE
  5
158A
330
1E
100
AcDbEntity
  8
0
100
AcDbLine
 10
531.581050681471
 20
13.440109417826
 30
0.0
 11
531.935040227052
 21
12.69903299464
 31
0.0
  0
LINE
  5
158B
330
1E
100
AcDbEntity
  8
0
100
AcDbLine
 10
499.145864544333
 20
14.411957483079
 30
0.0
 11
499.201864544332
 21
15.181457483079
 31
0.0
  0
LINE
  5
158C
330
1E
100
AcDbEntity
  8
0
100
AcDbLine
 10
499.145864544333
 20
14.411857483079
 30
0.0
 11
499.201864544332
 21
15.181457483079
 31
0.0
  0
LINE
  5
158D
330
1E
100
AcDbEntity
  8
0
100
AcDbLine
 10
499.201864544332
 20
15.181457483079
 30
0.0
 11
499.201864544332
 21
45.91830608989
 31
0.0
  0
LINE
  5
158E
330
1E
100
AcDbEntity
  8
0
100
AcDbLine
 10
531.201864544332
 20
15.181457483079
 30
0.0
 11
531.219216398816
 21
14.892188721275
 31
0.0
  0
LINE
  5
158F
330
1E
100
AcDbEntity
  8
0
100
AcDbLine
 10
500.944864544333
 20
41.282357483079
 30
0.0
 11
502.256864544333
 21
39.906357483079
 31
0.0
  0
LINE
  5
1590
330
1E
100
AcDbEntity
  8
0
100
AcDbLine
 10
499.192864544332
 20
45.960157483079
 30
0.0
 11
499.211208542843
 21
46.527436277864
 31
0.0
  0
LINE
  5
1591
330
1E
100
AcDbEntity
  8
0
100
AcDbLine
 10
499.192864544332
 20
45.960157483079
 30
0.0
 11
499.515864544333
 21
44.458157483079
 31
0.0
  0
LINE
  5
1592
330
1E
100
AcDbEntity
  8
0
100
AcDbLine
 10
499.515864544333
 20
44.458157483079
 30
0.0
 11
500.167864544333
 21
43.006957483079
 31
0.0
  0
LINE
  5
1593
330
1E
100
AcDbEntity
  8
0
100
AcDbLine
 10
500.167864544333
 20
43.006957483079
 30
0.0
 11
501.139864544333
 21
41.621957483079
 31
0.0
  0
LINE
  5
1594
330
1E
100
AcDbEntity
  8
0
100
AcDbLine
 10
499.984864544333
 20
42.773557483079
 30
0.0
 11
500.944864544333
 21
41.282357483079
 31
0.0
  0
LINE
  5
1595
330
1E
100
AcDbEntity
  8
0
100
AcDbLine
 10
499.398864544333
 20
44.342857483079
 30
0.0
 11
499.984864544333
 21
42.773557483079
 31
0.0
  0
LINE
  5
1596
330
1E
100
AcDbEntity
  8
0
100
AcDbLine
 10
499.211376292218
 20
45.874074989817
 30
0.0
 11
499.398864544333
 21
44.342857483079
 31
0.0
  0
LINE
  5
1597
330
1E
100
AcDbEntity
  8
0
100
AcDbLine
 10
499.201864544332
 20
45.91830608989
 30
0.0
 11
499.201864544332
 21
15.181457483079
 31
0.0
  0
LINE
  5
1598
330
1E
100
AcDbEntity
  8
0
100
AcDbLine
 10
501.139864544333
 20
41.621957483079
 30
0.0
 11
503.954864544333
 21
39.203057483079
 31
0.0
  0
LINE
  5
1599
330
1E
100
AcDbEntity
  8
0
100
AcDbLine
 10
510.257864544333
 20
36.170457483079
 30
0.0
 11
512.698864544333
 21
35.793457483079
 31
0.0
  0
LINE
  5
159A
330
1E
100
AcDbEntity
  8
0
100
AcDbLine
 10
512.698864544333
 20
35.793457483079
 30
0.0
 11
515.201864544332
 21
35.666957483079
 31
0.0
  0
LINE
  5
159B
330
1E
100
AcDbEntity
  8
0
100
AcDbLine
 10
503.887864544333
 20
38.679157483079
 30
0.0
 11
505.796864544332
 21
37.631157483079
 31
0.0
  0
LINE
  5
159C
330
1E
100
AcDbEntity
  8
0
100
AcDbLine
 10
513.773864544333
 20
36.287857483079
 30
0.0
 11
517.696864544333
 21
36.393257483079
 31
0.0
  0
LINE
  5
159D
330
1E
100
AcDbEntity
  8
0
100
AcDbLine
 10
505.352864544333
 20
38.475457483079
 30
0.0
 11
506.598864544333
 21
37.892857483079
 31
0.0
  0
LINE
  5
159E
330
1E
100
AcDbEntity
  8
0
100
AcDbLine
 10
506.879115443047
 20
37.787104416333
 30
0.0
 11
509.941864544332
 21
36.838357483079
 31
0.0
  0
LINE
  5
159F
330
1E
100
AcDbEntity
  8
0
100
AcDbLine
 10
509.941864544332
 20
36.838357483079
 30
0.0
 11
513.773864544333
 21
36.287857483079
 31
0.0
  0
LINE
  5
15A0
330
1E
100
AcDbEntity
  8
0
100
AcDbLine
 10
506.598864544333
 20
37.892757483079
 30
0.0
 11
506.87985339701
 21
37.786747091256
 31
0.0
  0
LINE
  5
15A1
330
1E
100
AcDbEntity
  8
0
100
AcDbLine
 10
506.598864544333
 20
37.892857483079
 30
0.0
 11
506.879115443047
 21
37.787104416333
 31
0.0
  0
LINE
  5
15A2
330
1E
100
AcDbEntity
  8
0
100
AcDbLine
 10
505.796864544332
 20
37.631157483079
 30
0.0
 11
507.937864544333
 21
36.787757483079
 31
0.0
  0
LINE
  5
15A3
330
1E
100
AcDbEntity
  8
0
100
AcDbLine
 10
507.937864544333
 20
36.787757483079
 30
0.0
 11
510.257864544333
 21
36.170457483079
 31
0.0
  0
LINE
  5
15A4
330
1E
100
AcDbEntity
  8
0
100
AcDbLine
 10
515.201864544332
 20
35.667157483079
 30
0.0
 11
518.947864544333
 21
35.920357483079
 31
0.0
  0
LINE
  5
15A5
330
1E
100
AcDbEntity
  8
0
100
AcDbLine
 10
517.696864544333
 20
36.393257483079
 30
0.0
 11
521.480864544332
 21
37.069257483079
 31
0.0
  0
LINE
  5
15A6
330
1E
100
AcDbEntity
  8
0
100
AcDbLine
 10
502.256864544333
 20
39.906357483079
 30
0.0
 11
503.887864544333
 21
38.679157483079
 31
0.0
  0
LINE
  5
15A7
330
1E
100
AcDbEntity
  8
0
100
AcDbLine
 10
503.430864544333
 20
53.904857483079
 30
0.0
 11
505.164864544333
 21
52.880057483079
 31
0.0
  0
LINE
  5
15A8
330
1E
100
AcDbEntity
  8
0
100
AcDbLine
 10
511.827864544333
 20
50.808157483079
 30
0.0
 11
514.770864544333
 21
50.581257483079
 31
0.0
  0
LINE
  5
15A9
330
1E
100
AcDbEntity
  8
0
100
AcDbLine
 10
508.484864544333
 20
51.541257483079
 30
0.0
 11
511.827864544333
 21
50.808157483079
 31
0.0
  0
LINE
  5
15AA
330
1E
100
AcDbEntity
  8
0
100
AcDbLine
 10
514.770864544333
 20
50.581257483079
 30
0.0
 11
516.919864544333
 21
50.641557483079
 31
0.0
  0
LINE
  5
15AB
330
1E
100
AcDbEntity
  8
0
100
AcDbLine
 10
516.919864544333
 20
50.641557483079
 30
0.0
 11
520.381864544333
 21
51.097357483079
 31
0.0
  0
LINE
  5
15AC
330
1E
100
AcDbEntity
  8
0
100
AcDbLine
 10
505.164864544333
 20
52.880057483079
 30
0.0
 11
506.433864544333
 21
52.286357483079
 31
0.0
  0
LINE
  5
15AD
330
1E
100
AcDbEntity
  8
0
100
AcDbLine
 10
506.433864544333
 20
52.286357483079
 30
0.0
 11
508.484864544333
 21
51.541257483079
 31
0.0
  0
LINE
  5
15AE
330
1E
100
AcDbEntity
  8
0
100
AcDbLine
 10
509.275864544333
 20
55.466957483079
 30
0.0
 11
512.155864544333
 21
54.712857483079
 31
0.0
  0
LINE
  5
15AF
330
1E
100
AcDbEntity
  8
0
100
AcDbLine
 10
512.155864544333
 20
54.712857483079
 30
0.0
 11
515.227864544333
 21
54.358357483079
 31
0.0
  0
LINE
  5
15B0
330
1E
100
AcDbEntity
  8
0
100
AcDbLine
 10
515.227864544333
 20
54.358357483079
 30
0.0
 11
518.299864544333
 21
54.712857483079
 31
0.0
  0
LINE
  5
15B1
330
1E
100
AcDbEntity
  8
0
100
AcDbLine
 10
522.465864544333
 20
36.787957483079
 30
0.0
 11
525.621864544333
 21
38.105557483079
 31
0.0
  0
LINE
  5
15B2
330
1E
100
AcDbEntity
  8
0
100
AcDbLine
 10
521.480864544332
 20
37.069257483079
 30
0.0
 11
524.861864544333
 21
38.350357483079
 31
0.0
  0
LINE
  5
15B3
330
1E
100
AcDbEntity
  8
0
100
AcDbLine
 10
518.947864544333
 20
35.920357483079
 30
0.0
 11
522.465864544333
 21
36.787957483079
 31
0.0
  0
LINE
  5
15B4
330
1E
100
AcDbEntity
  8
0
100
AcDbLine
 10
520.381864544333
 20
51.097357483079
 30
0.0
 11
523.578864544333
 21
52.093557483079
 31
0.0
  0
LINE
  5
15B5
330
1E
100
AcDbEntity
  8
0
100
AcDbLine
 10
523.578864544333
 20
52.093557483079
 30
0.0
 11
526.066864544332
 21
53.323057483079
 31
0.0
  0
LINE
  5
15B6
330
1E
100
AcDbEntity
  8
0
100
AcDbLine
 10
518.299864544333
 20
54.712857483079
 30
0.0
 11
521.179864544333
 21
55.466957483079
 31
0.0
  0
LINE
  5
15B7
330
1E
100
AcDbEntity
  8
0
100
AcDbLine
 10
501.125864544333
 20
55.944757483079
 30
0.0
 11
503.430864544333
 21
53.904857483079
 31
0.0
  0
LINE
  5
15B8
330
1E
100
AcDbEntity
  8
0
100
AcDbLine
 10
506.779864544333
 20
56.708657483079
 30
0.0
 11
509.275864544333
 21
55.466957483079
 31
0.0
  0
LINE
  5
15B9
330
1E
100
AcDbEntity
  8
0
100
AcDbLine
 10
506.779864544333
 20
56.708657483079
 30
0.0
 11
507.451864544332
 21
56.364857483079
 31
0.0
  0
LINE
  5
15BA
330
1E
100
AcDbEntity
  8
0
100
AcDbLine
 10
523.003864544333
 20
56.364857483079
 30
0.0
 11
523.675864544333
 21
56.708657483079
 31
0.0
  0
LINE
  5
15BB
330
1E
100
AcDbEntity
  8
0
100
AcDbLine
 10
521.179864544333
 20
55.466957483079
 30
0.0
 11
523.675864544333
 21
56.708657483079
 31
0.0
  0
LINE
  5
15BC
330
1E
100
AcDbEntity
  8
0
100
AcDbLine
 10
525.621864544333
 20
38.105557483079
 30
0.0
 11
528.887864544333
 21
40.563557483079
 31
0.0
  0
LINE
  5
15BD
330
1E
100
AcDbEntity
  8
0
100
AcDbLine
 10
524.861864544333
 20
38.350357483079
 30
0.0
 11
527.702864544333
 21
40.093057483079
 31
0.0
  0
LINE
  5
15BE
330
1E
100
AcDbEntity
  8
0
100
AcDbLine
 10
526.403864544332
 20
39.264157483079
 30
0.0
 11
526.698299326448
 21
39.476846358402
 31
0.0
  0
LINE
  5
15BF
330
1E
100
AcDbEntity
  8
0
100
AcDbLine
 10
526.403864544332
 20
39.264057483079
 30
0.0
 11
526.700605154501
 21
39.478260778165
 31
0.0
  0
LINE
  5
15C0
330
1E
100
AcDbEntity
  8
0
100
AcDbLine
 10
527.702864544333
 20
40.093057483079
 30
0.0
 11
530.087864544333
 21
42.704857483079
 31
0.0
  0
LINE
  5
15C1
330
1E
100
AcDbEntity
  8
0
100
AcDbLine
 10
528.887864544333
 20
40.563557483079
 30
0.0
 11
530.809864544333
 21
43.548657483079
 31
0.0
  0
LINE
  5
15C2
330
1E
100
AcDbEntity
  8
0
100
AcDbLine
 10
526.066864544332
 20
53.323057483079
 30
0.0
 11
528.844864544332
 21
55.446257483079
 31
0.0
  0
LINE
  5
15C3
330
1E
100
AcDbEntity
  8
0
100
AcDbLine
 10
528.844864544332
 20
55.446257483079
 30
0.0
 11
530.225864544333
 21
57.268957483079
 31
0.0
  0
LINE
  5
15C4
330
1E
100
AcDbEntity
  8
0
100
AcDbLine
 10
530.087864544333
 20
42.704857483079
 30
0.0
 11
531.188864544333
 21
45.648357483079
 31
0.0
  0
LINE
  5
15C5
330
1E
100
AcDbEntity
  8
0
100
AcDbLine
 10
530.809864544333
 20
43.548657483079
 30
0.0
 11
531.124197827278
 21
45.475472395293
 31
0.0
  0
LINE
  5
15C6
330
1E
100
AcDbEntity
  8
0
100
AcDbLine
 10
531.188864544333
 20
45.648357483079
 30
0.0
 11
531.207501601521
 21
60.194776798789
 31
0.0
  0
LINE
  5
15C7
330
1E
100
AcDbEntity
  8
0
100
AcDbLine
 10
530.225864544333
 20
57.268957483079
 30
0.0
 11
530.826864544332
 21
58.479457483079
 31
0.0
  0
LINE
  5
15C8
330
1E
100
AcDbEntity
  8
0
100
AcDbLine
 10
523.675864544333
 20
56.708657483079
 30
0.0
 11
525.595864544332
 21
58.261657483079
 31
0.0
  0
LINE
  5
15C9
330
1E
100
AcDbEntity
  8
0
100
AcDbLine
 10
499.933864544333
 20
57.814257483079
 30
0.0
 11
501.123864544332
 21
55.947857483079
 31
0.0
  0
LINE
  5
15CA
330
1E
100
AcDbEntity
  8
0
100
AcDbLine
 10
504.859864544333
 20
58.261657483079
 30
0.0
 11
506.779864544333
 21
56.708657483079
 31
0.0
  0
LINE
  5
15CB
330
1E
100
AcDbEntity
  8
0
100
AcDbLine
 10
499.194864544333
 20
61.300957483079
 30
0.0
 11
499.471864544333
 21
62.787957483079
 31
0.0
  0
LINE
  5
15CC
330
1E
100
AcDbEntity
  8
0
100
AcDbLine
 10
499.194864544333
 20
61.300957483079
 30
0.0
 11
499.377864544333
 21
59.285857483079
 31
0.0
  0
LINE
  5
15CD
330
1E
100
AcDbEntity
  8
0
100
AcDbLine
 10
499.377864544333
 20
59.285857483079
 30
0.0
 11
499.933864544333
 21
57.814257483079
 31
0.0
  0
LINE
  5
15CE
330
1E
100
AcDbEntity
  8
0
100
AcDbLine
 10
499.471864544333
 20
62.787957483079
 30
0.0
 11
499.717864544333
 21
63.547157483079
 31
0.0
  0
LINE
  5
15CF
330
1E
100
AcDbEntity
  8
0
100
AcDbLine
 10
499.409465185709
 20
62.45298330881
 30
0.0
 11
499.431864544332
 21
62.811657483079
 31
0.0
  0
LINE
  5
15D0
330
1E
100
AcDbEntity
  8
0
100
AcDbLine
 10
499.628458293804
 20
63.163172167708
 30
0.0
 11
499.717864544333
 21
63.547157483079
 31
0.0
  0
LINE
  5
15D1
330
1E
100
AcDbEntity
  8
0
100
AcDbLine
 10
499.717864544333
 20
63.547157483079
 30
0.0
 11
499.935180793943
 21
63.898110736759
 31
0.0
  0
LINE
  5
15D2
330
1E
100
AcDbEntity
  8
0
100
AcDbLine
 10
499.717864544333
 20
63.547157483079
 30
0.0
 11
500.446864544333
 21
65.124157483079
 31
0.0
  0
LINE
  5
15D3
330
1E
100
AcDbEntity
  8
0
100
AcDbLine
 10
499.431864544332
 20
62.811657483079
 30
0.0
 11
499.561458558367
 21
63.064460635334
 31
0.0
  0
LINE
  5
15D4
330
1E
100
AcDbEntity
  8
0
100
AcDbLine
 10
503.611864544333
 20
60.169157483079
 30
0.0
 11
504.859864544333
 21
58.261657483079
 31
0.0
  0
LINE
  5
15D5
330
1E
100
AcDbEntity
  8
0
100
AcDbLine
 10
503.227864544333
 20
62.164957483079
 30
0.0
 11
503.227864544333
 21
134.199457483079
 31
0.0
  0
LINE
  5
15D6
330
1E
100
AcDbEntity
  8
0
100
AcDbLine
 10
503.227864544333
 20
62.164957483079
 30
0.0
 11
503.611864544333
 21
60.169157483079
 31
0.0
  0
LINE
  5
15D7
330
1E
100
AcDbEntity
  8
0
100
AcDbLine
 10
525.595864544332
 20
58.261657483079
 30
0.0
 11
526.843864544333
 21
60.169157483079
 31
0.0
  0
LINE
  5
15D8
330
1E
100
AcDbEntity
  8
0
100
AcDbLine
 10
530.826864544332
 20
58.479457483079
 30
0.0
 11
531.214864544333
 21
60.227957483079
 31
0.0
  0
LINE
  5
15D9
330
1E
100
AcDbEntity
  8
0
100
AcDbLine
 10
530.985864544333
 20
62.746757483079
 30
0.0
 11
531.214864544333
 21
60.227957483079
 31
0.0
  0
LINE
  5
15DA
330
1E
100
AcDbEntity
  8
0
100
AcDbLine
 10
530.998279883071
 20
62.559747464065
 30
0.0
 11
531.025864544333
 21
62.491557483079
 31
0.0
  0
LINE
  5
15DB
330
1E
100
AcDbEntity
  8
0
100
AcDbLine
 10
527.227864544333
 20
62.164957483079
 30
0.0
 11
527.227864544333
 21
134.199457483079
 31
0.0
  0
LINE
  5
15DC
330
1E
100
AcDbEntity
  8
0
100
AcDbLine
 10
526.843864544333
 20
60.169157483079
 30
0.0
 11
527.227864544333
 21
62.164957483079
 31
0.0
  0
LINE
  5
15DD
330
1E
100
AcDbEntity
  8
0
100
AcDbLine
 10
500.446864544333
 20
65.124157483079
 30
0.0
 11
501.162864544332
 21
66.275257483079
 31
0.0
  0
LINE
  5
15DE
330
1E
100
AcDbEntity
  8
0
100
AcDbLine
 10
527.227864544333
 20
68.157998245542
 30
0.0
 11
529.049864544333
 21
66.532357483079
 31
0.0
  0
LINE
  5
15DF
330
1E
100
AcDbEntity
  8
0
100
AcDbLine
 10
502.112864544333
 20
66.993657483079
 30
0.0
 11
503.227864544333
 21
67.97749685506
 31
0.0
  0
LINE
  5
15E0
330
1E
100
AcDbEntity
  8
0
100
AcDbLine
 10
501.162864544332
 20
66.275257483079
 30
0.0
 11
503.227864544333
 21
68.145473795136
 31
0.0
  0
LINE
  5
15E1
330
1E
100
AcDbEntity
  8
0
100
AcDbLine
 10
529.049864544333
 20
66.532357483079
 30
0.0
 11
529.859864544333
 21
65.296957483079
 31
0.0
  0
LINE
  5
15E2
330
1E
100
AcDbEntity
  8
0
100
AcDbLine
 10
529.859864544333
 20
65.296957483079
 30
0.0
 11
530.408864544333
 21
64.224457483079
 31
0.0
  0
LINE
  5
15E3
330
1E
100
AcDbEntity
  8
0
100
AcDbLine
 10
530.408864544333
 20
64.224457483079
 30
0.0
 11
530.985864544333
 21
62.746757483079
 31
0.0
  0
LINE
  5
15E4
330
1E
100
AcDbEntity
  8
0
100
AcDbLine
 10
480.557864544332
 20
148.501457483079
 30
0.0
 11
480.557864544332
 21
149.118457483079
 31
0.0
  0
LINE
  5
15E5
330
1E
100
AcDbEntity
  8
0
100
AcDbLine
 10
479.097864544333
 20
148.501457483079
 30
0.0
 11
479.097864544333
 21
149.397691979762
 31
0.0
  0
LINE
  5
15E6
330
1E
100
AcDbEntity
  8
0
100
AcDbLine
 10
479.097864544333
 20
148.501457483079
 30
0.0
 11
479.097864544333
 21
149.118457483079
 31
0.0
  0
LINE
  5
15E7
330
1E
100
AcDbEntity
  8
0
100
AcDbLine
 10
479.097864544333
 20
148.501457483079
 30
0.0
 11
480.557864544332
 21
148.501457483079
 31
0.0
  0
LINE
  5
15E8
330
1E
100
AcDbEntity
  8
0
100
AcDbLine
 10
480.557864544332
 20
149.118457483079
 30
0.0
 11
480.557864544332
 21
149.91963512779
 31
0.0
  0
LINE
  5
15E9
330
1E
100
AcDbEntity
  8
0
100
AcDbLine
 10
480.557864544332
 20
149.118457483079
 30
0.0
 11
480.557864544332
 21
148.501457483079
 31
0.0
  0
LINE
  5
15EA
330
1E
100
AcDbEntity
  8
0
100
AcDbLine
 10
479.097864544333
 20
149.397691979762
 30
0.0
 11
479.097864544333
 21
148.501457483079
 31
0.0
  0
LINE
  5
15EB
330
1E
100
AcDbEntity
  8
0
100
AcDbLine
 10
480.557864544332
 20
149.91963512779
 30
0.0
 11
480.557864544332
 21
149.118457483079
 31
0.0
  0
LINE
  5
15EC
330
1E
100
AcDbEntity
  8
0
100
AcDbLine
 10
479.097864544333
 20
149.569669604291
 30
0.0
 11
479.097864544333
 21
149.118457483079
 31
0.0
  0
LINE
  5
15ED
330
1E
100
AcDbEntity
  8
0
100
AcDbLine
 10
479.097864544333
 20
149.118457483079
 30
0.0
 11
479.097864544333
 21
148.501457483079
 31
0.0
  0
LINE
  5
15EE
330
1E
100
AcDbEntity
  8
0
100
AcDbLine
 10
479.097864544333
 20
149.118457483079
 30
0.0
 11
479.097864544333
 21
149.569669604291
 31
0.0
  0
LINE
  5
15EF
330
1E
100
AcDbEntity
  8
0
100
AcDbLine
 10
479.097864544333
 20
149.118457483079
 30
0.0
 11
480.557864544332
 21
149.118457483079
 31
0.0
  0
LINE
  5
15F0
330
1E
100
AcDbEntity
  8
0
100
AcDbLine
 10
477.928864544333
 20
149.289457483079
 30
0.0
 11
479.097864544333
 21
148.733703384718
 31
0.0
  0
LINE
  5
15F1
330
1E
100
AcDbEntity
  8
0
100
AcDbLine
 10
479.586381785712
 20
148.501457483079
 30
0.0
 11
482.015864544333
 21
147.346457483079
 31
0.0
  0
LINE
  5
15F2
330
1E
100
AcDbEntity
  8
0
100
AcDbLine
 10
476.176864544333
 20
148.734457483079
 30
0.0
 11
480.409864544333
 21
146.667457483079
 31
0.0
  0
LINE
  5
15F3
330
1E
100
AcDbEntity
  8
0
100
AcDbLine
 10
474.311864544333
 20
151.933457483079
 30
0.0
 11
474.311864544333
 21
152.550457483079
 31
0.0
  0
LINE
  5
15F4
330
1E
100
AcDbEntity
  8
0
100
AcDbLine
 10
474.311864544333
 20
151.933457483079
 30
0.0
 11
475.771864544333
 21
151.933457483079
 31
0.0
  0
LINE
  5
15F5
330
1E
100
AcDbEntity
  8
0
100
AcDbLine
 10
474.311864544333
 20
153.739433287332
 30
0.0
 11
474.311864544333
 21
152.550457483079
 31
0.0
  0
LINE
  5
15F6
330
1E
100
AcDbEntity
  8
0
100
AcDbLine
 10
475.771864544333
 20
152.550457483079
 30
0.0
 11
475.771864544333
 21
153.707490811869
 31
0.0
  0
LINE
  5
15F7
330
1E
100
AcDbEntity
  8
0
100
AcDbLine
 10
475.771864544333
 20
152.550457483079
 30
0.0
 11
475.771864544333
 21
151.933457483079
 31
0.0
  0
LINE
  5
15F8
330
1E
100
AcDbEntity
  8
0
100
AcDbLine
 10
475.771864544333
 20
151.933457483079
 30
0.0
 11
475.771864544333
 21
152.550457483079
 31
0.0
  0
LINE
  5
15F9
330
1E
100
AcDbEntity
  8
0
100
AcDbLine
 10
475.771864544333
 20
153.707490811869
 30
0.0
 11
475.771864544333
 21
152.550457483079
 31
0.0
  0
LINE
  5
15FA
330
1E
100
AcDbEntity
  8
0
100
AcDbLine
 10
474.311864544333
 20
152.550457483079
 30
0.0
 11
474.311864544333
 21
151.933457483079
 31
0.0
  0
LINE
  5
15FB
330
1E
100
AcDbEntity
  8
0
100
AcDbLine
 10
474.311864544333
 20
152.550457483079
 30
0.0
 11
474.311864544333
 21
153.739433287332
 31
0.0
  0
LINE
  5
15FC
330
1E
100
AcDbEntity
  8
0
100
AcDbLine
 10
474.311864544333
 20
152.550457483079
 30
0.0
 11
475.771864544333
 21
152.550457483079
 31
0.0
  0
LINE
  5
15FD
330
1E
100
AcDbEntity
  8
0
100
AcDbLine
 10
474.424864544333
 20
151.479457483079
 30
0.0
 11
477.928864544333
 21
149.289457483079
 31
0.0
  0
LINE
  5
15FE
330
1E
100
AcDbEntity
  8
0
100
AcDbLine
 10
471.796864544332
 20
153.794457483079
 30
0.0
 11
474.424864544333
 21
151.479457483079
 31
0.0
  0
LINE
  5
15FF
330
1E
100
AcDbEntity
  8
0
100
AcDbLine
 10
472.526864544333
 20
151.017457483079
 30
0.0
 11
476.176864544333
 21
148.734457483079
 31
0.0
  0
LINE
  5
1600
330
1E
100
AcDbEntity
  8
0
100
AcDbLine
 10
469.826864544332
 20
153.424457483079
 30
0.0
 11
472.526864544333
 21
151.017457483079
 31
0.0
  0
LINE
  5
1601
330
1E
100
AcDbEntity
  8
0
100
AcDbLine
 10
481.367864544333
 20
155.631457483079
 30
0.0
 11
481.367864544333
 21
156.248457483079
 31
0.0
  0
LINE
  5
1602
330
1E
100
AcDbEntity
  8
0
100
AcDbLine
 10
479.907864544333
 20
155.631457483079
 30
0.0
 11
479.907864544333
 21
156.794368615818
 31
0.0
  0
LINE
  5
1603
330
1E
100
AcDbEntity
  8
0
100
AcDbLine
 10
479.907864544333
 20
155.631457483079
 30
0.0
 11
479.907864544333
 21
156.248457483079
 31
0.0
  0
LINE
  5
1604
330
1E
100
AcDbEntity
  8
0
100
AcDbLine
 10
479.907864544333
 20
155.631457483079
 30
0.0
 11
481.367864544333
 21
155.631457483079
 31
0.0
  0
LINE
  5
1605
330
1E
100
AcDbEntity
  8
0
100
AcDbLine
 10
472.445864544333
 20
156.016457483079
 30
0.0
 11
472.445864544333
 21
156.633457483079
 31
0.0
  0
LINE
  5
1606
330
1E
100
AcDbEntity
  8
0
100
AcDbLine
 10
470.986864544333
 20
156.595337545967
 30
0.0
 11
470.986864544333
 21
156.016457483079
 31
0.0
  0
LINE
  5
1607
330
1E
100
AcDbEntity
  8
0
100
AcDbLine
 10
481.367864544333
 20
156.248457483079
 30
0.0
 11
481.367864544333
 21
156.826941798419
 31
0.0
  0
LINE
  5
1608
330
1E
100
AcDbEntity
  8
0
100
AcDbLine
 10
481.367864544333
 20
156.248457483079
 30
0.0
 11
481.367864544333
 21
155.631457483079
 31
0.0
  0
LINE
  5
1609
330
1E
100
AcDbEntity
  8
0
100
AcDbLine
 10
479.907864544333
 20
156.248457483079
 30
0.0
 11
479.907864544333
 21
155.631457483079
 31
0.0
  0
LINE
  5
160A
330
1E
100
AcDbEntity
  8
0
100
AcDbLine
 10
479.907864544333
 20
156.248457483079
 30
0.0
 11
479.907864544333
 21
156.794368615818
 31
0.0
  0
LINE
  5
160B
330
1E
100
AcDbEntity
  8
0
100
AcDbLine
 10
479.907864544333
 20
156.248457483079
 30
0.0
 11
481.367864544333
 21
156.248457483079
 31
0.0
  0
LINE
  5
160C
330
1E
100
AcDbEntity
  8
0
100
AcDbLine
 10
481.367864544333
 20
156.826941798419
 30
0.0
 11
481.367864544333
 21
156.248457483079
 31
0.0
  0
LINE
  5
160D
330
1E
100
AcDbEntity
  8
0
100
AcDbLine
 10
479.907864544333
 20
156.794368615818
 30
0.0
 11
479.907864544333
 21
156.248457483079
 31
0.0
  0
LINE
  5
160E
330
1E
100
AcDbEntity
  8
0
100
AcDbLine
 10
479.907864544333
 20
156.794368615818
 30
0.0
 11
479.907864544333
 21
155.631457483079
 31
0.0
  0
LINE
  5
160F
330
1E
100
AcDbEntity
  8
0
100
AcDbLine
 10
472.445864544333
 20
156.633457483079
 30
0.0
 11
472.445864544333
 21
156.016457483079
 31
0.0
  0
LINE
  5
1610
330
1E
100
AcDbEntity
  8
0
100
AcDbLine
 10
470.986864544333
 20
156.633457483079
 30
0.0
 11
470.986864544333
 21
156.016457483079
 31
0.0
  0
LINE
  5
1611
330
1E
100
AcDbEntity
  8
0
100
AcDbLine
 10
470.986864544333
 20
156.633457483079
 30
0.0
 11
472.445864544333
 21
156.633457483079
 31
0.0
  0
LINE
  5
1612
330
1E
100
AcDbEntity
  8
0
100
AcDbLine
 10
470.986864544333
 20
156.016457483079
 30
0.0
 11
470.986864544333
 21
156.595337545967
 31
0.0
  0
LINE
  5
1613
330
1E
100
AcDbEntity
  8
0
100
AcDbLine
 10
470.986864544333
 20
156.016457483079
 30
0.0
 11
470.986864544333
 21
156.633457483079
 31
0.0
  0
LINE
  5
1614
330
1E
100
AcDbEntity
  8
0
100
AcDbLine
 10
470.986864544333
 20
156.016457483079
 30
0.0
 11
472.445864544333
 21
156.016457483079
 31
0.0
  0
LINE
  5
1615
330
1E
100
AcDbEntity
  8
0
100
AcDbLine
 10
469.826864544332
 20
156.569457483079
 30
0.0
 11
471.796864544332
 21
153.794457483079
 31
0.0
  0
LINE
  5
1616
330
1E
100
AcDbEntity
  8
0
100
AcDbLine
 10
469.096864544333
 20
154.206457483079
 30
0.0
 11
469.826864544332
 21
153.424457483079
 31
0.0
  0
LINE
  5
1617
330
1E
100
AcDbEntity
  8
0
100
AcDbLine
 10
467.709864544333
 20
156.138457483079
 30
0.0
 11
469.826864544332
 21
153.424457483079
 31
0.0
  0
LINE
  5
1618
330
1E
100
AcDbEntity
  8
0
100
AcDbLine
 10
469.607864544333
 20
161.102725873439
 30
0.0
 11
469.607864544333
 21
160.168457483079
 31
0.0
  0
LINE
  5
1619
330
1E
100
AcDbEntity
  8
0
100
AcDbLine
 10
469.607864544333
 20
161.476214245532
 30
0.0
 11
469.607864544333
 21
160.785457483079
 31
0.0
  0
LINE
  5
161A
330
1E
100
AcDbEntity
  8
0
100
AcDbLine
 10
469.607864544333
 20
160.785457483079
 30
0.0
 11
469.607864544333
 21
160.168457483079
 31
0.0
  0
LINE
  5
161B
330
1E
100
AcDbEntity
  8
0
100
AcDbLine
 10
469.607864544333
 20
160.785457483079
 30
0.0
 11
469.607864544333
 21
161.476214245532
 31
0.0
  0
LINE
  5
161C
330
1E
100
AcDbEntity
  8
0
100
AcDbLine
 10
469.607864544333
 20
160.785457483079
 30
0.0
 11
471.066864544332
 21
160.785457483079
 31
0.0
  0
LINE
  5
161D
330
1E
100
AcDbEntity
  8
0
100
AcDbLine
 10
471.066864544332
 20
160.785457483079
 30
0.0
 11
471.066864544332
 21
161.569906791025
 31
0.0
  0
LINE
  5
161E
330
1E
100
AcDbEntity
  8
0
100
AcDbLine
 10
471.066864544332
 20
160.785457483079
 30
0.0
 11
471.066864544332
 21
160.168457483079
 31
0.0
  0
LINE
  5
161F
330
1E
100
AcDbEntity
  8
0
100
AcDbLine
 10
479.826864544332
 20
159.714457483079
 30
0.0
 11
479.826864544332
 21
160.331457483079
 31
0.0
  0
LINE
  5
1620
330
1E
100
AcDbEntity
  8
0
100
AcDbLine
 10
478.366864544333
 20
160.7148475898
 30
0.0
 11
478.366864544333
 21
160.331457483079
 31
0.0
  0
LINE
  5
1621
330
1E
100
AcDbEntity
  8
0
100
AcDbLine
 10
478.366864544333
 20
160.7148475898
 30
0.0
 11
478.366864544333
 21
159.714457483079
 31
0.0
  0
LINE
  5
1622
330
1E
100
AcDbEntity
  8
0
100
AcDbLine
 10
479.826864544332
 20
160.331457483079
 30
0.0
 11
479.826864544332
 21
160.619465415009
 31
0.0
  0
LINE
  5
1623
330
1E
100
AcDbEntity
  8
0
100
AcDbLine
 10
479.826864544332
 20
160.331457483079
 30
0.0
 11
479.826864544332
 21
159.714457483079
 31
0.0
  0
LINE
  5
1624
330
1E
100
AcDbEntity
  8
0
100
AcDbLine
 10
479.826864544332
 20
160.619465415009
 30
0.0
 11
479.826864544332
 21
160.331457483079
 31
0.0
  0
LINE
  5
1625
330
1E
100
AcDbEntity
  8
0
100
AcDbLine
 10
478.366864544333
 20
160.331457483079
 30
0.0
 11
478.366864544333
 21
159.714457483079
 31
0.0
  0
LINE
  5
1626
330
1E
100
AcDbEntity
  8
0
100
AcDbLine
 10
478.366864544333
 20
160.331457483079
 30
0.0
 11
478.366864544333
 21
160.7148475898
 31
0.0
  0
LINE
  5
1627
330
1E
100
AcDbEntity
  8
0
100
AcDbLine
 10
478.366864544333
 20
160.331457483079
 30
0.0
 11
479.826864544332
 21
160.331457483079
 31
0.0
  0
LINE
  5
1628
330
1E
100
AcDbEntity
  8
0
100
AcDbLine
 10
478.366864544333
 20
159.714457483079
 30
0.0
 11
478.366864544333
 21
160.7148475898
 31
0.0
  0
LINE
  5
1629
330
1E
100
AcDbEntity
  8
0
100
AcDbLine
 10
478.366864544333
 20
159.714457483079
 30
0.0
 11
478.366864544333
 21
160.331457483079
 31
0.0
  0
LINE
  5
162A
330
1E
100
AcDbEntity
  8
0
100
AcDbLine
 10
478.366864544333
 20
159.714457483079
 30
0.0
 11
479.826864544332
 21
159.714457483079
 31
0.0
  0
LINE
  5
162B
330
1E
100
AcDbEntity
  8
0
100
AcDbLine
 10
471.066864544332
 20
160.168457483079
 30
0.0
 11
471.066864544332
 21
160.785457483079
 31
0.0
  0
LINE
  5
162C
330
1E
100
AcDbEntity
  8
0
100
AcDbLine
 10
471.066864544332
 20
161.569906791025
 30
0.0
 11
471.066864544332
 21
160.785457483079
 31
0.0
  0
LINE
  5
162D
330
1E
100
AcDbEntity
  8
0
100
AcDbLine
 10
469.607864544333
 20
160.168457483079
 30
0.0
 11
469.607864544333
 21
161.102725873439
 31
0.0
  0
LINE
  5
162E
330
1E
100
AcDbEntity
  8
0
100
AcDbLine
 10
469.607864544333
 20
160.168457483079
 30
0.0
 11
469.607864544333
 21
160.785457483079
 31
0.0
  0
LINE
  5
162F
330
1E
100
AcDbEntity
  8
0
100
AcDbLine
 10
469.607864544333
 20
160.168457483079
 30
0.0
 11
471.066864544332
 21
160.168457483079
 31
0.0
  0
LINE
  5
1630
330
1E
100
AcDbEntity
  8
0
100
AcDbLine
 10
468.585864544332
 20
158.759457483079
 30
0.0
 11
469.826864544332
 21
156.569457483079
 31
0.0
  0
LINE
  5
1631
330
1E
100
AcDbEntity
  8
0
100
AcDbLine
 10
468.147864544333
 20
161.382457483079
 30
0.0
 11
468.585864544332
 21
158.759457483079
 31
0.0
  0
LINE
  5
1632
330
1E
100
AcDbEntity
  8
0
100
AcDbLine
 10
468.147864544333
 20
161.382457483079
 30
0.0
 11
468.585864544332
 21
164.004457483079
 31
0.0
  0
LINE
  5
1633
330
1E
100
AcDbEntity
  8
0
100
AcDbLine
 10
466.468864544333
 20
158.698457483079
 30
0.0
 11
467.709864544333
 21
156.138457483079
 31
0.0
  0
LINE
  5
1634
330
1E
100
AcDbEntity
  8
0
100
AcDbLine
 10
465.957864544333
 20
161.382457483079
 30
0.0
 11
466.468864544333
 21
158.698457483079
 31
0.0
  0
LINE
  5
1635
330
1E
100
AcDbEntity
  8
0
100
AcDbLine
 10
465.957864544333
 20
161.382457483079
 30
0.0
 11
466.468864544333
 21
164.066457483079
 31
0.0
  0
LINE
  5
1636
330
1E
100
AcDbEntity
  8
0
100
AcDbLine
 10
467.052864544333
 20
156.828457483079
 30
0.0
 11
469.096864544333
 21
154.206457483079
 31
0.0
  0
LINE
  5
1637
330
1E
100
AcDbEntity
  8
0
100
AcDbLine
 10
465.738864544333
 20
159.574457483079
 30
0.0
 11
467.052864544333
 21
156.828457483079
 31
0.0
  0
LINE
  5
1638
330
1E
100
AcDbEntity
  8
0
100
AcDbLine
 10
465.227864544333
 20
162.289457483079
 30
0.0
 11
465.738864544333
 21
159.574457483079
 31
0.0
  0
LINE
  5
1639
330
1E
100
AcDbEntity
  8
0
100
AcDbLine
 10
465.227864544333
 20
162.289457483079
 30
0.0
 11
465.227864544333
 21
181.321457483079
 31
0.0
  0
LINE
  5
163A
330
1E
100
AcDbEntity
  8
0
100
AcDbLine
 10
465.227864544333
 20
162.289457483079
 30
0.0
 11
465.738864544333
 21
165.003457483079
 31
0.0
  0
LINE
  5
163B
330
1E
100
AcDbEntity
  8
0
100
AcDbLine
 10
484.368864544333
 20
151.788881137216
 30
0.0
 11
484.368864544333
 21
151.549457483079
 31
0.0
  0
LINE
  5
163C
330
1E
100
AcDbEntity
  8
0
100
AcDbLine
 10
484.368864544333
 20
153.125782292113
 30
0.0
 11
484.368864544333
 21
152.166457483079
 31
0.0
  0
LINE
  5
163D
330
1E
100
AcDbEntity
  8
0
100
AcDbLine
 10
484.368864544333
 20
152.166457483079
 30
0.0
 11
484.368864544333
 21
151.549457483079
 31
0.0
  0
LINE
  5
163E
330
1E
100
AcDbEntity
  8
0
100
AcDbLine
 10
484.368864544333
 20
152.166457483079
 30
0.0
 11
484.368864544333
 21
153.125782292113
 31
0.0
  0
LINE
  5
163F
330
1E
100
AcDbEntity
  8
0
100
AcDbLine
 10
484.368864544333
 20
152.166457483079
 30
0.0
 11
485.828864544333
 21
152.166457483079
 31
0.0
  0
LINE
  5
1640
330
1E
100
AcDbEntity
  8
0
100
AcDbLine
 10
484.368864544333
 20
151.549457483079
 30
0.0
 11
484.368864544333
 21
151.788881137216
 31
0.0
  0
LINE
  5
1641
330
1E
100
AcDbEntity
  8
0
100
AcDbLine
 10
484.368864544333
 20
151.549457483079
 30
0.0
 11
484.368864544333
 21
152.166457483079
 31
0.0
  0
LINE
  5
1642
330
1E
100
AcDbEntity
  8
0
100
AcDbLine
 10
484.368864544333
 20
151.549457483079
 30
0.0
 11
485.828864544333
 21
151.549457483079
 31
0.0
  0
LINE
  5
1643
330
1E
100
AcDbEntity
  8
0
100
AcDbLine
 10
482.015864544333
 20
147.346457483079
 30
0.0
 11
485.505864544333
 21
146.035905189102
 31
0.0
  0
LINE
  5
1644
330
1E
100
AcDbEntity
  8
0
100
AcDbLine
 10
480.409864544333
 20
146.667457483079
 30
0.0
 11
485.300864544333
 21
144.878457483079
 31
0.0
  0
LINE
  5
1645
330
1E
100
AcDbEntity
  8
0
100
AcDbLine
 10
491.785864544333
 20
144.141601249964
 30
0.0
 11
491.785864544333
 21
143.933457483079
 31
0.0
  0
LINE
  5
1646
330
1E
100
AcDbEntity
  8
0
100
AcDbLine
 10
491.785864544333
 20
143.933457483079
 30
0.0
 11
493.049864544333
 21
143.624457483079
 31
0.0
  0
LINE
  5
1647
330
1E
100
AcDbEntity
  8
0
100
AcDbLine
 10
491.785864544333
 20
143.933457483079
 30
0.0
 11
491.785864544333
 21
144.141601249964
 31
0.0
  0
LINE
  5
1648
330
1E
100
AcDbEntity
  8
0
100
AcDbLine
 10
491.785864544333
 20
143.933457483079
 30
0.0
 11
492.515864544333
 21
144.467457483079
 31
0.0
  0
LINE
  5
1649
330
1E
100
AcDbEntity
  8
0
100
AcDbLine
 10
485.505864544333
 20
146.035905189102
 30
0.0
 11
485.505864544333
 21
145.654457483079
 31
0.0
  0
LINE
  5
164A
330
1E
100
AcDbEntity
  8
0
100
AcDbLine
 10
485.505864544333
 20
146.271457483079
 30
0.0
 11
485.505864544333
 21
145.654457483079
 31
0.0
  0
LINE
  5
164B
330
1E
100
AcDbEntity
  8
0
100
AcDbLine
 10
485.505864544333
 20
146.271457483079
 30
0.0
 11
486.965864544333
 21
146.271457483079
 31
0.0
  0
LINE
  5
164C
330
1E
100
AcDbEntity
  8
0
100
AcDbLine
 10
485.505864544333
 20
145.654457483079
 30
0.0
 11
485.505864544333
 21
146.035905189102
 31
0.0
  0
LINE
  5
164D
330
1E
100
AcDbEntity
  8
0
100
AcDbLine
 10
485.505864544333
 20
145.654457483079
 30
0.0
 11
485.505864544333
 21
146.271457483079
 31
0.0
  0
LINE
  5
164E
330
1E
100
AcDbEntity
  8
0
100
AcDbLine
 10
485.505864544333
 20
145.654457483079
 30
0.0
 11
486.965864544333
 21
145.654457483079
 31
0.0
  0
LINE
  5
164F
330
1E
100
AcDbEntity
  8
0
100
AcDbLine
 10
485.828864544333
 20
152.166457483079
 30
0.0
 11
485.828864544333
 21
151.549457483079
 31
0.0
  0
LINE
  5
1650
330
1E
100
AcDbEntity
  8
0
100
AcDbLine
 10
485.828864544333
 20
151.549457483079
 30
0.0
 11
485.828864544333
 21
152.166457483079
 31
0.0
  0
LINE
  5
1651
330
1E
100
AcDbEntity
  8
0
100
AcDbLine
 10
486.965864544333
 20
146.271457483079
 30
0.0
 11
486.965864544333
 21
145.654457483079
 31
0.0
  0
LINE
  5
1652
330
1E
100
AcDbEntity
  8
0
100
AcDbLine
 10
486.965864544333
 20
145.654457483079
 30
0.0
 11
486.965864544333
 21
146.271457483079
 31
0.0
  0
LINE
  5
1653
330
1E
100
AcDbEntity
  8
0
100
AcDbLine
 10
489.722864544333
 20
149.889192275023
 30
0.0
 11
489.722864544333
 21
149.352457483079
 31
0.0
  0
LINE
  5
1654
330
1E
100
AcDbEntity
  8
0
100
AcDbLine
 10
489.722864544333
 20
149.889192275023
 30
0.0
 11
489.722864544333
 21
148.735457483079
 31
0.0
  0
LINE
  5
1655
330
1E
100
AcDbEntity
  8
0
100
AcDbLine
 10
489.722864544333
 20
149.352457483079
 30
0.0
 11
489.722864544333
 21
148.735457483079
 31
0.0
  0
LINE
  5
1656
330
1E
100
AcDbEntity
  8
0
100
AcDbLine
 10
489.722864544333
 20
149.352457483079
 30
0.0
 11
489.722864544333
 21
149.889192275023
 31
0.0
  0
LINE
  5
1657
330
1E
100
AcDbEntity
  8
0
100
AcDbLine
 10
489.722864544333
 20
149.352457483079
 30
0.0
 11
491.182864544332
 21
149.352457483079
 31
0.0
  0
LINE
  5
1658
330
1E
100
AcDbEntity
  8
0
100
AcDbLine
 10
489.722864544333
 20
148.735457483079
 30
0.0
 11
489.722864544333
 21
149.889192275023
 31
0.0
  0
LINE
  5
1659
330
1E
100
AcDbEntity
  8
0
100
AcDbLine
 10
489.722864544333
 20
148.735457483079
 30
0.0
 11
489.722864544333
 21
149.352457483079
 31
0.0
  0
LINE
  5
165A
330
1E
100
AcDbEntity
  8
0
100
AcDbLine
 10
489.722864544333
 20
148.735457483079
 30
0.0
 11
491.182864544332
 21
148.735457483079
 31
0.0
  0
LINE
  5
165B
330
1E
100
AcDbEntity
  8
0
100
AcDbLine
 10
491.182864544332
 20
149.352457483079
 30
0.0
 11
491.182864544332
 21
150.370883308659
 31
0.0
  0
LINE
  5
165C
330
1E
100
AcDbEntity
  8
0
100
AcDbLine
 10
491.182864544332
 20
149.352457483079
 30
0.0
 11
491.182864544332
 21
148.735457483079
 31
0.0
  0
LINE
  5
165D
330
1E
100
AcDbEntity
  8
0
100
AcDbLine
 10
491.182864544332
 20
148.735457483079
 30
0.0
 11
491.182864544332
 21
149.352457483079
 31
0.0
  0
LINE
  5
165E
330
1E
100
AcDbEntity
  8
0
100
AcDbLine
 10
491.182864544332
 20
150.370883308659
 30
0.0
 11
491.182864544332
 21
149.352457483079
 31
0.0
  0
LINE
  5
165F
330
1E
100
AcDbEntity
  8
0
100
AcDbLine
 10
490.775864544333
 20
155.487457483079
 30
0.0
 11
490.775864544333
 21
156.103457483079
 31
0.0
  0
LINE
  5
1660
330
1E
100
AcDbEntity
  8
0
100
AcDbLine
 10
489.315864544332
 20
155.709331854938
 30
0.0
 11
489.315864544332
 21
155.487457483079
 31
0.0
  0
LINE
  5
1661
330
1E
100
AcDbEntity
  8
0
100
AcDbLine
 10
489.315864544332
 20
157.059346897627
 30
0.0
 11
489.315864544332
 21
156.103457483079
 31
0.0
  0
LINE
  5
1662
330
1E
100
AcDbEntity
  8
0
100
AcDbLine
 10
490.775864544333
 20
156.103457483079
 30
0.0
 11
490.775864544333
 21
157.105034853471
 31
0.0
  0
LINE
  5
1663
330
1E
100
AcDbEntity
  8
0
100
AcDbLine
 10
490.775864544333
 20
156.103457483079
 30
0.0
 11
490.775864544333
 21
155.487457483079
 31
0.0
  0
LINE
  5
1664
330
1E
100
AcDbEntity
  8
0
100
AcDbLine
 10
490.775864544333
 20
157.105034853471
 30
0.0
 11
490.775864544333
 21
156.103457483079
 31
0.0
  0
LINE
  5
1665
330
1E
100
AcDbEntity
  8
0
100
AcDbLine
 10
489.315864544332
 20
156.103457483079
 30
0.0
 11
489.315864544332
 21
155.487457483079
 31
0.0
  0
LINE
  5
1666
330
1E
100
AcDbEntity
  8
0
100
AcDbLine
 10
489.315864544332
 20
156.103457483079
 30
0.0
 11
489.315864544332
 21
157.059346897627
 31
0.0
  0
LINE
  5
1667
330
1E
100
AcDbEntity
  8
0
100
AcDbLine
 10
489.315864544332
 20
156.103457483079
 30
0.0
 11
490.775864544333
 21
156.103457483079
 31
0.0
  0
LINE
  5
1668
330
1E
100
AcDbEntity
  8
0
100
AcDbLine
 10
489.315864544332
 20
155.487457483079
 30
0.0
 11
489.315864544332
 21
155.709331854938
 31
0.0
  0
LINE
  5
1669
330
1E
100
AcDbEntity
  8
0
100
AcDbLine
 10
489.315864544332
 20
155.487457483079
 30
0.0
 11
489.315864544332
 21
156.103457483079
 31
0.0
  0
LINE
  5
166A
330
1E
100
AcDbEntity
  8
0
100
AcDbLine
 10
489.315864544332
 20
155.487457483079
 30
0.0
 11
490.775864544333
 21
155.487457483079
 31
0.0
  0
LINE
  5
166B
330
1E
100
AcDbEntity
  8
0
100
AcDbLine
 10
488.585864544332
 20
159.261457483079
 30
0.0
 11
488.585864544332
 21
159.878457483079
 31
0.0
  0
LINE
  5
166C
330
1E
100
AcDbEntity
  8
0
100
AcDbLine
 10
487.125864544333
 20
160.075283755912
 30
0.0
 11
487.125864544333
 21
159.261457483079
 31
0.0
  0
LINE
  5
166D
330
1E
100
AcDbEntity
  8
0
100
AcDbLine
 10
487.125864544333
 20
160.427552022527
 30
0.0
 11
487.125864544333
 21
159.878457483079
 31
0.0
  0
LINE
  5
166E
330
1E
100
AcDbEntity
  8
0
100
AcDbLine
 10
488.585864544332
 20
159.878457483079
 30
0.0
 11
488.585864544332
 21
160.413579033798
 31
0.0
  0
LINE
  5
166F
330
1E
100
AcDbEntity
  8
0
100
AcDbLine
 10
488.585864544332
 20
159.878457483079
 30
0.0
 11
488.585864544332
 21
159.261457483079
 31
0.0
  0
LINE
  5
1670
330
1E
100
AcDbEntity
  8
0
100
AcDbLine
 10
488.585864544332
 20
160.413579033798
 30
0.0
 11
488.585864544332
 21
159.878457483079
 31
0.0
  0
LINE
  5
1671
330
1E
100
AcDbEntity
  8
0
100
AcDbLine
 10
487.125864544333
 20
159.878457483079
 30
0.0
 11
487.125864544333
 21
159.261457483079
 31
0.0
  0
LINE
  5
1672
330
1E
100
AcDbEntity
  8
0
100
AcDbLine
 10
487.125864544333
 20
159.878457483079
 30
0.0
 11
487.125864544333
 21
160.427552022527
 31
0.0
  0
LINE
  5
1673
330
1E
100
AcDbEntity
  8
0
100
AcDbLine
 10
487.125864544333
 20
159.878457483079
 30
0.0
 11
488.585864544332
 21
159.878457483079
 31
0.0
  0
LINE
  5
1674
330
1E
100
AcDbEntity
  8
0
100
AcDbLine
 10
487.125864544333
 20
159.261457483079
 30
0.0
 11
487.125864544333
 21
160.075283755912
 31
0.0
  0
LINE
  5
1675
330
1E
100
AcDbEntity
  8
0
100
AcDbLine
 10
487.125864544333
 20
159.261457483079
 30
0.0
 11
487.125864544333
 21
159.878457483079
 31
0.0
  0
LINE
  5
1676
330
1E
100
AcDbEntity
  8
0
100
AcDbLine
 10
487.125864544333
 20
159.261457483079
 30
0.0
 11
488.585864544332
 21
159.261457483079
 31
0.0
  0
LINE
  5
1677
330
1E
100
AcDbEntity
  8
0
100
AcDbLine
 10
486.521659564599
 20
145.654457483079
 30
0.0
 11
486.614864544332
 21
145.619457483079
 31
0.0
  0
LINE
  5
1678
330
1E
100
AcDbEntity
  8
0
100
AcDbLine
 10
486.614864544332
 20
145.619457483079
 30
0.0
 11
491.785864544333
 21
144.141601249964
 31
0.0
  0
LINE
  5
1679
330
1E
100
AcDbEntity
  8
0
100
AcDbLine
 10
485.300864544333
 20
144.878457483079
 30
0.0
 11
490.701864544332
 21
143.336457483079
 31
0.0
  0
LINE
  5
167A
330
1E
100
AcDbEntity
  8
0
100
AcDbLine
 10
490.701864544332
 20
143.336457483079
 30
0.0
 11
496.395864544333
 21
142.194457483079
 31
0.0
  0
LINE
  5
167B
330
1E
100
AcDbEntity
  8
0
100
AcDbLine
 10
504.859864544333
 20
128.198457483079
 30
0.0
 11
506.779864544333
 21
125.638457483079
 31
0.0
  0
LINE
  5
167C
330
1E
100
AcDbEntity
  8
0
100
AcDbLine
 10
503.611864544333
 20
131.110457483079
 30
0.0
 11
504.859864544333
 21
128.198457483079
 31
0.0
  0
LINE
  5
167D
330
1E
100
AcDbEntity
  8
0
100
AcDbLine
 10
503.227864544333
 20
134.199457483079
 30
0.0
 11
503.611864544333
 21
137.377457483079
 31
0.0
  0
LINE
  5
167E
330
1E
100
AcDbEntity
  8
0
100
AcDbLine
 10
503.227864544333
 20
134.199457483079
 30
0.0
 11
503.227864544333
 21
62.164957483079
 31
0.0
  0
LINE
  5
167F
330
1E
100
AcDbEntity
  8
0
100
AcDbLine
 10
503.227864544333
 20
134.199457483079
 30
0.0
 11
503.611864544333
 21
131.110457483079
 31
0.0
  0
LINE
  5
1680
330
1E
100
AcDbEntity
  8
0
100
AcDbLine
 10
503.611864544333
 20
137.377457483079
 30
0.0
 11
504.859864544333
 21
140.289457483079
 31
0.0
  0
LINE
  5
1681
330
1E
100
AcDbEntity
  8
0
100
AcDbLine
 10
504.859864544333
 20
140.289457483079
 30
0.0
 11
505.447608460948
 21
141.073116038566
 31
0.0
  0
LINE
  5
1682
330
1E
100
AcDbEntity
  8
0
100
AcDbLine
 10
506.587864544333
 20
140.974503365238
 30
0.0
 11
506.587864544333
 21
134.199457483079
 31
0.0
  0
LINE
  5
1683
330
1E
100
AcDbEntity
  8
0
100
AcDbLine
 10
506.779864544333
 20
125.638457483079
 30
0.0
 11
509.275864544333
 21
123.697457483079
 31
0.0
  0
LINE
  5
1684
330
1E
100
AcDbEntity
  8
0
100
AcDbLine
 10
507.739864544332
 20
129.875457483079
 30
0.0
 11
509.083864544333
 21
128.021457483079
 31
0.0
  0
LINE
  5
1685
330
1E
100
AcDbEntity
  8
0
100
AcDbLine
 10
508.756864544333
 20
141.265457483079
 30
0.0
 11
510.020864544333
 21
141.574457483079
 31
0.0
  0
LINE
  5
1686
330
1E
100
AcDbEntity
  8
0
100
AcDbLine
 10
506.875864544333
 20
131.993457483079
 30
0.0
 11
507.739864544332
 21
129.875457483079
 31
0.0
  0
LINE
  5
1687
330
1E
100
AcDbEntity
  8
0
100
AcDbLine
 10
506.587864544333
 20
134.199457483079
 30
0.0
 11
506.875864544333
 21
131.993457483079
 31
0.0
  0
LINE
  5
1688
330
1E
100
AcDbEntity
  8
0
100
AcDbLine
 10
506.587864544333
 20
134.199457483079
 30
0.0
 11
506.587864544333
 21
140.974503365238
 31
0.0
  0
LINE
  5
1689
330
1E
100
AcDbEntity
  8
0
100
AcDbLine
 10
493.049864544333
 20
143.624457483079
 30
0.0
 11
493.779864544333
 21
144.159457483079
 31
0.0
  0
LINE
  5
168A
330
1E
100
AcDbEntity
  8
0
100
AcDbLine
 10
493.779864544333
 20
144.159457483079
 30
0.0
 11
493.779864544333
 21
144.763296532473
 31
0.0
  0
LINE
  5
168B
330
1E
100
AcDbEntity
  8
0
100
AcDbLine
 10
492.515864544333
 20
144.467457483079
 30
0.0
 11
493.779864544333
 21
144.159457483079
 31
0.0
  0
LINE
  5
168C
330
1E
100
AcDbEntity
  8
0
100
AcDbLine
 10
492.515864544333
 20
144.467457483079
 30
0.0
 11
492.515864544333
 21
144.576752003627
 31
0.0
  0
LINE
  5
168D
330
1E
100
AcDbEntity
  8
0
100
AcDbLine
 10
493.779864544333
 20
144.763296532473
 30
0.0
 11
493.779864544333
 21
144.159457483079
 31
0.0
  0
LINE
  5
168E
330
1E
100
AcDbEntity
  8
0
100
AcDbLine
 10
492.515864544333
 20
144.576752003627
 30
0.0
 11
492.515864544333
 21
144.467457483079
 31
0.0
  0
LINE
  5
168F
330
1E
100
AcDbEntity
  8
0
100
AcDbLine
 10
494.587864544333
 20
151.679457483079
 30
0.0
 11
494.587864544333
 21
152.296457483079
 31
0.0
  0
LINE
  5
1690
330
1E
100
AcDbEntity
  8
0
100
AcDbLine
 10
494.587864544333
 20
151.679457483079
 30
0.0
 11
496.047864544332
 21
151.679457483079
 31
0.0
  0
LINE
  5
1691
330
1E
100
AcDbEntity
  8
0
100
AcDbLine
 10
494.587864544333
 20
153.179215581303
 30
0.0
 11
494.587864544333
 21
152.296457483079
 31
0.0
  0
LINE
  5
1692
330
1E
100
AcDbEntity
  8
0
100
AcDbLine
 10
494.587864544333
 20
152.296457483079
 30
0.0
 11
494.587864544333
 21
151.679457483079
 31
0.0
  0
LINE
  5
1693
330
1E
100
AcDbEntity
  8
0
100
AcDbLine
 10
494.587864544333
 20
152.296457483079
 30
0.0
 11
494.587864544333
 21
153.179215581303
 31
0.0
  0
LINE
  5
1694
330
1E
100
AcDbEntity
  8
0
100
AcDbLine
 10
494.587864544333
 20
152.296457483079
 30
0.0
 11
496.047864544332
 21
152.296457483079
 31
0.0
  0
LINE
  5
1695
330
1E
100
AcDbEntity
  8
0
100
AcDbLine
 10
495.884864544332
 20
159.387635874062
 30
0.0
 11
495.884864544332
 21
158.808457483079
 31
0.0
  0
LINE
  5
1696
330
1E
100
AcDbEntity
  8
0
100
AcDbLine
 10
495.884864544332
 20
160.343723660693
 30
0.0
 11
495.884864544332
 21
159.424457483079
 31
0.0
  0
LINE
  5
1697
330
1E
100
AcDbEntity
  8
0
100
AcDbLine
 10
495.884864544332
 20
159.424457483079
 30
0.0
 11
495.884864544332
 21
158.808457483079
 31
0.0
  0
LINE
  5
1698
330
1E
100
AcDbEntity
  8
0
100
AcDbLine
 10
495.884864544332
 20
159.424457483079
 30
0.0
 11
495.884864544332
 21
160.343723660693
 31
0.0
  0
LINE
  5
1699
330
1E
100
AcDbEntity
  8
0
100
AcDbLine
 10
495.884864544332
 20
159.424457483079
 30
0.0
 11
497.344864544332
 21
159.424457483079
 31
0.0
  0
LINE
  5
169A
330
1E
100
AcDbEntity
  8
0
100
AcDbLine
 10
496.047864544332
 20
152.296457483079
 30
0.0
 11
496.047864544332
 21
151.679457483079
 31
0.0
  0
LINE
  5
169B
330
1E
100
AcDbEntity
  8
0
100
AcDbLine
 10
496.047864544332
 20
151.679457483079
 30
0.0
 11
496.047864544332
 21
152.296457483079
 31
0.0
  0
LINE
  5
169C
330
1E
100
AcDbEntity
  8
0
100
AcDbLine
 10
496.164864544333
 20
147.761943368167
 30
0.0
 11
496.164864544333
 21
146.686457483079
 31
0.0
  0
LINE
  5
169D
330
1E
100
AcDbEntity
  8
0
100
AcDbLine
 10
496.164864544333
 20
146.686457483079
 30
0.0
 11
497.429864544333
 21
146.377457483079
 31
0.0
  0
LINE
  5
169E
330
1E
100
AcDbEntity
  8
0
100
AcDbLine
 10
496.164864544333
 20
146.686457483079
 30
0.0
 11
496.164864544333
 21
147.761943368167
 31
0.0
  0
LINE
  5
169F
330
1E
100
AcDbEntity
  8
0
100
AcDbLine
 10
496.164864544333
 20
146.686457483079
 30
0.0
 11
496.894864544332
 21
147.220457483079
 31
0.0
  0
LINE
  5
16A0
330
1E
100
AcDbEntity
  8
0
100
AcDbLine
 10
495.884864544332
 20
158.808457483079
 30
0.0
 11
495.884864544332
 21
159.387635874062
 31
0.0
  0
LINE
  5
16A1
330
1E
100
AcDbEntity
  8
0
100
AcDbLine
 10
495.884864544332
 20
158.808457483079
 30
0.0
 11
495.884864544332
 21
159.424457483079
 31
0.0
  0
LINE
  5
16A2
330
1E
100
AcDbEntity
  8
0
100
AcDbLine
 10
495.884864544332
 20
158.808457483079
 30
0.0
 11
497.344864544332
 21
158.808457483079
 31
0.0
  0
LINE
  5
16A3
330
1E
100
AcDbEntity
  8
0
100
AcDbLine
 10
493.327422268545
 20
143.827873075481
 30
0.0
 11
497.271864544333
 21
143.027457483079
 31
0.0
  0
LINE
  5
16A4
330
1E
100
AcDbEntity
  8
0
100
AcDbLine
 10
499.716864544333
 20
142.187457483079
 30
0.0
 11
500.980864544332
 21
142.495457483079
 31
0.0
  0
LINE
  5
16A5
330
1E
100
AcDbEntity
  8
0
100
AcDbLine
 10
508.026864544333
 20
141.800457483079
 30
0.0
 11
509.290864544333
 21
142.108457483079
 31
0.0
  0
LINE
  5
16A6
330
1E
100
AcDbEntity
  8
0
100
AcDbLine
 10
508.026864544333
 20
141.800457483079
 30
0.0
 11
508.756864544333
 21
141.265457483079
 31
0.0
  0
LINE
  5
16A7
330
1E
100
AcDbEntity
  8
0
100
AcDbLine
 10
498.986864544333
 20
142.721457483079
 30
0.0
 11
500.250864544333
 21
143.030457483079
 31
0.0
  0
LINE
  5
16A8
330
1E
100
AcDbEntity
  8
0
100
AcDbLine
 10
498.986864544333
 20
142.721457483079
 30
0.0
 11
499.716864544333
 21
142.187457483079
 31
0.0
  0
LINE
  5
16A9
330
1E
100
AcDbEntity
  8
0
100
AcDbLine
 10
498.986864544333
 20
142.721457483079
 30
0.0
 11
498.986864544333
 21
143.739065915534
 31
0.0
  0
LINE
  5
16AA
330
1E
100
AcDbEntity
  8
0
100
AcDbLine
 10
500.980864544332
 20
142.495457483079
 30
0.0
 11
500.980864544332
 21
142.557127600296
 31
0.0
  0
LINE
  5
16AB
330
1E
100
AcDbEntity
  8
0
100
AcDbLine
 10
498.986864544333
 20
143.739065915534
 30
0.0
 11
498.986864544333
 21
142.721457483079
 31
0.0
  0
LINE
  5
16AC
330
1E
100
AcDbEntity
  8
0
100
AcDbLine
 10
496.894864544332
 20
147.220457483079
 30
0.0
 11
498.158864544333
 21
146.912457483079
 31
0.0
  0
LINE
  5
16AD
330
1E
100
AcDbEntity
  8
0
100
AcDbLine
 10
496.894864544332
 20
147.220457483079
 30
0.0
 11
496.894864544332
 21
147.925714540535
 31
0.0
  0
LINE
  5
16AE
330
1E
100
AcDbEntity
  8
0
100
AcDbLine
 10
498.158864544333
 20
146.912457483079
 30
0.0
 11
498.158864544333
 21
148.016662962531
 31
0.0
  0
LINE
  5
16AF
330
1E
100
AcDbEntity
  8
0
100
AcDbLine
 10
497.429864544333
 20
146.377457483079
 30
0.0
 11
498.158864544333
 21
146.912457483079
 31
0.0
  0
LINE
  5
16B0
330
1E
100
AcDbEntity
  8
0
100
AcDbLine
 10
498.158864544333
 20
148.016662962531
 30
0.0
 11
498.158864544333
 21
146.912457483079
 31
0.0
  0
LINE
  5
16B1
330
1E
100
AcDbEntity
  8
0
100
AcDbLine
 10
496.894864544332
 20
147.925714540535
 30
0.0
 11
496.894864544332
 21
147.220457483079
 31
0.0
  0
LINE
  5
16B2
330
1E
100
AcDbEntity
  8
0
100
AcDbLine
 10
499.047864544332
 20
155.383319085185
 30
0.0
 11
499.047864544332
 21
154.793457483079
 31
0.0
  0
LINE
  5
16B3
330
1E
100
AcDbEntity
  8
0
100
AcDbLine
 10
497.344864544332
 20
159.424457483079
 30
0.0
 11
497.344864544332
 21
160.329750671964
 31
0.0
  0
LINE
  5
16B4
330
1E
100
AcDbEntity
  8
0
100
AcDbLine
 10
497.344864544332
 20
159.424457483079
 30
0.0
 11
497.344864544332
 21
158.808457483079
 31
0.0
  0
LINE
  5
16B5
330
1E
100
AcDbEntity
  8
0
100
AcDbLine
 10
497.344864544332
 20
158.808457483079
 30
0.0
 11
497.344864544332
 21
159.424457483079
 31
0.0
  0
LINE
  5
16B6
330
1E
100
AcDbEntity
  8
0
100
AcDbLine
 10
497.344864544332
 20
160.329750671964
 30
0.0
 11
497.344864544332
 21
159.424457483079
 31
0.0
  0
LINE
  5
16B7
330
1E
100
AcDbEntity
  8
0
100
AcDbLine
 10
499.047864544332
 20
155.903232618949
 30
0.0
 11
499.047864544332
 21
155.410457483079
 31
0.0
  0
LINE
  5
16B8
330
1E
100
AcDbEntity
  8
0
100
AcDbLine
 10
499.047864544332
 20
155.410457483079
 30
0.0
 11
499.047864544332
 21
154.793457483079
 31
0.0
  0
LINE
  5
16B9
330
1E
100
AcDbEntity
  8
0
100
AcDbLine
 10
499.047864544332
 20
155.410457483079
 30
0.0
 11
499.047864544332
 21
155.903232618949
 31
0.0
  0
LINE
  5
16BA
330
1E
100
AcDbEntity
  8
0
100
AcDbLine
 10
499.047864544332
 20
155.410457483079
 30
0.0
 11
500.507864544333
 21
155.410457483079
 31
0.0
  0
LINE
  5
16BB
330
1E
100
AcDbEntity
  8
0
100
AcDbLine
 10
499.047864544332
 20
154.793457483079
 30
0.0
 11
499.047864544332
 21
155.383319085185
 31
0.0
  0
LINE
  5
16BC
330
1E
100
AcDbEntity
  8
0
100
AcDbLine
 10
499.047864544332
 20
154.793457483079
 30
0.0
 11
499.047864544332
 21
155.410457483079
 31
0.0
  0
LINE
  5
16BD
330
1E
100
AcDbEntity
  8
0
100
AcDbLine
 10
499.047864544332
 20
154.793457483079
 30
0.0
 11
500.507864544333
 21
154.793457483079
 31
0.0
  0
LINE
  5
16BE
330
1E
100
AcDbEntity
  8
0
100
AcDbLine
 10
500.250864544333
 20
144.263540002195
 30
0.0
 11
500.250864544333
 21
143.030457483079
 31
0.0
  0
LINE
  5
16BF
330
1E
100
AcDbEntity
  8
0
100
AcDbLine
 10
500.507864544333
 20
155.410457483079
 30
0.0
 11
500.507864544333
 21
156.185248017499
 31
0.0
  0
LINE
  5
16C0
330
1E
100
AcDbEntity
  8
0
100
AcDbLine
 10
500.507864544333
 20
155.410457483079
 30
0.0
 11
500.507864544333
 21
154.793457483079
 31
0.0
  0
LINE
  5
16C1
330
1E
100
AcDbEntity
  8
0
100
AcDbLine
 10
500.544864544333
 20
149.531974559114
 30
0.0
 11
500.544864544333
 21
149.438457483079
 31
0.0
  0
LINE
  5
16C2
330
1E
100
AcDbEntity
  8
0
100
AcDbLine
 10
500.544864544333
 20
149.438457483079
 30
0.0
 11
501.808864544333
 21
149.129457483079
 31
0.0
  0
LINE
  5
16C3
330
1E
100
AcDbEntity
  8
0
100
AcDbLine
 10
500.544864544333
 20
149.438457483079
 30
0.0
 11
500.544864544333
 21
149.531974559114
 31
0.0
  0
LINE
  5
16C4
330
1E
100
AcDbEntity
  8
0
100
AcDbLine
 10
500.544864544333
 20
149.438457483079
 30
0.0
 11
501.274864544333
 21
149.973457483079
 31
0.0
  0
LINE
  5
16C5
330
1E
100
AcDbEntity
  8
0
100
AcDbLine
 10
500.507864544333
 20
154.793457483079
 30
0.0
 11
500.507864544333
 21
155.410457483079
 31
0.0
  0
LINE
  5
16C6
330
1E
100
AcDbEntity
  8
0
100
AcDbLine
 10
500.507864544333
 20
156.185248017499
 30
0.0
 11
500.507864544333
 21
155.410457483079
 31
0.0
  0
LINE
  5
16C7
330
1E
100
AcDbEntity
  8
0
100
AcDbLine
 10
500.250864544333
 20
143.030457483079
 30
0.0
 11
500.980864544332
 21
142.495457483079
 31
0.0
  0
LINE
  5
16C8
330
1E
100
AcDbEntity
  8
0
100
AcDbLine
 10
500.250864544333
 20
143.030457483079
 30
0.0
 11
500.250864544333
 21
144.263540002195
 31
0.0
  0
LINE
  5
16C9
330
1E
100
AcDbEntity
  8
0
100
AcDbLine
 10
497.271864544333
 20
143.027457483079
 30
0.0
 11
498.986864544333
 21
142.809982220482
 31
0.0
  0
LINE
  5
16CA
330
1E
100
AcDbEntity
  8
0
100
AcDbLine
 10
504.119864544333
 20
145.868912028534
 30
0.0
 11
504.119864544333
 21
145.578457483079
 31
0.0
  0
LINE
  5
16CB
330
1E
100
AcDbEntity
  8
0
100
AcDbLine
 10
504.119864544333
 20
145.578457483079
 30
0.0
 11
505.384864544332
 21
145.887457483079
 31
0.0
  0
LINE
  5
16CC
330
1E
100
AcDbEntity
  8
0
100
AcDbLine
 10
504.119864544333
 20
145.578457483079
 30
0.0
 11
504.849864544333
 21
145.044457483079
 31
0.0
  0
LINE
  5
16CD
330
1E
100
AcDbEntity
  8
0
100
AcDbLine
 10
504.119864544333
 20
145.578457483079
 30
0.0
 11
504.119864544333
 21
145.868912028534
 31
0.0
  0
LINE
  5
16CE
330
1E
100
AcDbEntity
  8
0
100
AcDbLine
 10
501.274864544333
 20
149.973457483079
 30
0.0
 11
502.538864544332
 21
149.664457483079
 31
0.0
  0
LINE
  5
16CF
330
1E
100
AcDbEntity
  8
0
100
AcDbLine
 10
502.538864544332
 20
149.664457483079
 30
0.0
 11
502.538864544332
 21
150.408643645093
 31
0.0
  0
LINE
  5
16D0
330
1E
100
AcDbEntity
  8
0
100
AcDbLine
 10
501.808864544333
 20
149.129457483079
 30
0.0
 11
502.538864544332
 21
149.664457483079
 31
0.0
  0
LINE
  5
16D1
330
1E
100
AcDbEntity
  8
0
100
AcDbLine
 10
502.538864544332
 20
150.408643645093
 30
0.0
 11
502.538864544332
 21
149.664457483079
 31
0.0
  0
LINE
  5
16D2
330
1E
100
AcDbEntity
  8
0
100
AcDbLine
 10
504.234864544333
 20
156.954457483079
 30
0.0
 11
504.626864544333
 21
157.175457483079
 31
0.0
  0
LINE
  5
16D3
330
1E
100
AcDbEntity
  8
0
100
AcDbLine
 10
504.003864544333
 20
156.691457483079
 30
0.0
 11
504.234864544333
 21
156.954457483079
 31
0.0
  0
LINE
  5
16D4
330
1E
100
AcDbEntity
  8
0
100
AcDbLine
 10
503.891864544333
 20
156.414457483079
 30
0.0
 11
503.970864544332
 21
156.140457483079
 31
0.0
  0
LINE
  5
16D5
330
1E
100
AcDbEntity
  8
0
100
AcDbLine
 10
503.891864544333
 20
156.414457483079
 30
0.0
 11
504.003864544333
 21
156.691457483079
 31
0.0
  0
LINE
  5
16D6
330
1E
100
AcDbEntity
  8
0
100
AcDbLine
 10
503.599740470616
 20
156.837028821439
 30
0.0
 11
503.970864544332
 21
156.140457483079
 31
0.0
  0
LINE
  5
16D7
330
1E
100
AcDbEntity
  8
0
100
AcDbLine
 10
503.970864544332
 20
156.140457483079
 30
0.0
 11
504.234864544333
 21
155.872457483079
 31
0.0
  0
LINE
  5
16D8
330
1E
100
AcDbEntity
  8
0
100
AcDbLine
 10
504.626864544333
 20
157.175457483079
 30
0.0
 11
505.171864544332
 21
157.350457483079
 31
0.0
  0
LINE
  5
16D9
330
1E
100
AcDbEntity
  8
0
100
AcDbLine
 10
504.650864544333
 20
155.642457483079
 30
0.0
 11
505.171864544332
 21
155.476457483079
 31
0.0
  0
LINE
  5
16DA
330
1E
100
AcDbEntity
  8
0
100
AcDbLine
 10
504.234864544333
 20
155.872457483079
 30
0.0
 11
504.650864544333
 21
155.642457483079
 31
0.0
  0
LINE
  5
16DB
330
1E
100
AcDbEntity
  8
0
100
AcDbLine
 10
504.923864544333
 20
153.309577102374
 30
0.0
 11
504.923864544333
 21
152.191457483079
 31
0.0
  0
LINE
  5
16DC
330
1E
100
AcDbEntity
  8
0
100
AcDbLine
 10
505.171864544332
 20
157.350457483079
 30
0.0
 11
505.804864544333
 21
157.462457483079
 31
0.0
  0
LINE
  5
16DD
330
1E
100
AcDbEntity
  8
0
100
AcDbLine
 10
505.171864544332
 20
155.476457483079
 30
0.0
 11
505.795864544333
 21
155.379457483079
 31
0.0
  0
LINE
  5
16DE
330
1E
100
AcDbEntity
  8
0
100
AcDbLine
 10
504.923864544333
 20
152.191457483079
 30
0.0
 11
506.188864544333
 21
151.882457483079
 31
0.0
  0
LINE
  5
16DF
330
1E
100
AcDbEntity
  8
0
100
AcDbLine
 10
504.923864544333
 20
152.191457483079
 30
0.0
 11
504.923864544333
 21
153.309577102374
 31
0.0
  0
LINE
  5
16E0
330
1E
100
AcDbEntity
  8
0
100
AcDbLine
 10
504.923864544333
 20
152.191457483079
 30
0.0
 11
505.653864544332
 21
152.725457483079
 31
0.0
  0
LINE
  5
16E1
330
1E
100
AcDbEntity
  8
0
100
AcDbLine
 10
505.384864544332
 20
146.393801047225
 30
0.0
 11
505.384864544332
 21
145.887457483079
 31
0.0
  0
LINE
  5
16E2
330
1E
100
AcDbEntity
  8
0
100
AcDbLine
 10
505.653864544332
 20
152.725457483079
 30
0.0
 11
506.917864544333
 21
152.416457483079
 31
0.0
  0
LINE
  5
16E3
330
1E
100
AcDbEntity
  8
0
100
AcDbLine
 10
505.653864544332
 20
152.725457483079
 30
0.0
 11
505.653864544332
 21
153.599598012317
 31
0.0
  0
LINE
  5
16E4
330
1E
100
AcDbEntity
  8
0
100
AcDbLine
 10
505.804864544333
 20
157.462457483079
 30
0.0
 11
506.451864544332
 21
157.495457483079
 31
0.0
  0
LINE
  5
16E5
330
1E
100
AcDbEntity
  8
0
100
AcDbLine
 10
505.795864544333
 20
155.379457483079
 30
0.0
 11
506.450864544332
 21
155.332457483079
 31
0.0
  0
LINE
  5
16E6
330
1E
100
AcDbEntity
  8
0
100
AcDbLine
 10
505.653864544332
 20
153.599598012317
 30
0.0
 11
505.653864544332
 21
152.725457483079
 31
0.0
  0
LINE
  5
16E7
330
1E
100
AcDbEntity
  8
0
100
AcDbLine
 10
505.384864544332
 20
145.887457483079
 30
0.0
 11
506.114864544332
 21
145.352457483079
 31
0.0
  0
LINE
  5
16E8
330
1E
100
AcDbEntity
  8
0
100
AcDbLine
 10
505.384864544332
 20
145.887457483079
 30
0.0
 11
505.384864544332
 21
146.393801047225
 31
0.0
  0
LINE
  5
16E9
330
1E
100
AcDbEntity
  8
0
100
AcDbLine
 10
506.114864544332
 20
145.352457483079
 30
0.0
 11
506.114864544332
 21
145.980463805524
 31
0.0
  0
LINE
  5
16EA
330
1E
100
AcDbEntity
  8
0
100
AcDbLine
 10
506.917864544333
 20
152.416457483079
 30
0.0
 11
506.917864544333
 21
152.764259161449
 31
0.0
  0
LINE
  5
16EB
330
1E
100
AcDbEntity
  8
0
100
AcDbLine
 10
506.188864544333
 20
151.882457483079
 30
0.0
 11
506.917864544333
 21
152.416457483079
 31
0.0
  0
LINE
  5
16EC
330
1E
100
AcDbEntity
  8
0
100
AcDbLine
 10
506.917864544333
 20
152.764259161449
 30
0.0
 11
506.917864544333
 21
152.416457483079
 31
0.0
  0
LINE
  5
16ED
330
1E
100
AcDbEntity
  8
0
100
AcDbLine
 10
507.098864544333
 20
155.365457483079
 30
0.0
 11
507.731864544333
 21
155.476457483079
 31
0.0
  0
LINE
  5
16EE
330
1E
100
AcDbEntity
  8
0
100
AcDbLine
 10
506.450864544332
 20
155.332457483079
 30
0.0
 11
507.098864544333
 21
155.365457483079
 31
0.0
  0
LINE
  5
16EF
330
1E
100
AcDbEntity
  8
0
100
AcDbLine
 10
506.451864544332
 20
157.495457483079
 30
0.0
 11
507.106864544333
 21
157.447457483079
 31
0.0
  0
LINE
  5
16F0
330
1E
100
AcDbEntity
  8
0
100
AcDbLine
 10
507.106864544333
 20
157.447457483079
 30
0.0
 11
507.730864544332
 21
157.350457483079
 31
0.0
  0
LINE
  5
16F1
330
1E
100
AcDbEntity
  8
0
100
AcDbLine
 10
507.730864544332
 20
157.350457483079
 30
0.0
 11
508.251864544333
 21
157.185457483079
 31
0.0
  0
LINE
  5
16F2
330
1E
100
AcDbEntity
  8
0
100
AcDbLine
 10
508.251864544333
 20
157.185457483079
 30
0.0
 11
508.668864544333
 21
156.955457483079
 31
0.0
  0
LINE
  5
16F3
330
1E
100
AcDbEntity
  8
0
100
AcDbLine
 10
507.731864544333
 20
155.476457483079
 30
0.0
 11
508.276864544333
 21
155.652457483079
 31
0.0
  0
LINE
  5
16F4
330
1E
100
AcDbEntity
  8
0
100
AcDbLine
 10
508.276864544333
 20
155.652457483079
 30
0.0
 11
508.667864544333
 21
155.873457483079
 31
0.0
  0
LINE
  5
16F5
330
1E
100
AcDbEntity
  8
0
100
AcDbLine
 10
508.667864544333
 20
155.873457483079
 30
0.0
 11
508.899864544333
 21
156.136457483079
 31
0.0
  0
LINE
  5
16F6
330
1E
100
AcDbEntity
  8
0
100
AcDbLine
 10
508.668864544333
 20
156.955457483079
 30
0.0
 11
508.931864544332
 21
156.687457483079
 31
0.0
  0
LINE
  5
16F7
330
1E
100
AcDbEntity
  8
0
100
AcDbLine
 10
508.647864544333
 20
149.019582100482
 30
0.0
 11
508.647864544333
 21
148.605457483079
 31
0.0
  0
LINE
  5
16F8
330
1E
100
AcDbEntity
  8
0
100
AcDbLine
 10
508.647864544333
 20
148.605457483079
 30
0.0
 11
509.911864544333
 21
148.913457483079
 31
0.0
  0
LINE
  5
16F9
330
1E
100
AcDbEntity
  8
0
100
AcDbLine
 10
508.647864544333
 20
148.605457483079
 30
0.0
 11
509.377864544333
 21
148.070457483079
 31
0.0
  0
LINE
  5
16FA
330
1E
100
AcDbEntity
  8
0
100
AcDbLine
 10
508.647864544333
 20
148.605457483079
 30
0.0
 11
508.647864544333
 21
149.019582100482
 31
0.0
  0
LINE
  5
16FB
330
1E
100
AcDbEntity
  8
0
100
AcDbLine
 10
506.114864544332
 20
145.980463805524
 30
0.0
 11
506.114864544332
 21
145.352457483079
 31
0.0
  0
LINE
  5
16FC
330
1E
100
AcDbEntity
  8
0
100
AcDbLine
 10
504.849864544333
 20
145.044457483079
 30
0.0
 11
506.114864544332
 21
145.352457483079
 31
0.0
  0
LINE
  5
16FD
330
1E
100
AcDbEntity
  8
0
100
AcDbLine
 10
500.980864544332
 20
142.557127600296
 30
0.0
 11
503.840864544333
 21
142.194457483079
 31
0.0
  0
LINE
  5
16FE
330
1E
100
AcDbEntity
  8
0
100
AcDbLine
 10
500.980864544332
 20
142.557127600296
 30
0.0
 11
500.980864544332
 21
142.495457483079
 31
0.0
  0
LINE
  5
16FF
330
1E
100
AcDbEntity
  8
0
100
AcDbLine
 10
503.840864544333
 20
142.194457483079
 30
0.0
 11
508.073089006082
 21
141.766580651523
 31
0.0
  0
LINE
  5
1700
330
1E
100
AcDbEntity
  8
0
100
AcDbLine
 10
496.395864544333
 20
142.194457483079
 30
0.0
 11
502.818864544333
 21
141.300457483079
 31
0.0
  0
LINE
  5
1701
330
1E
100
AcDbEntity
  8
0
100
AcDbLine
 10
502.818864544333
 20
141.300457483079
 30
0.0
 11
508.877864544333
 21
140.776457483079
 31
0.0
  0
LINE
  5
1702
330
1E
100
AcDbEntity
  8
0
100
AcDbLine
 10
481.367864544333
 20
163.797457483079
 30
0.0
 11
481.367864544333
 21
164.414457483079
 31
0.0
  0
LINE
  5
1703
330
1E
100
AcDbEntity
  8
0
100
AcDbLine
 10
479.907864544333
 20
163.797457483079
 30
0.0
 11
479.907864544333
 21
164.414457483079
 31
0.0
  0
LINE
  5
1704
330
1E
100
AcDbEntity
  8
0
100
AcDbLine
 10
479.907864544333
 20
163.797457483079
 30
0.0
 11
479.907864544333
 21
164.602720640974
 31
0.0
  0
LINE
  5
1705
330
1E
100
AcDbEntity
  8
0
100
AcDbLine
 10
479.907864544333
 20
163.797457483079
 30
0.0
 11
481.367864544333
 21
163.797457483079
 31
0.0
  0
LINE
  5
1706
330
1E
100
AcDbEntity
  8
0
100
AcDbLine
 10
470.986864544333
 20
164.935457483079
 30
0.0
 11
470.986864544333
 21
166.011299588342
 31
0.0
  0
LINE
  5
1707
330
1E
100
AcDbEntity
  8
0
100
AcDbLine
 10
470.986864544333
 20
164.935457483079
 30
0.0
 11
470.986864544333
 21
164.318457483079
 31
0.0
  0
LINE
  5
1708
330
1E
100
AcDbEntity
  8
0
100
AcDbLine
 10
470.986864544333
 20
164.935457483079
 30
0.0
 11
472.445864544333
 21
164.935457483079
 31
0.0
  0
LINE
  5
1709
330
1E
100
AcDbEntity
  8
0
100
AcDbLine
 10
481.367864544333
 20
164.414457483079
 30
0.0
 11
481.367864544333
 21
163.797457483079
 31
0.0
  0
LINE
  5
170A
330
1E
100
AcDbEntity
  8
0
100
AcDbLine
 10
479.907864544333
 20
164.414457483079
 30
0.0
 11
479.907864544333
 21
164.602720640974
 31
0.0
  0
LINE
  5
170B
330
1E
100
AcDbEntity
  8
0
100
AcDbLine
 10
479.907864544333
 20
164.414457483079
 30
0.0
 11
479.907864544333
 21
163.797457483079
 31
0.0
  0
LINE
  5
170C
330
1E
100
AcDbEntity
  8
0
100
AcDbLine
 10
479.907864544333
 20
164.414457483079
 30
0.0
 11
481.367864544333
 21
164.414457483079
 31
0.0
  0
LINE
  5
170D
330
1E
100
AcDbEntity
  8
0
100
AcDbLine
 10
479.907864544333
 20
164.602720640974
 30
0.0
 11
479.907864544333
 21
163.797457483079
 31
0.0
  0
LINE
  5
170E
330
1E
100
AcDbEntity
  8
0
100
AcDbLine
 10
479.907864544333
 20
164.602720640974
 30
0.0
 11
479.907864544333
 21
164.414457483079
 31
0.0
  0
LINE
  5
170F
330
1E
100
AcDbEntity
  8
0
100
AcDbLine
 10
472.445864544333
 20
164.318457483079
 30
0.0
 11
472.445864544333
 21
164.935457483079
 31
0.0
  0
LINE
  5
1710
330
1E
100
AcDbEntity
  8
0
100
AcDbLine
 10
472.445864544333
 20
164.935457483079
 30
0.0
 11
472.445864544333
 21
164.318457483079
 31
0.0
  0
LINE
  5
1711
330
1E
100
AcDbEntity
  8
0
100
AcDbLine
 10
472.445864544333
 20
164.935457483079
 30
0.0
 11
472.445864544333
 21
165.78093116729
 31
0.0
  0
LINE
  5
1712
330
1E
100
AcDbEntity
  8
0
100
AcDbLine
 10
470.986864544333
 20
164.318457483079
 30
0.0
 11
470.986864544333
 21
164.935457483079
 31
0.0
  0
LINE
  5
1713
330
1E
100
AcDbEntity
  8
0
100
AcDbLine
 10
470.986864544333
 20
164.318457483079
 30
0.0
 11
472.445864544333
 21
164.318457483079
 31
0.0
  0
LINE
  5
1714
330
1E
100
AcDbEntity
  8
0
100
AcDbLine
 10
468.585864544332
 20
164.004457483079
 30
0.0
 11
469.826864544332
 21
166.194457483079
 31
0.0
  0
LINE
  5
1715
330
1E
100
AcDbEntity
  8
0
100
AcDbLine
 10
466.468864544333
 20
164.066457483079
 30
0.0
 11
467.709864544333
 21
166.626457483079
 31
0.0
  0
LINE
  5
1716
330
1E
100
AcDbEntity
  8
0
100
AcDbLine
 10
465.738864544333
 20
165.003457483079
 30
0.0
 11
467.052864544333
 21
167.748457483079
 31
0.0
  0
LINE
  5
1717
330
1E
100
AcDbEntity
  8
0
100
AcDbLine
 10
500.507864544333
 20
162.822457483079
 30
0.0
 11
500.507864544333
 21
163.439457483079
 31
0.0
  0
LINE
  5
1718
330
1E
100
AcDbEntity
  8
0
100
AcDbLine
 10
489.315864544332
 20
163.34539893784
 30
0.0
 11
489.315864544332
 21
163.035457483079
 31
0.0
  0
LINE
  5
1719
330
1E
100
AcDbEntity
  8
0
100
AcDbLine
 10
490.775864544333
 20
163.035457483079
 30
0.0
 11
490.775864544333
 21
163.652457483079
 31
0.0
  0
LINE
  5
171A
330
1E
100
AcDbEntity
  8
0
100
AcDbLine
 10
489.315864544332
 20
163.035457483079
 30
0.0
 11
489.315864544332
 21
163.652457483079
 31
0.0
  0
LINE
  5
171B
330
1E
100
AcDbEntity
  8
0
100
AcDbLine
 10
489.315864544332
 20
163.035457483079
 30
0.0
 11
489.315864544332
 21
163.34539893784
 31
0.0
  0
LINE
  5
171C
330
1E
100
AcDbEntity
  8
0
100
AcDbLine
 10
489.315864544332
 20
163.035457483079
 30
0.0
 11
490.775864544333
 21
163.035457483079
 31
0.0
  0
LINE
  5
171D
330
1E
100
AcDbEntity
  8
0
100
AcDbLine
 10
489.315864544332
 20
164.787534975806
 30
0.0
 11
489.315864544332
 21
163.652457483079
 31
0.0
  0
LINE
  5
171E
330
1E
100
AcDbEntity
  8
0
100
AcDbLine
 10
490.775864544333
 20
164.462635742799
 30
0.0
 11
490.775864544333
 21
163.652457483079
 31
0.0
  0
LINE
  5
171F
330
1E
100
AcDbEntity
  8
0
100
AcDbLine
 10
490.775864544333
 20
163.652457483079
 30
0.0
 11
490.775864544333
 21
163.035457483079
 31
0.0
  0
LINE
  5
1720
330
1E
100
AcDbEntity
  8
0
100
AcDbLine
 10
490.775864544333
 20
163.652457483079
 30
0.0
 11
490.775864544333
 21
164.462635742799
 31
0.0
  0
LINE
  5
1721
330
1E
100
AcDbEntity
  8
0
100
AcDbLine
 10
489.315864544332
 20
163.652457483079
 30
0.0
 11
489.315864544332
 21
164.787534975806
 31
0.0
  0
LINE
  5
1722
330
1E
100
AcDbEntity
  8
0
100
AcDbLine
 10
489.315864544332
 20
163.652457483079
 30
0.0
 11
489.315864544332
 21
163.035457483079
 31
0.0
  0
LINE
  5
1723
330
1E
100
AcDbEntity
  8
0
100
AcDbLine
 10
489.315864544332
 20
163.652457483079
 30
0.0
 11
490.775864544333
 21
163.652457483079
 31
0.0
  0
LINE
  5
1724
330
1E
100
AcDbEntity
  8
0
100
AcDbLine
 10
499.047864544332
 20
164.343337889247
 30
0.0
 11
499.047864544332
 21
163.439457483079
 31
0.0
  0
LINE
  5
1725
330
1E
100
AcDbEntity
  8
0
100
AcDbLine
 10
499.047864544332
 20
163.439457483079
 30
0.0
 11
499.047864544332
 21
164.343337889247
 31
0.0
  0
LINE
  5
1726
330
1E
100
AcDbEntity
  8
0
100
AcDbLine
 10
499.047864544332
 20
163.439457483079
 30
0.0
 11
499.047864544332
 21
162.822457483079
 31
0.0
  0
LINE
  5
1727
330
1E
100
AcDbEntity
  8
0
100
AcDbLine
 10
499.047864544332
 20
163.439457483079
 30
0.0
 11
500.507864544333
 21
163.439457483079
 31
0.0
  0
LINE
  5
1728
330
1E
100
AcDbEntity
  8
0
100
AcDbLine
 10
505.653864544332
 20
165.507457483079
 30
0.0
 11
506.917864544333
 21
165.816457483079
 31
0.0
  0
LINE
  5
1729
330
1E
100
AcDbEntity
  8
0
100
AcDbLine
 10
500.507864544333
 20
163.979455656399
 30
0.0
 11
500.507864544333
 21
163.439457483079
 31
0.0
  0
LINE
  5
172A
330
1E
100
AcDbEntity
  8
0
100
AcDbLine
 10
500.507864544333
 20
163.439457483079
 30
0.0
 11
500.507864544333
 21
162.822457483079
 31
0.0
  0
LINE
  5
172B
330
1E
100
AcDbEntity
  8
0
100
AcDbLine
 10
500.507864544333
 20
163.439457483079
 30
0.0
 11
500.507864544333
 21
163.979455656399
 31
0.0
  0
LINE
  5
172C
330
1E
100
AcDbEntity
  8
0
100
AcDbLine
 10
499.047864544332
 20
163.757597258894
 30
0.0
 11
499.047864544332
 21
162.822457483079
 31
0.0
  0
LINE
  5
172D
330
1E
100
AcDbEntity
  8
0
100
AcDbLine
 10
499.047864544332
 20
162.822457483079
 30
0.0
 11
499.047864544332
 21
163.439457483079
 31
0.0
  0
LINE
  5
172E
330
1E
100
AcDbEntity
  8
0
100
AcDbLine
 10
499.047864544332
 20
162.822457483079
 30
0.0
 11
499.047864544332
 21
163.757597258894
 31
0.0
  0
LINE
  5
172F
330
1E
100
AcDbEntity
  8
0
100
AcDbLine
 10
499.047864544332
 20
162.822457483079
 30
0.0
 11
500.507864544333
 21
162.822457483079
 31
0.0
  0
LINE
  5
1730
330
1E
100
AcDbEntity
  8
0
100
AcDbLine
 10
509.275864544333
 20
123.697457483079
 30
0.0
 11
512.155864544333
 21
122.461457483079
 31
0.0
  0
LINE
  5
1731
330
1E
100
AcDbEntity
  8
0
100
AcDbLine
 10
512.155864544333
 20
122.461457483079
 30
0.0
 11
515.227864544333
 21
122.020457483079
 31
0.0
  0
LINE
  5
1732
330
1E
100
AcDbEntity
  8
0
100
AcDbLine
 10
513.019864544332
 20
125.815457483079
 30
0.0
 11
515.227864544333
 21
125.462457483079
 31
0.0
  0
LINE
  5
1733
330
1E
100
AcDbEntity
  8
0
100
AcDbLine
 10
514.227864544333
 20
136.906457483079
 30
0.0
 11
514.227864544333
 21
136.175457483079
 31
0.0
  0
LINE
  5
1734
330
1E
100
AcDbEntity
  8
0
100
AcDbLine
 10
514.227864544333
 20
136.906457483079
 30
0.0
 11
514.227864544333
 21
137.897457483079
 31
0.0
  0
LINE
  5
1735
330
1E
100
AcDbEntity
  8
0
100
AcDbLine
 10
514.227864544333
 20
136.175457483079
 30
0.0
 11
514.227864544333
 21
135.933457483079
 31
0.0
  0
LINE
  5
1736
330
1E
100
AcDbEntity
  8
0
100
AcDbLine
 10
514.227864544333
 20
136.175457483079
 30
0.0
 11
514.227864544333
 21
136.906457483079
 31
0.0
  0
LINE
  5
1737
330
1E
100
AcDbEntity
  8
0
100
AcDbLine
 10
514.227864544333
 20
135.933457483079
 30
0.0
 11
514.227864544333
 21
136.265457483079
 31
0.0
  0
LINE
  5
1738
330
1E
100
AcDbEntity
  8
0
100
AcDbLine
 10
514.227864544333
 20
135.933457483079
 30
0.0
 11
514.227864544333
 21
136.175457483079
 31
0.0
  0
LINE
  5
1739
330
1E
100
AcDbEntity
  8
0
100
AcDbLine
 10
514.227864544333
 20
135.933457483079
 30
0.0
 11
516.227864544333
 21
135.933457483079
 31
0.0
  0
LINE
  5
173A
330
1E
100
AcDbEntity
  8
0
100
AcDbLine
 10
514.227864544333
 20
136.265457483079
 30
0.0
 11
514.227864544333
 21
136.917457483079
 31
0.0
  0
LINE
  5
173B
330
1E
100
AcDbEntity
  8
0
100
AcDbLine
 10
514.227864544333
 20
136.265457483079
 30
0.0
 11
514.227864544333
 21
135.933457483079
 31
0.0
  0
LINE
  5
173C
330
1E
100
AcDbEntity
  8
0
100
AcDbLine
 10
514.227864544333
 20
137.897457483079
 30
0.0
 11
514.227864544333
 21
136.906457483079
 31
0.0
  0
LINE
  5
173D
330
1E
100
AcDbEntity
  8
0
100
AcDbLine
 10
514.227864544333
 20
136.917457483079
 30
0.0
 11
514.227864544333
 21
138.843457483079
 31
0.0
  0
LINE
  5
173E
330
1E
100
AcDbEntity
  8
0
100
AcDbLine
 10
514.227864544333
 20
136.917457483079
 30
0.0
 11
514.227864544333
 21
136.265457483079
 31
0.0
  0
LINE
  5
173F
330
1E
100
AcDbEntity
  8
0
100
AcDbLine
 10
514.227864544333
 20
138.843457483079
 30
0.0
 11
514.227864544333
 21
144.720273938775
 31
0.0
  0
LINE
  5
1740
330
1E
100
AcDbEntity
  8
0
100
AcDbLine
 10
514.227864544333
 20
138.843457483079
 30
0.0
 11
514.227864544333
 21
136.917457483079
 31
0.0
  0
LINE
  5
1741
330
1E
100
AcDbEntity
  8
0
100
AcDbLine
 10
510.907864544333
 20
126.609457483079
 30
0.0
 11
513.019864544332
 21
125.815457483079
 31
0.0
  0
LINE
  5
1742
330
1E
100
AcDbEntity
  8
0
100
AcDbLine
 10
509.083864544333
 20
128.021457483079
 30
0.0
 11
510.907864544333
 21
126.609457483079
 31
0.0
  0
LINE
  5
1743
330
1E
100
AcDbEntity
  8
0
100
AcDbLine
 10
515.227864544333
 20
122.020457483079
 30
0.0
 11
518.299864544333
 21
122.461457483079
 31
0.0
  0
LINE
  5
1744
330
1E
100
AcDbEntity
  8
0
100
AcDbLine
 10
515.227864544333
 20
125.462457483079
 30
0.0
 11
517.435864544333
 21
125.815457483079
 31
0.0
  0
LINE
  5
1745
330
1E
100
AcDbEntity
  8
0
100
AcDbLine
 10
509.290864544333
 20
142.363503344966
 30
0.0
 11
509.290864544333
 21
142.108457483079
 31
0.0
  0
LINE
  5
1746
330
1E
100
AcDbEntity
  8
0
100
AcDbLine
 10
509.290864544333
 20
142.108457483079
 30
0.0
 11
510.020864544333
 21
141.574457483079
 31
0.0
  0
LINE
  5
1747
330
1E
100
AcDbEntity
  8
0
100
AcDbLine
 10
509.290864544333
 20
142.108457483079
 30
0.0
 11
509.290864544333
 21
142.363503344966
 31
0.0
  0
LINE
  5
1748
330
1E
100
AcDbEntity
  8
0
100
AcDbLine
 10
510.020864544333
 20
141.574457483079
 30
0.0
 11
510.020864544333
 21
142.43700970745
 31
0.0
  0
LINE
  5
1749
330
1E
100
AcDbEntity
  8
0
100
AcDbLine
 10
508.899864544333
 20
156.136457483079
 30
0.0
 11
509.427011772171
 21
157.118345815165
 31
0.0
  0
LINE
  5
174A
330
1E
100
AcDbEntity
  8
0
100
AcDbLine
 10
508.899864544333
 20
156.136457483079
 30
0.0
 11
509.010864544333
 21
156.413457483079
 31
0.0
  0
LINE
  5
174B
330
1E
100
AcDbEntity
  8
0
100
AcDbLine
 10
508.931864544332
 20
156.687457483079
 30
0.0
 11
509.010864544333
 21
156.413457483079
 31
0.0
  0
LINE
  5
174C
330
1E
100
AcDbEntity
  8
0
100
AcDbLine
 10
509.227864544333
 20
159.570457483079
 30
0.0
 11
509.227864544333
 21
159.011457483079
 31
0.0
  0
LINE
  5
174D
330
1E
100
AcDbEntity
  8
0
100
AcDbLine
 10
509.227864544333
 20
159.011457483079
 30
0.0
 11
509.443864544333
 21
159.660457483079
 31
0.0
  0
LINE
  5
174E
330
1E
100
AcDbEntity
  8
0
100
AcDbLine
 10
509.227864544333
 20
159.011457483079
 30
0.0
 11
509.443864544333
 21
158.361457483079
 31
0.0
  0
LINE
  5
174F
330
1E
100
AcDbEntity
  8
0
100
AcDbLine
 10
509.227864544333
 20
159.011457483079
 30
0.0
 11
509.227864544333
 21
159.570457483079
 31
0.0
  0
LINE
  5
1750
330
1E
100
AcDbEntity
  8
0
100
AcDbLine
 10
509.443864544333
 20
158.361457483079
 30
0.0
 11
510.019864544332
 21
157.753457483079
 31
0.0
  0
LINE
  5
1751
330
1E
100
AcDbEntity
  8
0
100
AcDbLine
 10
510.019864544332
 20
157.753457483079
 30
0.0
 11
510.979864544332
 21
157.215457483079
 31
0.0
  0
LINE
  5
1752
330
1E
100
AcDbEntity
  8
0
100
AcDbLine
 10
510.019864544332
 20
160.268457483079
 30
0.0
 11
510.979864544332
 21
160.806457483079
 31
0.0
  0
LINE
  5
1753
330
1E
100
AcDbEntity
  8
0
100
AcDbLine
 10
509.443864544333
 20
159.660457483079
 30
0.0
 11
510.019864544332
 21
160.268457483079
 31
0.0
  0
LINE
  5
1754
330
1E
100
AcDbEntity
  8
0
100
AcDbLine
 10
509.911864544333
 20
148.913457483079
 30
0.0
 11
510.641864544333
 21
148.378457483079
 31
0.0
  0
LINE
  5
1755
330
1E
100
AcDbEntity
  8
0
100
AcDbLine
 10
509.377864544333
 20
148.070457483079
 30
0.0
 11
510.641864544333
 21
148.378457483079
 31
0.0
  0
LINE
  5
1756
330
1E
100
AcDbEntity
  8
0
100
AcDbLine
 10
510.020864544333
 20
142.43700970745
 30
0.0
 11
510.020864544333
 21
141.574457483079
 31
0.0
  0
LINE
  5
1757
330
1E
100
AcDbEntity
  8
0
100
AcDbLine
 10
514.227864544333
 20
141.373803939772
 30
0.0
 11
514.227864544333
 21
137.897457483079
 31
0.0
  0
LINE
  5
1758
330
1E
100
AcDbEntity
  8
0
100
AcDbLine
 10
514.227864544333
 20
144.720273938775
 30
0.0
 11
514.227864544333
 21
138.843457483079
 31
0.0
  0
LINE
  5
1759
330
1E
100
AcDbEntity
  8
0
100
AcDbLine
 10
512.561864544333
 20
145.025457483079
 30
0.0
 11
513.826864544332
 21
145.334457483079
 31
0.0
  0
LINE
  5
175A
330
1E
100
AcDbEntity
  8
0
100
AcDbLine
 10
512.561864544333
 20
145.025457483079
 30
0.0
 11
513.291864544333
 21
144.491457483079
 31
0.0
  0
LINE
  5
175B
330
1E
100
AcDbEntity
  8
0
100
AcDbLine
 10
510.979864544332
 20
157.215457483079
 30
0.0
 11
512.251864544333
 21
156.810457483079
 31
0.0
  0
LINE
  5
175C
330
1E
100
AcDbEntity
  8
0
100
AcDbLine
 10
513.691864544332
 20
156.566457483079
 30
0.0
 11
515.227864544333
 21
156.475457483079
 31
0.0
  0
LINE
  5
175D
330
1E
100
AcDbEntity
  8
0
100
AcDbLine
 10
512.251864544333
 20
156.810457483079
 30
0.0
 11
513.691864544332
 21
156.566457483079
 31
0.0
  0
LINE
  5
175E
330
1E
100
AcDbEntity
  8
0
100
AcDbLine
 10
512.750864544333
 20
163.128457483079
 30
0.0
 11
513.006864544333
 21
163.382457483079
 31
0.0
  0
LINE
  5
175F
330
1E
100
AcDbEntity
  8
0
100
AcDbLine
 10
513.006864544333
 20
163.382457483079
 30
0.0
 11
513.430864544333
 21
163.598457483079
 31
0.0
  0
LINE
  5
1760
330
1E
100
AcDbEntity
  8
0
100
AcDbLine
 10
512.662864544332
 20
162.841457483079
 30
0.0
 11
512.750864544333
 21
162.554457483079
 31
0.0
  0
LINE
  5
1761
330
1E
100
AcDbEntity
  8
0
100
AcDbLine
 10
512.662864544332
 20
162.841457483079
 30
0.0
 11
512.750864544333
 21
163.128457483079
 31
0.0
  0
LINE
  5
1762
330
1E
100
AcDbEntity
  8
0
100
AcDbLine
 10
512.750864544333
 20
162.554457483079
 30
0.0
 11
513.006864544333
 21
162.300457483079
 31
0.0
  0
LINE
  5
1763
330
1E
100
AcDbEntity
  8
0
100
AcDbLine
 10
513.430864544333
 20
163.598457483079
 30
0.0
 11
513.942864544332
 21
163.777457483079
 31
0.0
  0
LINE
  5
1764
330
1E
100
AcDbEntity
  8
0
100
AcDbLine
 10
513.006864544333
 20
162.300457483079
 30
0.0
 11
513.430864544333
 21
162.084457483079
 31
0.0
  0
LINE
  5
1765
330
1E
100
AcDbEntity
  8
0
100
AcDbLine
 10
513.430864544333
 20
162.084457483079
 30
0.0
 11
513.942864544332
 21
161.904457483079
 31
0.0
  0
LINE
  5
1766
330
1E
100
AcDbEntity
  8
0
100
AcDbLine
 10
513.691864544332
 20
161.455457483079
 30
0.0
 11
515.227864544333
 21
161.546457483079
 31
0.0
  0
LINE
  5
1767
330
1E
100
AcDbEntity
  8
0
100
AcDbLine
 10
512.251864544333
 20
161.212457483079
 30
0.0
 11
513.691864544332
 21
161.455457483079
 31
0.0
  0
LINE
  5
1768
330
1E
100
AcDbEntity
  8
0
100
AcDbLine
 10
510.979864544332
 20
160.806457483079
 30
0.0
 11
512.251864544333
 21
161.212457483079
 31
0.0
  0
LINE
  5
1769
330
1E
100
AcDbEntity
  8
0
100
AcDbLine
 10
513.729864544332
 20
151.568457483079
 30
0.0
 11
514.993864544333
 21
151.876457483079
 31
0.0
  0
LINE
  5
176A
330
1E
100
AcDbEntity
  8
0
100
AcDbLine
 10
513.729864544332
 20
151.568457483079
 30
0.0
 11
514.459864544333
 21
151.033457483079
 31
0.0
  0
LINE
  5
176B
330
1E
100
AcDbEntity
  8
0
100
AcDbLine
 10
513.942864544332
 20
163.777457483079
 30
0.0
 11
514.542864544333
 21
163.886457483079
 31
0.0
  0
LINE
  5
176C
330
1E
100
AcDbEntity
  8
0
100
AcDbLine
 10
514.542864544333
 20
163.886457483079
 30
0.0
 11
515.222864544333
 21
163.923457483079
 31
0.0
  0
LINE
  5
176D
330
1E
100
AcDbEntity
  8
0
100
AcDbLine
 10
513.942864544332
 20
161.904457483079
 30
0.0
 11
514.542864544333
 21
161.796457483079
 31
0.0
  0
LINE
  5
176E
330
1E
100
AcDbEntity
  8
0
100
AcDbLine
 10
514.542864544333
 20
161.796457483079
 30
0.0
 11
515.222864544333
 21
161.759457483079
 31
0.0
  0
LINE
  5
176F
330
1E
100
AcDbEntity
  8
0
100
AcDbLine
 10
514.459864544333
 20
151.033457483079
 30
0.0
 11
515.723864544333
 21
151.341457483079
 31
0.0
  0
LINE
  5
1770
330
1E
100
AcDbEntity
  8
0
100
AcDbLine
 10
513.826864544332
 20
145.334457483079
 30
0.0
 11
514.555864544333
 21
144.800457483079
 31
0.0
  0
LINE
  5
1771
330
1E
100
AcDbEntity
  8
0
100
AcDbLine
 10
514.555864544333
 20
144.800457483079
 30
0.0
 11
514.555864544333
 21
145.923784368959
 31
0.0
  0
LINE
  5
1772
330
1E
100
AcDbEntity
  8
0
100
AcDbLine
 10
515.222864544333
 20
161.759457483079
 30
0.0
 11
515.902864544332
 21
161.796457483079
 31
0.0
  0
LINE
  5
1773
330
1E
100
AcDbEntity
  8
0
100
AcDbLine
 10
515.222864544333
 20
163.923457483079
 30
0.0
 11
515.902864544332
 21
163.886457483079
 31
0.0
  0
LINE
  5
1774
330
1E
100
AcDbEntity
  8
0
100
AcDbLine
 10
515.227864544333
 20
156.475457483079
 30
0.0
 11
516.763864544333
 21
156.566457483079
 31
0.0
  0
LINE
  5
1775
330
1E
100
AcDbEntity
  8
0
100
AcDbLine
 10
515.227864544333
 20
161.546457483079
 30
0.0
 11
516.763864544333
 21
161.455457483079
 31
0.0
  0
LINE
  5
1776
330
1E
100
AcDbEntity
  8
0
100
AcDbLine
 10
514.993864544333
 20
151.876457483079
 30
0.0
 11
515.723864544333
 21
151.341457483079
 31
0.0
  0
LINE
  5
1777
330
1E
100
AcDbEntity
  8
0
100
AcDbLine
 10
514.555864544333
 20
145.923784368959
 30
0.0
 11
514.555864544333
 21
144.800457483079
 31
0.0
  0
LINE
  5
1778
330
1E
100
AcDbEntity
  8
0
100
AcDbLine
 10
513.291864544333
 20
144.491457483079
 30
0.0
 11
514.555864544333
 21
144.800457483079
 31
0.0
  0
LINE
  5
1779
330
1E
100
AcDbEntity
  8
0
100
AcDbLine
 10
510.020864544333
 20
141.640727470184
 30
0.0
 11
514.227864544333
 21
141.515276954388
 31
0.0
  0
LINE
  5
177A
330
1E
100
AcDbEntity
  8
0
100
AcDbLine
 10
508.877864544333
 20
140.776457483079
 30
0.0
 11
514.227864544333
 21
140.594473231111
 31
0.0
  0
LINE
  5
177B
330
1E
100
AcDbEntity
  8
0
100
AcDbLine
 10
470.986864544333
 20
166.011299588342
 30
0.0
 11
470.986864544333
 21
164.935457483079
 31
0.0
  0
LINE
  5
177C
330
1E
100
AcDbEntity
  8
0
100
AcDbLine
 10
506.917864544333
 20
165.816457483079
 30
0.0
 11
506.917864544333
 21
166.905452773368
 31
0.0
  0
LINE
  5
177D
330
1E
100
AcDbEntity
  8
0
100
AcDbLine
 10
504.923864544333
 20
166.042457483079
 30
0.0
 11
506.188864544333
 21
166.350457483079
 31
0.0
  0
LINE
  5
177E
330
1E
100
AcDbEntity
  8
0
100
AcDbLine
 10
504.923864544333
 20
166.042457483079
 30
0.0
 11
505.653864544332
 21
165.507457483079
 31
0.0
  0
LINE
  5
177F
330
1E
100
AcDbEntity
  8
0
100
AcDbLine
 10
504.923864544333
 20
166.042457483079
 30
0.0
 11
504.923864544333
 21
166.34621737925
 31
0.0
  0
LINE
  5
1780
330
1E
100
AcDbEntity
  8
0
100
AcDbLine
 10
472.445864544333
 20
165.78093116729
 30
0.0
 11
472.445864544333
 21
164.935457483079
 31
0.0
  0
LINE
  5
1781
330
1E
100
AcDbEntity
  8
0
100
AcDbLine
 10
494.587864544333
 20
167.460457483079
 30
0.0
 11
494.587864544333
 21
166.843457483079
 31
0.0
  0
LINE
  5
1782
330
1E
100
AcDbEntity
  8
0
100
AcDbLine
 10
494.587864544333
 20
167.460457483079
 30
0.0
 11
496.047864544332
 21
167.460457483079
 31
0.0
  0
LINE
  5
1783
330
1E
100
AcDbEntity
  8
0
100
AcDbLine
 10
494.587864544333
 20
167.180089841142
 30
0.0
 11
494.587864544333
 21
166.843457483079
 31
0.0
  0
LINE
  5
1784
330
1E
100
AcDbEntity
  8
0
100
AcDbLine
 10
506.188864544333
 20
167.410783737575
 30
0.0
 11
506.188864544333
 21
166.350457483079
 31
0.0
  0
LINE
  5
1785
330
1E
100
AcDbEntity
  8
0
100
AcDbLine
 10
513.729864544332
 20
166.664457483079
 30
0.0
 11
514.993864544333
 21
166.356457483079
 31
0.0
  0
LINE
  5
1786
330
1E
100
AcDbEntity
  8
0
100
AcDbLine
 10
513.729864544332
 20
166.664457483079
 30
0.0
 11
514.459864544333
 21
167.200457483079
 31
0.0
  0
LINE
  5
1787
330
1E
100
AcDbEntity
  8
0
100
AcDbLine
 10
514.993864544333
 20
166.356457483079
 30
0.0
 11
515.723864544333
 21
166.891457483079
 31
0.0
  0
LINE
  5
1788
330
1E
100
AcDbEntity
  8
0
100
AcDbLine
 10
514.459864544333
 20
167.200457483079
 30
0.0
 11
515.723864544333
 21
166.891457483079
 31
0.0
  0
LINE
  5
1789
330
1E
100
AcDbEntity
  8
0
100
AcDbLine
 10
506.917864544333
 20
166.905452773368
 30
0.0
 11
506.917864544333
 21
165.816457483079
 31
0.0
  0
LINE
  5
178A
330
1E
100
AcDbEntity
  8
0
100
AcDbLine
 10
506.188864544333
 20
166.350457483079
 30
0.0
 11
506.188864544333
 21
167.410783737575
 31
0.0
  0
LINE
  5
178B
330
1E
100
AcDbEntity
  8
0
100
AcDbLine
 10
506.188864544333
 20
166.350457483079
 30
0.0
 11
506.917864544333
 21
165.816457483079
 31
0.0
  0
LINE
  5
178C
330
1E
100
AcDbEntity
  8
0
100
AcDbLine
 10
504.923864544333
 20
166.34621737925
 30
0.0
 11
504.923864544333
 21
166.042457483079
 31
0.0
  0
LINE
  5
178D
330
1E
100
AcDbEntity
  8
0
100
AcDbLine
 10
496.047864544332
 20
166.843457483079
 30
0.0
 11
496.047864544332
 21
167.460457483079
 31
0.0
  0
LINE
  5
178E
330
1E
100
AcDbEntity
  8
0
100
AcDbLine
 10
496.047864544332
 20
167.460457483079
 30
0.0
 11
496.047864544332
 21
166.843457483079
 31
0.0
  0
LINE
  5
178F
330
1E
100
AcDbEntity
  8
0
100
AcDbLine
 10
496.047864544332
 20
167.460457483079
 30
0.0
 11
496.047864544332
 21
168.313854979602
 31
0.0
  0
LINE
  5
1790
330
1E
100
AcDbEntity
  8
0
100
AcDbLine
 10
494.587864544333
 20
166.843457483079
 30
0.0
 11
494.587864544333
 21
167.460457483079
 31
0.0
  0
LINE
  5
1791
330
1E
100
AcDbEntity
  8
0
100
AcDbLine
 10
494.587864544333
 20
166.843457483079
 30
0.0
 11
494.587864544333
 21
167.180089841142
 31
0.0
  0
LINE
  5
1792
330
1E
100
AcDbEntity
  8
0
100
AcDbLine
 10
494.587864544333
 20
166.843457483079
 30
0.0
 11
496.047864544332
 21
166.843457483079
 31
0.0
  0
LINE
  5
1793
330
1E
100
AcDbEntity
  8
0
100
AcDbLine
 10
469.826864544332
 20
166.194457483079
 30
0.0
 11
471.796864544332
 21
168.971457483079
 31
0.0
  0
LINE
  5
1794
330
1E
100
AcDbEntity
  8
0
100
AcDbLine
 10
467.709864544333
 20
166.626457483079
 30
0.0
 11
469.826864544332
 21
169.341457483079
 31
0.0
  0
LINE
  5
1795
330
1E
100
AcDbEntity
  8
0
100
AcDbLine
 10
474.311864544333
 20
169.019457483079
 30
0.0
 11
474.311864544333
 21
168.402457483079
 31
0.0
  0
LINE
  5
1796
330
1E
100
AcDbEntity
  8
0
100
AcDbLine
 10
474.311864544333
 20
169.019457483079
 30
0.0
 11
475.771864544333
 21
169.019457483079
 31
0.0
  0
LINE
  5
1797
330
1E
100
AcDbEntity
  8
0
100
AcDbLine
 10
474.311864544333
 20
168.715534977626
 30
0.0
 11
474.311864544333
 21
168.402457483079
 31
0.0
  0
LINE
  5
1798
330
1E
100
AcDbEntity
  8
0
100
AcDbLine
 10
485.828864544333
 20
167.879457483079
 30
0.0
 11
485.828864544333
 21
168.496457483079
 31
0.0
  0
LINE
  5
1799
330
1E
100
AcDbEntity
  8
0
100
AcDbLine
 10
484.368864544333
 20
168.496457483079
 30
0.0
 11
484.368864544333
 21
169.735285515572
 31
0.0
  0
LINE
  5
179A
330
1E
100
AcDbEntity
  8
0
100
AcDbLine
 10
484.368864544333
 20
168.496457483079
 30
0.0
 11
484.368864544333
 21
167.879457483079
 31
0.0
  0
LINE
  5
179B
330
1E
100
AcDbEntity
  8
0
100
AcDbLine
 10
484.368864544333
 20
168.496457483079
 30
0.0
 11
485.828864544333
 21
168.496457483079
 31
0.0
  0
LINE
  5
179C
330
1E
100
AcDbEntity
  8
0
100
AcDbLine
 10
496.047864544332
 20
168.313854979602
 30
0.0
 11
496.047864544332
 21
167.460457483079
 31
0.0
  0
LINE
  5
179D
330
1E
100
AcDbEntity
  8
0
100
AcDbLine
 10
485.828864544333
 20
168.496457483079
 30
0.0
 11
485.828864544333
 21
167.879457483079
 31
0.0
  0
LINE
  5
179E
330
1E
100
AcDbEntity
  8
0
100
AcDbLine
 10
485.828864544333
 20
168.496457483079
 30
0.0
 11
485.828864544333
 21
169.507832672395
 31
0.0
  0
LINE
  5
179F
330
1E
100
AcDbEntity
  8
0
100
AcDbLine
 10
484.368864544333
 20
168.142074221704
 30
0.0
 11
484.368864544333
 21
167.879457483079
 31
0.0
  0
LINE
  5
17A0
330
1E
100
AcDbEntity
  8
0
100
AcDbLine
 10
484.368864544333
 20
167.879457483079
 30
0.0
 11
484.368864544333
 21
168.496457483079
 31
0.0
  0
LINE
  5
17A1
330
1E
100
AcDbEntity
  8
0
100
AcDbLine
 10
484.368864544333
 20
167.879457483079
 30
0.0
 11
484.368864544333
 21
168.142074221704
 31
0.0
  0
LINE
  5
17A2
330
1E
100
AcDbEntity
  8
0
100
AcDbLine
 10
484.368864544333
 20
167.879457483079
 30
0.0
 11
485.828864544333
 21
167.879457483079
 31
0.0
  0
LINE
  5
17A3
330
1E
100
AcDbEntity
  8
0
100
AcDbLine
 10
475.771864544333
 20
168.402457483079
 30
0.0
 11
475.771864544333
 21
169.019457483079
 31
0.0
  0
LINE
  5
17A4
330
1E
100
AcDbEntity
  8
0
100
AcDbLine
 10
484.368864544333
 20
169.735285515572
 30
0.0
 11
484.368864544333
 21
168.496457483079
 31
0.0
  0
LINE
  5
17A5
330
1E
100
AcDbEntity
  8
0
100
AcDbLine
 10
485.828864544333
 20
169.507832672395
 30
0.0
 11
485.828864544333
 21
168.496457483079
 31
0.0
  0
LINE
  5
17A6
330
1E
100
AcDbEntity
  8
0
100
AcDbLine
 10
502.538864544332
 20
169.475457483079
 30
0.0
 11
502.538864544332
 21
169.940904477427
 31
0.0
  0
LINE
  5
17A7
330
1E
100
AcDbEntity
  8
0
100
AcDbLine
 10
501.274864544333
 20
169.167457483079
 30
0.0
 11
502.538864544332
 21
169.475457483079
 31
0.0
  0
LINE
  5
17A8
330
1E
100
AcDbEntity
  8
0
100
AcDbLine
 10
501.808864544333
 20
170.446928625398
 30
0.0
 11
501.808864544333
 21
170.009457483079
 31
0.0
  0
LINE
  5
17A9
330
1E
100
AcDbEntity
  8
0
100
AcDbLine
 10
508.647864544333
 20
170.535457483079
 30
0.0
 11
509.911864544333
 21
170.227457483079
 31
0.0
  0
LINE
  5
17AA
330
1E
100
AcDbEntity
  8
0
100
AcDbLine
 10
508.647864544333
 20
170.535457483079
 30
0.0
 11
509.377864544333
 21
171.069457483079
 31
0.0
  0
LINE
  5
17AB
330
1E
100
AcDbEntity
  8
0
100
AcDbLine
 10
508.647864544333
 20
170.535457483079
 30
0.0
 11
508.647864544333
 21
171.414694037517
 31
0.0
  0
LINE
  5
17AC
330
1E
100
AcDbEntity
  8
0
100
AcDbLine
 10
509.911864544333
 20
170.227457483079
 30
0.0
 11
510.641864544333
 21
170.761457483079
 31
0.0
  0
LINE
  5
17AD
330
1E
100
AcDbEntity
  8
0
100
AcDbLine
 10
502.538864544332
 20
169.940904477427
 30
0.0
 11
502.538864544332
 21
169.475457483079
 31
0.0
  0
LINE
  5
17AE
330
1E
100
AcDbEntity
  8
0
100
AcDbLine
 10
501.808864544333
 20
170.009457483079
 30
0.0
 11
501.808864544333
 21
170.446928625398
 31
0.0
  0
LINE
  5
17AF
330
1E
100
AcDbEntity
  8
0
100
AcDbLine
 10
501.808864544333
 20
170.009457483079
 30
0.0
 11
502.538864544332
 21
169.475457483079
 31
0.0
  0
LINE
  5
17B0
330
1E
100
AcDbEntity
  8
0
100
AcDbLine
 10
500.544864544333
 20
169.701457483079
 30
0.0
 11
501.808864544333
 21
170.009457483079
 31
0.0
  0
LINE
  5
17B1
330
1E
100
AcDbEntity
  8
0
100
AcDbLine
 10
500.544864544333
 20
169.701457483079
 30
0.0
 11
501.274864544333
 21
169.167457483079
 31
0.0
  0
LINE
  5
17B2
330
1E
100
AcDbEntity
  8
0
100
AcDbLine
 10
500.544864544333
 20
169.701457483079
 30
0.0
 11
500.544864544333
 21
171.085336434053
 31
0.0
  0
LINE
  5
17B3
330
1E
100
AcDbEntity
  8
0
100
AcDbLine
 10
509.377864544333
 20
171.069457483079
 30
0.0
 11
510.641864544333
 21
170.761457483079
 31
0.0
  0
LINE
  5
17B4
330
1E
100
AcDbEntity
  8
0
100
AcDbLine
 10
500.544864544333
 20
171.085336434053
 30
0.0
 11
500.544864544333
 21
169.701457483079
 31
0.0
  0
LINE
  5
17B5
330
1E
100
AcDbEntity
  8
0
100
AcDbLine
 10
491.182864544332
 20
170.693457483079
 30
0.0
 11
491.182864544332
 21
171.310457483079
 31
0.0
  0
LINE
  5
17B6
330
1E
100
AcDbEntity
  8
0
100
AcDbLine
 10
489.722864544333
 20
170.693457483079
 30
0.0
 11
489.722864544333
 21
171.310457483079
 31
0.0
  0
LINE
  5
17B7
330
1E
100
AcDbEntity
  8
0
100
AcDbLine
 10
489.722864544333
 20
170.693457483079
 30
0.0
 11
489.722864544333
 21
171.446945981188
 31
0.0
  0
LINE
  5
17B8
330
1E
100
AcDbEntity
  8
0
100
AcDbLine
 10
489.722864544333
 20
170.693457483079
 30
0.0
 11
491.182864544332
 21
170.693457483079
 31
0.0
  0
LINE
  5
17B9
330
1E
100
AcDbEntity
  8
0
100
AcDbLine
 10
475.771864544333
 20
169.019457483079
 30
0.0
 11
475.771864544333
 21
168.402457483079
 31
0.0
  0
LINE
  5
17BA
330
1E
100
AcDbEntity
  8
0
100
AcDbLine
 10
474.311864544333
 20
168.402457483079
 30
0.0
 11
474.311864544333
 21
169.019457483079
 31
0.0
  0
LINE
  5
17BB
330
1E
100
AcDbEntity
  8
0
100
AcDbLine
 10
474.311864544333
 20
168.402457483079
 30
0.0
 11
474.311864544333
 21
168.715534977626
 31
0.0
  0
LINE
  5
17BC
330
1E
100
AcDbEntity
  8
0
100
AcDbLine
 10
474.311864544333
 20
168.402457483079
 30
0.0
 11
475.771864544333
 21
168.402457483079
 31
0.0
  0
LINE
  5
17BD
330
1E
100
AcDbEntity
  8
0
100
AcDbLine
 10
489.722864544333
 20
171.310457483079
 30
0.0
 11
489.722864544333
 21
171.446945981188
 31
0.0
  0
LINE
  5
17BE
330
1E
100
AcDbEntity
  8
0
100
AcDbLine
 10
489.722864544333
 20
171.310457483079
 30
0.0
 11
489.722864544333
 21
170.693457483079
 31
0.0
  0
LINE
  5
17BF
330
1E
100
AcDbEntity
  8
0
100
AcDbLine
 10
489.722864544333
 20
171.310457483079
 30
0.0
 11
491.182864544332
 21
171.310457483079
 31
0.0
  0
LINE
  5
17C0
330
1E
100
AcDbEntity
  8
0
100
AcDbLine
 10
508.647864544333
 20
171.414694037517
 30
0.0
 11
508.647864544333
 21
170.535457483079
 31
0.0
  0
LINE
  5
17C1
330
1E
100
AcDbEntity
  8
0
100
AcDbLine
 10
491.182864544332
 20
171.310457483079
 30
0.0
 11
491.182864544332
 21
170.693457483079
 31
0.0
  0
LINE
  5
17C2
330
1E
100
AcDbEntity
  8
0
100
AcDbLine
 10
489.722864544333
 20
171.446945981188
 30
0.0
 11
489.722864544333
 21
170.693457483079
 31
0.0
  0
LINE
  5
17C3
330
1E
100
AcDbEntity
  8
0
100
AcDbLine
 10
489.722864544333
 20
171.446945981188
 30
0.0
 11
489.722864544333
 21
171.310457483079
 31
0.0
  0
LINE
  5
17C4
330
1E
100
AcDbEntity
  8
0
100
AcDbLine
 10
474.424864544333
 20
171.284457483079
 30
0.0
 11
477.928864544333
 21
173.474457483079
 31
0.0
  0
LINE
  5
17C5
330
1E
100
AcDbEntity
  8
0
100
AcDbLine
 10
471.796864544332
 20
168.971457483079
 30
0.0
 11
474.424864544333
 21
171.284457483079
 31
0.0
  0
LINE
  5
17C6
330
1E
100
AcDbEntity
  8
0
100
AcDbLine
 10
479.097864544333
 20
172.450457483079
 30
0.0
 11
479.097864544333
 21
173.213480846217
 31
0.0
  0
LINE
  5
17C7
330
1E
100
AcDbEntity
  8
0
100
AcDbLine
 10
479.097864544333
 20
172.450457483079
 30
0.0
 11
479.097864544333
 21
171.833457483079
 31
0.0
  0
LINE
  5
17C8
330
1E
100
AcDbEntity
  8
0
100
AcDbLine
 10
479.097864544333
 20
172.450457483079
 30
0.0
 11
480.557864544332
 21
172.450457483079
 31
0.0
  0
LINE
  5
17C9
330
1E
100
AcDbEntity
  8
0
100
AcDbLine
 10
480.557864544332
 20
171.833457483079
 30
0.0
 11
480.557864544332
 21
172.450457483079
 31
0.0
  0
LINE
  5
17CA
330
1E
100
AcDbEntity
  8
0
100
AcDbLine
 10
480.557864544332
 20
172.450457483079
 30
0.0
 11
480.557864544332
 21
171.833457483079
 31
0.0
  0
LINE
  5
17CB
330
1E
100
AcDbEntity
  8
0
100
AcDbLine
 10
480.557864544332
 20
172.450457483079
 30
0.0
 11
480.557864544332
 21
172.887539109846
 31
0.0
  0
LINE
  5
17CC
330
1E
100
AcDbEntity
  8
0
100
AcDbLine
 10
479.097864544333
 20
171.833457483079
 30
0.0
 11
479.097864544333
 21
172.450457483079
 31
0.0
  0
LINE
  5
17CD
330
1E
100
AcDbEntity
  8
0
100
AcDbLine
 10
479.097864544333
 20
171.833457483079
 30
0.0
 11
479.097864544333
 21
173.002169604291
 31
0.0
  0
LINE
  5
17CE
330
1E
100
AcDbEntity
  8
0
100
AcDbLine
 10
479.097864544333
 20
171.833457483079
 30
0.0
 11
480.557864544332
 21
171.833457483079
 31
0.0
  0
LINE
  5
17CF
330
1E
100
AcDbEntity
  8
0
100
AcDbLine
 10
472.526864544333
 20
171.747457483079
 30
0.0
 11
476.176864544333
 21
174.030457483079
 31
0.0
  0
LINE
  5
17D0
330
1E
100
AcDbEntity
  8
0
100
AcDbLine
 10
469.826864544332
 20
169.341457483079
 30
0.0
 11
472.526864544333
 21
171.747457483079
 31
0.0
  0
LINE
  5
17D1
330
1E
100
AcDbEntity
  8
0
100
AcDbLine
 10
496.894864544332
 20
172.825457483079
 30
0.0
 11
498.158864544333
 21
173.133457483079
 31
0.0
  0
LINE
  5
17D2
330
1E
100
AcDbEntity
  8
0
100
AcDbLine
 10
480.557864544332
 20
172.887539109846
 30
0.0
 11
480.557864544332
 21
172.450457483079
 31
0.0
  0
LINE
  5
17D3
330
1E
100
AcDbEntity
  8
0
100
AcDbLine
 10
496.164864544333
 20
173.565396871986
 30
0.0
 11
496.164864544333
 21
173.360457483079
 31
0.0
  0
LINE
  5
17D4
330
1E
100
AcDbEntity
  8
0
100
AcDbLine
 10
497.429864544333
 20
173.667457483079
 30
0.0
 11
498.158864544333
 21
173.133457483079
 31
0.0
  0
LINE
  5
17D5
330
1E
100
AcDbEntity
  8
0
100
AcDbLine
 10
496.164864544333
 20
173.360457483079
 30
0.0
 11
497.429864544333
 21
173.667457483079
 31
0.0
  0
LINE
  5
17D6
330
1E
100
AcDbEntity
  8
0
100
AcDbLine
 10
496.164864544333
 20
173.360457483079
 30
0.0
 11
496.894864544332
 21
172.825457483079
 31
0.0
  0
LINE
  5
17D7
330
1E
100
AcDbEntity
  8
0
100
AcDbLine
 10
496.164864544333
 20
173.360457483079
 30
0.0
 11
496.164864544333
 21
173.565396871986
 31
0.0
  0
LINE
  5
17D8
330
1E
100
AcDbEntity
  8
0
100
AcDbLine
 10
479.097864544333
 20
173.213480846217
 30
0.0
 11
479.097864544333
 21
172.450457483079
 31
0.0
  0
LINE
  5
17D9
330
1E
100
AcDbEntity
  8
0
100
AcDbLine
 10
479.097864544333
 20
173.002169604291
 30
0.0
 11
479.097864544333
 21
171.833457483079
 31
0.0
  0
LINE
  5
17DA
330
1E
100
AcDbEntity
  8
0
100
AcDbLine
 10
477.928864544333
 20
173.474457483079
 30
0.0
 11
482.015864544333
 21
175.417457483079
 31
0.0
  0
LINE
  5
17DB
330
1E
100
AcDbEntity
  8
0
100
AcDbLine
 10
482.015864544333
 20
175.417457483079
 30
0.0
 11
486.614864544332
 21
177.145457483079
 31
0.0
  0
LINE
  5
17DC
330
1E
100
AcDbEntity
  8
0
100
AcDbLine
 10
480.409864544333
 20
176.096457483079
 30
0.0
 11
485.300864544333
 21
177.886457483079
 31
0.0
  0
LINE
  5
17DD
330
1E
100
AcDbEntity
  8
0
100
AcDbLine
 10
479.899864544333
 20
177.219457483079
 30
0.0
 11
484.862864544333
 21
179.039457483079
 31
0.0
  0
LINE
  5
17DE
330
1E
100
AcDbEntity
  8
0
100
AcDbLine
 10
485.505864544333
 20
176.728768637678
 30
0.0
 11
485.505864544333
 21
175.297457483079
 31
0.0
  0
LINE
  5
17DF
330
1E
100
AcDbEntity
  8
0
100
AcDbLine
 10
485.505864544333
 20
175.297457483079
 30
0.0
 11
485.505864544333
 21
176.728768637678
 31
0.0
  0
LINE
  5
17E0
330
1E
100
AcDbEntity
  8
0
100
AcDbLine
 10
485.505864544333
 20
175.297457483079
 30
0.0
 11
485.505864544333
 21
174.680457483079
 31
0.0
  0
LINE
  5
17E1
330
1E
100
AcDbEntity
  8
0
100
AcDbLine
 10
485.505864544333
 20
175.297457483079
 30
0.0
 11
486.965864544333
 21
175.297457483079
 31
0.0
  0
LINE
  5
17E2
330
1E
100
AcDbEntity
  8
0
100
AcDbLine
 10
485.505864544333
 20
174.680457483079
 30
0.0
 11
485.505864544333
 21
175.297457483079
 31
0.0
  0
LINE
  5
17E3
330
1E
100
AcDbEntity
  8
0
100
AcDbLine
 10
485.505864544333
 20
174.680457483079
 30
0.0
 11
486.965864544333
 21
174.680457483079
 31
0.0
  0
LINE
  5
17E4
330
1E
100
AcDbEntity
  8
0
100
AcDbLine
 10
486.965864544333
 20
174.680457483079
 30
0.0
 11
486.965864544333
 21
175.297457483079
 31
0.0
  0
LINE
  5
17E5
330
1E
100
AcDbEntity
  8
0
100
AcDbLine
 10
486.965864544333
 20
175.297457483079
 30
0.0
 11
486.965864544333
 21
174.680457483079
 31
0.0
  0
LINE
  5
17E6
330
1E
100
AcDbEntity
  8
0
100
AcDbLine
 10
493.779864544333
 20
176.792457483079
 30
0.0
 11
493.779864544333
 21
177.666559812995
 31
0.0
  0
LINE
  5
17E7
330
1E
100
AcDbEntity
  8
0
100
AcDbLine
 10
492.515864544333
 20
176.484457483079
 30
0.0
 11
493.779864544333
 21
176.792457483079
 31
0.0
  0
LINE
  5
17E8
330
1E
100
AcDbEntity
  8
0
100
AcDbLine
 10
493.049864544333
 20
178.01992607581
 30
0.0
 11
493.049864544333
 21
177.327457483079
 31
0.0
  0
LINE
  5
17E9
330
1E
100
AcDbEntity
  8
0
100
AcDbLine
 10
493.779864544333
 20
177.666559812995
 30
0.0
 11
493.779864544333
 21
176.792457483079
 31
0.0
  0
LINE
  5
17EA
330
1E
100
AcDbEntity
  8
0
100
AcDbLine
 10
493.049864544333
 20
177.327457483079
 30
0.0
 11
493.049864544333
 21
178.01992607581
 31
0.0
  0
LINE
  5
17EB
330
1E
100
AcDbEntity
  8
0
100
AcDbLine
 10
493.049864544333
 20
177.327457483079
 30
0.0
 11
493.779864544333
 21
176.792457483079
 31
0.0
  0
LINE
  5
17EC
330
1E
100
AcDbEntity
  8
0
100
AcDbLine
 10
491.785864544333
 20
178.623313716194
 30
0.0
 11
491.785864544333
 21
177.018457483079
 31
0.0
  0
LINE
  5
17ED
330
1E
100
AcDbEntity
  8
0
100
AcDbLine
 10
491.785864544333
 20
177.018457483079
 30
0.0
 11
493.049864544333
 21
177.327457483079
 31
0.0
  0
LINE
  5
17EE
330
1E
100
AcDbEntity
  8
0
100
AcDbLine
 10
491.785864544333
 20
177.018457483079
 30
0.0
 11
492.515864544333
 21
176.484457483079
 31
0.0
  0
LINE
  5
17EF
330
1E
100
AcDbEntity
  8
0
100
AcDbLine
 10
491.785864544333
 20
177.018457483079
 30
0.0
 11
491.785864544333
 21
178.623313716194
 31
0.0
  0
LINE
  5
17F0
330
1E
100
AcDbEntity
  8
0
100
AcDbLine
 10
486.614864544332
 20
177.145457483079
 30
0.0
 11
491.796864544332
 21
178.626457483079
 31
0.0
  0
LINE
  5
17F1
330
1E
100
AcDbEntity
  8
0
100
AcDbLine
 10
491.796864544332
 20
178.626457483079
 30
0.0
 11
497.271864544333
 21
179.737457483079
 31
0.0
  0
LINE
  5
17F2
330
1E
100
AcDbEntity
  8
0
100
AcDbLine
 10
485.300864544333
 20
177.886457483079
 30
0.0
 11
490.701864544332
 21
179.428457483079
 31
0.0
  0
LINE
  5
17F3
330
1E
100
AcDbEntity
  8
0
100
AcDbLine
 10
490.701864544332
 20
179.428457483079
 30
0.0
 11
496.395864544333
 21
180.569457483079
 31
0.0
  0
LINE
  5
17F4
330
1E
100
AcDbEntity
  8
0
100
AcDbLine
 10
484.862864544333
 20
179.039457483079
 30
0.0
 11
490.336864544332
 21
180.581457483079
 31
0.0
  0
LINE
  5
17F5
330
1E
100
AcDbEntity
  8
0
100
AcDbLine
 10
490.336864544332
 20
180.581457483079
 30
0.0
 11
496.103864544333
 21
181.784457483079
 31
0.0
  0
LINE
  5
17F6
330
1E
100
AcDbEntity
  8
0
100
AcDbLine
 10
498.986864544333
 20
178.695635053173
 30
0.0
 11
498.986864544333
 21
178.230457483079
 31
0.0
  0
LINE
  5
17F7
330
1E
100
AcDbEntity
  8
0
100
AcDbLine
 10
498.986864544333
 20
178.230457483079
 30
0.0
 11
500.250864544333
 21
177.922457483079
 31
0.0
  0
LINE
  5
17F8
330
1E
100
AcDbEntity
  8
0
100
AcDbLine
 10
498.986864544333
 20
178.230457483079
 30
0.0
 11
499.716864544333
 21
178.764457483079
 31
0.0
  0
LINE
  5
17F9
330
1E
100
AcDbEntity
  8
0
100
AcDbLine
 10
498.986864544333
 20
178.230457483079
 30
0.0
 11
498.986864544333
 21
178.695635053173
 31
0.0
  0
LINE
  5
17FA
330
1E
100
AcDbEntity
  8
0
100
AcDbLine
 10
500.250864544333
 20
177.922457483079
 30
0.0
 11
500.980864544332
 21
178.456457483079
 31
0.0
  0
LINE
  5
17FB
330
1E
100
AcDbEntity
  8
0
100
AcDbLine
 10
499.716864544333
 20
180.047130188209
 30
0.0
 11
499.716864544333
 21
178.764457483079
 31
0.0
  0
LINE
  5
17FC
330
1E
100
AcDbEntity
  8
0
100
AcDbLine
 10
499.716864544333
 20
178.764457483079
 30
0.0
 11
500.980864544332
 21
178.456457483079
 31
0.0
  0
LINE
  5
17FD
330
1E
100
AcDbEntity
  8
0
100
AcDbLine
 10
499.716864544333
 20
178.764457483079
 30
0.0
 11
499.716864544333
 21
180.047130188209
 31
0.0
  0
LINE
  5
17FE
330
1E
100
AcDbEntity
  8
0
100
AcDbLine
 10
497.271864544333
 20
179.737457483079
 30
0.0
 11
503.840864544333
 21
180.569457483079
 31
0.0
  0
LINE
  5
17FF
330
1E
100
AcDbEntity
  8
0
100
AcDbLine
 10
496.395864544333
 20
180.569457483079
 30
0.0
 11
502.818864544333
 21
181.464457483079
 31
0.0
  0
LINE
  5
1800
330
1E
100
AcDbEntity
  8
0
100
AcDbLine
 10
504.119864544333
 20
174.467457483079
 30
0.0
 11
505.384864544332
 21
174.159457483079
 31
0.0
  0
LINE
  5
1801
330
1E
100
AcDbEntity
  8
0
100
AcDbLine
 10
504.119864544333
 20
174.467457483079
 30
0.0
 11
504.849864544333
 21
175.001457483079
 31
0.0
  0
LINE
  5
1802
330
1E
100
AcDbEntity
  8
0
100
AcDbLine
 10
504.119864544333
 20
174.467457483079
 30
0.0
 11
504.119864544333
 21
175.577457483079
 31
0.0
  0
LINE
  5
1803
330
1E
100
AcDbEntity
  8
0
100
AcDbLine
 10
506.114864544332
 20
174.693457483079
 30
0.0
 11
506.114864544332
 21
175.336142414586
 31
0.0
  0
LINE
  5
1804
330
1E
100
AcDbEntity
  8
0
100
AcDbLine
 10
505.384864544332
 20
174.159457483079
 30
0.0
 11
506.114864544332
 21
174.693457483079
 31
0.0
  0
LINE
  5
1805
330
1E
100
AcDbEntity
  8
0
100
AcDbLine
 10
504.849864544333
 20
175.001457483079
 30
0.0
 11
506.114864544332
 21
174.693457483079
 31
0.0
  0
LINE
  5
1806
330
1E
100
AcDbEntity
  8
0
100
AcDbLine
 10
504.849864544333
 20
175.001457483079
 30
0.0
 11
504.849864544333
 21
175.133999539154
 31
0.0
  0
LINE
  5
1807
330
1E
100
AcDbEntity
  8
0
100
AcDbLine
 10
504.849864544333
 20
175.133999539154
 30
0.0
 11
504.849864544333
 21
175.001457483079
 31
0.0
  0
LINE
  5
1808
330
1E
100
AcDbEntity
  8
0
100
AcDbLine
 10
506.114864544332
 20
175.336142414586
 30
0.0
 11
506.114864544332
 21
174.693457483079
 31
0.0
  0
LINE
  5
1809
330
1E
100
AcDbEntity
  8
0
100
AcDbLine
 10
512.561864544333
 20
175.020457483079
 30
0.0
 11
513.826864544332
 21
174.711457483079
 31
0.0
  0
LINE
  5
180A
330
1E
100
AcDbEntity
  8
0
100
AcDbLine
 10
512.561864544333
 20
175.020457483079
 30
0.0
 11
513.291864544333
 21
175.554457483079
 31
0.0
  0
LINE
  5
180B
330
1E
100
AcDbEntity
  8
0
100
AcDbLine
 10
513.826864544332
 20
174.711457483079
 30
0.0
 11
514.555864544333
 21
175.246457483079
 31
0.0
  0
LINE
  5
180C
330
1E
100
AcDbEntity
  8
0
100
AcDbLine
 10
504.119864544333
 20
175.577457483079
 30
0.0
 11
504.119864544333
 21
174.467457483079
 31
0.0
  0
LINE
  5
180D
330
1E
100
AcDbEntity
  8
0
100
AcDbLine
 10
508.026864544333
 20
179.151457483079
 30
0.0
 11
509.290864544333
 21
178.843457483079
 31
0.0
  0
LINE
  5
180E
330
1E
100
AcDbEntity
  8
0
100
AcDbLine
 10
508.026864544333
 20
179.151457483079
 30
0.0
 11
508.756864544333
 21
179.686457483079
 31
0.0
  0
LINE
  5
180F
330
1E
100
AcDbEntity
  8
0
100
AcDbLine
 10
510.020864544333
 20
179.377457483079
 30
0.0
 11
510.020864544333
 21
180.036551132337
 31
0.0
  0
LINE
  5
1810
330
1E
100
AcDbEntity
  8
0
100
AcDbLine
 10
509.290864544333
 20
178.843457483079
 30
0.0
 11
510.020864544333
 21
179.377457483079
 31
0.0
  0
LINE
  5
1811
330
1E
100
AcDbEntity
  8
0
100
AcDbLine
 10
508.756864544333
 20
181.067412335481
 30
0.0
 11
508.756864544333
 21
179.686457483079
 31
0.0
  0
LINE
  5
1812
330
1E
100
AcDbEntity
  8
0
100
AcDbLine
 10
510.020864544333
 20
180.036551132337
 30
0.0
 11
510.020864544333
 21
179.377457483079
 31
0.0
  0
LINE
  5
1813
330
1E
100
AcDbEntity
  8
0
100
AcDbLine
 10
508.756864544333
 20
179.686457483079
 30
0.0
 11
510.020864544333
 21
179.377457483079
 31
0.0
  0
LINE
  5
1814
330
1E
100
AcDbEntity
  8
0
100
AcDbLine
 10
508.756864544333
 20
179.686457483079
 30
0.0
 11
508.756864544333
 21
181.067412335481
 31
0.0
  0
LINE
  5
1815
330
1E
100
AcDbEntity
  8
0
100
AcDbLine
 10
513.291864544333
 20
176.565726986625
 30
0.0
 11
513.291864544333
 21
175.554457483079
 31
0.0
  0
LINE
  5
1816
330
1E
100
AcDbEntity
  8
0
100
AcDbLine
 10
513.291864544333
 20
175.554457483079
 30
0.0
 11
514.555864544333
 21
175.246457483079
 31
0.0
  0
LINE
  5
1817
330
1E
100
AcDbEntity
  8
0
100
AcDbLine
 10
513.291864544333
 20
175.554457483079
 30
0.0
 11
513.291864544333
 21
176.565726986625
 31
0.0
  0
LINE
  5
1818
330
1E
100
AcDbEntity
  8
0
100
AcDbLine
 10
503.840864544333
 20
180.569457483079
 30
0.0
 11
509.023864544333
 21
181.094457483079
 31
0.0
  0
LINE
  5
1819
330
1E
100
AcDbEntity
  8
0
100
AcDbLine
 10
509.023864544333
 20
181.094457483079
 30
0.0
 11
515.227864544333
 21
181.279457483079
 31
0.0
  0
LINE
  5
181A
330
1E
100
AcDbEntity
  8
0
100
AcDbLine
 10
502.818864544333
 20
181.464457483079
 30
0.0
 11
508.877864544333
 21
181.988457483079
 31
0.0
  0
LINE
  5
181B
330
1E
100
AcDbEntity
  8
0
100
AcDbLine
 10
508.877864544333
 20
181.988457483079
 30
0.0
 11
515.227864544333
 21
182.205457483079
 31
0.0
  0
LINE
  5
181C
330
1E
100
AcDbEntity
  8
0
100
AcDbLine
 10
496.103864544333
 20
181.784457483079
 30
0.0
 11
502.307864544332
 21
182.648457483079
 31
0.0
  0
LINE
  5
181D
330
1E
100
AcDbEntity
  8
0
100
AcDbLine
 10
476.176864544333
 20
174.030457483079
 30
0.0
 11
480.409864544333
 21
176.096457483079
 31
0.0
  0
LINE
  5
181E
330
1E
100
AcDbEntity
  8
0
100
AcDbLine
 10
475.592864544333
 20
175.121457483079
 30
0.0
 11
479.899864544333
 21
177.219457483079
 31
0.0
  0
LINE
  5
181F
330
1E
100
AcDbEntity
  8
0
100
AcDbLine
 10
471.942864544332
 20
172.808457483079
 30
0.0
 11
475.592864544333
 21
175.121457483079
 31
0.0
  0
LINE
  5
1820
330
1E
100
AcDbEntity
  8
0
100
AcDbLine
 10
469.096864544333
 20
170.371457483079
 30
0.0
 11
471.942864544332
 21
172.808457483079
 31
0.0
  0
LINE
  5
1821
330
1E
100
AcDbEntity
  8
0
100
AcDbLine
 10
467.052864544333
 20
167.748457483079
 30
0.0
 11
469.096864544333
 21
170.371457483079
 31
0.0
  0
LINE
  5
1822
330
1E
100
AcDbEntity
  8
0
100
AcDbLine
 10
465.227864544333
 20
181.321457483079
 30
0.0
 11
465.738864544333
 21
184.036457483079
 31
0.0
  0
LINE
  5
1823
330
1E
100
AcDbEntity
  8
0
100
AcDbLine
 10
465.227864544333
 20
181.321457483079
 30
0.0
 11
465.227864544333
 21
162.289457483079
 31
0.0
  0
LINE
  5
1824
330
1E
100
AcDbEntity
  8
0
100
AcDbLine
 10
515.227864544333
 20
181.279457483079
 30
0.0
 11
521.431864544332
 21
181.094457483079
 31
0.0
  0
LINE
  5
1825
330
1E
100
AcDbEntity
  8
0
100
AcDbLine
 10
469.096864544333
 20
189.403457483079
 30
0.0
 11
469.826864544332
 21
190.186457483079
 31
0.0
  0
LINE
  5
1826
330
1E
100
AcDbEntity
  8
0
100
AcDbLine
 10
469.096864544333
 20
189.403457483079
 30
0.0
 11
471.942864544332
 21
191.839457483079
 31
0.0
  0
LINE
  5
1827
330
1E
100
AcDbEntity
  8
0
100
AcDbLine
 10
467.052864544333
 20
186.781457483079
 30
0.0
 11
469.096864544333
 21
189.403457483079
 31
0.0
  0
LINE
  5
1828
330
1E
100
AcDbEntity
  8
0
100
AcDbLine
 10
465.738864544333
 20
184.036457483079
 30
0.0
 11
467.052864544333
 21
186.781457483079
 31
0.0
  0
LINE
  5
1829
330
1E
100
AcDbEntity
  8
0
100
AcDbLine
 10
502.307864544332
 20
182.648457483079
 30
0.0
 11
508.804864544333
 21
183.203457483079
 31
0.0
  0
LINE
  5
182A
330
1E
100
AcDbEntity
  8
0
100
AcDbLine
 10
508.804864544333
 20
183.203457483079
 30
0.0
 11
515.227864544333
 21
183.420457483079
 31
0.0
  0
LINE
  5
182B
330
1E
100
AcDbEntity
  8
0
100
AcDbLine
 10
471.942864544332
 20
191.839457483079
 30
0.0
 11
475.592864544333
 21
194.154457483079
 31
0.0
  0
LINE
  5
182C
330
1E
100
AcDbEntity
  8
0
100
AcDbLine
 10
475.592864544333
 20
194.154457483079
 30
0.0
 11
479.899864544333
 21
196.251457483079
 31
0.0
  0
LINE
  5
182D
330
1E
100
AcDbEntity
  8
0
100
AcDbLine
 10
479.899864544333
 20
196.251457483079
 30
0.0
 11
484.862864544333
 21
198.072457483079
 31
0.0
  0
LINE
  5
182E
330
1E
100
AcDbEntity
  8
0
100
AcDbLine
 10
484.862864544333
 20
198.072457483079
 30
0.0
 11
490.336864544332
 21
199.614457483079
 31
0.0
  0
LINE
  5
182F
330
1E
100
AcDbEntity
  8
0
100
AcDbLine
 10
480.409864544333
 20
196.942457483079
 30
0.0
 11
485.300864544333
 21
198.731457483079
 31
0.0
  0
LINE
  5
1830
330
1E
100
AcDbEntity
  8
0
100
AcDbLine
 10
490.336864544332
 20
199.614457483079
 30
0.0
 11
496.103864544333
 21
200.817457483079
 31
0.0
  0
LINE
  5
1831
330
1E
100
AcDbEntity
  8
0
100
AcDbLine
 10
485.300864544333
 20
198.731457483079
 30
0.0
 11
490.701864544332
 21
200.274457483079
 31
0.0
  0
LINE
  5
1832
330
1E
100
AcDbEntity
  8
0
100
AcDbLine
 10
496.103864544333
 20
200.817457483079
 30
0.0
 11
502.307864544332
 21
201.681457483079
 31
0.0
  0
LINE
  5
1833
330
1E
100
AcDbEntity
  8
0
100
AcDbLine
 10
490.701864544332
 20
200.274457483079
 30
0.0
 11
496.395864544333
 21
201.415457483079
 31
0.0
  0
LINE
  5
1834
330
1E
100
AcDbEntity
  8
0
100
AcDbLine
 10
502.307864544332
 20
201.681457483079
 30
0.0
 11
508.804864544333
 21
202.236457483079
 31
0.0
  0
LINE
  5
1835
330
1E
100
AcDbEntity
  8
0
100
AcDbLine
 10
508.804864544333
 20
202.236457483079
 30
0.0
 11
515.227864544333
 21
202.452457483079
 31
0.0
  0
LINE
  5
1836
330
1E
100
AcDbEntity
  8
0
100
AcDbLine
 10
496.395864544333
 20
201.415457483079
 30
0.0
 11
502.818864544333
 21
202.309457483079
 31
0.0
  0
LINE
  5
1837
330
1E
100
AcDbEntity
  8
0
100
AcDbLine
 10
502.818864544333
 20
202.309457483079
 30
0.0
 11
508.877864544333
 21
202.834457483079
 31
0.0
  0
LINE
  5
1838
330
1E
100
AcDbEntity
  8
0
100
AcDbLine
 10
476.176864544333
 20
194.875457483079
 30
0.0
 11
480.409864544333
 21
196.942457483079
 31
0.0
  0
LINE
  5
1839
330
1E
100
AcDbEntity
  8
0
100
AcDbLine
 10
472.526864544333
 20
192.592457483079
 30
0.0
 11
476.176864544333
 21
194.875457483079
 31
0.0
  0
LINE
  5
183A
330
1E
100
AcDbEntity
  8
0
100
AcDbLine
 10
469.826864544332
 20
190.186457483079
 30
0.0
 11
472.526864544333
 21
192.592457483079
 31
0.0
  0
LINE
  5
183B
330
1E
100
AcDbEntity
  8
0
100
AcDbLine
 10
515.227864544333
 20
182.205457483079
 30
0.0
 11
521.577864544333
 21
181.988457483079
 31
0.0
  0
LINE
  5
183C
330
1E
100
AcDbEntity
  8
0
100
AcDbLine
 10
515.227864544333
 20
183.420457483079
 30
0.0
 11
521.650864544333
 21
183.203457483079
 31
0.0
  0
LINE
  5
183D
330
1E
100
AcDbEntity
  8
0
100
AcDbLine
 10
508.877864544333
 20
202.834457483079
 30
0.0
 11
515.227864544333
 21
203.049457483079
 31
0.0
  0
LINE
  5
183E
330
1E
100
AcDbEntity
  8
0
100
AcDbLine
 10
515.227864544333
 20
202.452457483079
 30
0.0
 11
521.650864544333
 21
202.236457483079
 31
0.0
  0
LINE
  5
183F
330
1E
100
AcDbEntity
  8
0
100
AcDbLine
 10
518.299864544333
 20
122.461457483079
 30
0.0
 11
521.179864544333
 21
123.697457483079
 31
0.0
  0
LINE
  5
1840
330
1E
100
AcDbEntity
  8
0
100
AcDbLine
 10
521.179864544333
 20
123.697457483079
 30
0.0
 11
523.675864544333
 21
125.638457483079
 31
0.0
  0
LINE
  5
1841
330
1E
100
AcDbEntity
  8
0
100
AcDbLine
 10
517.435864544333
 20
125.815457483079
 30
0.0
 11
519.547864544332
 21
126.609457483079
 31
0.0
  0
LINE
  5
1842
330
1E
100
AcDbEntity
  8
0
100
AcDbLine
 10
516.227864544333
 20
135.933457483079
 30
0.0
 11
516.227864544333
 21
136.265457483079
 31
0.0
  0
LINE
  5
1843
330
1E
100
AcDbEntity
  8
0
100
AcDbLine
 10
516.227864544333
 20
136.265457483079
 30
0.0
 11
516.227864544333
 21
135.933457483079
 31
0.0
  0
LINE
  5
1844
330
1E
100
AcDbEntity
  8
0
100
AcDbLine
 10
516.227864544333
 20
136.265457483079
 30
0.0
 11
516.227864544333
 21
136.917457483079
 31
0.0
  0
LINE
  5
1845
330
1E
100
AcDbEntity
  8
0
100
AcDbLine
 10
516.227864544333
 20
136.917457483079
 30
0.0
 11
516.227864544333
 21
136.265457483079
 31
0.0
  0
LINE
  5
1846
330
1E
100
AcDbEntity
  8
0
100
AcDbLine
 10
516.227864544333
 20
136.917457483079
 30
0.0
 11
516.227864544333
 21
138.897457483079
 31
0.0
  0
LINE
  5
1847
330
1E
100
AcDbEntity
  8
0
100
AcDbLine
 10
516.227864544333
 20
138.897457483079
 30
0.0
 11
516.227864544333
 21
136.917457483079
 31
0.0
  0
LINE
  5
1848
330
1E
100
AcDbEntity
  8
0
100
AcDbLine
 10
516.227864544333
 20
138.897457483079
 30
0.0
 11
516.227864544333
 21
144.980457483079
 31
0.0
  0
LINE
  5
1849
330
1E
100
AcDbEntity
  8
0
100
AcDbLine
 10
519.547864544332
 20
126.609457483079
 30
0.0
 11
521.371864544333
 21
128.021457483079
 31
0.0
  0
LINE
  5
184A
330
1E
100
AcDbEntity
  8
0
100
AcDbLine
 10
521.371864544333
 20
128.021457483079
 30
0.0
 11
522.715864544333
 21
129.875457483079
 31
0.0
  0
LINE
  5
184B
330
1E
100
AcDbEntity
  8
0
100
AcDbLine
 10
518.179864544333
 20
141.229457483079
 30
0.0
 11
519.443864544333
 21
141.538457483079
 31
0.0
  0
LINE
  5
184C
330
1E
100
AcDbEntity
  8
0
100
AcDbLine
 10
517.449864544333
 20
141.763457483079
 30
0.0
 11
518.713864544333
 21
142.072457483079
 31
0.0
  0
LINE
  5
184D
330
1E
100
AcDbEntity
  8
0
100
AcDbLine
 10
517.449864544333
 20
141.763457483079
 30
0.0
 11
518.179864544333
 21
141.229457483079
 31
0.0
  0
LINE
  5
184E
330
1E
100
AcDbEntity
  8
0
100
AcDbLine
 10
515.902864544332
 20
161.796457483079
 30
0.0
 11
516.502864544333
 21
161.904457483079
 31
0.0
  0
LINE
  5
184F
330
1E
100
AcDbEntity
  8
0
100
AcDbLine
 10
515.902864544332
 20
163.886457483079
 30
0.0
 11
516.502864544333
 21
163.777457483079
 31
0.0
  0
LINE
  5
1850
330
1E
100
AcDbEntity
  8
0
100
AcDbLine
 10
516.763864544333
 20
156.566457483079
 30
0.0
 11
518.203864544333
 21
156.810457483079
 31
0.0
  0
LINE
  5
1851
330
1E
100
AcDbEntity
  8
0
100
AcDbLine
 10
518.203864544333
 20
156.810457483079
 30
0.0
 11
519.475864544333
 21
157.215457483079
 31
0.0
  0
LINE
  5
1852
330
1E
100
AcDbEntity
  8
0
100
AcDbLine
 10
516.502864544333
 20
161.904457483079
 30
0.0
 11
517.014864544333
 21
162.084457483079
 31
0.0
  0
LINE
  5
1853
330
1E
100
AcDbEntity
  8
0
100
AcDbLine
 10
516.502864544333
 20
163.777457483079
 30
0.0
 11
517.014864544333
 21
163.598457483079
 31
0.0
  0
LINE
  5
1854
330
1E
100
AcDbEntity
  8
0
100
AcDbLine
 10
517.438864544333
 20
162.300457483079
 30
0.0
 11
517.694864544333
 21
162.554457483079
 31
0.0
  0
LINE
  5
1855
330
1E
100
AcDbEntity
  8
0
100
AcDbLine
 10
517.014864544333
 20
162.084457483079
 30
0.0
 11
517.438864544333
 21
162.300457483079
 31
0.0
  0
LINE
  5
1856
330
1E
100
AcDbEntity
  8
0
100
AcDbLine
 10
517.694864544333
 20
162.554457483079
 30
0.0
 11
517.782864544333
 21
162.841457483079
 31
0.0
  0
LINE
  5
1857
330
1E
100
AcDbEntity
  8
0
100
AcDbLine
 10
517.694864544333
 20
163.128457483079
 30
0.0
 11
517.782864544333
 21
162.841457483079
 31
0.0
  0
LINE
  5
1858
330
1E
100
AcDbEntity
  8
0
100
AcDbLine
 10
517.438864544333
 20
163.382457483079
 30
0.0
 11
517.694864544333
 21
163.128457483079
 31
0.0
  0
LINE
  5
1859
330
1E
100
AcDbEntity
  8
0
100
AcDbLine
 10
517.014864544333
 20
163.598457483079
 30
0.0
 11
517.438864544333
 21
163.382457483079
 31
0.0
  0
LINE
  5
185A
330
1E
100
AcDbEntity
  8
0
100
AcDbLine
 10
516.763864544333
 20
161.455457483079
 30
0.0
 11
518.203864544333
 21
161.212457483079
 31
0.0
  0
LINE
  5
185B
330
1E
100
AcDbEntity
  8
0
100
AcDbLine
 10
518.203864544333
 20
161.212457483079
 30
0.0
 11
519.475864544333
 21
160.806457483079
 31
0.0
  0
LINE
  5
185C
330
1E
100
AcDbEntity
  8
0
100
AcDbLine
 10
516.227864544333
 20
144.980457483079
 30
0.0
 11
516.227864544333
 21
138.897457483079
 31
0.0
  0
LINE
  5
185D
330
1E
100
AcDbEntity
  8
0
100
AcDbLine
 10
517.449864544333
 20
179.188457483079
 30
0.0
 11
518.713864544333
 21
178.879457483079
 31
0.0
  0
LINE
  5
185E
330
1E
100
AcDbEntity
  8
0
100
AcDbLine
 10
517.449864544333
 20
179.188457483079
 30
0.0
 11
518.179864544333
 21
179.722457483079
 31
0.0
  0
LINE
  5
185F
330
1E
100
AcDbEntity
  8
0
100
AcDbLine
 10
519.087864544333
 20
170.560457483079
 30
0.0
 11
520.352864544333
 21
170.252457483079
 31
0.0
  0
LINE
  5
1860
330
1E
100
AcDbEntity
  8
0
100
AcDbLine
 10
519.087864544333
 20
170.560457483079
 30
0.0
 11
519.817864544332
 21
171.095457483079
 31
0.0
  0
LINE
  5
1861
330
1E
100
AcDbEntity
  8
0
100
AcDbLine
 10
518.713864544333
 20
178.879457483079
 30
0.0
 11
519.443864544333
 21
179.413457483079
 31
0.0
  0
LINE
  5
1862
330
1E
100
AcDbEntity
  8
0
100
AcDbLine
 10
518.179864544333
 20
181.191430403775
 30
0.0
 11
518.179864544333
 21
179.722457483079
 31
0.0
  0
LINE
  5
1863
330
1E
100
AcDbEntity
  8
0
100
AcDbLine
 10
518.179864544333
 20
179.722457483079
 30
0.0
 11
519.443864544333
 21
179.413457483079
 31
0.0
  0
LINE
  5
1864
330
1E
100
AcDbEntity
  8
0
100
AcDbLine
 10
518.179864544333
 20
179.722457483079
 30
0.0
 11
518.179864544333
 21
181.191430403775
 31
0.0
  0
LINE
  5
1865
330
1E
100
AcDbEntity
  8
0
100
AcDbLine
 10
519.087864544333
 20
148.578457483079
 30
0.0
 11
520.352864544333
 21
148.887457483079
 31
0.0
  0
LINE
  5
1866
330
1E
100
AcDbEntity
  8
0
100
AcDbLine
 10
519.087864544333
 20
148.578457483079
 30
0.0
 11
519.817864544332
 21
148.044457483079
 31
0.0
  0
LINE
  5
1867
330
1E
100
AcDbEntity
  8
0
100
AcDbLine
 10
518.713864544333
 20
142.072457483079
 30
0.0
 11
519.443864544333
 21
141.538457483079
 31
0.0
  0
LINE
  5
1868
330
1E
100
AcDbEntity
  8
0
100
AcDbLine
 10
519.443864544333
 20
141.538457483079
 30
0.0
 11
519.443864544333
 21
141.611176374117
 31
0.0
  0
LINE
  5
1869
330
1E
100
AcDbEntity
  8
0
100
AcDbLine
 10
516.227864544333
 20
141.515276954388
 30
0.0
 11
517.727985934617
 21
141.560009781145
 31
0.0
  0
LINE
  5
186A
330
1E
100
AcDbEntity
  8
0
100
AcDbLine
 10
519.475864544333
 20
157.215457483079
 30
0.0
 11
520.435864544333
 21
157.753457483079
 31
0.0
  0
LINE
  5
186B
330
1E
100
AcDbEntity
  8
0
100
AcDbLine
 10
519.475864544333
 20
160.806457483079
 30
0.0
 11
520.435864544333
 21
160.268457483079
 31
0.0
  0
LINE
  5
186C
330
1E
100
AcDbEntity
  8
0
100
AcDbLine
 10
519.817864544332
 20
171.095457483079
 30
0.0
 11
521.081864544333
 21
170.786457483079
 31
0.0
  0
LINE
  5
186D
330
1E
100
AcDbEntity
  8
0
100
AcDbLine
 10
521.038501024942
 20
157.114210087785
 30
0.0
 11
521.561864544333
 21
156.140457483079
 31
0.0
  0
LINE
  5
186E
330
1E
100
AcDbEntity
  8
0
100
AcDbLine
 10
520.435864544333
 20
157.753457483079
 30
0.0
 11
521.011864544333
 21
158.361457483079
 31
0.0
  0
LINE
  5
186F
330
1E
100
AcDbEntity
  8
0
100
AcDbLine
 10
521.227864544333
 20
159.570457483079
 30
0.0
 11
521.227864544333
 21
159.011457483079
 31
0.0
  0
LINE
  5
1870
330
1E
100
AcDbEntity
  8
0
100
AcDbLine
 10
521.011864544333
 20
158.361457483079
 30
0.0
 11
521.227864544333
 21
159.011457483079
 31
0.0
  0
LINE
  5
1871
330
1E
100
AcDbEntity
  8
0
100
AcDbLine
 10
521.227864544333
 20
159.011457483079
 30
0.0
 11
521.227864544333
 21
159.570457483079
 31
0.0
  0
LINE
  5
1872
330
1E
100
AcDbEntity
  8
0
100
AcDbLine
 10
520.435864544333
 20
160.268457483079
 30
0.0
 11
521.011864544333
 21
159.660457483079
 31
0.0
  0
LINE
  5
1873
330
1E
100
AcDbEntity
  8
0
100
AcDbLine
 10
521.011864544333
 20
159.660457483079
 30
0.0
 11
521.227864544333
 21
159.011457483079
 31
0.0
  0
LINE
  5
1874
330
1E
100
AcDbEntity
  8
0
100
AcDbLine
 10
520.352864544333
 20
170.252457483079
 30
0.0
 11
521.081864544333
 21
170.786457483079
 31
0.0
  0
LINE
  5
1875
330
1E
100
AcDbEntity
  8
0
100
AcDbLine
 10
520.352864544333
 20
148.887457483079
 30
0.0
 11
521.081864544333
 21
148.353457483079
 31
0.0
  0
LINE
  5
1876
330
1E
100
AcDbEntity
  8
0
100
AcDbLine
 10
519.817864544332
 20
148.044457483079
 30
0.0
 11
521.081864544333
 21
148.353457483079
 31
0.0
  0
LINE
  5
1877
330
1E
100
AcDbEntity
  8
0
100
AcDbLine
 10
521.431864544332
 20
141.670457483079
 30
0.0
 11
526.614864544332
 21
142.194457483079
 31
0.0
  0
LINE
  5
1878
330
1E
100
AcDbEntity
  8
0
100
AcDbLine
 10
519.443864544333
 20
141.611176374117
 30
0.0
 11
521.431864544332
 21
141.670457483079
 31
0.0
  0
LINE
  5
1879
330
1E
100
AcDbEntity
  8
0
100
AcDbLine
 10
519.443864544333
 20
141.611176374117
 30
0.0
 11
519.443864544333
 21
141.538457483079
 31
0.0
  0
LINE
  5
187A
330
1E
100
AcDbEntity
  8
0
100
AcDbLine
 10
516.227864544333
 20
140.594473231111
 30
0.0
 11
521.577864544333
 21
140.776457483079
 31
0.0
  0
LINE
  5
187B
330
1E
100
AcDbEntity
  8
0
100
AcDbLine
 10
521.449864544333
 20
156.417457483079
 30
0.0
 11
521.528864544332
 21
156.690457483079
 31
0.0
  0
LINE
  5
187C
330
1E
100
AcDbEntity
  8
0
100
AcDbLine
 10
521.449864544333
 20
156.417457483079
 30
0.0
 11
521.561864544333
 21
156.140457483079
 31
0.0
  0
LINE
  5
187D
330
1E
100
AcDbEntity
  8
0
100
AcDbLine
 10
521.561864544333
 20
156.140457483079
 30
0.0
 11
521.792864544333
 21
155.876457483079
 31
0.0
  0
LINE
  5
187E
330
1E
100
AcDbEntity
  8
0
100
AcDbLine
 10
521.528864544332
 20
156.690457483079
 30
0.0
 11
521.791864544333
 21
156.958457483079
 31
0.0
  0
LINE
  5
187F
330
1E
100
AcDbEntity
  8
0
100
AcDbLine
 10
521.577864544333
 20
140.776457483079
 30
0.0
 11
527.636864544333
 21
141.300457483079
 31
0.0
  0
LINE
  5
1880
330
1E
100
AcDbEntity
  8
0
100
AcDbLine
 10
521.431864544332
 20
181.094457483079
 30
0.0
 11
526.614864544332
 21
180.569457483079
 31
0.0
  0
LINE
  5
1881
330
1E
100
AcDbEntity
  8
0
100
AcDbLine
 10
521.577864544333
 20
181.988457483079
 30
0.0
 11
527.636864544333
 21
181.464457483079
 31
0.0
  0
LINE
  5
1882
330
1E
100
AcDbEntity
  8
0
100
AcDbLine
 10
522.715864544333
 20
129.875457483079
 30
0.0
 11
523.579864544333
 21
131.993457483079
 31
0.0
  0
LINE
  5
1883
330
1E
100
AcDbEntity
  8
0
100
AcDbLine
 10
523.675864544333
 20
125.638457483079
 30
0.0
 11
525.595864544332
 21
128.198457483079
 31
0.0
  0
LINE
  5
1884
330
1E
100
AcDbEntity
  8
0
100
AcDbLine
 10
525.595864544332
 20
128.198457483079
 30
0.0
 11
526.843864544333
 21
131.110457483079
 31
0.0
  0
LINE
  5
1885
330
1E
100
AcDbEntity
  8
0
100
AcDbLine
 10
525.595864544332
 20
140.289457483079
 30
0.0
 11
526.843864544333
 21
137.377457483079
 31
0.0
  0
LINE
  5
1886
330
1E
100
AcDbEntity
  8
0
100
AcDbLine
 10
523.867864544333
 20
134.199457483079
 30
0.0
 11
523.867864544333
 21
140.974503365238
 31
0.0
  0
LINE
  5
1887
330
1E
100
AcDbEntity
  8
0
100
AcDbLine
 10
523.579864544333
 20
131.993457483079
 30
0.0
 11
523.867864544333
 21
134.199457483079
 31
0.0
  0
LINE
  5
1888
330
1E
100
AcDbEntity
  8
0
100
AcDbLine
 10
523.158864544333
 20
145.434457483079
 30
0.0
 11
524.423864544333
 21
145.743457483079
 31
0.0
  0
LINE
  5
1889
330
1E
100
AcDbEntity
  8
0
100
AcDbLine
 10
523.158864544333
 20
145.434457483079
 30
0.0
 11
523.888864544333
 21
144.900457483079
 31
0.0
  0
LINE
  5
188A
330
1E
100
AcDbEntity
  8
0
100
AcDbLine
 10
524.423864544333
 20
146.662262071014
 30
0.0
 11
524.423864544333
 21
145.743457483079
 31
0.0
  0
LINE
  5
188B
330
1E
100
AcDbEntity
  8
0
100
AcDbLine
 10
524.423864544333
 20
145.743457483079
 30
0.0
 11
525.153864544332
 21
145.208457483079
 31
0.0
  0
LINE
  5
188C
330
1E
100
AcDbEntity
  8
0
100
AcDbLine
 10
524.423864544333
 20
145.743457483079
 30
0.0
 11
524.423864544333
 21
146.662262071014
 31
0.0
  0
LINE
  5
188D
330
1E
100
AcDbEntity
  8
0
100
AcDbLine
 10
523.888864544333
 20
144.900457483079
 30
0.0
 11
525.153864544332
 21
145.208457483079
 31
0.0
  0
LINE
  5
188E
330
1E
100
AcDbEntity
  8
0
100
AcDbLine
 10
523.537864544332
 20
152.764259161449
 30
0.0
 11
523.537864544332
 21
152.416457483079
 31
0.0
  0
LINE
  5
188F
330
1E
100
AcDbEntity
  8
0
100
AcDbLine
 10
523.537864544332
 20
152.416457483079
 30
0.0
 11
524.801864544333
 21
152.725457483079
 31
0.0
  0
LINE
  5
1890
330
1E
100
AcDbEntity
  8
0
100
AcDbLine
 10
523.537864544332
 20
152.416457483079
 30
0.0
 11
524.266864544333
 21
151.882457483079
 31
0.0
  0
LINE
  5
1891
330
1E
100
AcDbEntity
  8
0
100
AcDbLine
 10
523.537864544332
 20
152.416457483079
 30
0.0
 11
523.537864544332
 21
152.764259161449
 31
0.0
  0
LINE
  5
1892
330
1E
100
AcDbEntity
  8
0
100
AcDbLine
 10
522.183864544333
 20
155.657457483079
 30
0.0
 11
522.728864544333
 21
155.480457483079
 31
0.0
  0
LINE
  5
1893
330
1E
100
AcDbEntity
  8
0
100
AcDbLine
 10
521.792864544333
 20
155.876457483079
 30
0.0
 11
522.183864544333
 21
155.657457483079
 31
0.0
  0
LINE
  5
1894
330
1E
100
AcDbEntity
  8
0
100
AcDbLine
 10
522.728864544333
 20
155.480457483079
 30
0.0
 11
523.361864544333
 21
155.369457483079
 31
0.0
  0
LINE
  5
1895
330
1E
100
AcDbEntity
  8
0
100
AcDbLine
 10
523.361864544333
 20
155.369457483079
 30
0.0
 11
524.009864544332
 21
155.335457483079
 31
0.0
  0
LINE
  5
1896
330
1E
100
AcDbEntity
  8
0
100
AcDbLine
 10
523.353864544333
 20
157.452457483079
 30
0.0
 11
524.008864544332
 21
157.498457483079
 31
0.0
  0
LINE
  5
1897
330
1E
100
AcDbEntity
  8
0
100
AcDbLine
 10
522.729864544332
 20
157.354457483079
 30
0.0
 11
523.353864544333
 21
157.452457483079
 31
0.0
  0
LINE
  5
1898
330
1E
100
AcDbEntity
  8
0
100
AcDbLine
 10
522.208864544333
 20
157.188457483079
 30
0.0
 11
522.729864544332
 21
157.354457483079
 31
0.0
  0
LINE
  5
1899
330
1E
100
AcDbEntity
  8
0
100
AcDbLine
 10
521.791864544333
 20
156.958457483079
 30
0.0
 11
522.208864544333
 21
157.188457483079
 31
0.0
  0
LINE
  5
189A
330
1E
100
AcDbEntity
  8
0
100
AcDbLine
 10
524.009864544332
 20
155.335457483079
 30
0.0
 11
524.664864544333
 21
155.383457483079
 31
0.0
  0
LINE
  5
189B
330
1E
100
AcDbEntity
  8
0
100
AcDbLine
 10
524.664864544333
 20
155.383457483079
 30
0.0
 11
525.288864544332
 21
155.481457483079
 31
0.0
  0
LINE
  5
189C
330
1E
100
AcDbEntity
  8
0
100
AcDbLine
 10
524.655864544333
 20
157.465457483079
 30
0.0
 11
525.288864544332
 21
157.354457483079
 31
0.0
  0
LINE
  5
189D
330
1E
100
AcDbEntity
  8
0
100
AcDbLine
 10
524.008864544332
 20
157.498457483079
 30
0.0
 11
524.655864544333
 21
157.465457483079
 31
0.0
  0
LINE
  5
189E
330
1E
100
AcDbEntity
  8
0
100
AcDbLine
 10
524.801864544333
 20
153.599598012317
 30
0.0
 11
524.801864544333
 21
152.725457483079
 31
0.0
  0
LINE
  5
189F
330
1E
100
AcDbEntity
  8
0
100
AcDbLine
 10
524.801864544333
 20
152.725457483079
 30
0.0
 11
525.531864544333
 21
152.191457483079
 31
0.0
  0
LINE
  5
18A0
330
1E
100
AcDbEntity
  8
0
100
AcDbLine
 10
524.801864544333
 20
152.725457483079
 30
0.0
 11
524.801864544333
 21
153.599598012317
 31
0.0
  0
LINE
  5
18A1
330
1E
100
AcDbEntity
  8
0
100
AcDbLine
 10
524.266864544333
 20
151.882457483079
 30
0.0
 11
525.531864544333
 21
152.191457483079
 31
0.0
  0
LINE
  5
18A2
330
1E
100
AcDbEntity
  8
0
100
AcDbLine
 10
525.153864544332
 20
145.208457483079
 30
0.0
 11
525.153864544332
 21
146.359361688687
 31
0.0
  0
LINE
  5
18A3
330
1E
100
AcDbEntity
  8
0
100
AcDbLine
 10
525.153864544332
 20
146.359361688687
 30
0.0
 11
525.153864544332
 21
145.208457483079
 31
0.0
  0
LINE
  5
18A4
330
1E
100
AcDbEntity
  8
0
100
AcDbLine
 10
525.531864544333
 20
152.191457483079
 30
0.0
 11
525.531864544333
 21
153.309577102374
 31
0.0
  0
LINE
  5
18A5
330
1E
100
AcDbEntity
  8
0
100
AcDbLine
 10
525.288864544332
 20
155.481457483079
 30
0.0
 11
525.809864544333
 21
155.645457483079
 31
0.0
  0
LINE
  5
18A6
330
1E
100
AcDbEntity
  8
0
100
AcDbLine
 10
525.809864544333
 20
155.645457483079
 30
0.0
 11
526.226864544333
 21
155.876457483079
 31
0.0
  0
LINE
  5
18A7
330
1E
100
AcDbEntity
  8
0
100
AcDbLine
 10
525.288864544332
 20
157.354457483079
 30
0.0
 11
525.833864544333
 21
157.178457483079
 31
0.0
  0
LINE
  5
18A8
330
1E
100
AcDbEntity
  8
0
100
AcDbLine
 10
525.833864544333
 20
157.178457483079
 30
0.0
 11
526.225864544333
 21
156.957457483079
 31
0.0
  0
LINE
  5
18A9
330
1E
100
AcDbEntity
  8
0
100
AcDbLine
 10
526.225864544333
 20
156.957457483079
 30
0.0
 11
526.456864544333
 21
156.695457483079
 31
0.0
  0
LINE
  5
18AA
330
1E
100
AcDbEntity
  8
0
100
AcDbLine
 10
526.456864544333
 20
156.695457483079
 30
0.0
 11
526.568864544333
 21
156.417457483079
 31
0.0
  0
LINE
  5
18AB
330
1E
100
AcDbEntity
  8
0
100
AcDbLine
 10
526.489864544332
 20
156.143457483079
 30
0.0
 11
526.859233224813
 21
156.836734083365
 31
0.0
  0
LINE
  5
18AC
330
1E
100
AcDbEntity
  8
0
100
AcDbLine
 10
526.489864544332
 20
156.143457483079
 30
0.0
 11
526.568864544333
 21
156.417457483079
 31
0.0
  0
LINE
  5
18AD
330
1E
100
AcDbEntity
  8
0
100
AcDbLine
 10
526.226864544333
 20
155.876457483079
 30
0.0
 11
526.489864544332
 21
156.143457483079
 31
0.0
  0
LINE
  5
18AE
330
1E
100
AcDbEntity
  8
0
100
AcDbLine
 10
525.531864544333
 20
153.309577102374
 30
0.0
 11
525.531864544333
 21
152.191457483079
 31
0.0
  0
LINE
  5
18AF
330
1E
100
AcDbEntity
  8
0
100
AcDbLine
 10
525.008120627718
 20
141.073116038566
 30
0.0
 11
525.595864544332
 21
140.289457483079
 31
0.0
  0
LINE
  5
18B0
330
1E
100
AcDbEntity
  8
0
100
AcDbLine
 10
523.867864544333
 20
140.974503365238
 30
0.0
 11
523.867864544333
 21
134.199457483079
 31
0.0
  0
LINE
  5
18B1
330
1E
100
AcDbEntity
  8
0
100
AcDbLine
 10
526.614864544332
 20
142.194457483079
 30
0.0
 11
527.81011424882
 21
142.346024388824
 31
0.0
  0
LINE
  5
18B2
330
1E
100
AcDbEntity
  8
0
100
AcDbLine
 10
523.158864544333
 20
174.611457483079
 30
0.0
 11
524.423864544333
 21
174.302457483079
 31
0.0
  0
LINE
  5
18B3
330
1E
100
AcDbEntity
  8
0
100
AcDbLine
 10
523.158864544333
 20
174.611457483079
 30
0.0
 11
523.888864544333
 21
175.145457483079
 31
0.0
  0
LINE
  5
18B4
330
1E
100
AcDbEntity
  8
0
100
AcDbLine
 10
523.888864544333
 20
175.145457483079
 30
0.0
 11
525.153864544332
 21
174.836457483079
 31
0.0
  0
LINE
  5
18B5
330
1E
100
AcDbEntity
  8
0
100
AcDbLine
 10
524.266864544333
 20
167.410783737575
 30
0.0
 11
524.266864544333
 21
166.350457483079
 31
0.0
  0
LINE
  5
18B6
330
1E
100
AcDbEntity
  8
0
100
AcDbLine
 10
523.537864544332
 20
166.905452773368
 30
0.0
 11
523.537864544332
 21
165.816457483079
 31
0.0
  0
LINE
  5
18B7
330
1E
100
AcDbEntity
  8
0
100
AcDbLine
 10
523.537864544332
 20
165.816457483079
 30
0.0
 11
524.801864544333
 21
165.507457483079
 31
0.0
  0
LINE
  5
18B8
330
1E
100
AcDbEntity
  8
0
100
AcDbLine
 10
523.537864544332
 20
165.816457483079
 30
0.0
 11
524.266864544333
 21
166.350457483079
 31
0.0
  0
LINE
  5
18B9
330
1E
100
AcDbEntity
  8
0
100
AcDbLine
 10
523.537864544332
 20
165.816457483079
 30
0.0
 11
523.537864544332
 21
166.905452773368
 31
0.0
  0
LINE
  5
18BA
330
1E
100
AcDbEntity
  8
0
100
AcDbLine
 10
525.531864544333
 20
166.042457483079
 30
0.0
 11
525.531864544333
 21
166.34621737925
 31
0.0
  0
LINE
  5
18BB
330
1E
100
AcDbEntity
  8
0
100
AcDbLine
 10
524.801864544333
 20
165.507457483079
 30
0.0
 11
525.531864544333
 21
166.042457483079
 31
0.0
  0
LINE
  5
18BC
330
1E
100
AcDbEntity
  8
0
100
AcDbLine
 10
525.531864544333
 20
166.34621737925
 30
0.0
 11
525.531864544333
 21
166.042457483079
 31
0.0
  0
LINE
  5
18BD
330
1E
100
AcDbEntity
  8
0
100
AcDbLine
 10
524.423864544333
 20
174.302457483079
 30
0.0
 11
525.153864544332
 21
174.836457483079
 31
0.0
  0
LINE
  5
18BE
330
1E
100
AcDbEntity
  8
0
100
AcDbLine
 10
524.266864544333
 20
166.350457483079
 30
0.0
 11
525.531864544333
 21
166.042457483079
 31
0.0
  0
LINE
  5
18BF
330
1E
100
AcDbEntity
  8
0
100
AcDbLine
 10
524.266864544333
 20
166.350457483079
 30
0.0
 11
524.266864544333
 21
167.410783737575
 31
0.0
  0
LINE
  5
18C0
330
1E
100
AcDbEntity
  8
0
100
AcDbLine
 10
526.843864544333
 20
131.110457483079
 30
0.0
 11
527.227864544333
 21
134.199457483079
 31
0.0
  0
LINE
  5
18C1
330
1E
100
AcDbEntity
  8
0
100
AcDbLine
 10
527.227864544333
 20
134.199457483079
 30
0.0
 11
527.227864544333
 21
62.164957483079
 31
0.0
  0
LINE
  5
18C2
330
1E
100
AcDbEntity
  8
0
100
AcDbLine
 10
526.843864544333
 20
137.377457483079
 30
0.0
 11
527.227864544333
 21
134.199457483079
 31
0.0
  0
LINE
  5
18C3
330
1E
100
AcDbEntity
  8
0
100
AcDbLine
 10
527.478864544333
 20
178.364457483079
 30
0.0
 11
528.743864544333
 21
178.055457483079
 31
0.0
  0
LINE
  5
18C4
330
1E
100
AcDbEntity
  8
0
100
AcDbLine
 10
527.478864544333
 20
178.364457483079
 30
0.0
 11
528.209864544333
 21
178.898457483079
 31
0.0
  0
LINE
  5
18C5
330
1E
100
AcDbEntity
  8
0
100
AcDbLine
 10
527.478864544333
 20
142.588457483079
 30
0.0
 11
528.743864544333
 21
142.896457483079
 31
0.0
  0
LINE
  5
18C6
330
1E
100
AcDbEntity
  8
0
100
AcDbLine
 10
527.478864544333
 20
142.588457483079
 30
0.0
 11
528.209864544333
 21
142.053457483079
 31
0.0
  0
LINE
  5
18C7
330
1E
100
AcDbEntity
  8
0
100
AcDbLine
 10
527.636864544333
 20
141.300457483079
 30
0.0
 11
534.059864544333
 21
142.194457483079
 31
0.0
  0
LINE
  5
18C8
330
1E
100
AcDbEntity
  8
0
100
AcDbLine
 10
526.614864544332
 20
180.569457483079
 30
0.0
 11
533.183864544333
 21
179.737457483079
 31
0.0
  0
LINE
  5
18C9
330
1E
100
AcDbEntity
  8
0
100
AcDbLine
 10
527.636864544333
 20
181.464457483079
 30
0.0
 11
534.059864544333
 21
180.569457483079
 31
0.0
  0
LINE
  5
18CA
330
1E
100
AcDbEntity
  8
0
100
AcDbLine
 10
521.650864544333
 20
183.203457483079
 30
0.0
 11
528.147864544333
 21
182.648457483079
 31
0.0
  0
LINE
  5
18CB
330
1E
100
AcDbEntity
  8
0
100
AcDbLine
 10
521.650864544333
 20
202.236457483079
 30
0.0
 11
528.147864544333
 21
201.681457483079
 31
0.0
  0
LINE
  5
18CC
330
1E
100
AcDbEntity
  8
0
100
AcDbLine
 10
527.916864544333
 20
169.940904477427
 30
0.0
 11
527.916864544333
 21
169.475457483079
 31
0.0
  0
LINE
  5
18CD
330
1E
100
AcDbEntity
  8
0
100
AcDbLine
 10
527.916864544333
 20
169.475457483079
 30
0.0
 11
529.180864544333
 21
169.167457483079
 31
0.0
  0
LINE
  5
18CE
330
1E
100
AcDbEntity
  8
0
100
AcDbLine
 10
527.916864544333
 20
169.475457483079
 30
0.0
 11
528.646864544333
 21
170.009457483079
 31
0.0
  0
LINE
  5
18CF
330
1E
100
AcDbEntity
  8
0
100
AcDbLine
 10
527.916864544333
 20
169.475457483079
 30
0.0
 11
527.916864544333
 21
169.940904477427
 31
0.0
  0
LINE
  5
18D0
330
1E
100
AcDbEntity
  8
0
100
AcDbLine
 10
527.916864544333
 20
150.408643645093
 30
0.0
 11
527.916864544333
 21
149.664457483079
 31
0.0
  0
LINE
  5
18D1
330
1E
100
AcDbEntity
  8
0
100
AcDbLine
 10
527.916864544333
 20
149.664457483079
 30
0.0
 11
529.180864544333
 21
149.973457483079
 31
0.0
  0
LINE
  5
18D2
330
1E
100
AcDbEntity
  8
0
100
AcDbLine
 10
527.916864544333
 20
149.664457483079
 30
0.0
 11
528.646864544333
 21
149.129457483079
 31
0.0
  0
LINE
  5
18D3
330
1E
100
AcDbEntity
  8
0
100
AcDbLine
 10
527.916864544333
 20
149.664457483079
 30
0.0
 11
527.916864544333
 21
150.408643645093
 31
0.0
  0
LINE
  5
18D4
330
1E
100
AcDbEntity
  8
0
100
AcDbLine
 10
529.473864544333
 20
142.362457483079
 30
0.0
 11
529.473864544333
 21
142.557000792563
 31
0.0
  0
LINE
  5
18D5
330
1E
100
AcDbEntity
  8
0
100
AcDbLine
 10
528.209864544333
 20
142.053457483079
 30
0.0
 11
529.473864544333
 21
142.362457483079
 31
0.0
  0
LINE
  5
18D6
330
1E
100
AcDbEntity
  8
0
100
AcDbLine
 10
528.209864544333
 20
178.898457483079
 30
0.0
 11
529.473864544333
 21
178.589457483079
 31
0.0
  0
LINE
  5
18D7
330
1E
100
AcDbEntity
  8
0
100
AcDbLine
 10
528.209864544333
 20
178.898457483079
 30
0.0
 11
528.209864544333
 21
180.367441955602
 31
0.0
  0
LINE
  5
18D8
330
1E
100
AcDbEntity
  8
0
100
AcDbLine
 10
528.646864544333
 20
170.446928625398
 30
0.0
 11
528.646864544333
 21
170.009457483079
 31
0.0
  0
LINE
  5
18D9
330
1E
100
AcDbEntity
  8
0
100
AcDbLine
 10
528.646864544333
 20
170.009457483079
 30
0.0
 11
529.910864544333
 21
169.701457483079
 31
0.0
  0
LINE
  5
18DA
330
1E
100
AcDbEntity
  8
0
100
AcDbLine
 10
528.646864544333
 20
170.009457483079
 30
0.0
 11
528.646864544333
 21
170.446928625398
 31
0.0
  0
LINE
  5
18DB
330
1E
100
AcDbEntity
  8
0
100
AcDbLine
 10
528.743864544333
 20
142.896457483079
 30
0.0
 11
529.473864544333
 21
142.362457483079
 31
0.0
  0
LINE
  5
18DC
330
1E
100
AcDbEntity
  8
0
100
AcDbLine
 10
529.910864544333
 20
149.438457483079
 30
0.0
 11
529.910864544333
 21
149.531974559114
 31
0.0
  0
LINE
  5
18DD
330
1E
100
AcDbEntity
  8
0
100
AcDbLine
 10
528.743864544333
 20
178.055457483079
 30
0.0
 11
529.473864544333
 21
178.589457483079
 31
0.0
  0
LINE
  5
18DE
330
1E
100
AcDbEntity
  8
0
100
AcDbLine
 10
529.180864544333
 20
169.167457483079
 30
0.0
 11
529.910864544333
 21
169.701457483079
 31
0.0
  0
LINE
  5
18DF
330
1E
100
AcDbEntity
  8
0
100
AcDbLine
 10
529.947864544333
 20
154.793457483079
 30
0.0
 11
529.947864544333
 21
155.410457483079
 31
0.0
  0
LINE
  5
18E0
330
1E
100
AcDbEntity
  8
0
100
AcDbLine
 10
529.947864544333
 20
154.793457483079
 30
0.0
 11
531.407864544333
 21
154.793457483079
 31
0.0
  0
LINE
  5
18E1
330
1E
100
AcDbEntity
  8
0
100
AcDbLine
 10
529.947864544333
 20
154.793457483079
 30
0.0
 11
529.947864544333
 21
155.60498996038
 31
0.0
  0
LINE
  5
18E2
330
1E
100
AcDbEntity
  8
0
100
AcDbLine
 10
529.947864544333
 20
155.60498996038
 30
0.0
 11
529.947864544333
 21
154.793457483079
 31
0.0
  0
LINE
  5
18E3
330
1E
100
AcDbEntity
  8
0
100
AcDbLine
 10
529.947864544333
 20
156.185248017499
 30
0.0
 11
529.947864544333
 21
155.410457483079
 31
0.0
  0
LINE
  5
18E4
330
1E
100
AcDbEntity
  8
0
100
AcDbLine
 10
529.947864544333
 20
155.410457483079
 30
0.0
 11
531.407864544333
 21
155.410457483079
 31
0.0
  0
LINE
  5
18E5
330
1E
100
AcDbEntity
  8
0
100
AcDbLine
 10
529.947864544333
 20
155.410457483079
 30
0.0
 11
529.947864544333
 21
156.185248017499
 31
0.0
  0
LINE
  5
18E6
330
1E
100
AcDbEntity
  8
0
100
AcDbLine
 10
529.947864544333
 20
155.410457483079
 30
0.0
 11
529.947864544333
 21
154.793457483079
 31
0.0
  0
LINE
  5
18E7
330
1E
100
AcDbEntity
  8
0
100
AcDbLine
 10
531.407864544333
 20
154.793457483079
 30
0.0
 11
531.407864544333
 21
155.410457483079
 31
0.0
  0
LINE
  5
18E8
330
1E
100
AcDbEntity
  8
0
100
AcDbLine
 10
531.407864544333
 20
155.903232618949
 30
0.0
 11
531.407864544333
 21
155.410457483079
 31
0.0
  0
LINE
  5
18E9
330
1E
100
AcDbEntity
  8
0
100
AcDbLine
 10
531.407864544333
 20
155.410457483079
 30
0.0
 11
531.407864544333
 21
154.793457483079
 31
0.0
  0
LINE
  5
18EA
330
1E
100
AcDbEntity
  8
0
100
AcDbLine
 10
531.407864544333
 20
155.410457483079
 30
0.0
 11
531.407864544333
 21
155.903232618949
 31
0.0
  0
LINE
  5
18EB
330
1E
100
AcDbEntity
  8
0
100
AcDbLine
 10
529.947864544333
 20
162.822457483079
 30
0.0
 11
531.407864544333
 21
162.822457483079
 31
0.0
  0
LINE
  5
18EC
330
1E
100
AcDbEntity
  8
0
100
AcDbLine
 10
529.947864544333
 20
162.822457483079
 30
0.0
 11
529.947864544333
 21
163.325730184619
 31
0.0
  0
LINE
  5
18ED
330
1E
100
AcDbEntity
  8
0
100
AcDbLine
 10
529.947864544333
 20
162.822457483079
 30
0.0
 11
529.947864544333
 21
163.439457483079
 31
0.0
  0
LINE
  5
18EE
330
1E
100
AcDbEntity
  8
0
100
AcDbLine
 10
529.947864544333
 20
163.979455656399
 30
0.0
 11
529.947864544333
 21
163.439457483079
 31
0.0
  0
LINE
  5
18EF
330
1E
100
AcDbEntity
  8
0
100
AcDbLine
 10
529.947864544333
 20
163.439457483079
 30
0.0
 11
529.947864544333
 21
162.822457483079
 31
0.0
  0
LINE
  5
18F0
330
1E
100
AcDbEntity
  8
0
100
AcDbLine
 10
529.947864544333
 20
163.439457483079
 30
0.0
 11
531.407864544333
 21
163.439457483079
 31
0.0
  0
LINE
  5
18F1
330
1E
100
AcDbEntity
  8
0
100
AcDbLine
 10
529.947864544333
 20
163.439457483079
 30
0.0
 11
529.947864544333
 21
163.979455656399
 31
0.0
  0
LINE
  5
18F2
330
1E
100
AcDbEntity
  8
0
100
AcDbLine
 10
531.407864544333
 20
164.343337889247
 30
0.0
 11
531.407864544333
 21
163.439457483079
 31
0.0
  0
LINE
  5
18F3
330
1E
100
AcDbEntity
  8
0
100
AcDbLine
 10
529.947864544333
 20
163.325730184619
 30
0.0
 11
529.947864544333
 21
162.822457483079
 31
0.0
  0
LINE
  5
18F4
330
1E
100
AcDbEntity
  8
0
100
AcDbLine
 10
531.407864544333
 20
163.439457483079
 30
0.0
 11
531.407864544333
 21
164.343337889247
 31
0.0
  0
LINE
  5
18F5
330
1E
100
AcDbEntity
  8
0
100
AcDbLine
 10
531.407864544333
 20
163.439457483079
 30
0.0
 11
531.407864544333
 21
162.822457483079
 31
0.0
  0
LINE
  5
18F6
330
1E
100
AcDbEntity
  8
0
100
AcDbLine
 10
531.407864544333
 20
162.822457483079
 30
0.0
 11
531.407864544333
 21
163.439457483079
 31
0.0
  0
LINE
  5
18F7
330
1E
100
AcDbEntity
  8
0
100
AcDbLine
 10
529.910864544333
 20
169.701457483079
 30
0.0
 11
529.910864544333
 21
171.085336434053
 31
0.0
  0
LINE
  5
18F8
330
1E
100
AcDbEntity
  8
0
100
AcDbLine
 10
529.473864544333
 20
178.589457483079
 30
0.0
 11
529.473864544333
 21
180.207349399657
 31
0.0
  0
LINE
  5
18F9
330
1E
100
AcDbEntity
  8
0
100
AcDbLine
 10
529.910864544333
 20
171.085336434053
 30
0.0
 11
529.910864544333
 21
169.701457483079
 31
0.0
  0
LINE
  5
18FA
330
1E
100
AcDbEntity
  8
0
100
AcDbLine
 10
529.180864544333
 20
149.973457483079
 30
0.0
 11
529.910864544333
 21
149.438457483079
 31
0.0
  0
LINE
  5
18FB
330
1E
100
AcDbEntity
  8
0
100
AcDbLine
 10
529.910864544333
 20
149.531974559114
 30
0.0
 11
529.910864544333
 21
149.438457483079
 31
0.0
  0
LINE
  5
18FC
330
1E
100
AcDbEntity
  8
0
100
AcDbLine
 10
528.646864544333
 20
149.129457483079
 30
0.0
 11
529.910864544333
 21
149.438457483079
 31
0.0
  0
LINE
  5
18FD
330
1E
100
AcDbEntity
  8
0
100
AcDbLine
 10
529.473864544333
 20
142.557000792563
 30
0.0
 11
533.183864544333
 21
143.027457483079
 31
0.0
  0
LINE
  5
18FE
330
1E
100
AcDbEntity
  8
0
100
AcDbLine
 10
529.473864544333
 20
142.557000792563
 30
0.0
 11
529.473864544333
 21
142.362457483079
 31
0.0
  0
LINE
  5
18FF
330
1E
100
AcDbEntity
  8
0
100
AcDbLine
 10
532.296864544332
 20
173.133457483079
 30
0.0
 11
533.560864544333
 21
172.825457483079
 31
0.0
  0
LINE
  5
1900
330
1E
100
AcDbEntity
  8
0
100
AcDbLine
 10
532.296864544332
 20
173.133457483079
 30
0.0
 11
533.025864544333
 21
173.667457483079
 31
0.0
  0
LINE
  5
1901
330
1E
100
AcDbEntity
  8
0
100
AcDbLine
 10
532.296864544332
 20
148.016662962531
 30
0.0
 11
532.296864544332
 21
146.912457483079
 31
0.0
  0
LINE
  5
1902
330
1E
100
AcDbEntity
  8
0
100
AcDbLine
 10
533.110864544333
 20
159.273014809158
 30
0.0
 11
533.110864544333
 21
158.808457483079
 31
0.0
  0
LINE
  5
1903
330
1E
100
AcDbEntity
  8
0
100
AcDbLine
 10
533.110864544333
 20
158.808457483079
 30
0.0
 11
533.110864544333
 21
159.424457483079
 31
0.0
  0
LINE
  5
1904
330
1E
100
AcDbEntity
  8
0
100
AcDbLine
 10
533.110864544333
 20
158.808457483079
 30
0.0
 11
534.570864544333
 21
158.808457483079
 31
0.0
  0
LINE
  5
1905
330
1E
100
AcDbEntity
  8
0
100
AcDbLine
 10
533.110864544333
 20
158.808457483079
 30
0.0
 11
533.110864544333
 21
159.273014809158
 31
0.0
  0
LINE
  5
1906
330
1E
100
AcDbEntity
  8
0
100
AcDbLine
 10
533.025864544333
 20
173.667457483079
 30
0.0
 11
534.290864544333
 21
173.360457483079
 31
0.0
  0
LINE
  5
1907
330
1E
100
AcDbEntity
  8
0
100
AcDbLine
 10
533.110864544333
 20
160.329750671964
 30
0.0
 11
533.110864544333
 21
159.424457483079
 31
0.0
  0
LINE
  5
1908
330
1E
100
AcDbEntity
  8
0
100
AcDbLine
 10
533.110864544333
 20
159.424457483079
 30
0.0
 11
534.570864544333
 21
159.424457483079
 31
0.0
  0
LINE
  5
1909
330
1E
100
AcDbEntity
  8
0
100
AcDbLine
 10
533.110864544333
 20
159.424457483079
 30
0.0
 11
533.110864544333
 21
160.329750671964
 31
0.0
  0
LINE
  5
190A
330
1E
100
AcDbEntity
  8
0
100
AcDbLine
 10
533.110864544333
 20
159.424457483079
 30
0.0
 11
533.110864544333
 21
158.808457483079
 31
0.0
  0
LINE
  5
190B
330
1E
100
AcDbEntity
  8
0
100
AcDbLine
 10
532.296864544332
 20
146.912457483079
 30
0.0
 11
533.560864544333
 21
147.220457483079
 31
0.0
  0
LINE
  5
190C
330
1E
100
AcDbEntity
  8
0
100
AcDbLine
 10
532.296864544332
 20
146.912457483079
 30
0.0
 11
533.025864544333
 21
146.377457483079
 31
0.0
  0
LINE
  5
190D
330
1E
100
AcDbEntity
  8
0
100
AcDbLine
 10
532.296864544332
 20
146.912457483079
 30
0.0
 11
532.296864544332
 21
148.016662962531
 31
0.0
  0
LINE
  5
190E
330
1E
100
AcDbEntity
  8
0
100
AcDbLine
 10
533.025864544333
 20
146.377457483079
 30
0.0
 11
534.290864544333
 21
146.686457483079
 31
0.0
  0
LINE
  5
190F
330
1E
100
AcDbEntity
  8
0
100
AcDbLine
 10
533.560864544333
 20
172.825457483079
 30
0.0
 11
534.290864544333
 21
173.360457483079
 31
0.0
  0
LINE
  5
1910
330
1E
100
AcDbEntity
  8
0
100
AcDbLine
 10
533.560864544333
 20
147.925714540535
 30
0.0
 11
533.560864544333
 21
147.220457483079
 31
0.0
  0
LINE
  5
1911
330
1E
100
AcDbEntity
  8
0
100
AcDbLine
 10
533.560864544333
 20
147.220457483079
 30
0.0
 11
534.290864544333
 21
146.686457483079
 31
0.0
  0
LINE
  5
1912
330
1E
100
AcDbEntity
  8
0
100
AcDbLine
 10
533.560864544333
 20
147.220457483079
 30
0.0
 11
533.560864544333
 21
147.925714540535
 31
0.0
  0
LINE
  5
1913
330
1E
100
AcDbEntity
  8
0
100
AcDbLine
 10
533.183864544333
 20
143.027457483079
 30
0.0
 11
537.128306820121
 21
143.827873075481
 31
0.0
  0
LINE
  5
1914
330
1E
100
AcDbEntity
  8
0
100
AcDbLine
 10
534.059864544333
 20
142.194457483079
 30
0.0
 11
539.753864544333
 21
143.336457483079
 31
0.0
  0
LINE
  5
1915
330
1E
100
AcDbEntity
  8
0
100
AcDbLine
 10
528.209864544333
 20
180.367441955602
 30
0.0
 11
528.209864544333
 21
178.898457483079
 31
0.0
  0
LINE
  5
1916
330
1E
100
AcDbEntity
  8
0
100
AcDbLine
 10
529.473864544333
 20
180.207349399657
 30
0.0
 11
529.473864544333
 21
178.589457483079
 31
0.0
  0
LINE
  5
1917
330
1E
100
AcDbEntity
  8
0
100
AcDbLine
 10
533.183864544333
 20
179.737457483079
 30
0.0
 11
538.658864544333
 21
178.626457483079
 31
0.0
  0
LINE
  5
1918
330
1E
100
AcDbEntity
  8
0
100
AcDbLine
 10
536.675864544333
 20
144.159457483079
 30
0.0
 11
537.939864544333
 21
144.467457483079
 31
0.0
  0
LINE
  5
1919
330
1E
100
AcDbEntity
  8
0
100
AcDbLine
 10
536.675864544333
 20
144.159457483079
 30
0.0
 11
537.405864544333
 21
143.624457483079
 31
0.0
  0
LINE
  5
191A
330
1E
100
AcDbEntity
  8
0
100
AcDbLine
 10
536.675864544333
 20
144.159457483079
 30
0.0
 11
536.675864544333
 21
144.763296532473
 31
0.0
  0
LINE
  5
191B
330
1E
100
AcDbEntity
  8
0
100
AcDbLine
 10
534.290864544333
 20
146.686457483079
 30
0.0
 11
534.290864544333
 21
147.761943368167
 31
0.0
  0
LINE
  5
191C
330
1E
100
AcDbEntity
  8
0
100
AcDbLine
 10
534.407864544333
 20
152.102102893371
 30
0.0
 11
534.407864544333
 21
151.679457483079
 31
0.0
  0
LINE
  5
191D
330
1E
100
AcDbEntity
  8
0
100
AcDbLine
 10
534.407864544333
 20
151.679457483079
 30
0.0
 11
534.407864544333
 21
152.296457483079
 31
0.0
  0
LINE
  5
191E
330
1E
100
AcDbEntity
  8
0
100
AcDbLine
 10
534.407864544333
 20
151.679457483079
 30
0.0
 11
535.867864544333
 21
151.679457483079
 31
0.0
  0
LINE
  5
191F
330
1E
100
AcDbEntity
  8
0
100
AcDbLine
 10
534.407864544333
 20
151.679457483079
 30
0.0
 11
534.407864544333
 21
152.102102893371
 31
0.0
  0
LINE
  5
1920
330
1E
100
AcDbEntity
  8
0
100
AcDbLine
 10
534.407864544333
 20
152.296457483079
 30
0.0
 11
535.867864544333
 21
152.296457483079
 31
0.0
  0
LINE
  5
1921
330
1E
100
AcDbEntity
  8
0
100
AcDbLine
 10
534.407864544333
 20
152.296457483079
 30
0.0
 11
534.407864544333
 21
151.679457483079
 31
0.0
  0
LINE
  5
1922
330
1E
100
AcDbEntity
  8
0
100
AcDbLine
 10
534.570864544333
 20
158.808457483079
 30
0.0
 11
534.570864544333
 21
159.424457483079
 31
0.0
  0
LINE
  5
1923
330
1E
100
AcDbEntity
  8
0
100
AcDbLine
 10
534.290864544333
 20
173.360457483079
 30
0.0
 11
534.290864544333
 21
173.565396871986
 31
0.0
  0
LINE
  5
1924
330
1E
100
AcDbEntity
  8
0
100
AcDbLine
 10
534.407864544333
 20
168.313854979602
 30
0.0
 11
534.407864544333
 21
167.460457483079
 31
0.0
  0
LINE
  5
1925
330
1E
100
AcDbEntity
  8
0
100
AcDbLine
 10
534.407864544333
 20
167.460457483079
 30
0.0
 11
534.407864544333
 21
166.843457483079
 31
0.0
  0
LINE
  5
1926
330
1E
100
AcDbEntity
  8
0
100
AcDbLine
 10
534.407864544333
 20
167.460457483079
 30
0.0
 11
535.867864544333
 21
167.460457483079
 31
0.0
  0
LINE
  5
1927
330
1E
100
AcDbEntity
  8
0
100
AcDbLine
 10
534.407864544333
 20
167.460457483079
 30
0.0
 11
534.407864544333
 21
168.313854979602
 31
0.0
  0
LINE
  5
1928
330
1E
100
AcDbEntity
  8
0
100
AcDbLine
 10
534.407864544333
 20
166.843457483079
 30
0.0
 11
535.867864544333
 21
166.843457483079
 31
0.0
  0
LINE
  5
1929
330
1E
100
AcDbEntity
  8
0
100
AcDbLine
 10
534.407864544333
 20
166.843457483079
 30
0.0
 11
534.407864544333
 21
167.460457483079
 31
0.0
  0
LINE
  5
192A
330
1E
100
AcDbEntity
  8
0
100
AcDbLine
 10
534.290864544333
 20
173.565396871986
 30
0.0
 11
534.290864544333
 21
173.360457483079
 31
0.0
  0
LINE
  5
192B
330
1E
100
AcDbEntity
  8
0
100
AcDbLine
 10
534.570864544333
 20
160.343723660693
 30
0.0
 11
534.570864544333
 21
159.424457483079
 31
0.0
  0
LINE
  5
192C
330
1E
100
AcDbEntity
  8
0
100
AcDbLine
 10
535.867864544333
 20
151.679457483079
 30
0.0
 11
535.867864544333
 21
152.296457483079
 31
0.0
  0
LINE
  5
192D
330
1E
100
AcDbEntity
  8
0
100
AcDbLine
 10
535.867864544333
 20
153.179215581303
 30
0.0
 11
535.867864544333
 21
152.296457483079
 31
0.0
  0
LINE
  5
192E
330
1E
100
AcDbEntity
  8
0
100
AcDbLine
 10
535.867864544333
 20
152.296457483079
 30
0.0
 11
535.867864544333
 21
151.679457483079
 31
0.0
  0
LINE
  5
192F
330
1E
100
AcDbEntity
  8
0
100
AcDbLine
 10
535.867864544333
 20
152.296457483079
 30
0.0
 11
535.867864544333
 21
153.179215581303
 31
0.0
  0
LINE
  5
1930
330
1E
100
AcDbEntity
  8
0
100
AcDbLine
 10
535.867864544333
 20
167.460457483079
 30
0.0
 11
535.867864544333
 21
166.843457483079
 31
0.0
  0
LINE
  5
1931
330
1E
100
AcDbEntity
  8
0
100
AcDbLine
 10
535.867864544333
 20
166.843457483079
 30
0.0
 11
535.867864544333
 21
167.460457483079
 31
0.0
  0
LINE
  5
1932
330
1E
100
AcDbEntity
  8
0
100
AcDbLine
 10
536.675864544333
 20
177.666559812995
 30
0.0
 11
536.675864544333
 21
176.792457483079
 31
0.0
  0
LINE
  5
1933
330
1E
100
AcDbEntity
  8
0
100
AcDbLine
 10
536.675864544333
 20
176.792457483079
 30
0.0
 11
537.939864544333
 21
176.484457483079
 31
0.0
  0
LINE
  5
1934
330
1E
100
AcDbEntity
  8
0
100
AcDbLine
 10
536.675864544333
 20
176.792457483079
 30
0.0
 11
537.405864544333
 21
177.327457483079
 31
0.0
  0
LINE
  5
1935
330
1E
100
AcDbEntity
  8
0
100
AcDbLine
 10
536.675864544333
 20
176.792457483079
 30
0.0
 11
536.675864544333
 21
177.666559812995
 31
0.0
  0
LINE
  5
1936
330
1E
100
AcDbEntity
  8
0
100
AcDbLine
 10
534.570864544333
 20
159.424457483079
 30
0.0
 11
534.570864544333
 21
158.808457483079
 31
0.0
  0
LINE
  5
1937
330
1E
100
AcDbEntity
  8
0
100
AcDbLine
 10
534.570864544333
 20
159.424457483079
 30
0.0
 11
534.570864544333
 21
160.343723660693
 31
0.0
  0
LINE
  5
1938
330
1E
100
AcDbEntity
  8
0
100
AcDbLine
 10
534.290864544333
 20
147.761943368167
 30
0.0
 11
534.290864544333
 21
146.686457483079
 31
0.0
  0
LINE
  5
1939
330
1E
100
AcDbEntity
  8
0
100
AcDbLine
 10
537.939864544333
 20
176.484457483079
 30
0.0
 11
538.669864544333
 21
177.018457483079
 31
0.0
  0
LINE
  5
193A
330
1E
100
AcDbEntity
  8
0
100
AcDbLine
 10
537.405864544333
 20
178.01992607581
 30
0.0
 11
537.405864544333
 21
177.327457483079
 31
0.0
  0
LINE
  5
193B
330
1E
100
AcDbEntity
  8
0
100
AcDbLine
 10
537.405864544333
 20
177.327457483079
 30
0.0
 11
538.669864544333
 21
177.018457483079
 31
0.0
  0
LINE
  5
193C
330
1E
100
AcDbEntity
  8
0
100
AcDbLine
 10
537.405864544333
 20
177.327457483079
 30
0.0
 11
537.405864544333
 21
178.01992607581
 31
0.0
  0
LINE
  5
193D
330
1E
100
AcDbEntity
  8
0
100
AcDbLine
 10
536.675864544333
 20
144.763296532473
 30
0.0
 11
536.675864544333
 21
144.159457483079
 31
0.0
  0
LINE
  5
193E
330
1E
100
AcDbEntity
  8
0
100
AcDbLine
 10
537.939864544333
 20
144.576752003627
 30
0.0
 11
537.939864544333
 21
144.467457483079
 31
0.0
  0
LINE
  5
193F
330
1E
100
AcDbEntity
  8
0
100
AcDbLine
 10
537.939864544333
 20
144.467457483079
 30
0.0
 11
538.669864544333
 21
143.933457483079
 31
0.0
  0
LINE
  5
1940
330
1E
100
AcDbEntity
  8
0
100
AcDbLine
 10
537.939864544333
 20
144.467457483079
 30
0.0
 11
537.939864544333
 21
144.576752003627
 31
0.0
  0
LINE
  5
1941
330
1E
100
AcDbEntity
  8
0
100
AcDbLine
 10
537.405864544333
 20
143.624457483079
 30
0.0
 11
538.669864544333
 21
143.933457483079
 31
0.0
  0
LINE
  5
1942
330
1E
100
AcDbEntity
  8
0
100
AcDbLine
 10
538.669864544333
 20
177.018457483079
 30
0.0
 11
538.669864544333
 21
178.623313716194
 31
0.0
  0
LINE
  5
1943
330
1E
100
AcDbEntity
  8
0
100
AcDbLine
 10
538.669864544333
 20
178.623313716194
 30
0.0
 11
538.669864544333
 21
177.018457483079
 31
0.0
  0
LINE
  5
1944
330
1E
100
AcDbEntity
  8
0
100
AcDbLine
 10
538.669864544333
 20
143.933457483079
 30
0.0
 11
538.669864544333
 21
144.141601249964
 31
0.0
  0
LINE
  5
1945
330
1E
100
AcDbEntity
  8
0
100
AcDbLine
 10
539.272864544333
 20
148.735457483079
 30
0.0
 11
539.272864544333
 21
149.352457483079
 31
0.0
  0
LINE
  5
1946
330
1E
100
AcDbEntity
  8
0
100
AcDbLine
 10
539.272864544333
 20
148.735457483079
 30
0.0
 11
540.732864544333
 21
148.735457483079
 31
0.0
  0
LINE
  5
1947
330
1E
100
AcDbEntity
  8
0
100
AcDbLine
 10
539.272864544333
 20
150.370883308659
 30
0.0
 11
539.272864544333
 21
149.352457483079
 31
0.0
  0
LINE
  5
1948
330
1E
100
AcDbEntity
  8
0
100
AcDbLine
 10
539.679864544333
 20
155.894216277049
 30
0.0
 11
539.679864544333
 21
155.487457483079
 31
0.0
  0
LINE
  5
1949
330
1E
100
AcDbEntity
  8
0
100
AcDbLine
 10
539.679864544333
 20
155.487457483079
 30
0.0
 11
539.679864544333
 21
156.103457483079
 31
0.0
  0
LINE
  5
194A
330
1E
100
AcDbEntity
  8
0
100
AcDbLine
 10
539.679864544333
 20
155.487457483079
 30
0.0
 11
541.139864544333
 21
155.487457483079
 31
0.0
  0
LINE
  5
194B
330
1E
100
AcDbEntity
  8
0
100
AcDbLine
 10
539.679864544333
 20
155.487457483079
 30
0.0
 11
539.679864544333
 21
155.894216277049
 31
0.0
  0
LINE
  5
194C
330
1E
100
AcDbEntity
  8
0
100
AcDbLine
 10
539.679864544333
 20
157.105034853471
 30
0.0
 11
539.679864544333
 21
156.103457483079
 31
0.0
  0
LINE
  5
194D
330
1E
100
AcDbEntity
  8
0
100
AcDbLine
 10
539.679864544333
 20
156.103457483079
 30
0.0
 11
541.139864544333
 21
156.103457483079
 31
0.0
  0
LINE
  5
194E
330
1E
100
AcDbEntity
  8
0
100
AcDbLine
 10
539.679864544333
 20
156.103457483079
 30
0.0
 11
539.679864544333
 21
157.105034853471
 31
0.0
  0
LINE
  5
194F
330
1E
100
AcDbEntity
  8
0
100
AcDbLine
 10
539.679864544333
 20
156.103457483079
 30
0.0
 11
539.679864544333
 21
155.487457483079
 31
0.0
  0
LINE
  5
1950
330
1E
100
AcDbEntity
  8
0
100
AcDbLine
 10
539.272864544333
 20
149.352457483079
 30
0.0
 11
540.732864544333
 21
149.352457483079
 31
0.0
  0
LINE
  5
1951
330
1E
100
AcDbEntity
  8
0
100
AcDbLine
 10
539.272864544333
 20
149.352457483079
 30
0.0
 11
539.272864544333
 21
150.370883308659
 31
0.0
  0
LINE
  5
1952
330
1E
100
AcDbEntity
  8
0
100
AcDbLine
 10
539.272864544333
 20
149.352457483079
 30
0.0
 11
539.272864544333
 21
148.735457483079
 31
0.0
  0
LINE
  5
1953
330
1E
100
AcDbEntity
  8
0
100
AcDbLine
 10
539.272864544333
 20
171.310457483079
 30
0.0
 11
539.272864544333
 21
170.693457483079
 31
0.0
  0
LINE
  5
1954
330
1E
100
AcDbEntity
  8
0
100
AcDbLine
 10
539.272864544333
 20
171.310457483079
 30
0.0
 11
540.732864544333
 21
171.310457483079
 31
0.0
  0
LINE
  5
1955
330
1E
100
AcDbEntity
  8
0
100
AcDbLine
 10
539.272864544333
 20
170.693457483079
 30
0.0
 11
540.732864544333
 21
170.693457483079
 31
0.0
  0
LINE
  5
1956
330
1E
100
AcDbEntity
  8
0
100
AcDbLine
 10
539.272864544333
 20
170.693457483079
 30
0.0
 11
539.272864544333
 21
171.310457483079
 31
0.0
  0
LINE
  5
1957
330
1E
100
AcDbEntity
  8
0
100
AcDbLine
 10
539.679864544333
 20
164.462635742799
 30
0.0
 11
539.679864544333
 21
163.652457483079
 31
0.0
  0
LINE
  5
1958
330
1E
100
AcDbEntity
  8
0
100
AcDbLine
 10
539.679864544333
 20
163.652457483079
 30
0.0
 11
539.679864544333
 21
163.035457483079
 31
0.0
  0
LINE
  5
1959
330
1E
100
AcDbEntity
  8
0
100
AcDbLine
 10
539.679864544333
 20
163.652457483079
 30
0.0
 11
541.139864544333
 21
163.652457483079
 31
0.0
  0
LINE
  5
195A
330
1E
100
AcDbEntity
  8
0
100
AcDbLine
 10
539.679864544333
 20
163.652457483079
 30
0.0
 11
539.679864544333
 21
164.462635742799
 31
0.0
  0
LINE
  5
195B
330
1E
100
AcDbEntity
  8
0
100
AcDbLine
 10
539.679864544333
 20
163.169194522306
 30
0.0
 11
539.679864544333
 21
163.035457483079
 31
0.0
  0
LINE
  5
195C
330
1E
100
AcDbEntity
  8
0
100
AcDbLine
 10
539.679864544333
 20
163.035457483079
 30
0.0
 11
541.139864544333
 21
163.035457483079
 31
0.0
  0
LINE
  5
195D
330
1E
100
AcDbEntity
  8
0
100
AcDbLine
 10
539.679864544333
 20
163.035457483079
 30
0.0
 11
539.679864544333
 21
163.169194522306
 31
0.0
  0
LINE
  5
195E
330
1E
100
AcDbEntity
  8
0
100
AcDbLine
 10
539.679864544333
 20
163.035457483079
 30
0.0
 11
539.679864544333
 21
163.652457483079
 31
0.0
  0
LINE
  5
195F
330
1E
100
AcDbEntity
  8
0
100
AcDbLine
 10
538.669864544333
 20
144.141601249964
 30
0.0
 11
543.840864544333
 21
145.619457483079
 31
0.0
  0
LINE
  5
1960
330
1E
100
AcDbEntity
  8
0
100
AcDbLine
 10
538.669864544333
 20
144.141601249964
 30
0.0
 11
538.669864544333
 21
143.933457483079
 31
0.0
  0
LINE
  5
1961
330
1E
100
AcDbEntity
  8
0
100
AcDbLine
 10
539.753864544333
 20
143.336457483079
 30
0.0
 11
545.154864544333
 21
144.878457483079
 31
0.0
  0
LINE
  5
1962
330
1E
100
AcDbEntity
  8
0
100
AcDbLine
 10
538.658864544333
 20
178.626457483079
 30
0.0
 11
543.840864544333
 21
177.145457483079
 31
0.0
  0
LINE
  5
1963
330
1E
100
AcDbEntity
  8
0
100
AcDbLine
 10
539.753864544333
 20
179.428457483079
 30
0.0
 11
545.154864544333
 21
177.886457483079
 31
0.0
  0
LINE
  5
1964
330
1E
100
AcDbEntity
  8
0
100
AcDbLine
 10
534.059864544333
 20
180.569457483079
 30
0.0
 11
539.753864544333
 21
179.428457483079
 31
0.0
  0
LINE
  5
1965
330
1E
100
AcDbEntity
  8
0
100
AcDbLine
 10
534.351864544333
 20
181.784457483079
 30
0.0
 11
540.118864544333
 21
180.581457483079
 31
0.0
  0
LINE
  5
1966
330
1E
100
AcDbEntity
  8
0
100
AcDbLine
 10
528.147864544333
 20
182.648457483079
 30
0.0
 11
534.351864544333
 21
181.784457483079
 31
0.0
  0
LINE
  5
1967
330
1E
100
AcDbEntity
  8
0
100
AcDbLine
 10
534.351864544333
 20
200.817457483079
 30
0.0
 11
540.118864544333
 21
199.614457483079
 31
0.0
  0
LINE
  5
1968
330
1E
100
AcDbEntity
  8
0
100
AcDbLine
 10
540.732864544333
 20
148.735457483079
 30
0.0
 11
540.732864544333
 21
149.352457483079
 31
0.0
  0
LINE
  5
1969
330
1E
100
AcDbEntity
  8
0
100
AcDbLine
 10
540.732864544333
 20
149.889192275023
 30
0.0
 11
540.732864544333
 21
149.352457483079
 31
0.0
  0
LINE
  5
196A
330
1E
100
AcDbEntity
  8
0
100
AcDbLine
 10
541.139864544333
 20
155.487457483079
 30
0.0
 11
541.139864544333
 21
156.103457483079
 31
0.0
  0
LINE
  5
196B
330
1E
100
AcDbEntity
  8
0
100
AcDbLine
 10
541.139864544333
 20
157.059346897627
 30
0.0
 11
541.139864544333
 21
156.103457483079
 31
0.0
  0
LINE
  5
196C
330
1E
100
AcDbEntity
  8
0
100
AcDbLine
 10
541.139864544333
 20
156.103457483079
 30
0.0
 11
541.139864544333
 21
155.487457483079
 31
0.0
  0
LINE
  5
196D
330
1E
100
AcDbEntity
  8
0
100
AcDbLine
 10
541.139864544333
 20
156.103457483079
 30
0.0
 11
541.139864544333
 21
157.059346897627
 31
0.0
  0
LINE
  5
196E
330
1E
100
AcDbEntity
  8
0
100
AcDbLine
 10
540.732864544333
 20
149.352457483079
 30
0.0
 11
540.732864544333
 21
148.735457483079
 31
0.0
  0
LINE
  5
196F
330
1E
100
AcDbEntity
  8
0
100
AcDbLine
 10
540.732864544333
 20
149.352457483079
 30
0.0
 11
540.732864544333
 21
149.889192275023
 31
0.0
  0
LINE
  5
1970
330
1E
100
AcDbEntity
  8
0
100
AcDbLine
 10
541.869864544333
 20
159.261457483079
 30
0.0
 11
541.869864544333
 21
159.878457483079
 31
0.0
  0
LINE
  5
1971
330
1E
100
AcDbEntity
  8
0
100
AcDbLine
 10
541.869864544333
 20
159.261457483079
 30
0.0
 11
543.329864544333
 21
159.261457483079
 31
0.0
  0
LINE
  5
1972
330
1E
100
AcDbEntity
  8
0
100
AcDbLine
 10
541.869864544333
 20
159.261457483079
 30
0.0
 11
541.869864544333
 21
159.960662691007
 31
0.0
  0
LINE
  5
1973
330
1E
100
AcDbEntity
  8
0
100
AcDbLine
 10
543.489864544332
 20
145.776307733258
 30
0.0
 11
543.489864544332
 21
145.654457483079
 31
0.0
  0
LINE
  5
1974
330
1E
100
AcDbEntity
  8
0
100
AcDbLine
 10
543.489864544332
 20
145.654457483079
 30
0.0
 11
543.489864544332
 21
146.271457483079
 31
0.0
  0
LINE
  5
1975
330
1E
100
AcDbEntity
  8
0
100
AcDbLine
 10
543.489864544332
 20
145.654457483079
 30
0.0
 11
544.949864544333
 21
145.654457483079
 31
0.0
  0
LINE
  5
1976
330
1E
100
AcDbEntity
  8
0
100
AcDbLine
 10
543.489864544332
 20
145.654457483079
 30
0.0
 11
543.489864544332
 21
145.776307733258
 31
0.0
  0
LINE
  5
1977
330
1E
100
AcDbEntity
  8
0
100
AcDbLine
 10
543.489864544332
 20
146.271457483079
 30
0.0
 11
544.949864544333
 21
146.271457483079
 31
0.0
  0
LINE
  5
1978
330
1E
100
AcDbEntity
  8
0
100
AcDbLine
 10
543.489864544332
 20
146.271457483079
 30
0.0
 11
543.489864544332
 21
145.654457483079
 31
0.0
  0
LINE
  5
1979
330
1E
100
AcDbEntity
  8
0
100
AcDbLine
 10
543.329864544333
 20
159.261457483079
 30
0.0
 11
543.329864544333
 21
159.878457483079
 31
0.0
  0
LINE
  5
197A
330
1E
100
AcDbEntity
  8
0
100
AcDbLine
 10
541.869864544333
 20
159.878457483079
 30
0.0
 11
543.329864544333
 21
159.878457483079
 31
0.0
  0
LINE
  5
197B
330
1E
100
AcDbEntity
  8
0
100
AcDbLine
 10
541.869864544333
 20
159.878457483079
 30
0.0
 11
541.869864544333
 21
160.413579033798
 31
0.0
  0
LINE
  5
197C
330
1E
100
AcDbEntity
  8
0
100
AcDbLine
 10
541.869864544333
 20
159.878457483079
 30
0.0
 11
541.869864544333
 21
159.261457483079
 31
0.0
  0
LINE
  5
197D
330
1E
100
AcDbEntity
  8
0
100
AcDbLine
 10
541.869864544333
 20
159.960662691007
 30
0.0
 11
541.869864544333
 21
159.261457483079
 31
0.0
  0
LINE
  5
197E
330
1E
100
AcDbEntity
  8
0
100
AcDbLine
 10
541.139864544333
 20
163.035457483079
 30
0.0
 11
541.139864544333
 21
163.652457483079
 31
0.0
  0
LINE
  5
197F
330
1E
100
AcDbEntity
  8
0
100
AcDbLine
 10
541.869864544333
 20
160.413579033798
 30
0.0
 11
541.869864544333
 21
159.878457483079
 31
0.0
  0
LINE
  5
1980
330
1E
100
AcDbEntity
  8
0
100
AcDbLine
 10
543.329864544333
 20
160.427552022527
 30
0.0
 11
543.329864544333
 21
159.878457483079
 31
0.0
  0
LINE
  5
1981
330
1E
100
AcDbEntity
  8
0
100
AcDbLine
 10
543.329864544333
 20
159.878457483079
 30
0.0
 11
543.329864544333
 21
159.261457483079
 31
0.0
  0
LINE
  5
1982
330
1E
100
AcDbEntity
  8
0
100
AcDbLine
 10
543.329864544333
 20
159.878457483079
 30
0.0
 11
543.329864544333
 21
160.427552022527
 31
0.0
  0
LINE
  5
1983
330
1E
100
AcDbEntity
  8
0
100
AcDbLine
 10
543.840864544333
 20
145.619457483079
 30
0.0
 11
543.934069524067
 21
145.654457483079
 31
0.0
  0
LINE
  5
1984
330
1E
100
AcDbEntity
  8
0
100
AcDbLine
 10
540.732864544333
 20
171.446945981188
 30
0.0
 11
540.732864544333
 21
171.310457483079
 31
0.0
  0
LINE
  5
1985
330
1E
100
AcDbEntity
  8
0
100
AcDbLine
 10
540.732864544333
 20
171.310457483079
 30
0.0
 11
540.732864544333
 21
171.446945981188
 31
0.0
  0
LINE
  5
1986
330
1E
100
AcDbEntity
  8
0
100
AcDbLine
 10
540.732864544333
 20
171.310457483079
 30
0.0
 11
540.732864544333
 21
170.693457483079
 31
0.0
  0
LINE
  5
1987
330
1E
100
AcDbEntity
  8
0
100
AcDbLine
 10
540.732864544333
 20
170.693457483079
 30
0.0
 11
540.732864544333
 21
171.310457483079
 31
0.0
  0
LINE
  5
1988
330
1E
100
AcDbEntity
  8
0
100
AcDbLine
 10
541.139864544333
 20
164.787534975806
 30
0.0
 11
541.139864544333
 21
163.652457483079
 31
0.0
  0
LINE
  5
1989
330
1E
100
AcDbEntity
  8
0
100
AcDbLine
 10
543.489864544332
 20
175.297457483079
 30
0.0
 11
543.489864544332
 21
174.680457483079
 31
0.0
  0
LINE
  5
198A
330
1E
100
AcDbEntity
  8
0
100
AcDbLine
 10
543.489864544332
 20
175.297457483079
 30
0.0
 11
544.949864544333
 21
175.297457483079
 31
0.0
  0
LINE
  5
198B
330
1E
100
AcDbEntity
  8
0
100
AcDbLine
 10
543.489864544332
 20
174.680457483079
 30
0.0
 11
544.949864544333
 21
174.680457483079
 31
0.0
  0
LINE
  5
198C
330
1E
100
AcDbEntity
  8
0
100
AcDbLine
 10
543.489864544332
 20
174.680457483079
 30
0.0
 11
543.489864544332
 21
175.297457483079
 31
0.0
  0
LINE
  5
198D
330
1E
100
AcDbEntity
  8
0
100
AcDbLine
 10
541.139864544333
 20
163.652457483079
 30
0.0
 11
541.139864544333
 21
164.787534975806
 31
0.0
  0
LINE
  5
198E
330
1E
100
AcDbEntity
  8
0
100
AcDbLine
 10
541.139864544333
 20
163.652457483079
 30
0.0
 11
541.139864544333
 21
163.035457483079
 31
0.0
  0
LINE
  5
198F
330
1E
100
AcDbEntity
  8
0
100
AcDbLine
 10
544.626864544333
 20
151.834311400193
 30
0.0
 11
544.626864544333
 21
151.549457483079
 31
0.0
  0
LINE
  5
1990
330
1E
100
AcDbEntity
  8
0
100
AcDbLine
 10
544.626864544333
 20
151.549457483079
 30
0.0
 11
544.626864544333
 21
152.166457483079
 31
0.0
  0
LINE
  5
1991
330
1E
100
AcDbEntity
  8
0
100
AcDbLine
 10
544.626864544333
 20
151.549457483079
 30
0.0
 11
546.086864544332
 21
151.549457483079
 31
0.0
  0
LINE
  5
1992
330
1E
100
AcDbEntity
  8
0
100
AcDbLine
 10
544.626864544333
 20
151.549457483079
 30
0.0
 11
544.626864544333
 21
151.834311400193
 31
0.0
  0
LINE
  5
1993
330
1E
100
AcDbEntity
  8
0
100
AcDbLine
 10
544.626864544333
 20
152.166457483079
 30
0.0
 11
546.086864544332
 21
152.166457483079
 31
0.0
  0
LINE
  5
1994
330
1E
100
AcDbEntity
  8
0
100
AcDbLine
 10
544.626864544333
 20
152.166457483079
 30
0.0
 11
544.626864544333
 21
151.549457483079
 31
0.0
  0
LINE
  5
1995
330
1E
100
AcDbEntity
  8
0
100
AcDbLine
 10
544.949864544333
 20
145.654457483079
 30
0.0
 11
544.949864544333
 21
146.271457483079
 31
0.0
  0
LINE
  5
1996
330
1E
100
AcDbEntity
  8
0
100
AcDbLine
 10
544.949864544333
 20
146.271457483079
 30
0.0
 11
544.949864544333
 21
145.654457483079
 31
0.0
  0
LINE
  5
1997
330
1E
100
AcDbEntity
  8
0
100
AcDbLine
 10
544.626864544333
 20
169.507832672395
 30
0.0
 11
544.626864544333
 21
168.496457483079
 31
0.0
  0
LINE
  5
1998
330
1E
100
AcDbEntity
  8
0
100
AcDbLine
 10
544.949864544333
 20
176.728768637678
 30
0.0
 11
544.949864544333
 21
175.297457483079
 31
0.0
  0
LINE
  5
1999
330
1E
100
AcDbEntity
  8
0
100
AcDbLine
 10
544.949864544333
 20
175.297457483079
 30
0.0
 11
544.949864544333
 21
176.728768637678
 31
0.0
  0
LINE
  5
199A
330
1E
100
AcDbEntity
  8
0
100
AcDbLine
 10
544.949864544333
 20
175.297457483079
 30
0.0
 11
544.949864544333
 21
174.680457483079
 31
0.0
  0
LINE
  5
199B
330
1E
100
AcDbEntity
  8
0
100
AcDbLine
 10
544.949864544333
 20
174.680457483079
 30
0.0
 11
544.949864544333
 21
175.297457483079
 31
0.0
  0
LINE
  5
199C
330
1E
100
AcDbEntity
  8
0
100
AcDbLine
 10
544.626864544333
 20
168.496457483079
 30
0.0
 11
544.626864544333
 21
167.879457483079
 31
0.0
  0
LINE
  5
199D
330
1E
100
AcDbEntity
  8
0
100
AcDbLine
 10
544.626864544333
 20
168.496457483079
 30
0.0
 11
546.086864544332
 21
168.496457483079
 31
0.0
  0
LINE
  5
199E
330
1E
100
AcDbEntity
  8
0
100
AcDbLine
 10
544.626864544333
 20
168.496457483079
 30
0.0
 11
544.626864544333
 21
169.507832672395
 31
0.0
  0
LINE
  5
199F
330
1E
100
AcDbEntity
  8
0
100
AcDbLine
 10
544.626864544333
 20
167.879457483079
 30
0.0
 11
546.086864544332
 21
167.879457483079
 31
0.0
  0
LINE
  5
19A0
330
1E
100
AcDbEntity
  8
0
100
AcDbLine
 10
544.626864544333
 20
167.879457483079
 30
0.0
 11
544.626864544333
 21
168.496457483079
 31
0.0
  0
LINE
  5
19A1
330
1E
100
AcDbEntity
  8
0
100
AcDbLine
 10
544.949864544333
 20
146.035905189102
 30
0.0
 11
548.439864544333
 21
147.346457483079
 31
0.0
  0
LINE
  5
19A2
330
1E
100
AcDbEntity
  8
0
100
AcDbLine
 10
545.154864544333
 20
144.878457483079
 30
0.0
 11
550.045864544333
 21
146.667457483079
 31
0.0
  0
LINE
  5
19A3
330
1E
100
AcDbEntity
  8
0
100
AcDbLine
 10
543.840864544333
 20
177.145457483079
 30
0.0
 11
548.439864544333
 21
175.417457483079
 31
0.0
  0
LINE
  5
19A4
330
1E
100
AcDbEntity
  8
0
100
AcDbLine
 10
545.154864544333
 20
177.886457483079
 30
0.0
 11
550.045864544333
 21
176.096457483079
 31
0.0
  0
LINE
  5
19A5
330
1E
100
AcDbEntity
  8
0
100
AcDbLine
 10
545.592864544333
 20
179.039457483079
 30
0.0
 11
550.555864544333
 21
177.219457483079
 31
0.0
  0
LINE
  5
19A6
330
1E
100
AcDbEntity
  8
0
100
AcDbLine
 10
540.118864544333
 20
180.581457483079
 30
0.0
 11
545.592864544333
 21
179.039457483079
 31
0.0
  0
LINE
  5
19A7
330
1E
100
AcDbEntity
  8
0
100
AcDbLine
 10
549.897864544333
 20
148.501457483079
 30
0.0
 11
549.897864544333
 21
149.118457483079
 31
0.0
  0
LINE
  5
19A8
330
1E
100
AcDbEntity
  8
0
100
AcDbLine
 10
549.897864544333
 20
148.501457483079
 30
0.0
 11
551.357864544333
 21
148.501457483079
 31
0.0
  0
LINE
  5
19A9
330
1E
100
AcDbEntity
  8
0
100
AcDbLine
 10
549.897864544333
 20
148.501457483079
 30
0.0
 11
549.897864544333
 21
149.532869366552
 31
0.0
  0
LINE
  5
19AA
330
1E
100
AcDbEntity
  8
0
100
AcDbLine
 10
548.439864544333
 20
147.346457483079
 30
0.0
 11
550.869347302954
 21
148.501457483079
 31
0.0
  0
LINE
  5
19AB
330
1E
100
AcDbEntity
  8
0
100
AcDbLine
 10
551.357864544333
 20
148.501457483079
 30
0.0
 11
551.357864544333
 21
149.118457483079
 31
0.0
  0
LINE
  5
19AC
330
1E
100
AcDbEntity
  8
0
100
AcDbLine
 10
551.357864544333
 20
148.733703384718
 30
0.0
 11
552.526864544333
 21
149.289457483079
 31
0.0
  0
LINE
  5
19AD
330
1E
100
AcDbEntity
  8
0
100
AcDbLine
 10
550.045864544333
 20
146.667457483079
 30
0.0
 11
554.278864544332
 21
148.734457483079
 31
0.0
  0
LINE
  5
19AE
330
1E
100
AcDbEntity
  8
0
100
AcDbLine
 10
549.897864544333
 20
149.118457483079
 30
0.0
 11
551.357864544333
 21
149.118457483079
 31
0.0
  0
LINE
  5
19AF
330
1E
100
AcDbEntity
  8
0
100
AcDbLine
 10
549.897864544333
 20
149.118457483079
 30
0.0
 11
549.897864544333
 21
149.91963512779
 31
0.0
  0
LINE
  5
19B0
330
1E
100
AcDbEntity
  8
0
100
AcDbLine
 10
549.897864544333
 20
149.118457483079
 30
0.0
 11
549.897864544333
 21
148.501457483079
 31
0.0
  0
LINE
  5
19B1
330
1E
100
AcDbEntity
  8
0
100
AcDbLine
 10
551.357864544333
 20
149.118457483079
 30
0.0
 11
551.357864544333
 21
148.501457483079
 31
0.0
  0
LINE
  5
19B2
330
1E
100
AcDbEntity
  8
0
100
AcDbLine
 10
551.357864544333
 20
149.118457483079
 30
0.0
 11
551.357864544333
 21
149.569669604291
 31
0.0
  0
LINE
  5
19B3
330
1E
100
AcDbEntity
  8
0
100
AcDbLine
 10
549.897864544333
 20
149.532869366552
 30
0.0
 11
549.897864544333
 21
148.501457483079
 31
0.0
  0
LINE
  5
19B4
330
1E
100
AcDbEntity
  8
0
100
AcDbLine
 10
546.086864544332
 20
151.549457483079
 30
0.0
 11
546.086864544332
 21
152.166457483079
 31
0.0
  0
LINE
  5
19B5
330
1E
100
AcDbEntity
  8
0
100
AcDbLine
 10
546.086864544332
 20
153.125782292113
 30
0.0
 11
546.086864544332
 21
152.166457483079
 31
0.0
  0
LINE
  5
19B6
330
1E
100
AcDbEntity
  8
0
100
AcDbLine
 10
546.086864544332
 20
152.166457483079
 30
0.0
 11
546.086864544332
 21
151.549457483079
 31
0.0
  0
LINE
  5
19B7
330
1E
100
AcDbEntity
  8
0
100
AcDbLine
 10
546.086864544332
 20
152.166457483079
 30
0.0
 11
546.086864544332
 21
153.125782292113
 31
0.0
  0
LINE
  5
19B8
330
1E
100
AcDbEntity
  8
0
100
AcDbLine
 10
549.897864544333
 20
149.91963512779
 30
0.0
 11
549.897864544333
 21
149.118457483079
 31
0.0
  0
LINE
  5
19B9
330
1E
100
AcDbEntity
  8
0
100
AcDbLine
 10
554.683864544333
 20
151.933457483079
 30
0.0
 11
554.683864544333
 21
152.550457483079
 31
0.0
  0
LINE
  5
19BA
330
1E
100
AcDbEntity
  8
0
100
AcDbLine
 10
554.683864544333
 20
151.933457483079
 30
0.0
 11
556.143864544332
 21
151.933457483079
 31
0.0
  0
LINE
  5
19BB
330
1E
100
AcDbEntity
  8
0
100
AcDbLine
 10
554.683864544333
 20
152.550457483079
 30
0.0
 11
556.143864544332
 21
152.550457483079
 31
0.0
  0
LINE
  5
19BC
330
1E
100
AcDbEntity
  8
0
100
AcDbLine
 10
554.683864544333
 20
152.550457483079
 30
0.0
 11
554.683864544333
 21
153.707490811869
 31
0.0
  0
LINE
  5
19BD
330
1E
100
AcDbEntity
  8
0
100
AcDbLine
 10
554.683864544333
 20
152.550457483079
 30
0.0
 11
554.683864544333
 21
151.933457483079
 31
0.0
  0
LINE
  5
19BE
330
1E
100
AcDbEntity
  8
0
100
AcDbLine
 10
551.357864544333
 20
149.569669604291
 30
0.0
 11
551.357864544333
 21
149.118457483079
 31
0.0
  0
LINE
  5
19BF
330
1E
100
AcDbEntity
  8
0
100
AcDbLine
 10
552.526864544333
 20
149.289457483079
 30
0.0
 11
556.030864544333
 21
151.479457483079
 31
0.0
  0
LINE
  5
19C0
330
1E
100
AcDbEntity
  8
0
100
AcDbLine
 10
556.143864544332
 20
151.933457483079
 30
0.0
 11
556.143864544332
 21
152.550457483079
 31
0.0
  0
LINE
  5
19C1
330
1E
100
AcDbEntity
  8
0
100
AcDbLine
 10
556.143864544332
 20
152.550457483079
 30
0.0
 11
556.143864544332
 21
151.933457483079
 31
0.0
  0
LINE
  5
19C2
330
1E
100
AcDbEntity
  8
0
100
AcDbLine
 10
556.143864544332
 20
152.550457483079
 30
0.0
 11
556.143864544332
 21
153.739433287332
 31
0.0
  0
LINE
  5
19C3
330
1E
100
AcDbEntity
  8
0
100
AcDbLine
 10
556.030864544333
 20
151.479457483079
 30
0.0
 11
558.658864544333
 21
153.794457483079
 31
0.0
  0
LINE
  5
19C4
330
1E
100
AcDbEntity
  8
0
100
AcDbLine
 10
554.278864544332
 20
148.734457483079
 30
0.0
 11
557.928864544333
 21
151.017457483079
 31
0.0
  0
LINE
  5
19C5
330
1E
100
AcDbEntity
  8
0
100
AcDbLine
 10
557.928864544333
 20
151.017457483079
 30
0.0
 11
560.628864544333
 21
153.424457483079
 31
0.0
  0
LINE
  5
19C6
330
1E
100
AcDbEntity
  8
0
100
AcDbLine
 10
554.683864544333
 20
153.707490811869
 30
0.0
 11
554.683864544333
 21
152.550457483079
 31
0.0
  0
LINE
  5
19C7
330
1E
100
AcDbEntity
  8
0
100
AcDbLine
 10
556.143864544332
 20
153.739433287332
 30
0.0
 11
556.143864544332
 21
152.550457483079
 31
0.0
  0
LINE
  5
19C8
330
1E
100
AcDbEntity
  8
0
100
AcDbLine
 10
549.087864544333
 20
155.631457483079
 30
0.0
 11
549.087864544333
 21
156.248457483079
 31
0.0
  0
LINE
  5
19C9
330
1E
100
AcDbEntity
  8
0
100
AcDbLine
 10
549.087864544333
 20
155.631457483079
 30
0.0
 11
550.547864544332
 21
155.631457483079
 31
0.0
  0
LINE
  5
19CA
330
1E
100
AcDbEntity
  8
0
100
AcDbLine
 10
549.087864544333
 20
155.631457483079
 30
0.0
 11
549.087864544333
 21
156.826941798419
 31
0.0
  0
LINE
  5
19CB
330
1E
100
AcDbEntity
  8
0
100
AcDbLine
 10
550.547864544332
 20
155.631457483079
 30
0.0
 11
550.547864544332
 21
156.248457483079
 31
0.0
  0
LINE
  5
19CC
330
1E
100
AcDbEntity
  8
0
100
AcDbLine
 10
549.087864544333
 20
156.248457483079
 30
0.0
 11
550.547864544332
 21
156.248457483079
 31
0.0
  0
LINE
  5
19CD
330
1E
100
AcDbEntity
  8
0
100
AcDbLine
 10
549.087864544333
 20
156.248457483079
 30
0.0
 11
549.087864544333
 21
156.826941798419
 31
0.0
  0
LINE
  5
19CE
330
1E
100
AcDbEntity
  8
0
100
AcDbLine
 10
549.087864544333
 20
156.248457483079
 30
0.0
 11
549.087864544333
 21
155.631457483079
 31
0.0
  0
LINE
  5
19CF
330
1E
100
AcDbEntity
  8
0
100
AcDbLine
 10
549.087864544333
 20
156.826941798419
 30
0.0
 11
549.087864544333
 21
156.248457483079
 31
0.0
  0
LINE
  5
19D0
330
1E
100
AcDbEntity
  8
0
100
AcDbLine
 10
549.087864544333
 20
156.826941798419
 30
0.0
 11
549.087864544333
 21
155.631457483079
 31
0.0
  0
LINE
  5
19D1
330
1E
100
AcDbEntity
  8
0
100
AcDbLine
 10
550.547864544332
 20
156.794368615818
 30
0.0
 11
550.547864544332
 21
156.248457483079
 31
0.0
  0
LINE
  5
19D2
330
1E
100
AcDbEntity
  8
0
100
AcDbLine
 10
550.547864544332
 20
156.248457483079
 30
0.0
 11
550.547864544332
 21
155.631457483079
 31
0.0
  0
LINE
  5
19D3
330
1E
100
AcDbEntity
  8
0
100
AcDbLine
 10
550.547864544332
 20
156.248457483079
 30
0.0
 11
550.547864544332
 21
156.794368615818
 31
0.0
  0
LINE
  5
19D4
330
1E
100
AcDbEntity
  8
0
100
AcDbLine
 10
550.628864544333
 20
159.714457483079
 30
0.0
 11
550.628864544333
 21
160.331457483079
 31
0.0
  0
LINE
  5
19D5
330
1E
100
AcDbEntity
  8
0
100
AcDbLine
 10
550.628864544333
 20
159.714457483079
 30
0.0
 11
552.088864544333
 21
159.714457483079
 31
0.0
  0
LINE
  5
19D6
330
1E
100
AcDbEntity
  8
0
100
AcDbLine
 10
550.628864544333
 20
159.714457483079
 30
0.0
 11
550.628864544333
 21
160.619465415009
 31
0.0
  0
LINE
  5
19D7
330
1E
100
AcDbEntity
  8
0
100
AcDbLine
 10
550.628864544333
 20
160.619465415009
 30
0.0
 11
550.628864544333
 21
160.331457483079
 31
0.0
  0
LINE
  5
19D8
330
1E
100
AcDbEntity
  8
0
100
AcDbLine
 10
550.628864544333
 20
160.619465415009
 30
0.0
 11
550.628864544333
 21
159.714457483079
 31
0.0
  0
LINE
  5
19D9
330
1E
100
AcDbEntity
  8
0
100
AcDbLine
 10
552.088864544333
 20
159.714457483079
 30
0.0
 11
552.088864544333
 21
160.331457483079
 31
0.0
  0
LINE
  5
19DA
330
1E
100
AcDbEntity
  8
0
100
AcDbLine
 10
550.628864544333
 20
160.331457483079
 30
0.0
 11
552.088864544333
 21
160.331457483079
 31
0.0
  0
LINE
  5
19DB
330
1E
100
AcDbEntity
  8
0
100
AcDbLine
 10
550.628864544333
 20
160.331457483079
 30
0.0
 11
550.628864544333
 21
160.619465415009
 31
0.0
  0
LINE
  5
19DC
330
1E
100
AcDbEntity
  8
0
100
AcDbLine
 10
550.628864544333
 20
160.331457483079
 30
0.0
 11
550.628864544333
 21
159.714457483079
 31
0.0
  0
LINE
  5
19DD
330
1E
100
AcDbEntity
  8
0
100
AcDbLine
 10
552.088864544333
 20
160.7148475898
 30
0.0
 11
552.088864544333
 21
160.331457483079
 31
0.0
  0
LINE
  5
19DE
330
1E
100
AcDbEntity
  8
0
100
AcDbLine
 10
558.009864544332
 20
156.627888418169
 30
0.0
 11
558.009864544332
 21
156.016457483079
 31
0.0
  0
LINE
  5
19DF
330
1E
100
AcDbEntity
  8
0
100
AcDbLine
 10
558.009864544332
 20
156.016457483079
 30
0.0
 11
558.009864544332
 21
156.633457483079
 31
0.0
  0
LINE
  5
19E0
330
1E
100
AcDbEntity
  8
0
100
AcDbLine
 10
558.009864544332
 20
156.016457483079
 30
0.0
 11
559.468864544333
 21
156.016457483079
 31
0.0
  0
LINE
  5
19E1
330
1E
100
AcDbEntity
  8
0
100
AcDbLine
 10
558.009864544332
 20
156.016457483079
 30
0.0
 11
558.009864544332
 21
156.627888418169
 31
0.0
  0
LINE
  5
19E2
330
1E
100
AcDbEntity
  8
0
100
AcDbLine
 10
558.009864544332
 20
156.633457483079
 30
0.0
 11
559.468864544333
 21
156.633457483079
 31
0.0
  0
LINE
  5
19E3
330
1E
100
AcDbEntity
  8
0
100
AcDbLine
 10
558.009864544332
 20
156.633457483079
 30
0.0
 11
558.009864544332
 21
156.016457483079
 31
0.0
  0
LINE
  5
19E4
330
1E
100
AcDbEntity
  8
0
100
AcDbLine
 10
552.088864544333
 20
160.331457483079
 30
0.0
 11
552.088864544333
 21
159.714457483079
 31
0.0
  0
LINE
  5
19E5
330
1E
100
AcDbEntity
  8
0
100
AcDbLine
 10
552.088864544333
 20
160.331457483079
 30
0.0
 11
552.088864544333
 21
160.7148475898
 31
0.0
  0
LINE
  5
19E6
330
1E
100
AcDbEntity
  8
0
100
AcDbLine
 10
559.388864544333
 20
160.823185860793
 30
0.0
 11
559.388864544333
 21
160.168457483079
 31
0.0
  0
LINE
  5
19E7
330
1E
100
AcDbEntity
  8
0
100
AcDbLine
 10
559.388864544333
 20
160.168457483079
 30
0.0
 11
559.388864544333
 21
160.785457483079
 31
0.0
  0
LINE
  5
19E8
330
1E
100
AcDbEntity
  8
0
100
AcDbLine
 10
559.388864544333
 20
160.168457483079
 30
0.0
 11
560.847864544333
 21
160.168457483079
 31
0.0
  0
LINE
  5
19E9
330
1E
100
AcDbEntity
  8
0
100
AcDbLine
 10
559.388864544333
 20
160.168457483079
 30
0.0
 11
559.388864544333
 21
160.823185860793
 31
0.0
  0
LINE
  5
19EA
330
1E
100
AcDbEntity
  8
0
100
AcDbLine
 10
549.087864544333
 20
164.414457483079
 30
0.0
 11
549.087864544333
 21
163.797457483079
 31
0.0
  0
LINE
  5
19EB
330
1E
100
AcDbEntity
  8
0
100
AcDbLine
 10
549.087864544333
 20
164.414457483079
 30
0.0
 11
550.547864544332
 21
164.414457483079
 31
0.0
  0
LINE
  5
19EC
330
1E
100
AcDbEntity
  8
0
100
AcDbLine
 10
549.087864544333
 20
164.372194325184
 30
0.0
 11
549.087864544333
 21
163.797457483079
 31
0.0
  0
LINE
  5
19ED
330
1E
100
AcDbEntity
  8
0
100
AcDbLine
 10
549.087864544333
 20
163.797457483079
 30
0.0
 11
550.547864544332
 21
163.797457483079
 31
0.0
  0
LINE
  5
19EE
330
1E
100
AcDbEntity
  8
0
100
AcDbLine
 10
549.087864544333
 20
163.797457483079
 30
0.0
 11
549.087864544333
 21
164.372194325184
 31
0.0
  0
LINE
  5
19EF
330
1E
100
AcDbEntity
  8
0
100
AcDbLine
 10
549.087864544333
 20
163.797457483079
 30
0.0
 11
549.087864544333
 21
164.414457483079
 31
0.0
  0
LINE
  5
19F0
330
1E
100
AcDbEntity
  8
0
100
AcDbLine
 10
550.547864544332
 20
164.602720640974
 30
0.0
 11
550.547864544332
 21
164.414457483079
 31
0.0
  0
LINE
  5
19F1
330
1E
100
AcDbEntity
  8
0
100
AcDbLine
 10
550.547864544332
 20
164.414457483079
 30
0.0
 11
550.547864544332
 21
164.602720640974
 31
0.0
  0
LINE
  5
19F2
330
1E
100
AcDbEntity
  8
0
100
AcDbLine
 10
550.547864544332
 20
164.414457483079
 30
0.0
 11
550.547864544332
 21
163.797457483079
 31
0.0
  0
LINE
  5
19F3
330
1E
100
AcDbEntity
  8
0
100
AcDbLine
 10
550.547864544332
 20
163.797457483079
 30
0.0
 11
550.547864544332
 21
164.414457483079
 31
0.0
  0
LINE
  5
19F4
330
1E
100
AcDbEntity
  8
0
100
AcDbLine
 10
558.009864544332
 20
165.78093116729
 30
0.0
 11
558.009864544332
 21
164.935457483079
 31
0.0
  0
LINE
  5
19F5
330
1E
100
AcDbEntity
  8
0
100
AcDbLine
 10
558.009864544332
 20
164.935457483079
 30
0.0
 11
558.009864544332
 21
164.318457483079
 31
0.0
  0
LINE
  5
19F6
330
1E
100
AcDbEntity
  8
0
100
AcDbLine
 10
558.009864544332
 20
164.935457483079
 30
0.0
 11
559.468864544333
 21
164.935457483079
 31
0.0
  0
LINE
  5
19F7
330
1E
100
AcDbEntity
  8
0
100
AcDbLine
 10
558.009864544332
 20
164.935457483079
 30
0.0
 11
558.009864544332
 21
165.78093116729
 31
0.0
  0
LINE
  5
19F8
330
1E
100
AcDbEntity
  8
0
100
AcDbLine
 10
558.009864544332
 20
164.318457483079
 30
0.0
 11
559.468864544333
 21
164.318457483079
 31
0.0
  0
LINE
  5
19F9
330
1E
100
AcDbEntity
  8
0
100
AcDbLine
 10
558.009864544332
 20
164.318457483079
 30
0.0
 11
558.009864544332
 21
164.935457483079
 31
0.0
  0
LINE
  5
19FA
330
1E
100
AcDbEntity
  8
0
100
AcDbLine
 10
559.388864544333
 20
161.569906791025
 30
0.0
 11
559.388864544333
 21
160.785457483079
 31
0.0
  0
LINE
  5
19FB
330
1E
100
AcDbEntity
  8
0
100
AcDbLine
 10
559.468864544333
 20
156.016457483079
 30
0.0
 11
559.468864544333
 21
156.633457483079
 31
0.0
  0
LINE
  5
19FC
330
1E
100
AcDbEntity
  8
0
100
AcDbLine
 10
559.468864544333
 20
156.633457483079
 30
0.0
 11
559.468864544333
 21
156.016457483079
 31
0.0
  0
LINE
  5
19FD
330
1E
100
AcDbEntity
  8
0
100
AcDbLine
 10
559.468864544333
 20
166.011299588342
 30
0.0
 11
559.468864544333
 21
164.935457483079
 31
0.0
  0
LINE
  5
19FE
330
1E
100
AcDbEntity
  8
0
100
AcDbLine
 10
559.468864544333
 20
164.935457483079
 30
0.0
 11
559.468864544333
 21
166.011299588342
 31
0.0
  0
LINE
  5
19FF
330
1E
100
AcDbEntity
  8
0
100
AcDbLine
 10
559.468864544333
 20
164.935457483079
 30
0.0
 11
559.468864544333
 21
164.318457483079
 31
0.0
  0
LINE
  5
1A00
330
1E
100
AcDbEntity
  8
0
100
AcDbLine
 10
559.468864544333
 20
164.318457483079
 30
0.0
 11
559.468864544333
 21
164.935457483079
 31
0.0
  0
LINE
  5
1A01
330
1E
100
AcDbEntity
  8
0
100
AcDbLine
 10
559.388864544333
 20
160.785457483079
 30
0.0
 11
560.847864544333
 21
160.785457483079
 31
0.0
  0
LINE
  5
1A02
330
1E
100
AcDbEntity
  8
0
100
AcDbLine
 10
559.388864544333
 20
160.785457483079
 30
0.0
 11
559.388864544333
 21
161.569906791025
 31
0.0
  0
LINE
  5
1A03
330
1E
100
AcDbEntity
  8
0
100
AcDbLine
 10
559.388864544333
 20
160.785457483079
 30
0.0
 11
559.388864544333
 21
160.168457483079
 31
0.0
  0
LINE
  5
1A04
330
1E
100
AcDbEntity
  8
0
100
AcDbLine
 10
558.658864544333
 20
153.794457483079
 30
0.0
 11
560.628864544333
 21
156.569457483079
 31
0.0
  0
LINE
  5
1A05
330
1E
100
AcDbEntity
  8
0
100
AcDbLine
 10
560.847864544333
 20
160.168457483079
 30
0.0
 11
560.847864544333
 21
160.785457483079
 31
0.0
  0
LINE
  5
1A06
330
1E
100
AcDbEntity
  8
0
100
AcDbLine
 10
560.847864544333
 20
161.476214245532
 30
0.0
 11
560.847864544333
 21
160.785457483079
 31
0.0
  0
LINE
  5
1A07
330
1E
100
AcDbEntity
  8
0
100
AcDbLine
 10
560.847864544333
 20
160.785457483079
 30
0.0
 11
560.847864544333
 21
160.168457483079
 31
0.0
  0
LINE
  5
1A08
330
1E
100
AcDbEntity
  8
0
100
AcDbLine
 10
560.847864544333
 20
160.785457483079
 30
0.0
 11
560.847864544333
 21
161.476214245532
 31
0.0
  0
LINE
  5
1A09
330
1E
100
AcDbEntity
  8
0
100
AcDbLine
 10
560.628864544333
 20
156.569457483079
 30
0.0
 11
561.869864544333
 21
158.759457483079
 31
0.0
  0
LINE
  5
1A0A
330
1E
100
AcDbEntity
  8
0
100
AcDbLine
 10
560.628864544333
 20
153.424457483079
 30
0.0
 11
561.358864544333
 21
154.206457483079
 31
0.0
  0
LINE
  5
1A0B
330
1E
100
AcDbEntity
  8
0
100
AcDbLine
 10
560.628864544333
 20
153.424457483079
 30
0.0
 11
562.745864544333
 21
156.138457483079
 31
0.0
  0
LINE
  5
1A0C
330
1E
100
AcDbEntity
  8
0
100
AcDbLine
 10
561.869864544333
 20
158.759457483079
 30
0.0
 11
562.307864544332
 21
161.382457483079
 31
0.0
  0
LINE
  5
1A0D
330
1E
100
AcDbEntity
  8
0
100
AcDbLine
 10
561.358864544333
 20
154.206457483079
 30
0.0
 11
563.402864544332
 21
156.828457483079
 31
0.0
  0
LINE
  5
1A0E
330
1E
100
AcDbEntity
  8
0
100
AcDbLine
 10
560.628864544333
 20
166.194457483079
 30
0.0
 11
561.869864544333
 21
164.004457483079
 31
0.0
  0
LINE
  5
1A0F
330
1E
100
AcDbEntity
  8
0
100
AcDbLine
 10
562.745864544333
 20
156.138457483079
 30
0.0
 11
563.986864544333
 21
158.698457483079
 31
0.0
  0
LINE
  5
1A10
330
1E
100
AcDbEntity
  8
0
100
AcDbLine
 10
563.986864544333
 20
158.698457483079
 30
0.0
 11
564.497864544333
 21
161.382457483079
 31
0.0
  0
LINE
  5
1A11
330
1E
100
AcDbEntity
  8
0
100
AcDbLine
 10
563.402864544332
 20
156.828457483079
 30
0.0
 11
564.716864544333
 21
159.574457483079
 31
0.0
  0
LINE
  5
1A12
330
1E
100
AcDbEntity
  8
0
100
AcDbLine
 10
561.869864544333
 20
164.004457483079
 30
0.0
 11
562.307864544332
 21
161.382457483079
 31
0.0
  0
LINE
  5
1A13
330
1E
100
AcDbEntity
  8
0
100
AcDbLine
 10
562.745864544333
 20
166.626457483079
 30
0.0
 11
563.986864544333
 21
164.066457483079
 31
0.0
  0
LINE
  5
1A14
330
1E
100
AcDbEntity
  8
0
100
AcDbLine
 10
564.716864544333
 20
159.574457483079
 30
0.0
 11
565.227864544333
 21
162.289457483079
 31
0.0
  0
LINE
  5
1A15
330
1E
100
AcDbEntity
  8
0
100
AcDbLine
 10
563.986864544333
 20
164.066457483079
 30
0.0
 11
564.497864544333
 21
161.382457483079
 31
0.0
  0
LINE
  5
1A16
330
1E
100
AcDbEntity
  8
0
100
AcDbLine
 10
546.086864544332
 20
167.879457483079
 30
0.0
 11
546.086864544332
 21
168.496457483079
 31
0.0
  0
LINE
  5
1A17
330
1E
100
AcDbEntity
  8
0
100
AcDbLine
 10
546.086864544332
 20
168.496457483079
 30
0.0
 11
546.086864544332
 21
169.735285515572
 31
0.0
  0
LINE
  5
1A18
330
1E
100
AcDbEntity
  8
0
100
AcDbLine
 10
546.086864544332
 20
168.496457483079
 30
0.0
 11
546.086864544332
 21
167.879457483079
 31
0.0
  0
LINE
  5
1A19
330
1E
100
AcDbEntity
  8
0
100
AcDbLine
 10
546.086864544332
 20
169.735285515572
 30
0.0
 11
546.086864544332
 21
168.496457483079
 31
0.0
  0
LINE
  5
1A1A
330
1E
100
AcDbEntity
  8
0
100
AcDbLine
 10
554.683864544333
 20
169.019457483079
 30
0.0
 11
554.683864544333
 21
168.402457483079
 31
0.0
  0
LINE
  5
1A1B
330
1E
100
AcDbEntity
  8
0
100
AcDbLine
 10
554.683864544333
 20
169.019457483079
 30
0.0
 11
556.143864544332
 21
169.019457483079
 31
0.0
  0
LINE
  5
1A1C
330
1E
100
AcDbEntity
  8
0
100
AcDbLine
 10
556.143864544332
 20
169.019457483079
 30
0.0
 11
556.143864544332
 21
168.402457483079
 31
0.0
  0
LINE
  5
1A1D
330
1E
100
AcDbEntity
  8
0
100
AcDbLine
 10
554.683864544333
 20
168.566967638477
 30
0.0
 11
554.683864544333
 21
168.402457483079
 31
0.0
  0
LINE
  5
1A1E
330
1E
100
AcDbEntity
  8
0
100
AcDbLine
 10
554.683864544333
 20
168.402457483079
 30
0.0
 11
556.143864544332
 21
168.402457483079
 31
0.0
  0
LINE
  5
1A1F
330
1E
100
AcDbEntity
  8
0
100
AcDbLine
 10
554.683864544333
 20
168.402457483079
 30
0.0
 11
554.683864544333
 21
168.566967638477
 31
0.0
  0
LINE
  5
1A20
330
1E
100
AcDbEntity
  8
0
100
AcDbLine
 10
554.683864544333
 20
168.402457483079
 30
0.0
 11
554.683864544333
 21
169.019457483079
 31
0.0
  0
LINE
  5
1A21
330
1E
100
AcDbEntity
  8
0
100
AcDbLine
 10
556.143864544332
 20
168.402457483079
 30
0.0
 11
556.143864544332
 21
169.019457483079
 31
0.0
  0
LINE
  5
1A22
330
1E
100
AcDbEntity
  8
0
100
AcDbLine
 10
556.030864544333
 20
171.284457483079
 30
0.0
 11
558.658864544333
 21
168.971457483079
 31
0.0
  0
LINE
  5
1A23
330
1E
100
AcDbEntity
  8
0
100
AcDbLine
 10
558.658864544333
 20
168.971457483079
 30
0.0
 11
560.628864544333
 21
166.194457483079
 31
0.0
  0
LINE
  5
1A24
330
1E
100
AcDbEntity
  8
0
100
AcDbLine
 10
549.897864544333
 20
172.450457483079
 30
0.0
 11
549.897864544333
 21
171.833457483079
 31
0.0
  0
LINE
  5
1A25
330
1E
100
AcDbEntity
  8
0
100
AcDbLine
 10
549.897864544333
 20
172.450457483079
 30
0.0
 11
551.357864544333
 21
172.450457483079
 31
0.0
  0
LINE
  5
1A26
330
1E
100
AcDbEntity
  8
0
100
AcDbLine
 10
549.897864544333
 20
172.450457483079
 30
0.0
 11
549.897864544333
 21
172.887539109846
 31
0.0
  0
LINE
  5
1A27
330
1E
100
AcDbEntity
  8
0
100
AcDbLine
 10
549.897864544333
 20
172.412314768508
 30
0.0
 11
549.897864544333
 21
171.833457483079
 31
0.0
  0
LINE
  5
1A28
330
1E
100
AcDbEntity
  8
0
100
AcDbLine
 10
549.897864544333
 20
171.833457483079
 30
0.0
 11
551.357864544333
 21
171.833457483079
 31
0.0
  0
LINE
  5
1A29
330
1E
100
AcDbEntity
  8
0
100
AcDbLine
 10
549.897864544333
 20
171.833457483079
 30
0.0
 11
549.897864544333
 21
172.412314768508
 31
0.0
  0
LINE
  5
1A2A
330
1E
100
AcDbEntity
  8
0
100
AcDbLine
 10
549.897864544333
 20
171.833457483079
 30
0.0
 11
549.897864544333
 21
172.450457483079
 31
0.0
  0
LINE
  5
1A2B
330
1E
100
AcDbEntity
  8
0
100
AcDbLine
 10
551.357864544333
 20
172.450457483079
 30
0.0
 11
551.357864544333
 21
173.213480846217
 31
0.0
  0
LINE
  5
1A2C
330
1E
100
AcDbEntity
  8
0
100
AcDbLine
 10
551.357864544333
 20
172.450457483079
 30
0.0
 11
551.357864544333
 21
171.833457483079
 31
0.0
  0
LINE
  5
1A2D
330
1E
100
AcDbEntity
  8
0
100
AcDbLine
 10
551.357864544333
 20
171.833457483079
 30
0.0
 11
551.357864544333
 21
172.450457483079
 31
0.0
  0
LINE
  5
1A2E
330
1E
100
AcDbEntity
  8
0
100
AcDbLine
 10
557.928864544333
 20
171.747457483079
 30
0.0
 11
560.628864544333
 21
169.341457483079
 31
0.0
  0
LINE
  5
1A2F
330
1E
100
AcDbEntity
  8
0
100
AcDbLine
 10
560.628864544333
 20
169.341457483079
 30
0.0
 11
562.745864544333
 21
166.626457483079
 31
0.0
  0
LINE
  5
1A30
330
1E
100
AcDbEntity
  8
0
100
AcDbLine
 10
551.357864544333
 20
173.213480846217
 30
0.0
 11
551.357864544333
 21
172.450457483079
 31
0.0
  0
LINE
  5
1A31
330
1E
100
AcDbEntity
  8
0
100
AcDbLine
 10
549.897864544333
 20
172.887539109846
 30
0.0
 11
549.897864544333
 21
172.450457483079
 31
0.0
  0
LINE
  5
1A32
330
1E
100
AcDbEntity
  8
0
100
AcDbLine
 10
548.439864544333
 20
175.417457483079
 30
0.0
 11
552.526864544333
 21
173.474457483079
 31
0.0
  0
LINE
  5
1A33
330
1E
100
AcDbEntity
  8
0
100
AcDbLine
 10
552.526864544333
 20
173.474457483079
 30
0.0
 11
556.030864544333
 21
171.284457483079
 31
0.0
  0
LINE
  5
1A34
330
1E
100
AcDbEntity
  8
0
100
AcDbLine
 10
550.045864544333
 20
176.096457483079
 30
0.0
 11
554.278864544332
 21
174.030457483079
 31
0.0
  0
LINE
  5
1A35
330
1E
100
AcDbEntity
  8
0
100
AcDbLine
 10
554.278864544332
 20
174.030457483079
 30
0.0
 11
557.928864544333
 21
171.747457483079
 31
0.0
  0
LINE
  5
1A36
330
1E
100
AcDbEntity
  8
0
100
AcDbLine
 10
550.555864544333
 20
177.219457483079
 30
0.0
 11
554.862864544333
 21
175.121457483079
 31
0.0
  0
LINE
  5
1A37
330
1E
100
AcDbEntity
  8
0
100
AcDbLine
 10
554.862864544333
 20
175.121457483079
 30
0.0
 11
558.512864544333
 21
172.808457483079
 31
0.0
  0
LINE
  5
1A38
330
1E
100
AcDbEntity
  8
0
100
AcDbLine
 10
558.512864544333
 20
172.808457483079
 30
0.0
 11
561.358864544333
 21
170.371457483079
 31
0.0
  0
LINE
  5
1A39
330
1E
100
AcDbEntity
  8
0
100
AcDbLine
 10
561.358864544333
 20
170.371457483079
 30
0.0
 11
563.402864544332
 21
167.748457483079
 31
0.0
  0
LINE
  5
1A3A
330
1E
100
AcDbEntity
  8
0
100
AcDbLine
 10
563.402864544332
 20
167.748457483079
 30
0.0
 11
564.716864544333
 21
165.003457483079
 31
0.0
  0
LINE
  5
1A3B
330
1E
100
AcDbEntity
  8
0
100
AcDbLine
 10
564.716864544333
 20
165.003457483079
 30
0.0
 11
565.227864544333
 21
162.289457483079
 31
0.0
  0
LINE
  5
1A3C
330
1E
100
AcDbEntity
  8
0
100
AcDbLine
 10
558.512864544333
 20
191.839457483079
 30
0.0
 11
561.358864544333
 21
189.403457483079
 31
0.0
  0
LINE
  5
1A3D
330
1E
100
AcDbEntity
  8
0
100
AcDbLine
 10
560.628864544333
 20
190.186457483079
 30
0.0
 11
561.358864544333
 21
189.403457483079
 31
0.0
  0
LINE
  5
1A3E
330
1E
100
AcDbEntity
  8
0
100
AcDbLine
 10
561.358864544333
 20
189.403457483079
 30
0.0
 11
563.402864544332
 21
186.781457483079
 31
0.0
  0
LINE
  5
1A3F
330
1E
100
AcDbEntity
  8
0
100
AcDbLine
 10
563.402864544332
 20
186.781457483079
 30
0.0
 11
564.716864544333
 21
184.036457483079
 31
0.0
  0
LINE
  5
1A40
330
1E
100
AcDbEntity
  8
0
100
AcDbLine
 10
565.227864544333
 20
181.321457483079
 30
0.0
 11
565.227864544333
 21
162.289457483079
 31
0.0
  0
LINE
  5
1A41
330
1E
100
AcDbEntity
  8
0
100
AcDbLine
 10
565.227864544333
 20
162.289457483079
 30
0.0
 11
565.227864544333
 21
181.321457483079
 31
0.0
  0
LINE
  5
1A42
330
1E
100
AcDbEntity
  8
0
100
AcDbLine
 10
564.716864544333
 20
184.036457483079
 30
0.0
 11
565.227864544333
 21
181.321457483079
 31
0.0
  0
LINE
  5
1A43
330
1E
100
AcDbEntity
  8
0
100
AcDbLine
 10
550.555864544333
 20
196.251457483079
 30
0.0
 11
554.862864544333
 21
194.154457483079
 31
0.0
  0
LINE
  5
1A44
330
1E
100
AcDbEntity
  8
0
100
AcDbLine
 10
550.045864544333
 20
196.942457483079
 30
0.0
 11
554.278864544332
 21
194.875457483079
 31
0.0
  0
LINE
  5
1A45
330
1E
100
AcDbEntity
  8
0
100
AcDbLine
 10
554.862864544333
 20
194.154457483079
 30
0.0
 11
558.512864544333
 21
191.839457483079
 31
0.0
  0
LINE
  5
1A46
330
1E
100
AcDbEntity
  8
0
100
AcDbLine
 10
554.278864544332
 20
194.875457483079
 30
0.0
 11
557.928864544333
 21
192.592457483079
 31
0.0
  0
LINE
  5
1A47
330
1E
100
AcDbEntity
  8
0
100
AcDbLine
 10
557.928864544333
 20
192.592457483079
 30
0.0
 11
560.628864544333
 21
190.186457483079
 31
0.0
  0
LINE
  5
1A48
330
1E
100
AcDbEntity
  8
0
100
AcDbLine
 10
545.592864544333
 20
198.072457483079
 30
0.0
 11
550.555864544333
 21
196.251457483079
 31
0.0
  0
LINE
  5
1A49
330
1E
100
AcDbEntity
  8
0
100
AcDbLine
 10
540.118864544333
 20
199.614457483079
 30
0.0
 11
545.592864544333
 21
198.072457483079
 31
0.0
  0
LINE
  5
1A4A
330
1E
100
AcDbEntity
  8
0
100
AcDbLine
 10
545.154864544333
 20
198.731457483079
 30
0.0
 11
550.045864544333
 21
196.942457483079
 31
0.0
  0
LINE
  5
1A4B
330
1E
100
AcDbEntity
  8
0
100
AcDbLine
 10
539.753864544333
 20
200.274457483079
 30
0.0
 11
545.154864544333
 21
198.731457483079
 31
0.0
  0
LINE
  5
1A4C
330
1E
100
AcDbEntity
  8
0
100
AcDbLine
 10
528.147864544333
 20
201.681457483079
 30
0.0
 11
534.351864544333
 21
200.817457483079
 31
0.0
  0
LINE
  5
1A4D
330
1E
100
AcDbEntity
  8
0
100
AcDbLine
 10
534.059864544333
 20
201.415457483079
 30
0.0
 11
539.753864544333
 21
200.274457483079
 31
0.0
  0
LINE
  5
1A4E
330
1E
100
AcDbEntity
  8
0
100
AcDbLine
 10
527.636864544333
 20
202.309457483079
 30
0.0
 11
534.059864544333
 21
201.415457483079
 31
0.0
  0
LINE
  5
1A4F
330
1E
100
AcDbEntity
  8
0
100
AcDbLine
 10
521.577864544333
 20
202.834457483079
 30
0.0
 11
527.636864544333
 21
202.309457483079
 31
0.0
  0
LINE
  5
1A50
330
1E
100
AcDbEntity
  8
0
100
AcDbLine
 10
515.227864544333
 20
203.049457483079
 30
0.0
 11
521.577864544333
 21
202.834457483079
 31
0.0
  0
LINE
  5
1A51
330
1E
100
AcDbEntity
  8
0
100
AcDbLine
 10
531.581050681471
 20
13.440109417826
 30
0.0
 11
531.219216398816
 21
14.892188721275
 31
0.0
  0
LINE
  5
1A52
330
1E
100
AcDbEntity
  8
0
100
AcDbLine
 10
499.211208542843
 20
46.527436277864
 30
0.0
 11
499.194864544333
 21
61.300957483079
 31
0.0
  0
LINE
  5
1A53
330
1E
100
AcDbEntity
  8
0
100
AcDbLine
 10
503.954864544333
 20
39.203057483079
 30
0.0
 11
505.352864544333
 21
38.475457483079
 31
0.0
  0
LINE
  5
1A54
330
1E
100
AcDbEntity
  8
0
100
AcDbLine
 10
531.201864544332
 20
15.181457483079
 30
0.0
 11
531.188864544333
 21
45.648357483079
 31
0.0
  0
ENDSEC
  0
SECTION
  2
OBJECTS
  0
DICTIONARY
  5
C
330
0
100
AcDbDictionary
281
     1
  3
ACAD_GROUP
350
D
  3
ACAD_LAYOUT
350
19
  3
ACAD_MLEADERSTYLE
350
1A57
  3
ACAD_MLINESTYLE
350
16
  3
ACAD_PLOTSETTINGS
350
18
  3
ACAD_PLOTSTYLENAME
350
E
  3
ACAD_SCALELIST
350
D82
  3
AcDbVariableDictionary
350
D7E
  3
DWGPROPS
350
1A5A
  0
DICTIONARY
  5
D
102
{ACAD_REACTORS
330
C
102
}
330
C
100
AcDbDictionary
281
     1
  0
DICTIONARY
  5
19
102
{ACAD_REACTORS
330
C
102
}
330
C
100
AcDbDictionary
281
     1
  3
Layout1
350
1D
  3
Model
350
21
  0
DICTIONARY
  5
1A57
102
{ACAD_REACTORS
330
C
102
}
330
C
100
AcDbDictionary
281
     1
  0
DICTIONARY
  5
16
102
{ACAD_REACTORS
330
C
102
}
330
C
100
AcDbDictionary
281
     1
  3
Standard
350
17
  0
DICTIONARY
  5
18
102
{ACAD_REACTORS
330
C
102
}
330
C
100
AcDbDictionary
281
     1
  0
ACDBDICTIONARYWDFLT
  5
E
102
{ACAD_REACTORS
330
C
102
}
330
C
100
AcDbDictionary
281
     1
  3
Normal
350
F
100
AcDbDictionaryWithDefault
340
F
  0
DICTIONARY
  5
D82
102
{ACAD_REACTORS
330
C
102
}
330
C
100
AcDbDictionary
281
     1
  3
A0
350
D83
  3
A1
350
D84
  3
A2
350
D85
  3
A3
350
D86
  3
A4
350
D87
  3
A5
350
D88
  3
A6
350
D89
  3
A7
350
D8A
  3
A8
350
D8B
  3
A9
350
D8C
  3
B0
350
D8D
  3
B1
350
D8E
  3
B2
350
D8F
  3
B3
350
D90
  3
B4
350
D91
  3
B5
350
D92
  3
B6
350
D93
  3
B7
350
D94
  3
B8
350
D95
  3
B9
350
D96
  3
C0
350
D97
  3
C1
350
D98
  3
C2
350
D99
  3
C3
350
D9A
  3
C4
350
D9B
  3
C5
350
D9C
  3
C6
350
D9D
  3
C7
350
D9E
  3
C8
350
D9F
  3
C9
350
DA0
  3
D0
350
DA1
  3
D1
350
DA2
  3
D2
350
DA3
  0
DICTIONARY
  5
D7E
102
{ACAD_REACTORS
330
C
102
}
330
C
100
AcDbDictionary
281
     1
  3
CANNOSCALE
350
1A58
  3
DIMASSOC
350
D7F
  0
XRECORD
  5
1A5A
102
{ACAD_REACTORS
330
C
102
}
330
C
100
AcDbXrecord
280
     1
  1
DWGPROPS COOKIE
  2

  3

  4

  6

  7

  8
MARTIN
  9

300
=
301
=
302
=
303
=
304
=
305
=
306
=
307
=
308
=
309
=
 40
0.0
 41
2454638.634872141
 42
2456209.7310961
  1

 90
        0
  0
LAYOUT
  5
1D
102
{ACAD_REACTORS
330
19
102
}
330
19
100
AcDbPlotSettings
  1

  2
hp deskjet 980c series
  4

  6

 40
0.0
 41
0.0
 42
0.0
 43
0.0
 44
0.0
 45
0.0
 46
0.0
 47
0.0
 48
0.0
 49
0.0
140
0.0
141
0.0
142
1.0
143
1.0
 70
   688
 72
     0
 73
     0
 74
     5
  7

 75
    16
147
1.0
148
0.0
149
0.0
100
AcDbLayout
  1
Layout1
 70
     1
 71
     1
 10
0.0
 20
0.0
 11
12.0
 21
9.0
 12
0.0
 22
0.0
 32
0.0
 14
1.000000000000E+20
 24
1.000000000000E+20
 34
1.000000000000E+20
 15
-1.000000000000E+20
 25
-1.000000000000E+20
 35
-1.000000000000E+20
146
0.0
 13
0.0
 23
0.0
 33
0.0
 16
1.0
 26
0.0
 36
0.0
 17
0.0
 27
1.0
 37
0.0
 76
     0
330
1A
  0
LAYOUT
  5
21
102
{ACAD_REACTORS
330
19
102
}
330
19
100
AcDbPlotSettings
  1

  2
hp deskjet 980c series
  4

  6

 40
0.0
 41
0.0
 42
0.0
 43
0.0
 44
0.0
 45
0.0
 46
0.0
 47
0.0
 48
0.0
 49
0.0
140
0.0
141
0.0
142
1.0
143
1.0
 70
  1712
 72
     0
 73
     0
 74
     0
  7

 75
     0
147
1.0
148
0.0
149
0.0
100
AcDbLayout
  1
Model
 70
     1
 71
     0
 10
0.0
 20
0.0
 11
12.0
 21
9.0
 12
0.0
 22
0.0
 32
0.0
 14
0.0
 24
0.0
 34
0.0
 15
565.227864544333
 25
284.0
 35
0.0
146
0.0
 13
0.0
 23
0.0
 33
0.0
 16
1.0
 26
0.0
 36
0.0
 17
0.0
 27
1.0
 37
0.0
 76
     0
330
1E
331
D81
  0
MLINESTYLE
  5
17
102
{ACAD_REACTORS
330
16
102
}
330
16
100
AcDbMlineStyle
  2
STANDARD
 70
     0
  3

 62
   256
 51
90.0
 52
90.0
 71
     2
 49
0.5
 62
   256
  6
BYLAYER
 49
-0.5
 62
   256
  6
BYLAYER
  0
ACDBPLACEHOLDER
  5
F
102
{ACAD_REACTORS
330
E
102
}
330
E
  0
SCALE
  5
D83
102
{ACAD_REACTORS
330
D82
102
}
330
D82
100
AcDbScale
 70
     0
300
1:1
140
1.0
141
1.0
290
     1
  0
SCALE
  5
D84
102
{ACAD_REACTORS
330
D82
102
}
330
D82
100
AcDbScale
 70
     0
300
1:2
140
1.0
141
2.0
290
     0
  0
SCALE
  5
D85
102
{ACAD_REACTORS
330
D82
102
}
330
D82
100
AcDbScale
 70
     0
300
1:4
140
1.0
141
4.0
290
     0
  0
SCALE
  5
D86
102
{ACAD_REACTORS
330
D82
102
}
330
D82
100
AcDbScale
 70
     0
300
1:5
140
1.0
141
5.0
290
     0
  0
SCALE
  5
D87
102
{ACAD_REACTORS
330
D82
102
}
330
D82
100
AcDbScale
 70
     0
300
1:8
140
1.0
141
8.0
290
     0
  0
SCALE
  5
D88
102
{ACAD_REACTORS
330
D82
102
}
330
D82
100
AcDbScale
 70
     0
300
1:10
140
1.0
141
10.0
290
     0
  0
SCALE
  5
D89
102
{ACAD_REACTORS
330
D82
102
}
330
D82
100
AcDbScale
 70
     0
300
1:16
140
1.0
141
16.0
290
     0
  0
SCALE
  5
D8A
102
{ACAD_REACTORS
330
D82
102
}
330
D82
100
AcDbScale
 70
     0
300
1:20
140
1.0
141
20.0
290
     0
  0
SCALE
  5
D8B
102
{ACAD_REACTORS
330
D82
102
}
330
D82
100
AcDbScale
 70
     0
300
1:30
140
1.0
141
30.0
290
     0
  0
SCALE
  5
D8C
102
{ACAD_REACTORS
330
D82
102
}
330
D82
100
AcDbScale
 70
     0
300
1:40
140
1.0
141
40.0
290
     0
  0
SCALE
  5
D8D
102
{ACAD_REACTORS
330
D82
102
}
330
D82
100
AcDbScale
 70
     0
300
1:50
140
1.0
141
50.0
290
     0
  0
SCALE
  5
D8E
102
{ACAD_REACTORS
330
D82
102
}
330
D82
100
AcDbScale
 70
     0
300
1:100
140
1.0
141
100.0
290
     0
  0
SCALE
  5
D8F
102
{ACAD_REACTORS
330
D82
102
}
330
D82
100
AcDbScale
 70
     0
300
2:1
140
2.0
141
1.0
290
     0
  0
SCALE
  5
D90
102
{ACAD_REACTORS
330
D82
102
}
330
D82
100
AcDbScale
 70
     0
300
4:1
140
4.0
141
1.0
290
     0
  0
SCALE
  5
D91
102
{ACAD_REACTORS
330
D82
102
}
330
D82
100
AcDbScale
 70
     0
300
8:1
140
8.0
141
1.0
290
     0
  0
SCALE
  5
D92
102
{ACAD_REACTORS
330
D82
102
}
330
D82
100
AcDbScale
 70
     0
300
10:1
140
10.0
141
1.0
290
     0
  0
SCALE
  5
D93
102
{ACAD_REACTORS
330
D82
102
}
330
D82
100
AcDbScale
 70
     0
300
100:1
140
100.0
141
1.0
290
     0
  0
SCALE
  5
D94
102
{ACAD_REACTORS
330
D82
102
}
330
D82
100
AcDbScale
 70
     0
300
1/128" = 1'-0"
140
0.0078125
141
12.0
290
     0
  0
SCALE
  5
D95
102
{ACAD_REACTORS
330
D82
102
}
330
D82
100
AcDbScale
 70
     0
300
1/64" = 1'-0"
140
0.015625
141
12.0
290
     0
  0
SCALE
  5
D96
102
{ACAD_REACTORS
330
D82
102
}
330
D82
100
AcDbScale
 70
     0
300
1/32" = 1'-0"
140
0.03125
141
12.0
290
     0
  0
SCALE
  5
D97
102
{ACAD_REACTORS
330
D82
102
}
330
D82
100
AcDbScale
 70
     0
300
1/16" = 1'-0"
140
0.0625
141
12.0
290
     0
  0
SCALE
  5
D98
102
{ACAD_REACTORS
330
D82
102
}
330
D82
100
AcDbScale
 70
     0
300
3/32" = 1'-0"
140
0.09375
141
12.0
290
     0
  0
SCALE
  5
D99
102
{ACAD_REACTORS
330
D82
102
}
330
D82
100
AcDbScale
 70
     0
300
1/8" = 1'-0"
140
0.125
141
12.0
290
     0
  0
SCALE
  5
D9A
102
{ACAD_REACTORS
330
D82
102
}
330
D82
100
AcDbScale
 70
     0
300
3/16" = 1'-0"
140
0.1875
141
12.0
290
     0
  0
SCALE
  5
D9B
102
{ACAD_REACTORS
330
D82
102
}
330
D82
100
AcDbScale
 70
     0
300
1/4" = 1'-0"
140
0.25
141
12.0
290
     0
  0
SCALE
  5
D9C
102
{ACAD_REACTORS
330
D82
102
}
330
D82
100
AcDbScale
 70
     0
300
3/8" = 1'-0"
140
0.375
141
12.0
290
     0
  0
SCALE
  5
D9D
102
{ACAD_REACTORS
330
D82
102
}
330
D82
100
AcDbScale
 70
     0
300
1/2" = 1'-0"
140
0.5
141
12.0
290
     0
  0
SCALE
  5
D9E
102
{ACAD_REACTORS
330
D82
102
}
330
D82
100
AcDbScale
 70
     0
300
3/4" = 1'-0"
140
0.75
141
12.0
290
     0
  0
SCALE
  5
D9F
102
{ACAD_REACTORS
330
D82
102
}
330
D82
100
AcDbScale
 70
     0
300
1" = 1'-0"
140
1.0
141
12.0
290
     0
  0
SCALE
  5
DA0
102
{ACAD_REACTORS
330
D82
102
}
330
D82
100
AcDbScale
 70
     0
300
1-1/2" = 1'-0"
140
1.5
141
12.0
290
     0
  0
SCALE
  5
DA1
102
{ACAD_REACTORS
330
D82
102
}
330
D82
100
AcDbScale
 70
     0
300
3" = 1'-0"
140
3.0
141
12.0
290
     0
  0
SCALE
  5
DA2
102
{ACAD_REACTORS
330
D82
102
}
330
D82
100
AcDbScale
 70
     0
300
6" = 1'-0"
140
6.0
141
12.0
290
     0
  0
SCALE
  5
DA3
102
{ACAD_REACTORS
330
D82
102
}
330
D82
100
AcDbScale
 70
     0
300
1'-0" = 1'-0"
140
12.0
141
12.0
290
     0
  0
DICTIONARYVAR
  5
1A58
102
{ACAD_REACTORS
330
D7E
102
}
330
D7E
100
DictionaryVariables
280
     0
  1
1:1
  0
DICTIONARYVAR
  5
D7F
102
{ACAD_REACTORS
330
D7E
102
}
330
D7E
100
DictionaryVariables
280
     0
  1
1
  0
ENDSEC
  0
SECTION
  2
THUMBNAILIMAGE
 90
    16364
310
28000000B40000005500000001000800000000000000000000000000000000000000000000000000FFFFFF000000FF0000FFFF0000FF0000FFFF0000FF000000FF00FF000000000080808000C0C0C0000000FF007F7FFF000000A5005252A50000007F003F3F7F0000004C0026264C000000260013132600003FFF007F9FFF
310
000029A5005267A500001F7F003F4F7F0000134C00262F4C000009260013172600007FFF007FBFFF000052A500527CA500003F7F003F5F7F0000264C0026394C0000132600131C260000BFFF007FDFFF00007CA5005291A500005F7F003F6F7F0000394C0026424C00001C26001321260000FFFF007FFFFF0000A5A50052A5
310
A500007F7F003F7F7F00004C4C00264C4C00002626001326260000FFBF007FFFDF0000A57C0052A59100007F5F003F7F6F00004C3900264C420000261C001326210000FF7F007FFFBF0000A5520052A57C00007F3F003F7F5F00004C2600264C39000026130013261C0000FF3F007FFF9F0000A5290052A56700007F1F003F
310
7F4F00004C1300264C2F00002609001326170000FF00007FFF7F0000A5000052A55200007F00003F7F3F00004C0000264C260000260000132613003FFF00009FFF7F0029A5000067A552001F7F00004F7F3F00134C00002F4C260009260000172613007FFF0000BFFF7F0052A500007CA552003F7F00005F7F3F00264C0000
310
394C2600132600001C261300BFFF0000DFFF7F007CA5000091A552005F7F00006F7F3F00394C0000424C26001C26000021261300FFFF0000FFFF7F00A5A50000A5A552007F7F00007F7F3F004C4C00004C4C26002626000026261300FFBF0000FFDF7F00A57C0000A59152007F5F00007F6F3F004C3900004C422600261C00
310
0026211300FF7F0000FFBF7F00A5520000A57C52007F3F00007F5F3F004C2600004C39260026130000261C1300FF3F0000FF9F7F00A5290000A56752007F1F00007F4F3F004C1300004C2F26002609000026171300FF000000FF7F7F00A5000000A55252007F0000007F3F3F004C0000004C2626002600000026131300FF00
310
3F00FF7F9F00A5002900A55267007F001F007F3F4F004C0013004C262F002600090026131700FF007F00FF7FBF00A5005200A5527C007F003F007F3F5F004C0026004C2639002600130026131C00FF00BF00FF7FDF00A5007C00A55291007F005F007F3F6F004C0039004C26420026001C0026132100FF00FF00FF7FFF00A5
310
00A500A552A5007F007F007F3F7F004C004C004C264C002600260026132600BF00FF00DF7FFF007C00A5009152A5005F007F006F3F7F0039004C0042264C001C002600211326007F00FF00BF7FFF005200A5007C52A5003F007F005F3F7F0026004C0039264C00130026001C1326003F00FF009F7FFF002900A5006752A500
310
1F007F004F3F7F0013004C002F264C000900260017132600000000002D2D2D005B5B5B0089898900B7B7B700B3B3B30000000000000000000000000000000000000000000000000000000000000000000000000000000000000000000000000000000000000000000000000000000000000000000000000000000000000000
310
00000000000000000000000000000000000000000000000000000000000000000000000000000000000000000000000000000000000000000000000000000000000000000000000000000000000000000000000000000000000000000000000000000000000000000000000000000000000000000000000000000000000000
310
00000000000000000000000000000000000000000000000000000000000000000000000000000000000000000000000000000000000000000000000000000000000000000000000000000000000000000000000000000000000000000000000000000000000000000000000000000000000000000000000000000000000000
310
00000000000000000000000000000000000000000000000000000000000000000000000000000000000000000000000000000000000000000000000000000000000000000000000000000000000000000000000000000000000000000000000000000000000000000000000000000000000000000000000000000000000000
310
00000000000000000000000000000000000000000000000000000000000000000000000000000000000000000000000000000000000000000000000000000000000000000000000000000000000000000000000000000000000000000000000000000000000000000000000000000000000000000000000000000000000000
310
00000000000707070707070707070707070707070707070707070707070707070707070707070707070707070707070707070707070707070707070707070707070707070707070707070707070707070707070707070707070707070707070707070707070707070707070707070707070707070707070000000000000000
310
00000000000000000000000000000000000000000000000000000000000000000000000000000000000000000000000000000000000000000000070000000000000000000000000000000000000000000000000000000000000000000000000000000000000000000000000000000000000000000000000000000000000000
310
00000000000000000000000000000000000000000000000000000000000000000000000000000000000000000700000000000000000000000000000000000000000000000000000000000000000000000000000000000000000000000000000000000000000000000000000000000007070707070707070707070707070707
310
07070707070707070707070707070707070707070707070707070707070707070707070707070707070707070707070707070707070707070707070707070707070707070707070707070707070707070707070707070707070707070707070707070000000000000000000000000000000000000000000000000000000000
310
00000000000000000000000000000000000000000000000000000000000000000000000000000000000000000707070707070707070000000000000000000000000000000000000007000000000000000000000007000000000000000000000000000000000000000707070707070707070700000000000000000000000000
310
00000000000007070000000000000000070700000000000000000000000000000000000000000000000000000000000000000000000000000000000000000000000000000000000000000000000000000000000000000000000000000000000000070707070707070707000000000000000000000000000000000000000700
310
00000000000000000000070000000000000000000000000000000000000000070707070707070700000000000000000000000000000000000000000007000000000000000007000000000000000000000000000000000000000000000000000000000000000000000000000000000000000000000000000000000000000000
310
00000000000000000000000000000000000000000000000700000000000000070000000000000000000000000000000000000007000000000000000000000007000000000000000000000000000000000000000007000000000000070000000000000000000000000000000000000000000700000000000000000700000000
310
00000000000000000000000000000000000000000000000000000000000000000000000000000000000000000000000000000000000000000000000000000000000000000000000000000000070000000000000007000000000000000000000000000000000000000700000000000000000000000700000000000000000000
310
00000000000000000000070000000000000700000000000000000000000000000000000000000007000000000000000007000000000000000000000000000000000000000000000000000000000000000000000000000000000000000000000000000000000000000000000000000000000000000000000000000000000000
310
00000700000000000000070000000000000000000000000000000000000007000000000000000000000007000000000000000000000000000000000000000007000000000000070000000000000000000000000000000000000000000700000000000000000700000000000000000000000000000000000000000000000000
310
00000000000000000000000000000000000000000000000000000000000000000000000000000000000000000000000000000000000000070000000000000007000000000000000000000000000000000000000700000000000000000000000700000000000000000000000000000000000000000700000000000007000000
310
00000000000000000000000000000000000007000000000000000007000000000000000000000000000000000000000000000000000000000000000000000000000000000000000000000000000000000000000000000000000000000000000000000000000000000000000000070000000000000700000000000000000000
310
00000000000000000007070707070707070707070707000000000000000000000000000000000000000007000000000000070000000000000000000000000000000000000000000700000007070700000700000000000000000000000000000000000000000000000000000000000000000000000000000000000000000000
310
00000000000000000000000000000000000000000000000000000000000000000000000700000000000007000000000000000000000000000000000000000000000700000000000007000000000000000000000000000000000000000000000700000000000007000000000000000000000000000000000000000000070007
310
07070707070707000000000000000000000000000000000000000000000000000000000000000000000000000000000000000000000000000000000000000000000000000000000000000000000000000000000000000000070000000000000700000000000000000000000000000000000000000000070000000000000700
310
00000000000000000000000000000000000000000007000000000000070000000000000000000000000000000000000000000707000000000000070700000000000000000000000000000000000000000000000000000000000000000000000000000000000000000000000000000000000000000000000000000000000000
310
00000000000000000000000000000700000000000007000000000000000000000000000000000000000000000700000000000007000000000000000000000000000000000000000000000700000000000007000000000000000000000000000000000000000000070000000000000000070000000000000000000000000000
310
00000000000000000000000000000000000000000000000000000000000000000000000000000000000000000000000000000000000000000000000000000000000007000000000000000700000000000000000000000000000000000000000000070000000000000700000000000000000000000000000000000000000000
310
07000000000000070700000000000000000000000000000000000000000700000000070000000700000000000000000000000000000000000000000000000000000000000000000000000000000000000000000000000000000000000000000000000000000000000000000000000000000000000000070700000000000000
310
07000000000000000000000000000000000000000000000700000000000007000000000000000000000000000000000000000000000700000000000000070700000000000000000000000000000000000000070707070707070707070000000000000000000000000000000000000000000000000000000000000000000000
310
00000000000000000000000000000000000000000000000000000000000000000007070707070707070707070700000000000000000700000000000000000000000000000000000000000000070000000000000700000000000000000000000000000000000000000000070000000000000000070707070707070707070707
310
00000000000000000707070707070707070700000000000000000000000000000000000000000000000000000000000000000000000000000000000000000000000000000000000000000000000000000000000000070707070707070707070707070707070707070707070000000000000000000000000000000000000000
310
00000700000000000007000000000000000000000000000000000000000000000707070707070707070707070707070707070707070700000000000000070707000000000707070000000000000000000000000000000000000000000000000000000000000000000000000000000000000000000000000000000000000000
310
00000000000000000000000000000000000000000000000000000000000000000000000000000000000000000000000000000000000000070000000000000700000000000000000000000000000000000000000000000000000000000000000000000000000000000000000000000000000007070000000000000707000000
310
00000000000000000000000000000000000000000000000000000000000000000000000000000000000000000000000000000000000000000000000000000000000000000000000000000000000000000000000000000000000000000000000000000000000000000000000007000000000000070000000000000000000000
310
00000000000000000000000000000000000000000000000000000000000000000000000000000000000700000000000007070000000000000000000000000000000000000000000000000000000000000000000000000000000000000000000000000000000000000000000000000000000000000000000000000000000000
310
00000000000000000000000000000000000000000000000000000000000000000000070000000000000700000000000000000000000000000000000000000000000000000000000000000000000000000000000000000000000000000000070000000000000700000000000000000000000000000000000000000000000000
310
00000000000000000000000000000000000000000000000000000000000000000000000000000000000000000000000000000000000000000000000000000000000000000000000000000000000000000000000000000007000000000000070000000000000000000000000000000000000000000000000000000000000000
310
00000000000000000000000000000000000000000700000000000007000000000000000000000000000000000000000000000000000000000000000000000000000000000000000000000000000000000000000000000000000000000000000000000000000000000000000000000000000000000000000000000000000000
310
00000000000000000000000000070000000000000700000000000000000000000000000000000000000000000000000000000000000000000000000000000000000000000000000000070000000000000700000000000000000000000000000000000000000000000000000000000000000000000000000000000000000000
310
00000000000000000000000000000000000000000000000000000000000000000000000000000000000000000000000000000000000000000000000000000000000007000000000000070000000000000000000000000000000000000000000000000000000000000000000000000000000000000000000000000000000007
310
00000000000007000000000000000000000000000000000000000000000000000000000000000000000000000000000000000000000000000000000000000000000000000000000000000000000000000000000000000000000000000000000000000000000000000000000000000000000000000000000700000000000007
310
00000000000000000000000000000000000000000000000000000000000000000000000000000000000000000000000000000000070000000000000700000000000000000000000000000000000000000000000000000000000000000000000000000000000000000000000000000000000000000000000000000000000000
310
00000000000000000000000000000000000000000000000000000000000000000000000000000000000000000007000000000000070000000000000000000000000000000000000000000000000000000000000000000000000000000000000000000000000000000007000000000000070000000000000000000000000000
310
00000000000000000000000000000000000000000000000000000000000000000000000000000000000000000000000000000000000000000000000000000000000000000000000000000000000000000000000000000000000000000000000000000700000000000007000000000000000000000000000000000000000000
310
00000000000000000000000000000000000000000000000000000000000000070000000000000700000000000000000000000000000000000000000000000000000000000000000000000000000000000000000000000000000000000000000000000000000000000000000000000000000000000000000000000000000000
310
00000000000000000000000000000000000000000000000007000000000000070000000000000000000000000000000000000000000000000000000000000000000000000000000000000000000000000000000007000000000000070000000000000000000000000000000000000000000000000000000000000000000000
310
00000000000000000000000000000000000000000000000000000000000000000000000000000000000000000000000000000000000000000000000000000000000000000000000000000000000700000000000007000000000000000000000000000000000000000000000000000000000000000000000000000000000000
310
00000000000000000000070000000000000700000000000000000000000000000000000000000000000000000000000000000000000000000000000000000000000000000000000000000000000000000000000000000000000000000000000000000000000000000000000000000000000000000000000000000000000000
310
00000007000000000000070000000000000000000000000000000000000000000000000000000000000000000000000000000000000000000000000000000007000000000000070000000000000000000000000000000000000000000000000000000000000000000000000000000000000000000000000000000000000000
310
00000000000000000000000000000000000000000000000000000000000000000000000000000000000000000000000000000000000000000700000000000007000000000000000000000000000000000000000000000000000000000000000000000000000000000000000000000000000000000700000000000007000000
310
00000000000000000000000000000000000000000000000000000000000000000000000000000000000000000000000000000000000000000000000000000000000000000000000000000000000000000000000000000000000000000000000000000000000000000000000000070000000000000700000000000000000000
310
00000000000000000000000000000000000000000000000000000000000000000000000000000000000007000000000000070000000000000000000000000000000000000000000000000000000000000000000000000000000000000000000000000000000000000000000000000000000000000000000000000000000000
310
00000000000000000000000000000000000000000000000000000000000000000000000700000000000007000000000000000000000000000000000000000000000000000000000000000000000000000000000000000000000000000000000700000000000007000000000000000000000000000000000000000000000000
310
00000000000000000000000000000000000000000000000000000000000000000000000000000000000000000000000000000000000000000000000000000000000000000000000000000000000000000000000000000000070000000000000700000000000000000000000000000000000000000000000000000000000000
310
00000000000000000000000000000000000000000007000000000000070000000000000000000000000000000000000000000000000000000000000000000000000000000000000000000000000000000000000000000000000000000000000000000000000000000000000000000000000000000000000000000000000000
310
00000000000000000000000000000700000000000007000000000000000000000000000000000000000000000000000000000000000000000000000000000000000000000000000000000700070707070007000000000000000000000000000000000000000000000000000000000000000000000000000000000000000000
310
00000000000000000000000000000000000000000000000000000000000000000000000000000000000000000000000000000000000000000000000000000000000000070000000000000700000000000000000000000000000000000000000000000000000000000000000000000000000000000000000000000000000000
310
07070707070707070000000000000000000000000000000000000000000000000000000000000000000000000000000000000000000000000000000000000000000000000000000000000000000000000000000000000000000000000000000000000000000000000000000000000000000000000000000007000000000000
310
07000000000000000000000000000000000000000000000000000000000000000000000000000000000000000000000000000000000707070000070707000000000000000000000000000000000000000000000000000000000000000000000000000000000000000000000000000000000000000000000000000000000000
310
00000000000000000000000000000000000000000000000000000000000000000000000000000000000000000000070000000000000700000000000000000000000000000000000000000000000000000000000000000000000000000000000000000000000000000000070700000000070700000000000000000000000000
310
00000000000000000000000000000000000000000000000000000000000000000000000000000000000000000000000000000000000000000000000000000000000000000000000000000000000000000000000000000000000000000000000000000007000000000000070000000000000000000000000000000000000000
310
00000000000000000000000000000000000000000000000000000000000000000707000707000707000000000000000000000000000000000000000000000000000000000000000000000000000000000000000000000000000000000000000000000000000000000000000000000000000000000000000000000000000000
310
00000000000000000000000000000000000000000000000000070000000000000700000000000000000000000000000000000000000000000000000000000000000000000000000000000000000000000000000000070707070707070700000000000000000000000000000000000000000000000000000000000000000000
310
00000000000000000000000000000000000000000000000000000000000000000000000000000000000000000000000000000000000000000000000000000000000000000000000000000000000007000000000000070000000000000000000000000000000000000000000000000000000000000000000000000000000000
310
00000000000007070707070707070707070707070707070700000000000000000000000000000000000000000000000000000000000000000000000000000000000000000000000000000000000000000000000000000000000000000000000000000000000000000000000000000000000000000000000000000000000000
310
00000000070000000000000700000000000000000000000000000000000000000000000000000000000000000000000000000000000000000007070707070707070707070007070707070707070707000000000000000000000000000000000000000000000000000000000000000000000000000000000000000000000000
310
00000000000000000000000000000000000000000000000000000000000000000000000000000000000000000000000000000000000000000007000000000000070000000000000000000000000000000000000000000000000000000000000000000000000000000000000000070707070707070007070007070007070707
310
07070707070700000000000000000000000000000000000000000000000000000000000000000000000000000000000000000000000000000000000000000000000000000000000000000000000000000000000000000000000000000000000000000000000000000000000000000700000000000007000000000000000000
310
00000000000000000000000000000000000000000000000000000000000000000000070707070700070707070707070707070707070707070707070707000000000000000000000000000000000000000000000000000000000000000000000000000000000000000000000000000000000000000000000000000000000000
310
00000000000000000000000000000000000000000000000000000000000000000000000007000707070700070000000000000000000000000000000000000000000000000000000000000000000000000000000000000707070007000707070707070707070707070007070700070707070700000000000000000000000000
310
00000000000000000000000000000000000000000000000000000000000000000000000000000000000000000000000000000000000000000000000000000000000000000000000000000000000000000000000000000000000707070707070707000000000000000000000000000000000000000000000000000000000000
310
00000000000000000000000007070700070007070707070007070707000007070707000707000707000000000000000000000000000000000000000000000000000000000000000000000000000000000000000000000000000000000000000000000000000000000000000000000000000000000000000000000000000000
310
00000000000000000000000000000007070000000007070000000000000000000000000000000000000000000000000000000000000000000000000000000000000707070007000007070707070007070007000707070700070007070700000000000000000000000000000000000000000000000000000000000000000000
310
00000000000000000000000000000000000000000000000000000000000000000000000000000000000000000000000000000000000000000000000000000000000000000707070707070707000000000000000000000000000000000000000000000000000000000000000000000000000000000000070707070007070707
310
00070007000007000707070707070007070707000000000000000000000000000000000000000000000000000000000000000000000000000000000000000000000000000000000000000000000000000000000000000000000000000000000000000000000000000000000000000000000000000000000000070000070000
310
00070000000000000000000000000000000000000000000000000000000000000000000000000000000000000700070707070707070700070707000007000707070707070707000700000000000000000000000000000000000000000000000000000000000000000000000000000000000000000000000000000000000000
310
00000000000000000000000000000000000000000000000000000000000000000000000000000000000000000000000700000000000007000000000000000000000000000000000000000000000000000000000000000000000000000000000000070000070707070707070707000700000707000707070707070000070000
310
00000000000000000000000000000000000000000000000000000000000000000000000000000000000000000000000000000000000000000000000000000000000000000000000000000000000000000000000000000000000000000000000000000000070000000000000700000000000000000000000000000000000000
310
00000000000000000000000000000000000000000000000700000000070707070707070707070707070707070707000000000700000000000000000000000000000000000000000000000000000000000000000000000000000000000000000000000000000000000000000000000000000000000000000000000000000000
310
00000000000000000000000000000000000000000000000000000700000000000007000000000000000000000000000000000000000000000000000000000000000000000000000000000000070000000000000000070707070707070707070000000000000000070000000000000000000000000000000000000000000000
310
00000000000000000000000000000000000000000000000000000000000000000000000000000000000000000000000000000000000000000000000000000000000000000000000000000000000000070000000000000700000000000000000000000000000000000000000000000000000000000000000000000000000000
310
00000707000000000000000000000000000000000000000000000000070700000000000000000000000000000000000000000000000000000000000000000000000000000000000000000000000000000000000000000000000000000000000000000000000000000000000000000000000000000000000000000000000000
310
00000000000700000000000007000000000000000000000000000000000000000000000000000000000000000000000000000000000000000707000000000000000000000000000000000000000000000707000000000000000000000000000000000000000000000000000000000000000000000000000000000000000000
310
00000000000000000000000000000000000000000000000000000000000000000000000000000000000000000000000000000000000000000000070000000000000700000000000000000000000000000000000000000000000000000000000000000000000000000000000000000007070000000000000000000000000000
310
00000000070700000000000000000000000000000000000000000000000000000000000000000000000000000000000000000000000000000000000000000000000000000000000000000000000000000000000000000000000000000000000000000000000000000000000000000007000000000000070000000000000000
310
00000000000000000000000000000000000000000000000000000000000000000000000000000707070700000000000000000000000007070707000000000000000000000000000000000000000000000000000000000000000000000000000000000000000000000000000000000000000000000000000000000000000000
310
00000000000000000000000000000000000000000000000000000000000000000000000000070000000000000700000000000000000000000000000000000000000000000000000000000000000000000000000000000000000000000000000707070707070707070707070000000000000000000000000000000000000000
310
00000000000000000000000000000000000000000000000000000000000000000000000000000000000000000000000000000000000000000000000000000000000000000000000000000000000000000000000000000000000007000000000000070000000000000000000000000000000000000000000000000000000000
310
00000000000000000000000000000000000000000000000000000000000000000000000000000000000000000000000000000000000000000000000000000000000000000000000000000000000000000000000000000000000000000000000000000000000000000000000000000000000000000000000000000000000000
310
00000000000000000000000000000000070000000000000700000000000000000000000000000000000000000000000000000000000000000000000000000000000000000000000000000000000000000000000000000000000000000000000000000000000000000000000000000000000000000000000000000000000000
310
00000000000000000000000000000000000000000000000000000000000000000000000000000000000000000000000000000000000000000000000000000000000000000007000000000000070000000000000000000000000000000000000000000000000000000000000000000000000000000000000000000000000000
310
00000000000000000000000000000000000000000000000000000000000000000000000000000000000000000000000000000000000000000000000000000000000000000000000000000000000000000000000000000000000000000000000000000000000000000000000000000000000000000000000000000700000000
310
00000700000000000000000000000000000000000000000000000000000000000000000000000000000000000000000000000000000000000000000000000000000000000000000000000000000000000000000000000000000000000000000000000000000000000000000000000000000000000000000000000000000000
310
00000000000000000000000000000000000000000000000000000000000000000000000000000000000000000000000007000000000000070000000000000000000000000000000000000000000000000000000000000000000000000000000000000000000000000000000000000000000000000000000000000000000000
310
00000000000000000000000000000000000000000000000000000000000000000000000000000000000000000000000000000000000000000000000000000000000000000000000000000000000000000000000000000000000000000000000000000000000700000000000007000000000000000000000000000000000000
310
00000000000000000000000000000000000000000000000000000000000000000000000000000000000000000000000000000000000000000000000000000000000000000000000000000000000000000000000000000000000000000000000000000000000000000000000000000000000000000000000000000000000000
310
00000000000000000000000000000000000000000000000000000007000000000000070000000000000000000000000000000000000000000000000000000000000000000000000000000000000000000000000000000000000000000000000000000000000000000000000000000000000000000000000000000000000000
310
00000000000000000000000000000000000000000000000000000000000000000000000000000000000000000000000000000000000000000000000000000000000000000000000000000000000000000700000000000007000000000000000000000000000000000000000000000000000000000000000000000000000000
310
00000000000000000000000000000000000000000000000000000000000000000000000000000000000000000000000000000000000000000000000000000000000000000000000000000000000000000000000000000000000000000000000000000000000000000000000000000000000000000000000000000000000000
310
00000000000007000000000000070000000000000000000000000000000000000000000000000000000000000000000000000000000000000000000000000000000000000000000000000000000000000000000000000000000000000000000000000000000000000000000000000000000000000000000000000000000000
310
00000000000000000000000000000000000000000000000000000000000000000000000000000000000000000000000000000000000000000000000700000000000007000000000000000000000000000000000000000000000000000000000000000000000000000000000000000000000000000000000000000000000000
310
00000000000000000000000000000000000000000000000000000000000000000000000000000000000000000000000000000000000000000000000000000000000000000000000000000000000000000000000000000000000000000000000000000000000000000000000000000000070000000000000700000000000000
310
00000000000000000000000000000000000000000000000000000000000000000000000000000000000000000000000000000000000000000000000000000000000000000000000000000000000000000000000000000000000000000000000000000000000000000000000000000000000000000000000000000000000000
310
00000000000000000000000000000000000000000000000000000000000000000000000000000700000000000007000000000000000000000000000000000000000000000000000000000000000000000000000000000000000000000000000000000000000000000000000000000000000000000000000000000000000000
310
00000000000000000000000000000000000000000000000000000000000000000000000000000000000000000000000000000000000000000000000000000000000000000000000000000000000000000000000000000000000000070000000000000700000000000000000000000000000000000000000000000000000000
310
00000000000000000000000000000000000000000000000000000000000000000000000000000000000000000000000000000000000000000000000000000000000000000000000000000000000000000000000000000000000000000000000000000000000000000000000000000000000000000000000000000000000000
310
00000000000000000000000000000000000700000000000007000000000000000000000000000000000000000000000000000000000000000000000000000000000000000000000000000000000000000000000000000000000000000000000000000000000000000000000000000000000000000000000000000000000000
310
00000000000000000000000000000000000000000000000000000000000000000000000000000000000000000000000000000000000000000000000000000000000000000000070000000000000700000000000000000000000000000000000000000000000000000000000000000000000000000000000000000000000000
310
00000000000000000000000000000000000000000000000000000000000000000000000000000000000000000000000000000000000000000000000000000000000000000000000000000000000000000000000000000000000000000000000000000000000000000000000000000000000000000000000000000007000000
310
00000007000000000000000000000000000000000000000000000000000000000000000000000000000000000000000000000000000000000000000000000000000000000000000000000000000000000000000000000000000000000000000000000000000000000000000000000000000000000000000000000000000000
310
00000000000000000000000000000000000000000000000000000000000000000000000000000000000000000000000000070000000000000700000000000000000000000000000000000000000000000000000000000000000000000000000000000000000000000000000000000000000000000000000000000000000000
310
00000000000000000000000000000000000000000000000000000000000000000000000000000000000000000000000000000000000000000000000000000000000000000000000000000000000000000000000000000000000000000000000000000000000007000000000000070000000000000000000000000000000000
310
00000000000000000000000000000000000000000000000000000000000000000000000000000000000000000000000000000000000000000000000000000000000000000000000000000000000000000000000000000000000000000000000000000000000000000000000000000000000000000000000000000000000000
310
00000000000000000000000000000000000000000000000000000000070000000000000700000000000000000000000000000000000000000000000000000000000000000000000000000000000000000000000000000000000000000000000000000000000000000000000000000000000000000000000000000000000000
310
00000000000000000000000000000000000000000000000000000000000000000000000000000000000000000000000000000000000000000000000000000000000000000000000000000000000000000007000000000000070000000000000000000000000000000000000000000000000000000000000000000000000000
310
00000000000000000000000000000000000000000000000000000000000000000000000000000000000000000000000000000000000000000000000000000000000000000000000000000000000000000000000000000000000000000000000000000000000000000000000000000000000000000000000000000000000000
310
00000000000000000700000000070000000000000000000000000000000000000000000000000000000000000000000000000000000000000000000000000000000000000000000000000000000000000000000000000000000000000000000000000000000000000000000000000000000000000000000000000000000000
310
00000000000000000000000000000000000000000000000000000000000000000000000000000000000000000000000000000000000000000000000000070707070700000000000000000000000000000000000000000000000000000000000000000000000000000000000000000000000000000000000000000000000000
310
00000000000000000000000000000000000000000000000000000000000000000000000000000000000000000000000000000000000000000000000000000000000000000000000000000000000000000000000000000000000000000000000000000000000000000000000000000000000000000000000000000000000000
310
00000000000000000000000000000000000000000000000000000000000000000000000000000000000000000000000000000000000000000000000000000000000000000000000000000000000000000000000000000000000000000000000000000000000000000000000000000000000000000000000000000000000000
310
00000000000000000000000000000000000000000000000000000000000000000000000000000000000000000000000000000000000000000000000000000000000000000000000000000000000000000000000000000000000000000000000000000000000000000000000000000000000000000000000000000000000000
310
00000000000000000000000000000000000000000000000000000000000000000000000000000000000000000000000000000000000000000000000000000000000000000000000000000000000000000000000000000000000000000000000000000000000000000000000000000000000000000000000000000000000000
310
00000000000000000000000000000000000000000000000000000000000000000000000000000000000000000000000000000000000000000000000000000000000000000000000000000000000000000000000000000000000000000000000000000000000000000000000000000000000000000000000000000000000000
310
000000000000000000000000000000000000000000000000000000000000000000000000000000000000000000000000000000000000000000000000000000000000000000000000000000000000000000000000000000000000000000000000000000000000000000000000
  0
ENDSEC
  0
EOF
