  0
SECTION
  2
HEADER
  9
$ACADVER
  1
AC1015
  9
$ACADMAINTVER
 70
    13
  9
$DWGCODEPAGE
  3
ANSI_1252
  9
$INSBASE
 10
0.0
 20
0.0
 30
0.0
  9
$EXTMIN
 10
-0.0000000000000006
 20
-0.0000000000000045
 30
0.0
  9
$EXTMAX
 10
92.0
 20
170.0
 30
0.0
  9
$LIMMIN
 10
0.0
 20
0.0
  9
$LIMMAX
 10
12.0
 20
9.0
  9
$ORTHOMODE
 70
     0
  9
$REGENMODE
 70
     1
  9
$FILLMODE
 70
     1
  9
$QTEXTMODE
 70
     0
  9
$MIRRTEXT
 70
     1
  9
$LTSCALE
 40
1.0
  9
$ATTMODE
 70
     1
  9
$TEXTSIZE
 40
0.2
  9
$TRACEWID
 40
0.05
  9
$TEXTSTYLE
  7
Standard
  9
$CLAYER
  8
0
  9
$CELTYPE
  6
Continuous
  9
$CECOLOR
 62
   256
  9
$CELTSCALE
 40
1.0
  9
$DISPSILH
 70
     0
  9
$DIMSCALE
 40
1.0
  9
$DIMASZ
 40
0.18
  9
$DIMEXO
 40
0.0625
  9
$DIMDLI
 40
0.38
  9
$DIMRND
 40
0.0
  9
$DIMDLE
 40
0.0
  9
$DIMEXE
 40
0.18
  9
$DIMTP
 40
0.0
  9
$DIMTM
 40
0.0
  9
$DIMTXT
 40
0.18
  9
$DIMCEN
 40
0.09
  9
$DIMTSZ
 40
0.0
  9
$DIMTOL
 70
     0
  9
$DIMLIM
 70
     0
  9
$DIMTIH
 70
     1
  9
$DIMTOH
 70
     1
  9
$DIMSE1
 70
     0
  9
$DIMSE2
 70
     0
  9
$DIMTAD
 70
     0
  9
$DIMZIN
 70
     0
  9
$DIMBLK
  1

  9
$DIMASO
 70
     1
  9
$DIMSHO
 70
     1
  9
$DIMPOST
  1

  9
$DIMAPOST
  1

  9
$DIMALT
 70
     0
  9
$DIMALTD
 70
     2
  9
$DIMALTF
 40
25.4
  9
$DIMLFAC
 40
1.0
  9
$DIMTOFL
 70
     0
  9
$DIMTVP
 40
0.0
  9
$DIMTIX
 70
     0
  9
$DIMSOXD
 70
     0
  9
$DIMSAH
 70
     0
  9
$DIMBLK1
  1

  9
$DIMBLK2
  1

  9
$DIMSTYLE
  2
Standard
  9
$DIMCLRD
 70
     0
  9
$DIMCLRE
 70
     0
  9
$DIMCLRT
 70
     0
  9
$DIMTFAC
 40
1.0
  9
$DIMGAP
 40
0.09
  9
$DIMJUST
 70
     0
  9
$DIMSD1
 70
     0
  9
$DIMSD2
 70
     0
  9
$DIMTOLJ
 70
     1
  9
$DIMTZIN
 70
     0
  9
$DIMALTZ
 70
     0
  9
$DIMALTTZ
 70
     0
  9
$DIMUPT
 70
     0
  9
$DIMDEC
 70
     4
  9
$DIMTDEC
 70
     4
  9
$DIMALTU
 70
     2
  9
$DIMALTTD
 70
     2
  9
$DIMTXSTY
  7
Standard
  9
$DIMAUNIT
 70
     0
  9
$DIMADEC
 70
     0
  9
$DIMALTRND
 40
0.0
  9
$DIMAZIN
 70
     0
  9
$DIMDSEP
 70
    46
  9
$DIMATFIT
 70
     3
  9
$DIMFRAC
 70
     0
  9
$DIMLDRBLK
  1

  9
$DIMLUNIT
 70
     2
  9
$DIMLWD
 70
    -2
  9
$DIMLWE
 70
    -2
  9
$DIMTMOVE
 70
     0
  9
$LUNITS
 70
     2
  9
$LUPREC
 70
     4
  9
$SKETCHINC
 40
0.1
  9
$FILLETRAD
 40
0.0
  9
$AUNITS
 70
     0
  9
$AUPREC
 70
     0
  9
$MENU
  1
.
  9
$ELEVATION
 40
0.0
  9
$PELEVATION
 40
0.0
  9
$THICKNESS
 40
0.0
  9
$LIMCHECK
 70
     0
  9
$CHAMFERA
 40
0.0
  9
$CHAMFERB
 40
0.0
  9
$CHAMFERC
 40
0.0
  9
$CHAMFERD
 40
0.0
  9
$SKPOLY
 70
     0
  9
$TDCREATE
 40
2454752.774324363
  9
$TDUCREATE
 40
2454752.690991030
  9
$TDUPDATE
 40
2454752.775066724
  9
$TDUUPDATE
 40
2454752.691733391
  9
$TDINDWG
 40
0.0007423611
  9
$TDUSRTIMER
 40
0.0007423611
  9
$USRTIMER
 70
     1
  9
$ANGBASE
 50
0.0
  9
$ANGDIR
 70
     0
  9
$PDMODE
 70
     0
  9
$PDSIZE
 40
0.0
  9
$PLINEWID
 40
0.0
  9
$SPLFRAME
 70
     0
  9
$SPLINETYPE
 70
     6
  9
$SPLINESEGS
 70
     8
  9
$HANDSEED
  5
279
  9
$SURFTAB1
 70
     6
  9
$SURFTAB2
 70
     6
  9
$SURFTYPE
 70
     6
  9
$SURFU
 70
     6
  9
$SURFV
 70
     6
  9
$UCSBASE
  2

  9
$UCSNAME
  2

  9
$UCSORG
 10
0.0
 20
0.0
 30
0.0
  9
$UCSXDIR
 10
1.0
 20
0.0
 30
0.0
  9
$UCSYDIR
 10
0.0
 20
1.0
 30
0.0
  9
$UCSORTHOREF
  2

  9
$UCSORTHOVIEW
 70
     1
  9
$UCSORGTOP
 10
0.0
 20
0.0
 30
0.0
  9
$UCSORGBOTTOM
 10
0.0
 20
0.0
 30
0.0
  9
$UCSORGLEFT
 10
0.0
 20
0.0
 30
0.0
  9
$UCSORGRIGHT
 10
0.0
 20
0.0
 30
0.0
  9
$UCSORGFRONT
 10
0.0
 20
0.0
 30
0.0
  9
$UCSORGBACK
 10
0.0
 20
0.0
 30
0.0
  9
$PUCSBASE
  2

  9
$PUCSNAME
  2

  9
$PUCSORG
 10
0.0
 20
0.0
 30
0.0
  9
$PUCSXDIR
 10
1.0
 20
0.0
 30
0.0
  9
$PUCSYDIR
 10
0.0
 20
1.0
 30
0.0
  9
$PUCSORTHOREF
  2

  9
$PUCSORTHOVIEW
 70
     0
  9
$PUCSORGTOP
 10
0.0
 20
0.0
 30
0.0
  9
$PUCSORGBOTTOM
 10
0.0
 20
0.0
 30
0.0
  9
$PUCSORGLEFT
 10
0.0
 20
0.0
 30
0.0
  9
$PUCSORGRIGHT
 10
0.0
 20
0.0
 30
0.0
  9
$PUCSORGFRONT
 10
0.0
 20
0.0
 30
0.0
  9
$PUCSORGBACK
 10
0.0
 20
0.0
 30
0.0
  9
$USERI1
 70
     0
  9
$USERI2
 70
     0
  9
$USERI3
 70
     0
  9
$USERI4
 70
     0
  9
$USERI5
 70
     0
  9
$USERR1
 40
0.0
  9
$USERR2
 40
0.0
  9
$USERR3
 40
0.0
  9
$USERR4
 40
0.0
  9
$USERR5
 40
0.0
  9
$WORLDVIEW
 70
     1
  9
$SHADEDGE
 70
     3
  9
$SHADEDIF
 70
    70
  9
$TILEMODE
 70
     1
  9
$MAXACTVP
 70
    64
  9
$PINSBASE
 10
0.0
 20
0.0
 30
0.0
  9
$PLIMCHECK
 70
     0
  9
$PEXTMIN
 10
1.000000000000000E+20
 20
1.000000000000000E+20
 30
1.000000000000000E+20
  9
$PEXTMAX
 10
-1.000000000000000E+20
 20
-1.000000000000000E+20
 30
-1.000000000000000E+20
  9
$PLIMMIN
 10
0.0
 20
0.0
  9
$PLIMMAX
 10
12.0
 20
9.0
  9
$UNITMODE
 70
     0
  9
$VISRETAIN
 70
     1
  9
$PLINEGEN
 70
     0
  9
$PSLTSCALE
 70
     1
  9
$TREEDEPTH
 70
  3020
  9
$CMLSTYLE
  2
Standard
  9
$CMLJUST
 70
     0
  9
$CMLSCALE
 40
1.0
  9
$PROXYGRAPHICS
 70
     1
  9
$MEASUREMENT
 70
     0
  9
$CELWEIGHT
370
    -1
  9
$ENDCAPS
280
     0
  9
$JOINSTYLE
280
     0
  9
$LWDISPLAY
290
     0
  9
$INSUNITS
 70
     0
  9
$HYPERLINKBASE
  1

  9
$STYLESHEET
  1

  9
$XEDIT
290
     1
  9
$CEPSNTYPE
380
     0
  9
$PSTYLEMODE
290
     1
  9
$FINGERPRINTGUID
  2
{472419CE-68E5-48EC-B4F4-2C8929E373AC}
  9
$VERSIONGUID
  2
{7F6122F1-DE2C-44CA-AA6F-554B49D56A7E}
  9
$EXTNAMES
290
     1
  9
$PSVPSCALE
 40
0.0
  9
$OLESTARTUP
290
     0
  0
ENDSEC
  0
SECTION
  2
CLASSES
  0
CLASS
  1
ACDBDICTIONARYWDFLT
  2
AcDbDictionaryWithDefault
  3
AutoCAD 2000
 90
        0
280
     0
281
     0
  0
CLASS
  1
ACDBPLACEHOLDER
  2
AcDbPlaceHolder
  3
AutoCAD 2000
 90
        0
280
     0
281
     0
  0
CLASS
  1
LAYOUT
  2
AcDbLayout
  3
AutoCAD 2000
 90
        0
280
     0
281
     0
  0
CLASS
  1
DICTIONARYVAR
  2
AcDbDictionaryVar
  3
AutoCAD 2000
 90
        0
280
     0
281
     0
  0
ENDSEC
  0
SECTION
  2
TABLES
  0
TABLE
  2
VPORT
  5
8
330
0
100
AcDbSymbolTable
 70
     2
  0
VPORT
  5
278
330
8
100
AcDbSymbolTableRecord
100
AcDbViewportTableRecord
  2
*Active
 70
     0
 10
0.0
 20
0.0
 11
1.0
 21
1.0
 12
46.0
 22
85.0
 13
0.0
 23
0.0
 14
1.0
 24
1.0
 15
0.0
 25
0.0
 16
0.0
 26
0.0
 36
1.0
 17
0.0
 27
0.0
 37
0.0
 40
171.3043478260869
 41
2.078104993597951
 42
50.0
 43
0.0
 44
0.0
 50
0.0
 51
0.0
 71
     0
 72
   100
 73
     1
 74
     3
 75
     0
 76
     0
 77
     0
 78
     0
281
     0
 65
     1
110
0.0
120
0.0
130
0.0
111
1.0
121
0.0
131
0.0
112
0.0
122
1.0
132
0.0
 79
     1
146
0.0
  0
ENDTAB
  0
TABLE
  2
LTYPE
  5
5
330
0
100
AcDbSymbolTable
 70
     1
  0
LTYPE
  5
13
330
5
100
AcDbSymbolTableRecord
100
AcDbLinetypeTableRecord
  2
ByBlock
 70
     0
  3

 72
    65
 73
     0
 40
0.0
  0
LTYPE
  5
14
330
5
100
AcDbSymbolTableRecord
100
AcDbLinetypeTableRecord
  2
ByLayer
 70
     0
  3

 72
    65
 73
     0
 40
0.0
  0
LTYPE
  5
15
330
5
100
AcDbSymbolTableRecord
100
AcDbLinetypeTableRecord
  2
Continuous
 70
     0
  3
Solid line
 72
    65
 73
     0
 40
0.0
  0
ENDTAB
  0
TABLE
  2
LAYER
  5
2
330
0
100
AcDbSymbolTable
 70
     1
  0
LAYER
  5
10
330
2
100
AcDbSymbolTableRecord
100
AcDbLayerTableRecord
  2
0
 70
     0
 62
     7
  6
Continuous
370
    -3
390
F
  0
ENDTAB
  0
TABLE
  2
STYLE
  5
3
330
0
100
AcDbSymbolTable
 70
     1
  0
STYLE
  5
11
330
3
100
AcDbSymbolTableRecord
100
AcDbTextStyleTableRecord
  2
Standard
 70
     0
 40
0.0
 41
1.0
 50
0.0
 71
     0
 42
0.2
  3
txt
  4

  0
ENDTAB
  0
TABLE
  2
VIEW
  5
6
330
0
100
AcDbSymbolTable
 70
     0
  0
ENDTAB
  0
TABLE
  2
UCS
  5
7
330
0
100
AcDbSymbolTable
 70
     0
  0
ENDTAB
  0
TABLE
  2
APPID
  5
9
330
0
100
AcDbSymbolTable
 70
     1
  0
APPID
  5
12
330
9
100
AcDbSymbolTableRecord
100
AcDbRegAppTableRecord
  2
ACAD
 70
     0
  0
ENDTAB
  0
TABLE
  2
DIMSTYLE
  5
A
330
0
100
AcDbSymbolTable
 70
     1
100
AcDbDimStyleTable
 71
     0
  0
DIMSTYLE
105
271
330
A
100
AcDbSymbolTableRecord
100
AcDbDimStyleTableRecord
  2
Standard
 70
     0
340
11
  0
ENDTAB
  0
TABLE
  2
BLOCK_RECORD
  5
1
330
0
100
AcDbSymbolTable
 70
     0
  0
BLOCK_RECORD
  5
1E
330
1
100
AcDbSymbolTableRecord
100
AcDbBlockTableRecord
  2
*Model_Space
340
21
  0
BLOCK_RECORD
  5
1A
330
1
100
AcDbSymbolTableRecord
100
AcDbBlockTableRecord
  2
*Paper_Space
340
1D
  0
ENDTAB
  0
ENDSEC
  0
SECTION
  2
BLOCKS
  0
BLOCK
  5
1F
330
1E
100
AcDbEntity
  8
0
100
AcDbBlockBegin
  2
*Model_Space
 70
     0
 10
0.0
 20
0.0
 30
0.0
  3
*Model_Space
  1

  0
ENDBLK
  5
20
330
1E
100
AcDbEntity
  8
0
100
AcDbBlockEnd
  0
BLOCK
  5
1B
330
1A
100
AcDbEntity
 67
     1
  8
0
100
AcDbBlockBegin
  2
*Paper_Space
 70
     0
 10
0.0
 20
0.0
 30
0.0
  3
*Paper_Space
  1

  0
ENDBLK
  5
1C
330
1A
100
AcDbEntity
 67
     1
  8
0
100
AcDbBlockEnd
  0
ENDSEC
  0
SECTION
  2
ENTITIES
  0
LINE
  5
22
330
1E
100
AcDbEntity
  8
0
100
AcDbLine
 10
4.5
 20
73.5
 30
0.0
 11
5.5
 21
73.5
 31
0.0
  0
LINE
  5
24
330
1E
100
AcDbEntity
  8
0
100
AcDbLine
 10
4.0
 20
74.40000000000001
 30
0.0
 11
4.0
 21
74.0
 31
0.0
  0
LINE
  5
25
330
1E
100
AcDbEntity
  8
0
100
AcDbLine
 10
4.0
 20
74.40000000000001
 30
0.0
 11
4.0
 21
75.5
 31
0.0
  0
LINE
  5
26
330
1E
100
AcDbEntity
  8
0
100
AcDbLine
 10
4.0
 20
74.0
 30
0.0
 11
4.5
 21
73.5
 31
0.0
  0
LINE
  5
27
330
1E
100
AcDbEntity
  8
0
100
AcDbLine
 10
4.0
 20
74.0
 30
0.0
 11
4.0
 21
74.40000000000001
 31
0.0
  0
LINE
  5
2A
330
1E
100
AcDbEntity
  8
0
100
AcDbLine
 10
5.5
 20
73.5
 30
0.0
 11
6.0
 21
74.0
 31
0.0
  0
LINE
  5
2E
330
1E
100
AcDbEntity
  8
0
100
AcDbLine
 10
4.0
 20
75.5
 30
0.0
 11
4.0
 21
74.40000000000001
 31
0.0
  0
LINE
  5
2F
330
1E
100
AcDbEntity
  8
0
100
AcDbLine
 10
4.0
 20
75.5
 30
0.0
 11
4.0
 21
77.2
 31
0.0
  0
LINE
  5
32
330
1E
100
AcDbEntity
  8
0
100
AcDbLine
 10
6.0
 20
74.40000000000001
 30
0.0
 11
6.0
 21
74.0
 31
0.0
  0
LINE
  5
33
330
1E
100
AcDbEntity
  8
0
100
AcDbLine
 10
6.0
 20
74.40000000000001
 30
0.0
 11
6.0
 21
75.5
 31
0.0
  0
LINE
  5
34
330
1E
100
AcDbEntity
  8
0
100
AcDbLine
 10
6.0
 20
74.0
 30
0.0
 11
9.0
 21
73.0
 31
0.0
  0
LINE
  5
35
330
1E
100
AcDbEntity
  8
0
100
AcDbLine
 10
6.0
 20
74.0
 30
0.0
 11
6.0
 21
74.40000000000001
 31
0.0
  0
LINE
  5
38
330
1E
100
AcDbEntity
  8
0
100
AcDbLine
 10
1.5
 20
77.8
 30
0.0
 11
4.0
 21
74.0
 31
0.0
  0
LINE
  5
39
330
1E
100
AcDbEntity
  8
0
100
AcDbLine
 10
4.0
 20
77.2
 30
0.0
 11
4.0
 21
75.5
 31
0.0
  0
LINE
  5
3A
330
1E
100
AcDbEntity
  8
0
100
AcDbLine
 10
4.0
 20
77.2
 30
0.0
 11
4.0
 21
79.5
 31
0.0
  0
LINE
  5
3B
330
1E
100
AcDbEntity
  8
0
100
AcDbLine
 10
4.0
 20
79.5
 30
0.0
 11
4.0
 21
82.2
 31
0.0
  0
LINE
  5
3C
330
1E
100
AcDbEntity
  8
0
100
AcDbLine
 10
4.0
 20
79.5
 30
0.0
 11
4.0
 21
77.2
 31
0.0
  0
LINE
  5
43
330
1E
100
AcDbEntity
  8
0
100
AcDbLine
 10
6.0
 20
75.5
 30
0.0
 11
6.0
 21
74.40000000000001
 31
0.0
  0
LINE
  5
44
330
1E
100
AcDbEntity
  8
0
100
AcDbLine
 10
6.0
 20
75.5
 30
0.0
 11
6.0
 21
77.2
 31
0.0
  0
LINE
  5
45
330
1E
100
AcDbEntity
  8
0
100
AcDbLine
 10
6.0
 20
77.2
 30
0.0
 11
6.0
 21
75.5
 31
0.0
  0
LINE
  5
46
330
1E
100
AcDbEntity
  8
0
100
AcDbLine
 10
6.0
 20
77.2
 30
0.0
 11
6.0
 21
79.5
 31
0.0
  0
LINE
  5
47
330
1E
100
AcDbEntity
  8
0
100
AcDbLine
 10
0.199999999999999
 20
81.69999999999999
 30
0.0
 11
1.5
 21
77.8
 31
0.0
  0
LINE
  5
48
330
1E
100
AcDbEntity
  8
0
100
AcDbLine
 10
4.0
 20
82.2
 30
0.0
 11
4.0
 21
85.0
 31
0.0
  0
LINE
  5
49
330
1E
100
AcDbEntity
  8
0
100
AcDbLine
 10
-0.0000000000000006
 20
85.0
 30
0.0
 11
0.2
 21
88.3
 31
0.0
  0
LINE
  5
4A
330
1E
100
AcDbEntity
  8
0
100
AcDbLine
 10
-0.0000000000000006
 20
85.0
 30
0.0
 11
0.199999999999999
 21
81.69999999999999
 31
0.0
  0
LINE
  5
4B
330
1E
100
AcDbEntity
  8
0
100
AcDbLine
 10
-0.0000000000000006
 20
85.0
 30
0.0
 11
0.2
 21
88.3
 31
0.0
  0
LINE
  5
4C
330
1E
100
AcDbEntity
  8
0
100
AcDbLine
 10
-0.0000000000000006
 20
85.0
 30
0.0
 11
0.199999999999999
 21
81.69999999999999
 31
0.0
  0
LINE
  5
4D
330
1E
100
AcDbEntity
  8
0
100
AcDbLine
 10
4.0
 20
85.0
 30
0.0
 11
4.0
 21
82.2
 31
0.0
  0
LINE
  5
4E
330
1E
100
AcDbEntity
  8
0
100
AcDbLine
 10
4.0
 20
85.0
 30
0.0
 11
4.0
 21
87.79999999999999
 31
0.0
  0
LINE
  5
54
330
1E
100
AcDbEntity
  8
0
100
AcDbLine
 10
4.0
 20
87.79999999999999
 30
0.0
 11
4.0
 21
85.0
 31
0.0
  0
LINE
  5
55
330
1E
100
AcDbEntity
  8
0
100
AcDbLine
 10
4.0
 20
87.79999999999999
 30
0.0
 11
4.0
 21
90.5
 31
0.0
  0
LINE
  5
57
330
1E
100
AcDbEntity
  8
0
100
AcDbLine
 10
0.199999999999999
 20
88.3
 30
0.0
 11
1.5
 21
92.2
 31
0.0
  0
LINE
  5
58
330
1E
100
AcDbEntity
  8
0
100
AcDbLine
 10
4.0
 20
90.5
 30
0.0
 11
4.0
 21
92.79999999999999
 31
0.0
  0
LINE
  5
59
330
1E
100
AcDbEntity
  8
0
100
AcDbLine
 10
0.2
 20
88.3
 30
0.0
 11
1.5
 21
92.2
 31
0.0
  0
LINE
  5
5E
330
1E
100
AcDbEntity
  8
0
100
AcDbLine
 10
6.0
 20
79.5
 30
0.0
 11
6.0
 21
77.2
 31
0.0
  0
LINE
  5
5F
330
1E
100
AcDbEntity
  8
0
100
AcDbLine
 10
6.0
 20
79.5
 30
0.0
 11
6.0
 21
82.2
 31
0.0
  0
LINE
  5
60
330
1E
100
AcDbEntity
  8
0
100
AcDbLine
 10
6.0
 20
85.0
 30
0.0
 11
6.0
 21
87.79999999999999
 31
0.0
  0
LINE
  5
61
330
1E
100
AcDbEntity
  8
0
100
AcDbLine
 10
6.0
 20
82.2
 30
0.0
 11
6.0
 21
85.0
 31
0.0
  0
LINE
  5
62
330
1E
100
AcDbEntity
  8
0
100
AcDbLine
 10
6.0
 20
82.2
 30
0.0
 11
6.0
 21
79.5
 31
0.0
  0
LINE
  5
63
330
1E
100
AcDbEntity
  8
0
100
AcDbLine
 10
1.5
 20
92.2
 30
0.0
 11
4.0
 21
96.0
 31
0.0
  0
LINE
  5
64
330
1E
100
AcDbEntity
  8
0
100
AcDbLine
 10
4.0
 20
92.79999999999999
 30
0.0
 11
4.0
 21
90.5
 31
0.0
  0
LINE
  5
65
330
1E
100
AcDbEntity
  8
0
100
AcDbLine
 10
4.0
 20
92.79999999999999
 30
0.0
 11
4.0
 21
94.50000000000001
 31
0.0
  0
LINE
  5
6A
330
1E
100
AcDbEntity
  8
0
100
AcDbLine
 10
4.0
 20
94.50000000000001
 30
0.0
 11
4.0
 21
92.79999999999999
 31
0.0
  0
LINE
  5
6B
330
1E
100
AcDbEntity
  8
0
100
AcDbLine
 10
4.0
 20
94.50000000000001
 30
0.0
 11
4.0
 21
95.6
 31
0.0
  0
LINE
  5
70
330
1E
100
AcDbEntity
  8
0
100
AcDbLine
 10
4.0
 20
95.6
 30
0.0
 11
4.0
 21
94.50000000000001
 31
0.0
  0
LINE
  5
71
330
1E
100
AcDbEntity
  8
0
100
AcDbLine
 10
4.0
 20
95.6
 30
0.0
 11
4.0
 21
96.0
 31
0.0
  0
LINE
  5
76
330
1E
100
AcDbEntity
  8
0
100
AcDbLine
 10
4.0
 20
96.0
 30
0.0
 11
4.5
 21
96.5
 31
0.0
  0
LINE
  5
77
330
1E
100
AcDbEntity
  8
0
100
AcDbLine
 10
4.0
 20
96.0
 30
0.0
 11
4.0
 21
95.6
 31
0.0
  0
LINE
  5
78
330
1E
100
AcDbEntity
  8
0
100
AcDbLine
 10
6.0
 20
95.6
 30
0.0
 11
6.0
 21
94.50000000000001
 31
0.0
  0
LINE
  5
79
330
1E
100
AcDbEntity
  8
0
100
AcDbLine
 10
6.0
 20
95.6
 30
0.0
 11
6.0
 21
96.0
 31
0.0
  0
LINE
  5
7A
330
1E
100
AcDbEntity
  8
0
100
AcDbLine
 10
6.0
 20
94.50000000000001
 30
0.0
 11
6.0
 21
92.79999999999999
 31
0.0
  0
LINE
  5
7B
330
1E
100
AcDbEntity
  8
0
100
AcDbLine
 10
6.0
 20
94.50000000000001
 30
0.0
 11
6.0
 21
95.6
 31
0.0
  0
LINE
  5
7C
330
1E
100
AcDbEntity
  8
0
100
AcDbLine
 10
6.0
 20
92.79999999999999
 30
0.0
 11
6.0
 21
90.5
 31
0.0
  0
LINE
  5
7D
330
1E
100
AcDbEntity
  8
0
100
AcDbLine
 10
6.0
 20
92.79999999999999
 30
0.0
 11
6.0
 21
94.50000000000001
 31
0.0
  0
LINE
  5
7E
330
1E
100
AcDbEntity
  8
0
100
AcDbLine
 10
6.0
 20
90.5
 30
0.0
 11
6.0
 21
87.79999999999999
 31
0.0
  0
LINE
  5
7F
330
1E
100
AcDbEntity
  8
0
100
AcDbLine
 10
6.0
 20
90.5
 30
0.0
 11
6.0
 21
92.79999999999999
 31
0.0
  0
LINE
  5
80
330
1E
100
AcDbEntity
  8
0
100
AcDbLine
 10
7.0
 20
66.0
 30
0.0
 11
8.0
 21
70.0
 31
0.0
  0
LINE
  5
81
330
1E
100
AcDbEntity
  8
0
100
AcDbLine
 10
6.799999999999999
 20
63.0
 30
0.0
 11
7.0
 21
66.0
 31
0.0
  0
LINE
  5
82
330
1E
100
AcDbEntity
  8
0
100
AcDbLine
 10
6.5
 20
59.0
 30
0.0
 11
7.0
 21
55.5
 31
0.0
  0
LINE
  5
83
330
1E
100
AcDbEntity
  8
0
100
AcDbLine
 10
6.5
 20
59.0
 30
0.0
 11
6.799999999999999
 21
63.0
 31
0.0
  0
LINE
  5
84
330
1E
100
AcDbEntity
  8
0
100
AcDbLine
 10
7.0
 20
55.5
 30
0.0
 11
8.0
 21
53.0
 31
0.0
  0
LINE
  5
85
330
1E
100
AcDbEntity
  8
0
100
AcDbLine
 10
8.0
 20
70.0
 30
0.0
 11
9.117647058823528
 21
72.9803921568627
 31
0.0
  0
LINE
  5
86
330
1E
100
AcDbEntity
  8
0
100
AcDbLine
 10
8.0
 20
53.0
 30
0.0
 11
9.5
 21
51.0
 31
0.0
  0
LINE
  5
87
330
1E
100
AcDbEntity
  8
0
100
AcDbLine
 10
6.799999999999999
 20
83.0
 30
0.0
 11
7.5
 21
81.2
 31
0.0
  0
LINE
  5
88
330
1E
100
AcDbEntity
  8
0
100
AcDbLine
 10
6.5
 20
85.0
 30
0.0
 11
6.799999999999999
 21
87.0
 31
0.0
  0
LINE
  5
89
330
1E
100
AcDbEntity
  8
0
100
AcDbLine
 10
6.5
 20
85.0
 30
0.0
 11
6.799999999999999
 21
83.0
 31
0.0
  0
LINE
  5
8A
330
1E
100
AcDbEntity
  8
0
100
AcDbLine
 10
7.5
 20
81.2
 30
0.0
 11
8.699999999999999
 21
79.7
 31
0.0
  0
LINE
  5
8B
330
1E
100
AcDbEntity
  8
0
100
AcDbLine
 10
8.699999999999999
 20
79.7
 30
0.0
 11
10.2
 21
78.5
 31
0.0
  0
LINE
  5
8C
330
1E
100
AcDbEntity
  8
0
100
AcDbLine
 10
6.799999999999999
 20
87.0
 30
0.0
 11
7.5
 21
88.8
 31
0.0
  0
LINE
  5
8D
330
1E
100
AcDbEntity
  8
0
100
AcDbLine
 10
7.5
 20
88.8
 30
0.0
 11
8.699999999999999
 21
90.29999999999999
 31
0.0
  0
LINE
  5
8E
330
1E
100
AcDbEntity
  8
0
100
AcDbLine
 10
8.699999999999999
 20
90.29999999999999
 30
0.0
 11
10.2
 21
91.5
 31
0.0
  0
LINE
  5
8F
330
1E
100
AcDbEntity
  8
0
100
AcDbLine
 10
9.0
 20
73.0
 30
0.0
 11
9.117647058823528
 21
72.9803921568627
 31
0.0
  0
LINE
  5
90
330
1E
100
AcDbEntity
  8
0
100
AcDbLine
 10
6.0
 20
87.79999999999999
 30
0.0
 11
6.0
 21
85.0
 31
0.0
  0
LINE
  5
91
330
1E
100
AcDbEntity
  8
0
100
AcDbLine
 10
6.0
 20
87.79999999999999
 30
0.0
 11
6.0
 21
90.5
 31
0.0
  0
LINE
  5
94
330
1E
100
AcDbEntity
  8
0
100
AcDbLine
 10
4.5
 20
96.5
 30
0.0
 11
5.5
 21
96.5
 31
0.0
  0
LINE
  5
96
330
1E
100
AcDbEntity
  8
0
100
AcDbLine
 10
5.5
 20
96.5
 30
0.0
 11
6.0
 21
96.0
 31
0.0
  0
LINE
  5
98
330
1E
100
AcDbEntity
  8
0
100
AcDbLine
 10
6.0
 20
96.0
 30
0.0
 11
9.0
 21
97.0
 31
0.0
  0
LINE
  5
99
330
1E
100
AcDbEntity
  8
0
100
AcDbLine
 10
6.0
 20
96.0
 30
0.0
 11
6.0
 21
95.6
 31
0.0
  0
LINE
  5
9A
330
1E
100
AcDbEntity
  8
0
100
AcDbLine
 10
9.5
 20
51.0
 30
0.0
 11
11.5
 21
49.5
 31
0.0
  0
LINE
  5
9B
330
1E
100
AcDbEntity
  8
0
100
AcDbLine
 10
18.5
 20
51.0
 30
0.0
 11
20.0
 21
53.0
 31
0.0
  0
LINE
  5
9C
330
1E
100
AcDbEntity
  8
0
100
AcDbLine
 10
16.5
 20
49.5
 30
0.0
 11
18.5
 21
51.0
 31
0.0
  0
LINE
  5
9D
330
1E
100
AcDbEntity
  8
0
100
AcDbLine
 10
14.0
 20
49.0
 30
0.0
 11
16.5
 21
49.5
 31
0.0
  0
LINE
  5
9E
330
1E
100
AcDbEntity
  8
0
100
AcDbLine
 10
11.5
 20
49.5
 30
0.0
 11
14.0
 21
49.0
 31
0.0
  0
LINE
  5
9F
330
1E
100
AcDbEntity
  8
0
100
AcDbLine
 10
18.8823529411765
 20
72.9803921568627
 30
0.0
 11
19.0
 21
73.0
 31
0.0
  0
LINE
  5
A0
330
1E
100
AcDbEntity
  8
0
100
AcDbLine
 10
18.8823529411765
 20
72.9803921568627
 30
0.0
 11
20.0
 21
70.0
 31
0.0
  0
LINE
  5
A1
330
1E
100
AcDbEntity
  8
0
100
AcDbLine
 10
20.0
 20
70.0
 30
0.0
 11
21.0
 21
66.0
 31
0.0
  0
LINE
  5
A2
330
1E
100
AcDbEntity
  8
0
100
AcDbLine
 10
21.0
 20
66.0
 30
0.0
 11
21.2
 21
63.0
 31
0.0
  0
LINE
  5
A3
330
1E
100
AcDbEntity
  8
0
100
AcDbLine
 10
21.2
 20
63.0
 30
0.0
 11
21.49999999999999
 21
59.0
 31
0.0
  0
LINE
  5
A4
330
1E
100
AcDbEntity
  8
0
100
AcDbLine
 10
21.0
 20
55.5
 30
0.0
 11
21.49999999999999
 21
59.0
 31
0.0
  0
LINE
  5
A5
330
1E
100
AcDbEntity
  8
0
100
AcDbLine
 10
20.0
 20
53.0
 30
0.0
 11
21.0
 21
55.5
 31
0.0
  0
LINE
  5
A6
330
1E
100
AcDbEntity
  8
0
100
AcDbLine
 10
19.0
 20
73.0
 30
0.0
 11
22.0
 21
74.0
 31
0.0
  0
LINE
  5
A7
330
1E
100
AcDbEntity
  8
0
100
AcDbLine
 10
10.2
 20
78.5
 30
0.0
 11
12.0
 21
77.8
 31
0.0
  0
LINE
  5
A8
330
1E
100
AcDbEntity
  8
0
100
AcDbLine
 10
14.0
 20
77.5
 30
0.0
 11
16.0
 21
77.8
 31
0.0
  0
LINE
  5
A9
330
1E
100
AcDbEntity
  8
0
100
AcDbLine
 10
12.0
 20
77.8
 30
0.0
 11
14.0
 21
77.5
 31
0.0
  0
LINE
  5
AA
330
1E
100
AcDbEntity
  8
0
100
AcDbLine
 10
10.2
 20
91.5
 30
0.0
 11
12.0
 21
92.2
 31
0.0
  0
LINE
  5
AB
330
1E
100
AcDbEntity
  8
0
100
AcDbLine
 10
12.0
 20
92.2
 30
0.0
 11
14.0
 21
92.5
 31
0.0
  0
LINE
  5
AC
330
1E
100
AcDbEntity
  8
0
100
AcDbLine
 10
17.8
 20
78.5
 30
0.0
 11
19.3
 21
79.7
 31
0.0
  0
LINE
  5
AD
330
1E
100
AcDbEntity
  8
0
100
AcDbLine
 10
16.0
 20
77.8
 30
0.0
 11
17.8
 21
78.5
 31
0.0
  0
LINE
  5
AE
330
1E
100
AcDbEntity
  8
0
100
AcDbLine
 10
20.5
 20
81.2
 30
0.0
 11
21.2
 21
83.0
 31
0.0
  0
LINE
  5
AF
330
1E
100
AcDbEntity
  8
0
100
AcDbLine
 10
19.3
 20
79.7
 30
0.0
 11
20.5
 21
81.2
 31
0.0
  0
LINE
  5
B0
330
1E
100
AcDbEntity
  8
0
100
AcDbLine
 10
21.2
 20
83.0
 30
0.0
 11
21.49999999999999
 21
85.0
 31
0.0
  0
LINE
  5
B1
330
1E
100
AcDbEntity
  8
0
100
AcDbLine
 10
21.2
 20
87.0
 30
0.0
 11
21.49999999999999
 21
85.0
 31
0.0
  0
LINE
  5
B2
330
1E
100
AcDbEntity
  8
0
100
AcDbLine
 10
20.5
 20
88.8
 30
0.0
 11
21.2
 21
87.0
 31
0.0
  0
LINE
  5
B3
330
1E
100
AcDbEntity
  8
0
100
AcDbLine
 10
19.3
 20
90.29999999999999
 30
0.0
 11
20.5
 21
88.8
 31
0.0
  0
LINE
  5
B4
330
1E
100
AcDbEntity
  8
0
100
AcDbLine
 10
17.8
 20
91.5
 30
0.0
 11
19.3
 21
90.29999999999999
 31
0.0
  0
LINE
  5
B5
330
1E
100
AcDbEntity
  8
0
100
AcDbLine
 10
16.0
 20
92.2
 30
0.0
 11
17.8
 21
91.5
 31
0.0
  0
LINE
  5
B6
330
1E
100
AcDbEntity
  8
0
100
AcDbLine
 10
14.0
 20
92.5
 30
0.0
 11
16.0
 21
92.2
 31
0.0
  0
LINE
  5
B7
330
1E
100
AcDbEntity
  8
0
100
AcDbLine
 10
22.0
 20
74.0
 30
0.0
 11
25.0
 21
76.0
 31
0.0
  0
LINE
  5
B8
330
1E
100
AcDbEntity
  8
0
100
AcDbLine
 10
9.0
 20
97.0
 30
0.0
 11
9.117647058823528
 21
97.01960784313731
 31
0.0
  0
LINE
  5
B9
330
1E
100
AcDbEntity
  8
0
100
AcDbLine
 10
7.0
 20
104.0
 30
0.0
 11
8.0
 21
100.0
 31
0.0
  0
LINE
  5
BA
330
1E
100
AcDbEntity
  8
0
100
AcDbLine
 10
6.799999999999999
 20
107.0
 30
0.0
 11
7.0
 21
104.0
 31
0.0
  0
LINE
  5
BB
330
1E
100
AcDbEntity
  8
0
100
AcDbLine
 10
6.5
 20
111.0
 30
0.0
 11
7.0
 21
114.5
 31
0.0
  0
LINE
  5
BC
330
1E
100
AcDbEntity
  8
0
100
AcDbLine
 10
6.5
 20
111.0
 30
0.0
 11
6.799999999999999
 21
107.0
 31
0.0
  0
LINE
  5
BD
330
1E
100
AcDbEntity
  8
0
100
AcDbLine
 10
8.0
 20
100.0
 30
0.0
 11
9.117647058823528
 21
97.01960784313731
 31
0.0
  0
LINE
  5
BE
330
1E
100
AcDbEntity
  8
0
100
AcDbLine
 10
7.0
 20
114.5
 30
0.0
 11
8.0
 21
117.0
 31
0.0
  0
LINE
  5
BF
330
1E
100
AcDbEntity
  8
0
100
AcDbLine
 10
8.0
 20
117.0
 30
0.0
 11
9.5
 21
119.0
 31
0.0
  0
LINE
  5
C0
330
1E
100
AcDbEntity
  8
0
100
AcDbLine
 10
9.5
 20
119.0
 30
0.0
 11
11.5
 21
120.5
 31
0.0
  0
LINE
  5
C1
330
1E
100
AcDbEntity
  8
0
100
AcDbLine
 10
11.5
 20
120.5
 30
0.0
 11
14.0
 21
121.0
 31
0.0
  0
LINE
  5
C2
330
1E
100
AcDbEntity
  8
0
100
AcDbLine
 10
18.5
 20
119.0
 30
0.0
 11
20.0
 21
117.0
 31
0.0
  0
LINE
  5
C3
330
1E
100
AcDbEntity
  8
0
100
AcDbLine
 10
16.5
 20
120.5
 30
0.0
 11
18.5
 21
119.0
 31
0.0
  0
LINE
  5
C4
330
1E
100
AcDbEntity
  8
0
100
AcDbLine
 10
14.0
 20
121.0
 30
0.0
 11
16.5
 21
120.5
 31
0.0
  0
LINE
  5
C5
330
1E
100
AcDbEntity
  8
0
100
AcDbLine
 10
20.0
 20
100.0
 30
0.0
 11
21.0
 21
104.0
 31
0.0
  0
LINE
  5
C6
330
1E
100
AcDbEntity
  8
0
100
AcDbLine
 10
21.0
 20
104.0
 30
0.0
 11
21.2
 21
107.0
 31
0.0
  0
LINE
  5
C7
330
1E
100
AcDbEntity
  8
0
100
AcDbLine
 10
21.2
 20
107.0
 30
0.0
 11
21.49999999999999
 21
111.0
 31
0.0
  0
LINE
  5
C8
330
1E
100
AcDbEntity
  8
0
100
AcDbLine
 10
21.0
 20
114.5
 30
0.0
 11
21.49999999999999
 21
111.0
 31
0.0
  0
LINE
  5
C9
330
1E
100
AcDbEntity
  8
0
100
AcDbLine
 10
20.0
 20
117.0
 30
0.0
 11
21.0
 21
114.5
 31
0.0
  0
LINE
  5
CA
330
1E
100
AcDbEntity
  8
0
100
AcDbLine
 10
18.8823529411765
 20
97.01960784313731
 30
0.0
 11
19.0
 21
97.0
 31
0.0
  0
LINE
  5
CB
330
1E
100
AcDbEntity
  8
0
100
AcDbLine
 10
18.8823529411765
 20
97.01960784313731
 30
0.0
 11
20.0
 21
100.0
 31
0.0
  0
LINE
  5
CC
330
1E
100
AcDbEntity
  8
0
100
AcDbLine
 10
19.0
 20
97.0
 30
0.0
 11
22.0
 21
96.0
 31
0.0
  0
LINE
  5
CD
330
1E
100
AcDbEntity
  8
0
100
AcDbLine
 10
25.0
 20
76.0
 30
0.0
 11
25.0
 21
76.29999999999999
 31
0.0
  0
LINE
  5
CE
330
1E
100
AcDbEntity
  8
0
100
AcDbLine
 10
25.0
 20
76.0
 30
0.0
 11
26.0
 21
75.0
 31
0.0
  0
LINE
  5
CF
330
1E
100
AcDbEntity
  8
0
100
AcDbLine
 10
25.0
 20
76.29999999999999
 30
0.0
 11
25.0
 21
77.2
 31
0.0
  0
LINE
  5
D0
330
1E
100
AcDbEntity
  8
0
100
AcDbLine
 10
25.0
 20
76.29999999999999
 30
0.0
 11
25.0
 21
76.0
 31
0.0
  0
LINE
  5
D1
330
1E
100
AcDbEntity
  8
0
100
AcDbLine
 10
25.0
 20
77.2
 30
0.0
 11
25.0
 21
78.59999999999999
 31
0.0
  0
LINE
  5
D2
330
1E
100
AcDbEntity
  8
0
100
AcDbLine
 10
25.0
 20
77.2
 30
0.0
 11
25.0
 21
76.29999999999999
 31
0.0
  0
LINE
  5
D3
330
1E
100
AcDbEntity
  8
0
100
AcDbLine
 10
25.0
 20
78.59999999999999
 30
0.0
 11
25.0
 21
80.5
 31
0.0
  0
LINE
  5
D4
330
1E
100
AcDbEntity
  8
0
100
AcDbLine
 10
25.0
 20
78.59999999999999
 30
0.0
 11
25.0
 21
77.2
 31
0.0
  0
LINE
  5
D5
330
1E
100
AcDbEntity
  8
0
100
AcDbLine
 10
25.0
 20
80.5
 30
0.0
 11
25.0
 21
82.70000000000001
 31
0.0
  0
LINE
  5
D6
330
1E
100
AcDbEntity
  8
0
100
AcDbLine
 10
25.0
 20
80.5
 30
0.0
 11
25.0
 21
78.59999999999999
 31
0.0
  0
LINE
  5
D7
330
1E
100
AcDbEntity
  8
0
100
AcDbLine
 10
26.0
 20
75.0
 30
0.0
 11
27.0
 21
75.0
 31
0.0
  0
LINE
  5
DB
330
1E
100
AcDbEntity
  8
0
100
AcDbLine
 10
27.0
 20
75.0
 30
0.0
 11
28.0
 21
76.0
 31
0.0
  0
LINE
  5
DF
330
1E
100
AcDbEntity
  8
0
100
AcDbLine
 10
60.0
 20
60.0
 30
0.0
 11
60.0
 21
60.89999999999999
 31
0.0
  0
LINE
  5
E0
330
1E
100
AcDbEntity
  8
0
100
AcDbLine
 10
60.0
 20
60.0
 30
0.0
 11
61.0
 21
59.0
 31
0.0
  0
LINE
  5
E1
330
1E
100
AcDbEntity
  8
0
100
AcDbLine
 10
60.0
 20
60.89999999999999
 30
0.0
 11
60.0
 21
60.0
 31
0.0
  0
LINE
  5
E2
330
1E
100
AcDbEntity
  8
0
100
AcDbLine
 10
60.0
 20
60.89999999999999
 30
0.0
 11
60.0
 21
61.0
 31
0.0
  0
LINE
  5
E3
330
1E
100
AcDbEntity
  8
0
100
AcDbLine
 10
60.0
 20
60.89999999999999
 30
0.0
 11
60.0
 21
63.3
 31
0.0
  0
LINE
  5
E4
330
1E
100
AcDbEntity
  8
0
100
AcDbLine
 10
80.0
 20
3.799999999999999
 30
0.0
 11
80.0
 21
6.0
 31
0.0
  0
LINE
  5
E5
330
1E
100
AcDbEntity
  8
0
100
AcDbLine
 10
80.0
 20
3.0
 30
0.0
 11
80.5
 21
1.6
 31
0.0
  0
LINE
  5
E6
330
1E
100
AcDbEntity
  8
0
100
AcDbLine
 10
80.0
 20
9.4
 30
0.0
 11
80.0
 21
6.0
 31
0.0
  0
LINE
  5
EC
330
1E
100
AcDbEntity
  8
0
100
AcDbLine
 10
80.0
 20
6.0
 30
0.0
 11
80.0
 21
3.799999999999999
 31
0.0
  0
LINE
  5
ED
330
1E
100
AcDbEntity
  8
0
100
AcDbLine
 10
80.0
 20
6.0
 30
0.0
 11
80.0
 21
9.4
 31
0.0
  0
LINE
  5
EF
330
1E
100
AcDbEntity
  8
0
100
AcDbLine
 10
92.0
 20
-0.0000000000000045
 30
0.0
 11
92.0
 21
0.899999999999996
 31
0.0
  0
LINE
  5
F0
330
1E
100
AcDbEntity
  8
0
100
AcDbLine
 10
80.5
 20
1.6
 30
0.0
 11
81.6
 21
0.4999999999999961
 31
0.0
  0
LINE
  5
F1
330
1E
100
AcDbEntity
  8
0
100
AcDbLine
 10
92.0
 20
17.7
 30
0.0
 11
92.0
 21
11.4
 31
0.0
  0
LINE
  5
F2
330
1E
100
AcDbEntity
  8
0
100
AcDbLine
 10
92.0
 20
17.7
 30
0.0
 11
92.0
 21
25.0
 31
0.0
  0
LINE
  5
F3
330
1E
100
AcDbEntity
  8
0
100
AcDbLine
 10
92.0
 20
11.4
 30
0.0
 11
92.0
 21
6.599999999999999
 31
0.0
  0
LINE
  5
F4
330
1E
100
AcDbEntity
  8
0
100
AcDbLine
 10
92.0
 20
11.4
 30
0.0
 11
92.0
 21
17.7
 31
0.0
  0
LINE
  5
F5
330
1E
100
AcDbEntity
  8
0
100
AcDbLine
 10
92.0
 20
6.599999999999999
 30
0.0
 11
92.0
 21
3.1
 31
0.0
  0
LINE
  5
F6
330
1E
100
AcDbEntity
  8
0
100
AcDbLine
 10
92.0
 20
6.599999999999999
 30
0.0
 11
92.0
 21
11.4
 31
0.0
  0
LINE
  5
F7
330
1E
100
AcDbEntity
  8
0
100
AcDbLine
 10
92.0
 20
3.1
 30
0.0
 11
92.0
 21
0.8999999999999948
 31
0.0
  0
LINE
  5
F8
330
1E
100
AcDbEntity
  8
0
100
AcDbLine
 10
92.0
 20
3.1
 30
0.0
 11
92.0
 21
6.599999999999999
 31
0.0
  0
LINE
  5
F9
330
1E
100
AcDbEntity
  8
0
100
AcDbLine
 10
92.0
 20
0.899999999999996
 30
0.0
 11
92.0
 21
-0.0000000000000044
 31
0.0
  0
LINE
  5
FA
330
1E
100
AcDbEntity
  8
0
100
AcDbLine
 10
92.0
 20
0.899999999999996
 30
0.0
 11
92.0
 21
3.1
 31
0.0
  0
LINE
  5
FB
330
1E
100
AcDbEntity
  8
0
100
AcDbLine
 10
92.0
 20
25.0
 30
0.0
 11
92.0
 21
33.3
 31
0.0
  0
LINE
  5
FC
330
1E
100
AcDbEntity
  8
0
100
AcDbLine
 10
92.0
 20
25.0
 30
0.0
 11
92.0
 21
17.7
 31
0.0
  0
LINE
  5
FD
330
1E
100
AcDbEntity
  8
0
100
AcDbLine
 10
92.0
 20
33.3
 30
0.0
 11
92.0
 21
25.0
 31
0.0
  0
LINE
  5
FE
330
1E
100
AcDbEntity
  8
0
100
AcDbLine
 10
92.0
 20
33.3
 30
0.0
 11
92.0
 21
42.7
 31
0.0
  0
LINE
  5
FF
330
1E
100
AcDbEntity
  8
0
100
AcDbLine
 10
92.0
 20
42.7
 30
0.0
 11
92.0
 21
33.3
 31
0.0
  0
LINE
  5
100
330
1E
100
AcDbEntity
  8
0
100
AcDbLine
 10
92.0
 20
42.7
 30
0.0
 11
92.0
 21
52.5
 31
0.0
  0
LINE
  5
101
330
1E
100
AcDbEntity
  8
0
100
AcDbLine
 10
81.6
 20
0.4999999999999961
 30
0.0
 11
83.0
 21
-0.0000000000000039
 31
0.0
  0
LINE
  5
102
330
1E
100
AcDbEntity
  8
0
100
AcDbLine
 10
81.6
 20
0.4999999999999961
 30
0.0
 11
83.0
 21
-0.0000000000000039
 31
0.0
  0
LINE
  5
103
330
1E
100
AcDbEntity
  8
0
100
AcDbLine
 10
83.0
 20
-0.0000000000000039
 30
0.0
 11
92.0
 21
-0.0000000000000045
 31
0.0
  0
LINE
  5
106
330
1E
100
AcDbEntity
  8
0
100
AcDbLine
 10
80.0
 20
9.399999999999998
 30
0.0
 11
80.0
 21
63.79999999999999
 31
0.0
  0
LINE
  5
107
330
1E
100
AcDbEntity
  8
0
100
AcDbLine
 10
62.0
 20
59.0
 30
0.0
 11
63.0
 21
60.0
 31
0.0
  0
LINE
  5
109
330
1E
100
AcDbEntity
  8
0
100
AcDbLine
 10
61.0
 20
59.0
 30
0.0
 11
62.0
 21
59.0
 31
0.0
  0
LINE
  5
10B
330
1E
100
AcDbEntity
  8
0
100
AcDbLine
 10
63.0
 20
60.0
 30
0.0
 11
63.0
 21
60.89999999999999
 31
0.0
  0
LINE
  5
10C
330
1E
100
AcDbEntity
  8
0
100
AcDbLine
 10
63.0
 20
60.89999999999999
 30
0.0
 11
63.0
 21
63.3
 31
0.0
  0
LINE
  5
10D
330
1E
100
AcDbEntity
  8
0
100
AcDbLine
 10
63.0
 20
60.89999999999999
 30
0.0
 11
63.0
 21
60.0
 31
0.0
  0
LINE
  5
112
330
1E
100
AcDbEntity
  8
0
100
AcDbLine
 10
80.0
 20
61.0
 30
0.0
 11
80.0
 21
60.8
 31
0.0
  0
LINE
  5
113
330
1E
100
AcDbEntity
  8
0
100
AcDbLine
 10
80.0
 20
60.8
 30
0.0
 11
80.0
 21
61.0
 31
0.0
  0
LINE
  5
114
330
1E
100
AcDbEntity
  8
0
100
AcDbLine
 10
80.0
 20
60.8
 30
0.0
 11
80.0
 21
59.2
 31
0.0
  0
LINE
  5
115
330
1E
100
AcDbEntity
  8
0
100
AcDbLine
 10
80.0
 20
60.8
 30
0.0
 11
80.0
 21
62.8
 31
0.0
  0
LINE
  5
116
330
1E
100
AcDbEntity
  8
0
100
AcDbLine
 10
80.0
 20
59.2
 30
0.0
 11
80.0
 21
60.8
 31
0.0
  0
LINE
  5
117
330
1E
100
AcDbEntity
  8
0
100
AcDbLine
 10
80.0
 20
59.2
 30
0.0
 11
80.0
 21
58.0
 31
0.0
  0
LINE
  5
118
330
1E
100
AcDbEntity
  8
0
100
AcDbLine
 10
80.0
 20
58.0
 30
0.0
 11
80.0
 21
59.2
 31
0.0
  0
LINE
  5
119
330
1E
100
AcDbEntity
  8
0
100
AcDbLine
 10
80.0
 20
58.0
 30
0.0
 11
80.0
 21
57.3
 31
0.0
  0
LINE
  5
11A
330
1E
100
AcDbEntity
  8
0
100
AcDbLine
 10
80.0
 20
57.3
 30
0.0
 11
80.0
 21
58.0
 31
0.0
  0
LINE
  5
11B
330
1E
100
AcDbEntity
  8
0
100
AcDbLine
 10
80.0
 20
57.3
 30
0.0
 11
80.0
 21
57.0
 31
0.0
  0
LINE
  5
11C
330
1E
100
AcDbEntity
  8
0
100
AcDbLine
 10
92.0
 20
60.1
 30
0.0
 11
92.0
 21
59.0
 31
0.0
  0
LINE
  5
11D
330
1E
100
AcDbEntity
  8
0
100
AcDbLine
 10
92.0
 20
59.0
 30
0.0
 11
92.0
 21
58.3
 31
0.0
  0
LINE
  5
11E
330
1E
100
AcDbEntity
  8
0
100
AcDbLine
 10
92.0
 20
58.3
 30
0.0
 11
92.0
 21
58.0
 31
0.0
  0
LINE
  5
11F
330
1E
100
AcDbEntity
  8
0
100
AcDbLine
 10
80.0
 20
57.0
 30
0.0
 11
80.0
 21
57.3
 31
0.0
  0
LINE
  5
120
330
1E
100
AcDbEntity
  8
0
100
AcDbLine
 10
92.0
 20
52.5
 30
0.0
 11
92.0
 21
58.0
 31
0.0
  0
LINE
  5
121
330
1E
100
AcDbEntity
  8
0
100
AcDbLine
 10
92.0
 20
52.5
 30
0.0
 11
92.0
 21
63.1
 31
0.0
  0
LINE
  5
122
330
1E
100
AcDbEntity
  8
0
100
AcDbLine
 10
92.0
 20
52.5
 30
0.0
 11
92.0
 21
42.7
 31
0.0
  0
LINE
  5
123
330
1E
100
AcDbEntity
  8
0
100
AcDbLine
 10
60.0
 20
61.0
 30
0.0
 11
60.0
 21
61.9
 31
0.0
  0
LINE
  5
124
330
1E
100
AcDbEntity
  8
0
100
AcDbLine
 10
60.0
 20
61.0
 30
0.0
 11
60.0
 21
60.89999999999999
 31
0.0
  0
LINE
  5
129
330
1E
100
AcDbEntity
  8
0
100
AcDbLine
 10
92.0
 20
61.6
 30
0.0
 11
92.0
 21
60.1
 31
0.0
  0
LINE
  5
12A
330
1E
100
AcDbEntity
  8
0
100
AcDbLine
 10
60.0
 20
61.9
 30
0.0
 11
60.0
 21
64.2
 31
0.0
  0
LINE
  5
12B
330
1E
100
AcDbEntity
  8
0
100
AcDbLine
 10
60.0
 20
61.9
 30
0.0
 11
60.0
 21
61.0
 31
0.0
  0
LINE
  5
12C
330
1E
100
AcDbEntity
  8
0
100
AcDbLine
 10
63.0
 20
61.0
 30
0.0
 11
80.0
 21
61.0
 31
0.0
  0
LINE
  5
12D
330
1E
100
AcDbEntity
  8
0
100
AcDbLine
 10
54.5
 20
61.29999999999999
 30
0.0
 11
60.0
 21
61.0
 31
0.0
  0
LINE
  5
12E
330
1E
100
AcDbEntity
  8
0
100
AcDbLine
 10
60.0
 20
63.3
 30
0.0
 11
60.0
 21
67.40000000000001
 31
0.0
  0
LINE
  5
12F
330
1E
100
AcDbEntity
  8
0
100
AcDbLine
 10
60.0
 20
63.3
 30
0.0
 11
60.0
 21
60.89999999999999
 31
0.0
  0
LINE
  5
130
330
1E
100
AcDbEntity
  8
0
100
AcDbLine
 10
60.0
 20
67.40000000000001
 30
0.0
 11
60.0
 21
72.59999999999999
 31
0.0
  0
LINE
  5
131
330
1E
100
AcDbEntity
  8
0
100
AcDbLine
 10
60.0
 20
67.40000000000001
 30
0.0
 11
60.0
 21
63.3
 31
0.0
  0
LINE
  5
132
330
1E
100
AcDbEntity
  8
0
100
AcDbLine
 10
63.0
 20
63.3
 30
0.0
 11
63.0
 21
67.40000000000001
 31
0.0
  0
LINE
  5
133
330
1E
100
AcDbEntity
  8
0
100
AcDbLine
 10
63.0
 20
63.3
 30
0.0
 11
63.0
 21
60.89999999999999
 31
0.0
  0
LINE
  5
134
330
1E
100
AcDbEntity
  8
0
100
AcDbLine
 10
80.0
 20
62.8
 30
0.0
 11
80.0
 21
60.8
 31
0.0
  0
LINE
  5
135
330
1E
100
AcDbEntity
  8
0
100
AcDbLine
 10
80.0
 20
62.8
 30
0.0
 11
80.0
 21
65.2
 31
0.0
  0
LINE
  5
136
330
1E
100
AcDbEntity
  8
0
100
AcDbLine
 10
92.0
 20
63.1
 30
0.0
 11
92.0
 21
73.9
 31
0.0
  0
LINE
  5
137
330
1E
100
AcDbEntity
  8
0
100
AcDbLine
 10
92.0
 20
63.1
 30
0.0
 11
92.0
 21
61.6
 31
0.0
  0
LINE
  5
138
330
1E
100
AcDbEntity
  8
0
100
AcDbLine
 10
63.0
 20
67.40000000000001
 30
0.0
 11
63.0
 21
72.59999999999999
 31
0.0
  0
LINE
  5
139
330
1E
100
AcDbEntity
  8
0
100
AcDbLine
 10
63.0
 20
67.40000000000001
 30
0.0
 11
63.0
 21
63.3
 31
0.0
  0
LINE
  5
13E
330
1E
100
AcDbEntity
  8
0
100
AcDbLine
 10
80.0
 20
65.2
 30
0.0
 11
80.0
 21
62.8
 31
0.0
  0
LINE
  5
13F
330
1E
100
AcDbEntity
  8
0
100
AcDbLine
 10
80.0
 20
65.2
 30
0.0
 11
80.0
 21
68.0
 31
0.0
  0
LINE
  5
140
330
1E
100
AcDbEntity
  8
0
100
AcDbLine
 10
80.0
 20
68.0
 30
0.0
 11
80.0
 21
65.2
 31
0.0
  0
LINE
  5
141
330
1E
100
AcDbEntity
  8
0
100
AcDbLine
 10
80.0
 20
68.0
 30
0.0
 11
80.0
 21
71.09999999999999
 31
0.0
  0
LINE
  5
142
330
1E
100
AcDbEntity
  8
0
100
AcDbLine
 10
80.0
 20
63.79999999999999
 30
0.0
 11
80.0
 21
74.29999999999999
 31
0.0
  0
LINE
  5
143
330
1E
100
AcDbEntity
  8
0
100
AcDbLine
 10
80.0
 20
63.79999999999999
 30
0.0
 11
80.0
 21
9.399999999999998
 31
0.0
  0
LINE
  5
144
330
1E
100
AcDbEntity
  8
0
100
AcDbLine
 10
60.0
 20
64.2
 30
0.0
 11
60.0
 21
68.09999999999999
 31
0.0
  0
LINE
  5
145
330
1E
100
AcDbEntity
  8
0
100
AcDbLine
 10
60.0
 20
64.2
 30
0.0
 11
60.0
 21
61.9
 31
0.0
  0
LINE
  5
146
330
1E
100
AcDbEntity
  8
0
100
AcDbLine
 10
49.0
 20
62.5
 30
0.0
 11
54.5
 21
61.29999999999999
 31
0.0
  0
LINE
  5
147
330
1E
100
AcDbEntity
  8
0
100
AcDbLine
 10
42.5
 20
65.0
 30
0.0
 11
49.0
 21
62.5
 31
0.0
  0
LINE
  5
148
330
1E
100
AcDbEntity
  8
0
100
AcDbLine
 10
60.0
 20
72.59999999999999
 30
0.0
 11
60.0
 21
78.59999999999999
 31
0.0
  0
LINE
  5
149
330
1E
100
AcDbEntity
  8
0
100
AcDbLine
 10
60.0
 20
72.59999999999999
 30
0.0
 11
60.0
 21
67.40000000000001
 31
0.0
  0
LINE
  5
14A
330
1E
100
AcDbEntity
  8
0
100
AcDbLine
 10
60.0
 20
68.09999999999999
 30
0.0
 11
60.0
 21
73.0
 31
0.0
  0
LINE
  5
14B
330
1E
100
AcDbEntity
  8
0
100
AcDbLine
 10
60.0
 20
68.09999999999999
 30
0.0
 11
60.0
 21
64.2
 31
0.0
  0
LINE
  5
14E
330
1E
100
AcDbEntity
  8
0
100
AcDbLine
 10
63.0
 20
72.59999999999999
 30
0.0
 11
63.0
 21
78.59999999999999
 31
0.0
  0
LINE
  5
14F
330
1E
100
AcDbEntity
  8
0
100
AcDbLine
 10
63.0
 20
72.59999999999999
 30
0.0
 11
63.0
 21
67.40000000000001
 31
0.0
  0
LINE
  5
152
330
1E
100
AcDbEntity
  8
0
100
AcDbLine
 10
92.0
 20
73.9
 30
0.0
 11
92.0
 21
63.1
 31
0.0
  0
LINE
  5
153
330
1E
100
AcDbEntity
  8
0
100
AcDbLine
 10
92.0
 20
73.9
 30
0.0
 11
92.0
 21
85.0
 31
0.0
  0
LINE
  5
154
330
1E
100
AcDbEntity
  8
0
100
AcDbLine
 10
80.0
 20
71.09999999999999
 30
0.0
 11
80.0
 21
68.0
 31
0.0
  0
LINE
  5
155
330
1E
100
AcDbEntity
  8
0
100
AcDbLine
 10
80.0
 20
71.09999999999999
 30
0.0
 11
80.0
 21
74.29999999999999
 31
0.0
  0
LINE
  5
156
330
1E
100
AcDbEntity
  8
0
100
AcDbLine
 10
80.0
 20
74.29999999999999
 30
0.0
 11
80.0
 21
85.0
 31
0.0
  0
LINE
  5
157
330
1E
100
AcDbEntity
  8
0
100
AcDbLine
 10
80.0
 20
74.29999999999999
 30
0.0
 11
80.0
 21
71.09999999999999
 31
0.0
  0
LINE
  5
158
330
1E
100
AcDbEntity
  8
0
100
AcDbLine
 10
80.0
 20
74.29999999999999
 30
0.0
 11
80.0
 21
63.79999999999999
 31
0.0
  0
LINE
  5
159
330
1E
100
AcDbEntity
  8
0
100
AcDbLine
 10
80.0
 20
74.29999999999999
 30
0.0
 11
80.0
 21
77.8
 31
0.0
  0
LINE
  5
15A
330
1E
100
AcDbEntity
  8
0
100
AcDbLine
 10
60.0
 20
73.0
 30
0.0
 11
60.0
 21
78.79999999999999
 31
0.0
  0
LINE
  5
15B
330
1E
100
AcDbEntity
  8
0
100
AcDbLine
 10
60.0
 20
73.0
 30
0.0
 11
60.0
 21
68.09999999999999
 31
0.0
  0
LINE
  5
15C
330
1E
100
AcDbEntity
  8
0
100
AcDbLine
 10
37.0
 20
68.0
 30
0.0
 11
42.5
 21
65.0
 31
0.0
  0
LINE
  5
15D
330
1E
100
AcDbEntity
  8
0
100
AcDbLine
 10
32.0
 20
72.0
 30
0.0
 11
37.0
 21
68.0
 31
0.0
  0
LINE
  5
166
330
1E
100
AcDbEntity
  8
0
100
AcDbLine
 10
28.0
 20
76.29999999999999
 30
0.0
 11
28.0
 21
76.0
 31
0.0
  0
LINE
  5
167
330
1E
100
AcDbEntity
  8
0
100
AcDbLine
 10
28.0
 20
76.29999999999999
 30
0.0
 11
28.0
 21
77.2
 31
0.0
  0
LINE
  5
168
330
1E
100
AcDbEntity
  8
0
100
AcDbLine
 10
28.0
 20
77.2
 30
0.0
 11
28.0
 21
76.29999999999999
 31
0.0
  0
LINE
  5
169
330
1E
100
AcDbEntity
  8
0
100
AcDbLine
 10
28.0
 20
77.2
 30
0.0
 11
28.0
 21
78.59999999999999
 31
0.0
  0
LINE
  5
172
330
1E
100
AcDbEntity
  8
0
100
AcDbLine
 10
28.0
 20
78.59999999999999
 30
0.0
 11
28.0
 21
77.2
 31
0.0
  0
LINE
  5
173
330
1E
100
AcDbEntity
  8
0
100
AcDbLine
 10
28.0
 20
78.59999999999999
 30
0.0
 11
28.0
 21
80.5
 31
0.0
  0
LINE
  5
174
330
1E
100
AcDbEntity
  8
0
100
AcDbLine
 10
28.0
 20
80.5
 30
0.0
 11
28.0
 21
78.59999999999999
 31
0.0
  0
LINE
  5
175
330
1E
100
AcDbEntity
  8
0
100
AcDbLine
 10
28.0
 20
80.5
 30
0.0
 11
28.0
 21
82.70000000000001
 31
0.0
  0
LINE
  5
17A
330
1E
100
AcDbEntity
  8
0
100
AcDbLine
 10
28.0
 20
82.70000000000001
 30
0.0
 11
28.0
 21
80.5
 31
0.0
  0
LINE
  5
17B
330
1E
100
AcDbEntity
  8
0
100
AcDbLine
 10
28.0
 20
82.70000000000001
 30
0.0
 11
28.0
 21
85.0
 31
0.0
  0
LINE
  5
17C
330
1E
100
AcDbEntity
  8
0
100
AcDbLine
 10
63.0
 20
78.59999999999999
 30
0.0
 11
63.0
 21
85.0
 31
0.0
  0
LINE
  5
17D
330
1E
100
AcDbEntity
  8
0
100
AcDbLine
 10
63.0
 20
78.59999999999999
 30
0.0
 11
63.0
 21
72.59999999999999
 31
0.0
  0
LINE
  5
182
330
1E
100
AcDbEntity
  8
0
100
AcDbLine
 10
60.0
 20
78.59999999999999
 30
0.0
 11
60.0
 21
85.0
 31
0.0
  0
LINE
  5
183
330
1E
100
AcDbEntity
  8
0
100
AcDbLine
 10
60.0
 20
78.59999999999999
 30
0.0
 11
60.0
 21
72.59999999999999
 31
0.0
  0
LINE
  5
184
330
1E
100
AcDbEntity
  8
0
100
AcDbLine
 10
80.0
 20
77.8
 30
0.0
 11
80.0
 21
74.29999999999999
 31
0.0
  0
LINE
  5
185
330
1E
100
AcDbEntity
  8
0
100
AcDbLine
 10
80.0
 20
77.8
 30
0.0
 11
80.0
 21
81.4
 31
0.0
  0
LINE
  5
186
330
1E
100
AcDbEntity
  8
0
100
AcDbLine
 10
92.0
 20
85.0
 30
0.0
 11
92.0
 21
73.9
 31
0.0
  0
LINE
  5
187
330
1E
100
AcDbEntity
  8
0
100
AcDbLine
 10
92.0
 20
85.0
 30
0.0
 11
92.0
 21
96.09999999999999
 31
0.0
  0
LINE
  5
188
330
1E
100
AcDbEntity
  8
0
100
AcDbLine
 10
80.0
 20
81.4
 30
0.0
 11
80.0
 21
77.8
 31
0.0
  0
LINE
  5
189
330
1E
100
AcDbEntity
  8
0
100
AcDbLine
 10
80.0
 20
81.4
 30
0.0
 11
80.0
 21
85.0
 31
0.0
  0
LINE
  5
18A
330
1E
100
AcDbEntity
  8
0
100
AcDbLine
 10
63.0
 20
85.0
 30
0.0
 11
63.0
 21
78.59999999999999
 31
0.0
  0
LINE
  5
18B
330
1E
100
AcDbEntity
  8
0
100
AcDbLine
 10
63.0
 20
85.0
 30
0.0
 11
63.0
 21
91.4
 31
0.0
  0
LINE
  5
190
330
1E
100
AcDbEntity
  8
0
100
AcDbLine
 10
80.0
 20
85.0
 30
0.0
 11
80.0
 21
81.4
 31
0.0
  0
LINE
  5
191
330
1E
100
AcDbEntity
  8
0
100
AcDbLine
 10
80.0
 20
85.0
 30
0.0
 11
80.0
 21
74.29999999999999
 31
0.0
  0
LINE
  5
192
330
1E
100
AcDbEntity
  8
0
100
AcDbLine
 10
80.0
 20
85.0
 30
0.0
 11
80.0
 21
88.59999999999999
 31
0.0
  0
LINE
  5
193
330
1E
100
AcDbEntity
  8
0
100
AcDbLine
 10
80.0
 20
85.0
 30
0.0
 11
80.0
 21
95.7
 31
0.0
  0
LINE
  5
194
330
1E
100
AcDbEntity
  8
0
100
AcDbLine
 10
60.0
 20
85.0
 30
0.0
 11
60.0
 21
91.2
 31
0.0
  0
LINE
  5
195
330
1E
100
AcDbEntity
  8
0
100
AcDbLine
 10
60.0
 20
85.0
 30
0.0
 11
60.0
 21
78.79999999999999
 31
0.0
  0
LINE
  5
196
330
1E
100
AcDbEntity
  8
0
100
AcDbLine
 10
60.0
 20
85.0
 30
0.0
 11
60.0
 21
78.59999999999999
 31
0.0
  0
LINE
  5
197
330
1E
100
AcDbEntity
  8
0
100
AcDbLine
 10
60.0
 20
85.0
 30
0.0
 11
60.0
 21
91.4
 31
0.0
  0
LINE
  5
198
330
1E
100
AcDbEntity
  8
0
100
AcDbLine
 10
60.0
 20
78.79999999999999
 30
0.0
 11
60.0
 21
85.0
 31
0.0
  0
LINE
  5
199
330
1E
100
AcDbEntity
  8
0
100
AcDbLine
 10
60.0
 20
78.79999999999999
 30
0.0
 11
60.0
 21
73.0
 31
0.0
  0
LINE
  5
19A
330
1E
100
AcDbEntity
  8
0
100
AcDbLine
 10
28.0
 20
85.0
 30
0.0
 11
28.0
 21
82.70000000000001
 31
0.0
  0
LINE
  5
19B
330
1E
100
AcDbEntity
  8
0
100
AcDbLine
 10
28.0
 20
85.0
 30
0.0
 11
28.0
 21
87.3
 31
0.0
  0
LINE
  5
19C
330
1E
100
AcDbEntity
  8
0
100
AcDbLine
 10
28.0
 20
76.0
 30
0.0
 11
32.0
 21
72.0
 31
0.0
  0
LINE
  5
19D
330
1E
100
AcDbEntity
  8
0
100
AcDbLine
 10
28.0
 20
76.0
 30
0.0
 11
28.0
 21
76.29999999999999
 31
0.0
  0
LINE
  5
19E
330
1E
100
AcDbEntity
  8
0
100
AcDbLine
 10
25.0
 20
82.70000000000001
 30
0.0
 11
25.0
 21
85.0
 31
0.0
  0
LINE
  5
19F
330
1E
100
AcDbEntity
  8
0
100
AcDbLine
 10
25.0
 20
82.70000000000001
 30
0.0
 11
25.0
 21
80.5
 31
0.0
  0
LINE
  5
1A0
330
1E
100
AcDbEntity
  8
0
100
AcDbLine
 10
25.0
 20
94.0
 30
0.0
 11
26.0
 21
95.0
 31
0.0
  0
LINE
  5
1A1
330
1E
100
AcDbEntity
  8
0
100
AcDbLine
 10
25.0
 20
94.0
 30
0.0
 11
25.0
 21
93.7
 31
0.0
  0
LINE
  5
1A2
330
1E
100
AcDbEntity
  8
0
100
AcDbLine
 10
25.0
 20
93.7
 30
0.0
 11
25.0
 21
94.0
 31
0.0
  0
LINE
  5
1A3
330
1E
100
AcDbEntity
  8
0
100
AcDbLine
 10
25.0
 20
93.7
 30
0.0
 11
25.0
 21
92.79999999999999
 31
0.0
  0
LINE
  5
1A4
330
1E
100
AcDbEntity
  8
0
100
AcDbLine
 10
25.0
 20
92.79999999999999
 30
0.0
 11
25.0
 21
93.7
 31
0.0
  0
LINE
  5
1A5
330
1E
100
AcDbEntity
  8
0
100
AcDbLine
 10
25.0
 20
92.79999999999999
 30
0.0
 11
25.0
 21
91.4
 31
0.0
  0
LINE
  5
1A6
330
1E
100
AcDbEntity
  8
0
100
AcDbLine
 10
25.0
 20
91.4
 30
0.0
 11
25.0
 21
92.79999999999999
 31
0.0
  0
LINE
  5
1A7
330
1E
100
AcDbEntity
  8
0
100
AcDbLine
 10
25.0
 20
91.4
 30
0.0
 11
25.0
 21
89.50000000000001
 31
0.0
  0
LINE
  5
1A8
330
1E
100
AcDbEntity
  8
0
100
AcDbLine
 10
25.0
 20
89.50000000000001
 30
0.0
 11
25.0
 21
91.4
 31
0.0
  0
LINE
  5
1A9
330
1E
100
AcDbEntity
  8
0
100
AcDbLine
 10
25.0
 20
89.50000000000001
 30
0.0
 11
25.0
 21
87.3
 31
0.0
  0
LINE
  5
1BA
330
1E
100
AcDbEntity
  8
0
100
AcDbLine
 10
28.0
 20
93.7
 30
0.0
 11
28.0
 21
92.79999999999999
 31
0.0
  0
LINE
  5
1BB
330
1E
100
AcDbEntity
  8
0
100
AcDbLine
 10
28.0
 20
93.7
 30
0.0
 11
28.0
 21
94.0
 31
0.0
  0
LINE
  5
1BC
330
1E
100
AcDbEntity
  8
0
100
AcDbLine
 10
28.0
 20
92.79999999999999
 30
0.0
 11
28.0
 21
91.4
 31
0.0
  0
LINE
  5
1BD
330
1E
100
AcDbEntity
  8
0
100
AcDbLine
 10
28.0
 20
92.79999999999999
 30
0.0
 11
28.0
 21
93.7
 31
0.0
  0
LINE
  5
1BE
330
1E
100
AcDbEntity
  8
0
100
AcDbLine
 10
28.0
 20
91.4
 30
0.0
 11
28.0
 21
89.50000000000001
 31
0.0
  0
LINE
  5
1BF
330
1E
100
AcDbEntity
  8
0
100
AcDbLine
 10
28.0
 20
91.4
 30
0.0
 11
28.0
 21
92.79999999999999
 31
0.0
  0
LINE
  5
1C0
330
1E
100
AcDbEntity
  8
0
100
AcDbLine
 10
28.0
 20
89.50000000000001
 30
0.0
 11
28.0
 21
87.3
 31
0.0
  0
LINE
  5
1C1
330
1E
100
AcDbEntity
  8
0
100
AcDbLine
 10
28.0
 20
89.50000000000001
 30
0.0
 11
28.0
 21
91.4
 31
0.0
  0
LINE
  5
1C2
330
1E
100
AcDbEntity
  8
0
100
AcDbLine
 10
80.0
 20
88.59999999999999
 30
0.0
 11
80.0
 21
92.2
 31
0.0
  0
LINE
  5
1C3
330
1E
100
AcDbEntity
  8
0
100
AcDbLine
 10
80.0
 20
88.59999999999999
 30
0.0
 11
80.0
 21
85.0
 31
0.0
  0
LINE
  5
1C4
330
1E
100
AcDbEntity
  8
0
100
AcDbLine
 10
63.0
 20
91.4
 30
0.0
 11
63.0
 21
97.40000000000001
 31
0.0
  0
LINE
  5
1C5
330
1E
100
AcDbEntity
  8
0
100
AcDbLine
 10
63.0
 20
91.4
 30
0.0
 11
63.0
 21
85.0
 31
0.0
  0
LINE
  5
1CA
330
1E
100
AcDbEntity
  8
0
100
AcDbLine
 10
60.0
 20
91.4
 30
0.0
 11
60.0
 21
97.40000000000001
 31
0.0
  0
LINE
  5
1CB
330
1E
100
AcDbEntity
  8
0
100
AcDbLine
 10
60.0
 20
91.4
 30
0.0
 11
60.0
 21
85.0
 31
0.0
  0
LINE
  5
1CC
330
1E
100
AcDbEntity
  8
0
100
AcDbLine
 10
80.0
 20
92.2
 30
0.0
 11
80.0
 21
95.7
 31
0.0
  0
LINE
  5
1CD
330
1E
100
AcDbEntity
  8
0
100
AcDbLine
 10
80.0
 20
92.2
 30
0.0
 11
80.0
 21
88.59999999999999
 31
0.0
  0
LINE
  5
1CE
330
1E
100
AcDbEntity
  8
0
100
AcDbLine
 10
60.0
 20
91.2
 30
0.0
 11
60.0
 21
97.0
 31
0.0
  0
LINE
  5
1CF
330
1E
100
AcDbEntity
  8
0
100
AcDbLine
 10
60.0
 20
91.2
 30
0.0
 11
60.0
 21
85.0
 31
0.0
  0
LINE
  5
1D0
330
1E
100
AcDbEntity
  8
0
100
AcDbLine
 10
28.0
 20
87.3
 30
0.0
 11
28.0
 21
85.0
 31
0.0
  0
LINE
  5
1D1
330
1E
100
AcDbEntity
  8
0
100
AcDbLine
 10
28.0
 20
87.3
 30
0.0
 11
28.0
 21
89.50000000000001
 31
0.0
  0
LINE
  5
1D6
330
1E
100
AcDbEntity
  8
0
100
AcDbLine
 10
26.0
 20
95.0
 30
0.0
 11
27.0
 21
95.0
 31
0.0
  0
LINE
  5
1D8
330
1E
100
AcDbEntity
  8
0
100
AcDbLine
 10
27.0
 20
95.0
 30
0.0
 11
28.0
 21
94.0
 31
0.0
  0
LINE
  5
1DA
330
1E
100
AcDbEntity
  8
0
100
AcDbLine
 10
60.0
 20
97.40000000000001
 30
0.0
 11
60.0
 21
102.6
 31
0.0
  0
LINE
  5
1DB
330
1E
100
AcDbEntity
  8
0
100
AcDbLine
 10
60.0
 20
97.40000000000001
 30
0.0
 11
60.0
 21
91.4
 31
0.0
  0
LINE
  5
1DC
330
1E
100
AcDbEntity
  8
0
100
AcDbLine
 10
60.0
 20
101.9
 30
0.0
 11
60.0
 21
105.8
 31
0.0
  0
LINE
  5
1DD
330
1E
100
AcDbEntity
  8
0
100
AcDbLine
 10
60.0
 20
101.9
 30
0.0
 11
60.0
 21
97.0
 31
0.0
  0
LINE
  5
1DE
330
1E
100
AcDbEntity
  8
0
100
AcDbLine
 10
63.0
 20
97.40000000000001
 30
0.0
 11
63.0
 21
102.6
 31
0.0
  0
LINE
  5
1DF
330
1E
100
AcDbEntity
  8
0
100
AcDbLine
 10
63.0
 20
97.40000000000001
 30
0.0
 11
63.0
 21
91.4
 31
0.0
  0
LINE
  5
1E4
330
1E
100
AcDbEntity
  8
0
100
AcDbLine
 10
80.0
 20
102.0
 30
0.0
 11
80.0
 21
104.8
 31
0.0
  0
LINE
  5
1E5
330
1E
100
AcDbEntity
  8
0
100
AcDbLine
 10
80.0
 20
102.0
 30
0.0
 11
80.0
 21
98.9
 31
0.0
  0
LINE
  5
1E6
330
1E
100
AcDbEntity
  8
0
100
AcDbLine
 10
92.0
 20
96.09999999999999
 30
0.0
 11
92.0
 21
85.0
 31
0.0
  0
LINE
  5
1E7
330
1E
100
AcDbEntity
  8
0
100
AcDbLine
 10
92.0
 20
96.09999999999999
 30
0.0
 11
92.0
 21
106.9
 31
0.0
  0
LINE
  5
1E8
330
1E
100
AcDbEntity
  8
0
100
AcDbLine
 10
80.0
 20
98.9
 30
0.0
 11
80.0
 21
102.0
 31
0.0
  0
LINE
  5
1E9
330
1E
100
AcDbEntity
  8
0
100
AcDbLine
 10
80.0
 20
98.9
 30
0.0
 11
80.0
 21
95.7
 31
0.0
  0
LINE
  5
1EA
330
1E
100
AcDbEntity
  8
0
100
AcDbLine
 10
80.0
 20
95.7
 30
0.0
 11
80.0
 21
98.9
 31
0.0
  0
LINE
  5
1EB
330
1E
100
AcDbEntity
  8
0
100
AcDbLine
 10
80.0
 20
95.7
 30
0.0
 11
80.0
 21
85.0
 31
0.0
  0
LINE
  5
1EC
330
1E
100
AcDbEntity
  8
0
100
AcDbLine
 10
80.0
 20
95.7
 30
0.0
 11
80.0
 21
106.2
 31
0.0
  0
LINE
  5
1ED
330
1E
100
AcDbEntity
  8
0
100
AcDbLine
 10
80.0
 20
95.7
 30
0.0
 11
80.0
 21
92.2
 31
0.0
  0
LINE
  5
1EE
330
1E
100
AcDbEntity
  8
0
100
AcDbLine
 10
60.0
 20
97.0
 30
0.0
 11
60.0
 21
101.9
 31
0.0
  0
LINE
  5
1EF
330
1E
100
AcDbEntity
  8
0
100
AcDbLine
 10
60.0
 20
97.0
 30
0.0
 11
60.0
 21
91.2
 31
0.0
  0
LINE
  5
1F3
330
1E
100
AcDbEntity
  8
0
100
AcDbLine
 10
47.78599999999999
 20
107.2529999999999
 30
0.0
 11
47.8394153335258
 21
107.0536212821249
 31
0.0
  0
LINE
  5
1F7
330
1E
100
AcDbEntity
  8
0
100
AcDbLine
 10
44.1117
 20
109.3739999999999
 30
0.0
 11
44.9104
 21
109.485
 31
0.0
  0
LINE
  5
1F9
330
1E
100
AcDbEntity
  8
0
100
AcDbLine
 10
44.9104
 20
109.485
 30
0.0
 11
46.2506
 21
109.119
 31
0.0
  0
LINE
  5
1FA
330
1E
100
AcDbEntity
  8
0
100
AcDbLine
 10
46.2506
 20
109.119
 30
0.0
 11
47.3081
 21
108.264
 31
0.0
  0
LINE
  5
1FB
330
1E
100
AcDbEntity
  8
0
100
AcDbLine
 10
47.3081
 20
108.264
 30
0.0
 11
47.78599999999999
 21
107.2529999999999
 31
0.0
  0
LINE
  5
1FC
330
1E
100
AcDbEntity
  8
0
100
AcDbLine
 10
43.3649
 20
109.071
 30
0.0
 11
44.1117
 21
109.3739999999999
 31
0.0
  0
LINE
  5
1FD
330
1E
100
AcDbEntity
  8
0
100
AcDbLine
 10
42.3869
 20
108.084
 30
0.0
 11
43.3649
 21
109.071
 31
0.0
  0
LINE
  5
1FF
330
1E
100
AcDbEntity
  8
0
100
AcDbLine
 10
41.8989
 20
106.8139999999999
 30
0.0
 11
41.9904
 21
105.6999999999999
 31
0.0
  0
LINE
  5
200
330
1E
100
AcDbEntity
  8
0
100
AcDbLine
 10
41.8989
 20
106.8139999999999
 30
0.0
 11
42.3869
 21
108.084
 31
0.0
  0
LINE
  5
201
330
1E
100
AcDbEntity
  8
0
100
AcDbLine
 10
41.9904
 20
105.6999999999999
 30
0.0
 11
42.22603842269659
 21
104.820679694856
 31
0.0
  0
LINE
  5
202
330
1E
100
AcDbEntity
  8
0
100
AcDbLine
 10
60.0
 20
106.6999999999999
 30
0.0
 11
60.0
 21
109.0999999999999
 31
0.0
  0
LINE
  5
203
330
1E
100
AcDbEntity
  8
0
100
AcDbLine
 10
60.0
 20
106.6999999999999
 30
0.0
 11
60.0
 21
102.6
 31
0.0
  0
LINE
  5
204
330
1E
100
AcDbEntity
  8
0
100
AcDbLine
 10
60.0
 20
102.6
 30
0.0
 11
60.0
 21
106.6999999999999
 31
0.0
  0
LINE
  5
205
330
1E
100
AcDbEntity
  8
0
100
AcDbLine
 10
60.0
 20
102.6
 30
0.0
 11
60.0
 21
97.40000000000001
 31
0.0
  0
LINE
  5
206
330
1E
100
AcDbEntity
  8
0
100
AcDbLine
 10
63.0
 20
102.6
 30
0.0
 11
63.0
 21
106.6999999999999
 31
0.0
  0
LINE
  5
207
330
1E
100
AcDbEntity
  8
0
100
AcDbLine
 10
63.0
 20
102.6
 30
0.0
 11
63.0
 21
97.40000000000001
 31
0.0
  0
LINE
  5
20C
330
1E
100
AcDbEntity
  8
0
100
AcDbLine
 10
80.0
 20
104.8
 30
0.0
 11
80.0
 21
107.2
 31
0.0
  0
LINE
  5
20D
330
1E
100
AcDbEntity
  8
0
100
AcDbLine
 10
80.0
 20
104.8
 30
0.0
 11
80.0
 21
102.0
 31
0.0
  0
LINE
  5
212
330
1E
100
AcDbEntity
  8
0
100
AcDbLine
 10
80.0
 20
106.2
 30
0.0
 11
80.0
 21
95.7
 31
0.0
  0
LINE
  5
213
330
1E
100
AcDbEntity
  8
0
100
AcDbLine
 10
80.0
 20
106.2
 30
0.0
 11
80.0
 21
116.3
 31
0.0
  0
LINE
  5
214
330
1E
100
AcDbEntity
  8
0
100
AcDbLine
 10
92.0
 20
106.9
 30
0.0
 11
92.0
 21
96.09999999999999
 31
0.0
  0
LINE
  5
215
330
1E
100
AcDbEntity
  8
0
100
AcDbLine
 10
92.0
 20
106.9
 30
0.0
 11
92.0
 21
117.5
 31
0.0
  0
LINE
  5
216
330
1E
100
AcDbEntity
  8
0
100
AcDbLine
 10
80.0
 20
107.2
 30
0.0
 11
80.0
 21
109.2
 31
0.0
  0
LINE
  5
217
330
1E
100
AcDbEntity
  8
0
100
AcDbLine
 10
80.0
 20
107.2
 30
0.0
 11
80.0
 21
104.8
 31
0.0
  0
LINE
  5
218
330
1E
100
AcDbEntity
  8
0
100
AcDbLine
 10
63.0
 20
106.6999999999999
 30
0.0
 11
63.0
 21
105.8
 31
0.0
  0
LINE
  5
219
330
1E
100
AcDbEntity
  8
0
100
AcDbLine
 10
63.0
 20
106.6999999999999
 30
0.0
 11
63.0
 21
109.0999999999999
 31
0.0
  0
LINE
  5
21A
330
1E
100
AcDbEntity
  8
0
100
AcDbLine
 10
63.0
 20
105.8
 30
0.0
 11
63.0
 21
106.6999999999999
 31
0.0
  0
LINE
  5
21B
330
1E
100
AcDbEntity
  8
0
100
AcDbLine
 10
60.0
 20
105.8
 30
0.0
 11
60.0
 21
108.0999999999999
 31
0.0
  0
LINE
  5
21C
330
1E
100
AcDbEntity
  8
0
100
AcDbLine
 10
60.0
 20
105.8
 30
0.0
 11
60.0
 21
101.9
 31
0.0
  0
LINE
  5
21D
330
1E
100
AcDbEntity
  8
0
100
AcDbLine
 10
60.0
 20
110.0
 30
0.0
 11
60.0
 21
109.0999999999999
 31
0.0
  0
LINE
  5
21E
330
1E
100
AcDbEntity
  8
0
100
AcDbLine
 10
60.0
 20
110.0
 30
0.0
 11
61.0
 21
111.0
 31
0.0
  0
LINE
  5
21F
330
1E
100
AcDbEntity
  8
0
100
AcDbLine
 10
63.0
 20
110.0
 30
0.0
 11
63.0
 21
109.0999999999999
 31
0.0
  0
LINE
  5
220
330
1E
100
AcDbEntity
  8
0
100
AcDbLine
 10
63.0
 20
109.0999999999999
 30
0.0
 11
63.0
 21
110.0
 31
0.0
  0
LINE
  5
221
330
1E
100
AcDbEntity
  8
0
100
AcDbLine
 10
63.0
 20
109.0999999999999
 30
0.0
 11
63.0
 21
106.6999999999999
 31
0.0
  0
LINE
  5
225
330
1E
100
AcDbEntity
  8
0
100
AcDbLine
 10
62.0
 20
111.0
 30
0.0
 11
63.0
 21
110.0
 31
0.0
  0
LINE
  5
227
330
1E
100
AcDbEntity
  8
0
100
AcDbLine
 10
61.0
 20
111.0
 30
0.0
 11
62.0
 21
111.0
 31
0.0
  0
LINE
  5
22A
330
1E
100
AcDbEntity
  8
0
100
AcDbLine
 10
60.0
 20
109.0999999999999
 30
0.0
 11
60.0
 21
110.0
 31
0.0
  0
LINE
  5
22B
330
1E
100
AcDbEntity
  8
0
100
AcDbLine
 10
60.0
 20
109.0999999999999
 30
0.0
 11
60.0
 21
106.6999999999999
 31
0.0
  0
LINE
  5
22C
330
1E
100
AcDbEntity
  8
0
100
AcDbLine
 10
60.0
 20
109.0999999999999
 30
0.0
 11
60.0
 21
109.0
 31
0.0
  0
LINE
  5
22D
330
1E
100
AcDbEntity
  8
0
100
AcDbLine
 10
60.0
 20
109.0
 30
0.0
 11
60.0
 21
108.0999999999999
 31
0.0
  0
LINE
  5
22E
330
1E
100
AcDbEntity
  8
0
100
AcDbLine
 10
60.0
 20
109.0
 30
0.0
 11
60.0
 21
109.0999999999999
 31
0.0
  0
LINE
  5
22F
330
1E
100
AcDbEntity
  8
0
100
AcDbLine
 10
80.0
 20
109.0
 30
0.0
 11
80.0
 21
109.2
 31
0.0
  0
LINE
  5
230
330
1E
100
AcDbEntity
  8
0
100
AcDbLine
 10
80.0
 20
109.2
 30
0.0
 11
80.0
 21
109.0
 31
0.0
  0
LINE
  5
231
330
1E
100
AcDbEntity
  8
0
100
AcDbLine
 10
80.0
 20
109.2
 30
0.0
 11
80.0
 21
110.8
 31
0.0
  0
LINE
  5
232
330
1E
100
AcDbEntity
  8
0
100
AcDbLine
 10
80.0
 20
109.2
 30
0.0
 11
80.0
 21
107.2
 31
0.0
  0
LINE
  5
233
330
1E
100
AcDbEntity
  8
0
100
AcDbLine
 10
80.0
 20
110.8
 30
0.0
 11
80.0
 21
109.2
 31
0.0
  0
LINE
  5
234
330
1E
100
AcDbEntity
  8
0
100
AcDbLine
 10
80.0
 20
110.8
 30
0.0
 11
80.0
 21
112.0
 31
0.0
  0
LINE
  5
235
330
1E
100
AcDbEntity
  8
0
100
AcDbLine
 10
80.0
 20
112.0
 30
0.0
 11
80.0
 21
110.8
 31
0.0
  0
LINE
  5
236
330
1E
100
AcDbEntity
  8
0
100
AcDbLine
 10
80.0
 20
112.0
 30
0.0
 11
80.0
 21
112.7
 31
0.0
  0
LINE
  5
237
330
1E
100
AcDbEntity
  8
0
100
AcDbLine
 10
80.0
 20
112.7
 30
0.0
 11
80.0
 21
112.0
 31
0.0
  0
LINE
  5
238
330
1E
100
AcDbEntity
  8
0
100
AcDbLine
 10
80.0
 20
112.7
 30
0.0
 11
80.0
 21
113.0
 31
0.0
  0
LINE
  5
239
330
1E
100
AcDbEntity
  8
0
100
AcDbLine
 10
80.0
 20
125.8
 30
0.0
 11
80.0
 21
116.3
 31
0.0
  0
LINE
  5
23A
330
1E
100
AcDbEntity
  8
0
100
AcDbLine
 10
80.0
 20
125.8
 30
0.0
 11
80.0
 21
134.8
 31
0.0
  0
LINE
  5
23B
330
1E
100
AcDbEntity
  8
0
100
AcDbLine
 10
80.0
 20
116.3
 30
0.0
 11
80.0
 21
106.2
 31
0.0
  0
LINE
  5
23C
330
1E
100
AcDbEntity
  8
0
100
AcDbLine
 10
80.0
 20
116.3
 30
0.0
 11
80.0
 21
125.8
 31
0.0
  0
LINE
  5
23D
330
1E
100
AcDbEntity
  8
0
100
AcDbLine
 10
80.0
 20
142.9
 30
0.0
 11
80.0
 21
134.8
 31
0.0
  0
LINE
  5
23E
330
1E
100
AcDbEntity
  8
0
100
AcDbLine
 10
80.0
 20
142.9
 30
0.0
 11
80.0
 21
150.0
 31
0.0
  0
LINE
  5
23F
330
1E
100
AcDbEntity
  8
0
100
AcDbLine
 10
80.0
 20
134.8
 30
0.0
 11
80.0
 21
125.8
 31
0.0
  0
LINE
  5
240
330
1E
100
AcDbEntity
  8
0
100
AcDbLine
 10
80.0
 20
134.8
 30
0.0
 11
80.0
 21
142.9
 31
0.0
  0
LINE
  5
241
330
1E
100
AcDbEntity
  8
0
100
AcDbLine
 10
80.0
 20
150.0
 30
0.0
 11
80.0
 21
142.9
 31
0.0
  0
LINE
  5
242
330
1E
100
AcDbEntity
  8
0
100
AcDbLine
 10
80.0
 20
150.0
 30
0.0
 11
80.0
 21
156.0
 31
0.0
  0
LINE
  5
243
330
1E
100
AcDbEntity
  8
0
100
AcDbLine
 10
80.0
 20
156.0
 30
0.0
 11
80.0
 21
150.0
 31
0.0
  0
LINE
  5
244
330
1E
100
AcDbEntity
  8
0
100
AcDbLine
 10
80.0
 20
156.0
 30
0.0
 11
80.0
 21
160.5999999999999
 31
0.0
  0
LINE
  5
245
330
1E
100
AcDbEntity
  8
0
100
AcDbLine
 10
80.0
 20
166.1999999999999
 30
0.0
 11
80.0
 21
164.0
 31
0.0
  0
LINE
  5
246
330
1E
100
AcDbEntity
  8
0
100
AcDbLine
 10
80.0
 20
167.0
 30
0.0
 11
80.5
 21
168.4
 31
0.0
  0
LINE
  5
247
330
1E
100
AcDbEntity
  8
0
100
AcDbLine
 10
80.0
 20
160.5999999999999
 30
0.0
 11
80.0
 21
164.0
 31
0.0
  0
LINE
  5
248
330
1E
100
AcDbEntity
  8
0
100
AcDbLine
 10
80.0
 20
160.5999999999999
 30
0.0
 11
80.0
 21
156.0
 31
0.0
  0
LINE
  5
249
330
1E
100
AcDbEntity
  8
0
100
AcDbLine
 10
92.0
 20
152.3
 30
0.0
 11
92.0
 21
145.0
 31
0.0
  0
LINE
  5
24A
330
1E
100
AcDbEntity
  8
0
100
AcDbLine
 10
92.0
 20
152.3
 30
0.0
 11
92.0
 21
158.6
 31
0.0
  0
LINE
  5
24B
330
1E
100
AcDbEntity
  8
0
100
AcDbLine
 10
92.0
 20
158.6
 30
0.0
 11
92.0
 21
152.3
 31
0.0
  0
LINE
  5
24C
330
1E
100
AcDbEntity
  8
0
100
AcDbLine
 10
92.0
 20
158.6
 30
0.0
 11
92.0
 21
163.4
 31
0.0
  0
LINE
  5
24D
330
1E
100
AcDbEntity
  8
0
100
AcDbLine
 10
92.0
 20
163.4
 30
0.0
 11
92.0
 21
158.6
 31
0.0
  0
LINE
  5
24E
330
1E
100
AcDbEntity
  8
0
100
AcDbLine
 10
92.0
 20
163.4
 30
0.0
 11
92.0
 21
166.9
 31
0.0
  0
LINE
  5
24F
330
1E
100
AcDbEntity
  8
0
100
AcDbLine
 10
80.5
 20
168.4
 30
0.0
 11
81.6
 21
169.5
 31
0.0
  0
LINE
  5
250
330
1E
100
AcDbEntity
  8
0
100
AcDbLine
 10
81.6
 20
169.5
 30
0.0
 11
83.0
 21
170.0
 31
0.0
  0
LINE
  5
251
330
1E
100
AcDbEntity
  8
0
100
AcDbLine
 10
83.0
 20
170.0
 30
0.0
 11
92.0
 21
170.0
 31
0.0
  0
LINE
  5
252
330
1E
100
AcDbEntity
  8
0
100
AcDbLine
 10
92.0
 20
166.9
 30
0.0
 11
92.0
 21
163.4
 31
0.0
  0
LINE
  5
253
330
1E
100
AcDbEntity
  8
0
100
AcDbLine
 10
92.0
 20
166.9
 30
0.0
 11
92.0
 21
169.1
 31
0.0
  0
LINE
  5
254
330
1E
100
AcDbEntity
  8
0
100
AcDbLine
 10
92.0
 20
169.1
 30
0.0
 11
92.0
 21
166.9
 31
0.0
  0
LINE
  5
255
330
1E
100
AcDbEntity
  8
0
100
AcDbLine
 10
92.0
 20
169.1
 30
0.0
 11
92.0
 21
170.0
 31
0.0
  0
LINE
  5
256
330
1E
100
AcDbEntity
  8
0
100
AcDbLine
 10
92.0
 20
170.0
 30
0.0
 11
92.0
 21
169.1
 31
0.0
  0
LINE
  5
257
330
1E
100
AcDbEntity
  8
0
100
AcDbLine
 10
80.0
 20
164.0
 30
0.0
 11
80.0
 21
166.1999999999999
 31
0.0
  0
LINE
  5
258
330
1E
100
AcDbEntity
  8
0
100
AcDbLine
 10
80.0
 20
164.0
 30
0.0
 11
80.0
 21
160.5999999999999
 31
0.0
  0
LINE
  5
259
330
1E
100
AcDbEntity
  8
0
100
AcDbLine
 10
92.0
 20
145.0
 30
0.0
 11
92.0
 21
136.6999999999999
 31
0.0
  0
LINE
  5
25A
330
1E
100
AcDbEntity
  8
0
100
AcDbLine
 10
92.0
 20
145.0
 30
0.0
 11
92.0
 21
152.3
 31
0.0
  0
LINE
  5
25B
330
1E
100
AcDbEntity
  8
0
100
AcDbLine
 10
92.0
 20
136.6999999999999
 30
0.0
 11
92.0
 21
127.2999999999999
 31
0.0
  0
LINE
  5
25C
330
1E
100
AcDbEntity
  8
0
100
AcDbLine
 10
92.0
 20
136.6999999999999
 30
0.0
 11
92.0
 21
145.0
 31
0.0
  0
LINE
  5
25D
330
1E
100
AcDbEntity
  8
0
100
AcDbLine
 10
92.0
 20
127.2999999999999
 30
0.0
 11
92.0
 21
117.5
 31
0.0
  0
LINE
  5
25E
330
1E
100
AcDbEntity
  8
0
100
AcDbLine
 10
92.0
 20
127.2999999999999
 30
0.0
 11
92.0
 21
136.6999999999999
 31
0.0
  0
LINE
  5
25F
330
1E
100
AcDbEntity
  8
0
100
AcDbLine
 10
92.0
 20
117.5
 30
0.0
 11
92.0
 21
106.9
 31
0.0
  0
LINE
  5
260
330
1E
100
AcDbEntity
  8
0
100
AcDbLine
 10
92.0
 20
117.5
 30
0.0
 11
92.0
 21
127.2999999999999
 31
0.0
  0
LINE
  5
261
330
1E
100
AcDbEntity
  8
0
100
AcDbLine
 10
80.0
 20
113.0
 30
0.0
 11
80.0
 21
112.7
 31
0.0
  0
LINE
  5
262
330
1E
100
AcDbEntity
  8
0
100
AcDbLine
 10
63.0
 20
109.0
 30
0.0
 11
80.0
 21
109.0
 31
0.0
  0
LINE
  5
263
330
1E
100
AcDbEntity
  8
0
100
AcDbLine
 10
60.0
 20
108.0999999999999
 30
0.0
 11
60.0
 21
109.0
 31
0.0
  0
LINE
  5
264
330
1E
100
AcDbEntity
  8
0
100
AcDbLine
 10
60.0
 20
108.0999999999999
 30
0.0
 11
60.0
 21
105.8
 31
0.0
  0
LINE
  5
265
330
1E
100
AcDbEntity
  8
0
100
AcDbLine
 10
54.5
 20
108.6999999999999
 30
0.0
 11
60.0
 21
109.0
 31
0.0
  0
LINE
  5
266
330
1E
100
AcDbEntity
  8
0
100
AcDbLine
 10
49.0
 20
107.4999999999999
 30
0.0
 11
54.5
 21
108.6999999999999
 31
0.0
  0
LINE
  5
267
330
1E
100
AcDbEntity
  8
0
100
AcDbLine
 10
47.8394153335258
 20
107.0536212821249
 30
0.0
 11
49.0
 21
107.4999999999999
 31
0.0
  0
LINE
  5
268
330
1E
100
AcDbEntity
  8
0
100
AcDbLine
 10
37.0
 20
102.0
 30
0.0
 11
42.2190508188825
 21
104.8467549921179
 31
0.0
  0
LINE
  5
269
330
1E
100
AcDbEntity
  8
0
100
AcDbLine
 10
32.0
 20
98.0
 30
0.0
 11
37.0
 21
102.0
 31
0.0
  0
LINE
  5
26A
330
1E
100
AcDbEntity
  8
0
100
AcDbLine
 10
28.0
 20
94.0
 30
0.0
 11
32.0
 21
98.0
 31
0.0
  0
LINE
  5
26B
330
1E
100
AcDbEntity
  8
0
100
AcDbLine
 10
28.0
 20
94.0
 30
0.0
 11
28.0
 21
93.7
 31
0.0
  0
LINE
  5
26C
330
1E
100
AcDbEntity
  8
0
100
AcDbLine
 10
25.0
 20
87.3
 30
0.0
 11
25.0
 21
89.50000000000001
 31
0.0
  0
LINE
  5
26D
330
1E
100
AcDbEntity
  8
0
100
AcDbLine
 10
25.0
 20
87.3
 30
0.0
 11
25.0
 21
85.0
 31
0.0
  0
LINE
  5
26E
330
1E
100
AcDbEntity
  8
0
100
AcDbLine
 10
25.0
 20
85.0
 30
0.0
 11
25.0
 21
87.3
 31
0.0
  0
LINE
  5
26F
330
1E
100
AcDbEntity
  8
0
100
AcDbLine
 10
25.0
 20
85.0
 30
0.0
 11
25.0
 21
82.70000000000001
 31
0.0
  0
LINE
  5
270
330
1E
100
AcDbEntity
  8
0
100
AcDbLine
 10
22.0
 20
96.0
 30
0.0
 11
25.0
 21
94.0
 31
0.0
  0
LINE
  5
275
330
1E
100
AcDbEntity
  8
0
100
AcDbLine
 10
47.8394153335258
 20
107.0536212821249
 30
0.0
 11
42.22603842269659
 21
104.820679694856
 31
0.0
  0
ENDSEC
  0
SECTION
  2
OBJECTS
  0
DICTIONARY
  5
C
330
0
100
AcDbDictionary
281
     1
  3
ACAD_GROUP
350
D
  3
ACAD_LAYOUT
350
19
  3
ACAD_MLINESTYLE
350
16
  3
ACAD_PLOTSETTINGS
350
18
  3
ACAD_PLOTSTYLENAME
350
E
  3
AcDbVariableDictionary
350
276
  0
DICTIONARY
  5
D
102
{ACAD_REACTORS
330
C
102
}
330
C
100
AcDbDictionary
281
     1
  0
DICTIONARY
  5
19
102
{ACAD_REACTORS
330
C
102
}
330
C
100
AcDbDictionary
281
     1
  3
Layout1
350
1D
  3
Model
350
21
  0
DICTIONARY
  5
16
102
{ACAD_REACTORS
330
C
102
}
330
C
100
AcDbDictionary
281
     1
  3
Standard
350
17
  0
DICTIONARY
  5
18
102
{ACAD_REACTORS
330
C
102
}
330
C
100
AcDbDictionary
281
     1
  0
ACDBDICTIONARYWDFLT
  5
E
102
{ACAD_REACTORS
330
C
102
}
330
C
100
AcDbDictionary
281
     1
  3
Normal
350
F
100
AcDbDictionaryWithDefault
340
F
  0
DICTIONARY
  5
276
102
{ACAD_REACTORS
330
C
102
}
330
C
100
AcDbDictionary
281
     1
  3
DIMASSOC
350
277
  0
LAYOUT
  5
1D
102
{ACAD_REACTORS
330
19
102
}
330
19
100
AcDbPlotSettings
  1

  2
hp deskjet 980c series
  4

  6

 40
0.0
 41
0.0
 42
0.0
 43
0.0
 44
0.0
 45
0.0
 46
0.0
 47
0.0
 48
0.0
 49
0.0
140
0.0
141
0.0
142
1.0
143
1.0
 70
   688
 72
     0
 73
     0
 74
     5
  7

 75
    16
147
1.0
148
0.0
149
0.0
100
AcDbLayout
  1
Layout1
 70
     1
 71
     1
 10
0.0
 20
0.0
 11
12.0
 21
9.0
 12
0.0
 22
0.0
 32
0.0
 14
1.000000000000000E+20
 24
1.000000000000000E+20
 34
1.000000000000000E+20
 15
-1.000000000000000E+20
 25
-1.000000000000000E+20
 35
-1.000000000000000E+20
146
0.0
 13
0.0
 23
0.0
 33
0.0
 16
1.0
 26
0.0
 36
0.0
 17
0.0
 27
1.0
 37
0.0
 76
     0
330
1A
  0
LAYOUT
  5
21
102
{ACAD_REACTORS
330
19
102
}
330
19
100
AcDbPlotSettings
  1

  2
hp deskjet 980c series
  4

  6

 40
0.0
 41
0.0
 42
0.0
 43
0.0
 44
0.0
 45
0.0
 46
0.0
 47
0.0
 48
0.0
 49
0.0
140
0.0
141
0.0
142
1.0
143
1.0
 70
  1712
 72
     0
 73
     0
 74
     0
  7

 75
     0
147
1.0
148
0.0
149
0.0
100
AcDbLayout
  1
Model
 70
     1
 71
     0
 10
0.0
 20
0.0
 11
12.0
 21
9.0
 12
0.0
 22
0.0
 32
0.0
 14
0.0
 24
0.0
 34
0.0
 15
0.0
 25
0.0
 35
0.0
146
0.0
 13
0.0
 23
0.0
 33
0.0
 16
1.0
 26
0.0
 36
0.0
 17
0.0
 27
1.0
 37
0.0
 76
     0
330
1E
  0
MLINESTYLE
  5
17
102
{ACAD_REACTORS
330
16
102
}
330
16
100
AcDbMlineStyle
  2
STANDARD
 70
     0
  3

 62
   256
 51
90.0
 52
90.0
 71
     2
 49
0.5
 62
   256
  6
BYLAYER
 49
-0.5
 62
   256
  6
BYLAYER
  0
ACDBPLACEHOLDER
  5
F
102
{ACAD_REACTORS
330
E
102
}
330
E
  0
DICTIONARYVAR
  5
277
102
{ACAD_REACTORS
330
276
102
}
330
276
100
DictionaryVariables
280
     0
  1
1
  0
ENDSEC
  0
EOF
